  0
SECTION
  2
HEADER
  0
ENDSEC
  0
SECTION
  2
TABLES
  0
TABLE
  2
LTYPE
 70
     4
  0
LTYPE
  2
CONTINUOUS
 70
    64
  3
Solid line
 72
    65
 73
     0
 40
0.000000
  0
LTYPE
  2
DASHED
 70
    64
  3
__ __ __ __ __ __ __ __ __ __ __ __ __ __ __
 72
    65
 73
     2
 40
3.500000
 49
2.000000
 49
-1.500000
  0
LTYPE
  2
CENTER
 70
    64
  3
____ _ ____ _ ____ _ ____ _ ____ _ ____ _ ____
 72
    65
 73
     4
 40
17.500000
 49
13.000000
 49
-1.500000
 49
1.500000
 49
-1.500000
  0
LTYPE
  2
PHANTOM
 70
    64
  3
_____ _ _ _____ _ _ _____ _ _ _____ _ _ ____  
 72
    65
 73
     6
 40
15.500000
 49
8.000000
 49
-1.500000
 49
1.500000
 49
-1.500000
 49
1.500000
 49
-1.500000
  0
LTYPE
  2
DASHED1
 70
    64
  3
__ __ __ __ __ __ __ __ __ __ __ __ __ __ __
 72
    65
 73
     2
 40
1.500000
 49
1.000000
 49
-0.500000
  0
LTYPE
  2
DASHED2
 70
    64
  3
__ __ __ __ __ __ __ __ __ __ __ __ __ __ __
 72
    65
 73
     2
 40
3.500000
 49
2.500000
 49
-1.000000
  0
LTYPE
  2
DASHED3
 70
    64
  3
__ __ __ __ __ __ __ __ __ __ __ __ __ __ __
 72
    65
 73
     2
 40
6.000000
 49
4.000000
 49
-2.000000
  0
LTYPE
  2
DASHED4
 70
    64
  3
__ __ __ __ __ __ __ __ __ __ __ __ __ __ __
 72
    65
 73
     2
 40
12.000000
 49
10.000000
 49
-2.000000
  0
LTYPE
  2
DASHED5
 70
    64
  3
__ __ __ __ __ __ __ __ __ __ __ __ __ __ __
 72
    65
 73
     2
 40
17.000000
 49
15.000000
 49
-2.000000
  0
LTYPE
  2
DASHED6
 70
    64
  3
__ __ __ __ __ __ __ __ __ __ __ __ __ __ __
 72
    65
 73
     2
 40
29.000000
 49
27.000000
 49
-2.000000
  0
LTYPE
  2
PHANTOM1
 70
    64
  3
_____ _ _ _____ _ _ _____ _ _ _____ _ _ ____  
 72
    65
 73
     6
 40
31.000000
 49
25.000000
 49
-1.500000
 49
1.000000
 49
-1.000000
 49
1.000000
 49
-1.500000
  0
LTYPE
  2
PHANTOM2
 70
    64
  3
_____ _ _ _____ _ _ _____ _ _ _____ _ _ ____  
 72
    65
 73
     6
 40
36.000000
 49
27.000000
 49
-1.500000
 49
2.500000
 49
-1.000000
 49
2.500000
 49
-1.500000
  0
LTYPE
  2
PHANTOM3
 70
    64
  3
_____ _ _ _____ _ _ _____ _ _ _____ _ _ ____  
 72
    65
 73
     6
 40
78.000000
 49
64.000000
 49
-2.000000
 49
4.000000
 49
-2.000000
 49
4.000000
 49
-2.000000
  0
LTYPE
  2
CENTER1
 70
    64
  3
____ _ ____ _ ____ _ ____ _ ____ _ ____ _ ____
 72
    65
 73
     4
 40
19.000000
 49
14.000000
 49
-1.000000
 49
3.000000
 49
-1.000000
  0
LTYPE
  2
CENTER2
 70
    64
  3
____ _ ____ _ ____ _ ____ _ ____ _ ____ _ ____
 72
    65
 73
     4
 40
28.500000
 49
25.000000
 49
-1.000000
 49
1.500000
 49
-1.000000
  0
LTYPE
  2
CENTER3
 70
    64
  3
____ _ ____ _ ____ _ ____ _ ____ _ ____ _ ____
 72
    65
 73
     4
 40
31.500000
 49
27.000000
 49
-1.000000
 49
2.500000
 49
-1.000000
  0
LTYPE
  2
CENTER4
 70
    64
  3
____ _ ____ _ ____ _ ____ _ ____ _ ____ _ ____
 72
    65
 73
     4
 40
50.000000
 49
45.000000
 49
-1.000000
 49
3.000000
 49
-1.000000
  0
LTYPE
  2
CENTER5
 70
    64
  3
____ _ ____ _ ____ _ ____ _ ____ _ ____ _ ____
 72
    65
 73
     4
 40
100.000000
 49
92.000000
 49
-2.000000
 49
4.000000
 49
-2.000000
  0
LTYPE
  2
SBK1
 70
    64
  3
______ _ _ _ ______ _ _ _ ______ _ _ _ _____  
 72
    65
 73
     8
 40
60.500000
 49
45.000000
 49
-2.000000
 49
2.500000
 49
-2.000000
 49
2.500000
 49
-2.000000
 49
2.500000
 49
-2.000000
  0
LTYPE
  2
SBK2
 70
    64
  3
______ _ _ _ ______ _ _ _ ______ _ _ _ _____  
 72
    65
 73
     8
 40
84.000000
 49
64.000000
 49
-2.000000
 49
4.000000
 49
-2.000000
 49
4.000000
 49
-2.000000
 49
4.000000
 49
-2.000000
  0
LTYPE
  2
STCH
 70
    64
  3
__ __ __ __ __ __ __ __ __ __ __ __ __ __ __
 72
    65
 73
     2
 40
3.000000
 49
1.000000
 49
-2.000000
  0
LTYPE
  2
MTCH
 70
    64
  3
_____ _ _ _____ _ _ _____ _ _ _____ _ _ ____  
 72
    65
 73
     6
 40
80.000000
 49
66.000000
 49
-2.000000
 49
4.000000
 49
-2.000000
 49
4.000000
 49
-2.000000
  0
ENDTAB
  0
TABLE
  2
LAYER
 70
     1
  0
LAYER
  2
0
 70
     0
 62
     7
  6
CONTINUOUS
  0
ENDTAB
  0
TABLE
  2
STYLE
 70
     1
  0
STYLE
  2
STANDARD
 70
     0
 40
0.000000
 41
1.000000
 50
0.000000
 71
     0
 42
0.200000
  3
txt
  4
BIGFONT
  0
ENDTAB
  0
TABLE
  2
VIEW
 70
     0
  0
ENDTAB
  0
ENDSEC
  0
SECTION
  2
BLOCKS
  0
ENDSEC
  0
SECTION
  2
ENTITIES
  0
LINE
  8
0
 10
423.799988
 20
399.750000
 11
423.799988
 21
377.250000
  0
LINE
  8
0
 10
423.799988
 20
-370.250000
 11
423.799988
 21
-400.250000
  0
LINE
  8
0
 10
423.800018
 20
377.250000
 11
573.800049
 21
377.250000
  0
LINE
  8
0
 10
423.800018
 20
-370.250000
 11
573.800049
 21
-370.250000
  0
LINE
  8
0
 10
573.799988
 20
399.750000
 11
573.799988
 21
-400.250000
  0
LINE
  8
0
 10
-573.250000
 20
399.750000
 11
-573.250000
 21
-400.250000
  0
LINE
  8
0
 10
-573.250000
 20
399.750000
 11
573.799988
 21
399.750000
  0
LINE
  8
0
 10
-573.250000
 20
-400.250000
 11
573.799988
 21
-400.250000
  0
LINE
  8
0
 62
     3
 10
-563.791382
 20
329.057373
 11
-506.384521
 21
386.464233
  0
LINE
  8
0
 62
     3
 10
-506.384644
 20
386.464417
 11
-506.384644
 21
347.427734
  0
LINE
  8
0
 62
     3
 10
-499.495850
 20
340.538910
 11
-489.545349
 21
340.538910
  0
LINE
  8
0
 62
     3
 10
-489.545380
 20
340.538910
 11
-490.923157
 21
337.094482
  0
LINE
  8
0
 62
     3
 10
-563.791626
 20
329.057556
 11
-521.310486
 21
329.057556
  0
LINE
  8
0
 62
     3
 10
-521.310852
 20
329.057800
 11
-519.875366
 21
332.502197
  0
LINE
  8
0
 62
     1
 10
-519.875366
 20
332.502197
 11
-518.918396
 21
334.798492
  0
LINE
  8
0
 62
     1
 10
-490.923157
 20
337.094482
 11
-491.841675
 21
334.798218
  0
LINE
  8
0
 62
     1
 10
-499.495850
 20
337.094513
 11
-490.923035
 21
337.094513
  0
LINE
  8
0
 62
     1
 10
-555.475952
 20
332.501953
 11
-519.874939
 21
332.501953
  0
LINE
  8
0
 62
     1
 10
-555.475891
 20
332.501801
 11
-509.829010
 21
378.148712
  0
LINE
  8
0
 62
     1
 10
-509.829041
 20
378.148865
 11
-509.829041
 21
347.427734
  0
LINE
  8
0
 62
     5
 10
-536.073120
 20
340.538910
 11
-516.525513
 21
340.538910
  0
LINE
  8
0
 62
     5
 10
-536.072998
 20
340.538818
 11
-517.865967
 21
358.745819
  0
LINE
  8
0
 62
     5
 10
-517.866089
 20
358.745911
 11
-517.866089
 21
347.427734
  0
LINE
  8
0
 62
     5
 10
-499.495850
 20
329.057556
 11
-494.137909
 21
329.057556
  0
LINE
  8
0
 62
     5
 10
-499.495850
 20
334.798218
 11
-491.841675
 21
334.798218
  0
LINE
  8
0
 62
     5
 10
-491.841675
 20
334.798218
 11
-494.137939
 21
329.057526
  0
LINE
  8
0
 62
     5
 10
-518.918396
 20
334.798492
 11
-516.525879
 21
340.539154
  0
LINE
  8
0
 62
     5
 10
-549.932373
 20
334.798218
 11
-518.918030
 21
334.798218
  0
LINE
  8
0
 62
     5
 10
-549.932190
 20
334.798126
 11
-512.125244
 21
372.605042
  0
LINE
  8
0
 62
     5
 10
-512.125366
 20
372.605164
 11
-512.125366
 21
347.427734
  0
LINE
  8
0
 10
-573.250000
 20
304.290588
 11
-233.838699
 21
304.290588
  0
LINE
  8
0
 10
-233.838684
 20
304.290588
 11
-233.838684
 21
399.750000
  0
LINE
  8
0
 10
594.500000
 20
420.500000
 11
594.500000
 21
-420.500000
  0
LINE
  8
0
 10
-594.500000
 20
420.500000
 11
-594.500000
 21
-420.500000
  0
LINE
  8
0
 10
-594.500000
 20
-420.500000
 11
594.500000
 21
-420.500000
  0
LINE
  8
0
 10
-594.500000
 20
420.500000
 11
594.500000
 21
420.500000
  0
LINE
  8
0
 10
-554.635742
 20
-123.618073
 11
-554.635742
 21
-374.332397
  0
LINE
  8
0
 10
-501.064301
 20
-123.618073
 11
-501.064301
 21
-374.332397
  0
LINE
  8
0
 10
-447.492920
 20
-123.618073
 11
-447.492920
 21
-374.332336
  0
LINE
  8
0
 10
-554.635742
 20
-355.046661
 11
-447.492920
 21
-355.046661
  0
LINE
  8
0
 10
-554.635742
 20
-335.760925
 11
-447.492920
 21
-335.760925
  0
LINE
  8
0
 10
-554.635742
 20
-316.475250
 11
-447.492920
 21
-316.475250
  0
LINE
  8
0
 10
-554.635742
 20
-297.189514
 11
-447.492920
 21
-297.189514
  0
LINE
  8
0
 10
-554.635742
 20
-277.903809
 11
-447.492920
 21
-277.903809
  0
LINE
  8
0
 10
-554.635742
 20
-258.618073
 11
-447.492920
 21
-258.618073
  0
LINE
  8
0
 10
-554.635742
 20
-239.332382
 11
-447.492920
 21
-239.332382
  0
LINE
  8
0
 10
-554.635742
 20
-220.046661
 11
-447.492920
 21
-220.046661
  0
LINE
  8
0
 10
-554.635742
 20
-200.760956
 11
-447.492920
 21
-200.760956
  0
LINE
  8
0
 10
-554.635742
 20
-181.475220
 11
-447.492920
 21
-181.475220
  0
LINE
  8
0
 10
-554.635742
 20
-162.189545
 11
-447.492920
 21
-162.189545
  0
LINE
  8
0
 10
-554.635742
 20
-142.903809
 11
-447.492920
 21
-142.903809
  0
LINE
  8
0
 10
-554.635742
 20
-123.618073
 11
-447.492920
 21
-123.618073
  0
LINE
  8
0
 10
-554.635742
 20
-374.332336
 11
-447.492920
 21
-374.332336
  0
ARC
  8
0
 62
     3
 10
-499.495850
 20
347.427734
 40
6.888824
 50
180.000000
 51
270.000000
  0
ARC
  8
0
 62
     1
 10
-499.495850
 20
347.427734
 40
10.333221
 50
180.000000
 51
270.000000
  0
ARC
  8
0
 62
     5
 10
-499.495850
 20
347.427734
 40
18.370178
 50
180.000000
 51
270.000000
  0
ARC
  8
0
 62
     5
 10
-499.495850
 20
347.427734
 40
12.629517
 50
180.000000
 51
270.000000
  0
TEXT
  8
0
 10
437.907471
 20
382.299988
 40
8.000000
  1
DATE: MAY ,1992
 50
0.000000
 41
1.052632
 51
0.000000
  7
STANDARD
  0
TEXT
  8
0
 10
-452.582214
 20
342.220276
 40
12.000000
  1
RTB SLIDE TABLE
 50
0.000000
 41
1.052632
 51
0.000000
  7
STANDARD
  0
TEXT
  8
0
 10
-569.323120
 20
310.263794
 40
12.000000
  1
alpha series
 50
0.000000
 41
0.612674
 51
0.000000
  7
STANDARD
  0
TEXT
  8
0
 10
-541.124878
 20
276.999939
 40
10.000000
  1
MODEL: ARTB 25*ST(200)
 50
0.000000
 41
1.052632
 51
0.000000
  7
STANDARD
  0
TEXT
  8
0
 10
-481.124908
 20
251.499939
 40
10.000000
  1
(WITH SENSOR SWITCH)
 50
0.000000
 41
1.052632
 51
0.000000
  7
STANDARD
  0
TEXT
  8
0
 10
-539.028687
 20
-141.260941
 40
10.000000
  1
ST
 50
0.000000
 41
1.052632
 51
0.000000
  7
STANDARD
  0
TEXT
  8
0
 10
-544.028687
 20
-160.546661
 40
10.000000
  1
200
 50
0.000000
 41
1.052632
 51
0.000000
  7
STANDARD
  0
TEXT
  8
0
 10
-544.028687
 20
-179.832382
 40
10.000000
  1
250
 50
0.000000
 41
1.052632
 51
0.000000
  7
STANDARD
  0
TEXT
  8
0
 10
-544.028687
 20
-199.118088
 40
10.000000
  1
300
 50
0.000000
 41
1.052632
 51
0.000000
  7
STANDARD
  0
TEXT
  8
0
 10
-544.028687
 20
-218.403809
 40
10.000000
  1
350
 50
0.000000
 41
1.052632
 51
0.000000
  7
STANDARD
  0
TEXT
  8
0
 10
-544.028687
 20
-237.689545
 40
10.000000
  1
400
 50
0.000000
 41
1.052632
 51
0.000000
  7
STANDARD
  0
TEXT
  8
0
 10
-544.028687
 20
-256.975250
 40
10.000000
  1
450
 50
0.000000
 41
1.052632
 51
0.000000
  7
STANDARD
  0
TEXT
  8
0
 10
-544.028687
 20
-276.260925
 40
10.000000
  1
500
 50
0.000000
 41
1.052632
 51
0.000000
  7
STANDARD
  0
TEXT
  8
0
 10
-544.028687
 20
-295.546692
 40
10.000000
  1
550
 50
0.000000
 41
1.052632
 51
0.000000
  7
STANDARD
  0
TEXT
  8
0
 10
-544.028687
 20
-314.832397
 40
10.000000
  1
600
 50
0.000000
 41
1.052632
 51
0.000000
  7
STANDARD
  0
TEXT
  8
0
 10
-544.028687
 20
-334.118042
 40
10.000000
  1
800
 50
0.000000
 41
1.052632
 51
0.000000
  7
STANDARD
  0
TEXT
  8
0
 10
-549.028687
 20
-353.403809
 40
10.000000
  1
1000
 50
0.000000
 41
1.052632
 51
0.000000
  7
STANDARD
  0
TEXT
  8
0
 10
-480.457123
 20
-141.260941
 40
10.000000
  1
A
 50
0.000000
 41
1.052632
 51
0.000000
  7
STANDARD
  0
TEXT
  8
0
 10
-490.457123
 20
-160.546661
 40
10.000000
  1
490
 50
0.000000
 41
1.052632
 51
0.000000
  7
STANDARD
  0
TEXT
  8
0
 10
-490.457123
 20
-179.832382
 40
10.000000
  1
540
 50
0.000000
 41
1.052632
 51
0.000000
  7
STANDARD
  0
TEXT
  8
0
 10
-490.457123
 20
-199.118088
 40
10.000000
  1
590
 50
0.000000
 41
1.052632
 51
0.000000
  7
STANDARD
  0
TEXT
  8
0
 10
-490.457123
 20
-218.403809
 40
10.000000
  1
640
 50
0.000000
 41
1.052632
 51
0.000000
  7
STANDARD
  0
TEXT
  8
0
 10
-490.457123
 20
-237.689545
 40
10.000000
  1
690
 50
0.000000
 41
1.052632
 51
0.000000
  7
STANDARD
  0
TEXT
  8
0
 10
-490.457123
 20
-256.975250
 40
10.000000
  1
740
 50
0.000000
 41
1.052632
 51
0.000000
  7
STANDARD
  0
TEXT
  8
0
 10
-490.457123
 20
-276.260925
 40
10.000000
  1
790
 50
0.000000
 41
1.052632
 51
0.000000
  7
STANDARD
  0
TEXT
  8
0
 10
-490.457123
 20
-295.546692
 40
10.000000
  1
840
 50
0.000000
 41
1.052632
 51
0.000000
  7
STANDARD
  0
TEXT
  8
0
 10
-490.457123
 20
-314.832397
 40
10.000000
  1
890
 50
0.000000
 41
1.052632
 51
0.000000
  7
STANDARD
  0
TEXT
  8
0
 10
-495.457123
 20
-334.118042
 40
10.000000
  1
1090
 50
0.000000
 41
1.052632
 51
0.000000
  7
STANDARD
  0
TEXT
  8
0
 10
-495.457123
 20
-353.403809
 40
10.000000
  1
1290
 50
0.000000
 41
1.052632
 51
0.000000
  7
STANDARD
  0
TEXT
  8
0
 10
-571.126343
 20
-114.149170
 40
10.000000
  1
DIMENSIONS OF A
 50
0.000000
 41
1.052632
 51
0.000000
  7
STANDARD
  0
TEXT
  8
0
 10
-549.028198
 20
-372.689514
 40
10.000000
  1
1200
 50
0.000000
 41
1.052632
 51
0.000000
  7
STANDARD
  0
TEXT
  8
0
 10
-495.456696
 20
-372.689514
 40
10.000000
  1
1490
 50
0.000000
 41
1.052632
 51
0.000000
  7
STANDARD
  0
TEXT
  8
0
 10
-477.310913
 20
-393.553406
 40
10.000000
  1
(MM)
 50
0.000000
 41
1.052632
 51
0.000000
  7
STANDARD
  0
TEXT
  8
0
 10
421.408386
 20
-393.250000
 40
10.000000
  1
KOGANEI CORP.
 50
0.000000
 41
1.139832
 51
0.000000
  7
STANDARD
  0
POINT
  8
0
 10
-89.999985
 20
-120.000000
  0
POINT
  8
0
 10
235.000015
 20
-120.000000
  0
LINE
  8
0
 10
-235.000000
 20
-43.000000
 11
-165.000015
 21
-43.000000
  0
LINE
  8
0
 10
-215.000000
 20
-120.000000
 11
235.000015
 21
-120.000000
  0
LINE
  8
0
 10
-235.000000
 20
-41.500015
 11
-235.000000
 21
-118.999969
  0
LINE
  8
0
 10
255.000015
 20
-41.500015
 11
255.000015
 21
-118.999969
  0
LINE
  8
0
 10
-89.999985
 20
-32.168594
 11
-89.999985
 21
-129.802780
  0
LINE
  8
0
 10
-165.000015
 20
-39.999992
 11
-165.000015
 21
-67.000000
  0
LINE
  8
0
 10
-14.999985
 20
-39.999992
 11
-14.999985
 21
-67.000000
  0
LINE
  8
0
 10
-215.000000
 20
-43.000000
 11
-215.000000
 21
-120.000000
  0
LINE
  8
0
 10
235.000015
 20
-43.000000
 11
235.000015
 21
-120.000000
  0
LINE
  8
0
 10
-165.000015
 20
-39.999992
 11
-14.999985
 21
-39.999992
  0
LINE
  8
0
 10
-235.000000
 20
-119.000000
 11
235.000015
 21
-119.000000
  0
LINE
  8
0
 10
235.000015
 20
-119.000000
 11
255.000015
 21
-119.000000
  0
LINE
  8
0
 10
-235.000000
 20
-74.500000
 11
-215.000000
 21
-74.500000
  0
LINE
  8
0
 10
-235.000000
 20
-67.500000
 11
-215.000000
 21
-67.500000
  0
LINE
  8
0
 10
-235.000000
 20
-57.000008
 11
-215.000000
 21
-57.000008
  0
LINE
  8
0
 10
255.000015
 20
-57.000008
 11
235.000015
 21
-57.000008
  0
LINE
  8
0
 10
255.000015
 20
-67.500000
 11
235.000015
 21
-67.500000
  0
LINE
  8
0
 10
255.000015
 20
-74.500000
 11
235.000015
 21
-74.500000
  0
LINE
  8
0
 10
-170.014740
 20
-67.000000
 11
190.014725
 21
-67.000000
  0
LINE
  8
0
 10
-215.000000
 20
-68.499985
 11
-167.000000
 21
-68.499985
  0
LINE
  8
0
 10
-215.000000
 20
-72.500000
 11
-167.000000
 21
-72.500000
  0
LINE
  8
0
 10
-215.000000
 20
-75.500000
 11
-167.000000
 21
-75.500000
  0
LINE
  8
0
 10
-215.000000
 20
-48.000000
 11
-165.000015
 21
-48.000000
  0
LINE
  8
0
 10
-165.000015
 20
-65.999985
 11
-14.999985
 21
-65.999985
  0
LINE
  8
0
 10
-14.999985
 20
-43.000000
 11
255.000015
 21
-43.000000
  0
LINE
  8
0
 10
-14.999985
 20
-48.000000
 11
235.000015
 21
-48.000000
  0
LINE
  8
0
 10
-176.000000
 20
-49.999992
 11
-165.000015
 21
-49.999992
  0
LINE
  8
0
 10
-4.500000
 20
-49.999992
 11
-4.500000
 21
-67.000000
  0
LINE
  8
0
 10
-14.999985
 20
-49.999992
 11
-4.499977
 21
-49.999992
  0
LINE
  8
0
 10
-21.353050
 20
-60.999985
 11
2.280464
 21
-60.999985
  0
LINE
  8
0
 10
240.998734
 20
-41.300018
 11
249.001266
 21
-41.300018
  0
LINE
  8
0
 10
249.149307
 20
-43.000092
 11
249.000595
 21
-41.300102
  0
LINE
  8
0
 10
240.849442
 20
-42.999985
 11
240.998154
 21
-41.299980
  0
LINE
  8
0
 10
245.000015
 20
-45.391335
 11
245.000015
 21
-38.727493
  0
LINE
  8
0
 10
245.600052
 20
-40.999985
 11
245.600052
 21
-40.517311
  0
LINE
  8
0
 10
244.400040
 20
-40.999985
 11
244.400040
 21
-40.517311
  0
LINE
  8
0
 10
244.400009
 20
-41.000008
 11
245.599991
 21
-41.000008
  0
LINE
  8
0
 10
-225.600006
 20
-41.000008
 11
-224.400024
 21
-41.000008
  0
LINE
  8
0
 10
-229.001282
 20
-41.300018
 11
-220.998749
 21
-41.300018
  0
LINE
  8
0
 10
-220.849197
 20
-42.999924
 11
-220.997925
 21
-41.299942
  0
LINE
  8
0
 10
-229.149323
 20
-43.000107
 11
-229.000595
 21
-41.300102
  0
LINE
  8
0
 10
-225.000000
 20
-45.557678
 11
-225.000000
 21
-38.727493
  0
LINE
  8
0
 10
-224.399963
 20
-40.999985
 11
-224.399963
 21
-40.517311
  0
LINE
  8
0
 10
-225.599976
 20
-40.999985
 11
-225.599976
 21
-40.517311
  0
LINE
  8
0
 10
-266.500000
 20
-54.250000
 11
-266.500000
 21
-67.749985
  0
LINE
  8
0
 10
-256.500000
 20
-54.249977
 11
-256.500000
 21
-67.749985
  0
LINE
  8
0
 10
-256.500031
 20
-54.249977
 11
-266.500031
 21
-54.249977
  0
LINE
  8
0
 10
-256.500031
 20
-67.749969
 11
-266.500031
 21
-67.749969
  0
LINE
  8
0
 10
-256.499786
 20
-54.250175
 11
-255.249771
 21
-53.000153
  0
LINE
  8
0
 10
-256.499725
 20
-67.749832
 11
-255.249741
 21
-68.999817
  0
LINE
  8
0
 10
-255.250000
 20
-52.999977
 11
-255.250000
 21
-68.999985
  0
LINE
  8
0
 10
-266.500031
 20
-59.499969
 11
-267.000000
 21
-59.499969
  0
LINE
  8
0
 10
-266.500031
 20
-62.499969
 11
-267.000000
 21
-62.499969
  0
LINE
  8
0
 10
-208.000000
 20
-51.500000
 11
-208.000000
 21
-67.000000
  0
LINE
  8
0
 10
-207.999985
 20
-51.499977
 11
-207.151474
 21
-50.030334
  0
LINE
  8
0
 10
-176.848526
 20
-50.030334
 11
-207.151489
 21
-50.030334
  0
LINE
  8
0
 10
-176.848526
 20
-55.572220
 11
-207.151489
 21
-55.572220
  0
LINE
  8
0
 10
-176.848526
 20
-66.427780
 11
-207.151489
 21
-66.427780
  0
LINE
  8
0
 10
-176.000000
 20
-49.999992
 11
-176.000000
 21
-67.000000
  0
LINE
  8
0
 10
-175.999908
 20
-51.499924
 11
-176.848419
 21
-50.030266
  0
LINE
  8
0
 10
-163.500031
 20
-60.999969
 11
-278.500000
 21
-60.999969
  0
LINE
  8
0
 10
-215.000000
 20
-67.000000
 11
-170.014740
 21
-67.000000
  0
LINE
  8
0
 10
-208.848541
 20
-50.030334
 11
-214.151489
 21
-50.030334
  0
LINE
  8
0
 10
-208.848541
 20
-55.572220
 11
-214.151489
 21
-55.572220
  0
LINE
  8
0
 10
-208.848541
 20
-66.427780
 11
-214.151489
 21
-66.427780
  0
LINE
  8
0
 10
-208.000000
 20
-51.500000
 11
-208.000000
 21
-67.000000
  0
LINE
  8
0
 10
-207.999878
 20
-51.499924
 11
-208.848404
 21
-50.030251
  0
LINE
  8
0
 10
-214.999939
 20
-51.499985
 11
-214.151428
 21
-50.030334
  0
LINE
  8
0
 10
-241.999969
 20
-51.499977
 11
-241.999969
 21
-60.999985
  0
LINE
  8
0
 10
-242.000000
 20
-52.999977
 11
-255.250031
 21
-52.999977
  0
LINE
  8
0
 10
-242.000000
 20
-53.811966
 11
-256.062012
 21
-53.811966
  0
LINE
  8
0
 10
-242.000000
 20
-68.187973
 11
-256.062012
 21
-68.187973
  0
LINE
  8
0
 10
-242.000000
 20
-68.999969
 11
-255.250031
 21
-68.999969
  0
LINE
  8
0
 10
286.500061
 20
-54.250000
 11
286.500061
 21
-67.750000
  0
LINE
  8
0
 10
276.500061
 20
-54.250000
 11
276.500061
 21
-67.750000
  0
LINE
  8
0
 10
276.500000
 20
-54.250000
 11
286.500000
 21
-54.250000
  0
LINE
  8
0
 10
276.500000
 20
-67.750000
 11
286.500000
 21
-67.750000
  0
LINE
  8
0
 10
276.500244
 20
-54.249748
 11
275.250183
 21
-52.999741
  0
LINE
  8
0
 10
276.499573
 20
-67.749657
 11
275.249573
 21
-68.999649
  0
LINE
  8
0
 10
275.250061
 20
-53.000000
 11
275.250061
 21
-69.000000
  0
LINE
  8
0
 10
286.500000
 20
-59.500000
 11
287.000000
 21
-59.500000
  0
LINE
  8
0
 10
286.500000
 20
-62.500000
 11
287.000000
 21
-62.500000
  0
LINE
  8
0
 10
228.000015
 20
-51.500000
 11
228.000015
 21
-67.000000
  0
LINE
  8
0
 10
228.000046
 20
-51.499916
 11
227.151535
 21
-50.030289
  0
LINE
  8
0
 10
196.848526
 20
-50.030334
 11
227.151505
 21
-50.030334
  0
LINE
  8
0
 10
196.848526
 20
-55.572220
 11
227.151505
 21
-55.572220
  0
LINE
  8
0
 10
196.848526
 20
-66.427780
 11
227.151505
 21
-66.427780
  0
LINE
  8
0
 10
196.000046
 20
-51.499977
 11
196.000046
 21
-67.000000
  0
LINE
  8
0
 10
195.999344
 20
-51.499702
 11
196.847855
 21
-50.030045
  0
LINE
  8
0
 10
183.500015
 20
-60.999985
 11
298.500000
 21
-60.999985
  0
LINE
  8
0
 10
196.000015
 20
-54.999992
 11
190.014725
 21
-54.999992
  0
LINE
  8
0
 10
235.000015
 20
-67.000000
 11
190.014725
 21
-67.000000
  0
LINE
  8
0
 10
228.848526
 20
-50.030334
 11
234.151474
 21
-50.030334
  0
LINE
  8
0
 10
228.848526
 20
-55.572220
 11
234.151474
 21
-55.572220
  0
LINE
  8
0
 10
228.848526
 20
-66.427780
 11
234.151474
 21
-66.427780
  0
LINE
  8
0
 10
228.000015
 20
-51.500000
 11
228.000015
 21
-67.000000
  0
LINE
  8
0
 10
228.000320
 20
-51.500160
 11
228.848831
 21
-50.030525
  0
LINE
  8
0
 10
235.000046
 20
-51.500031
 11
234.151566
 21
-50.030388
  0
LINE
  8
0
 10
262.000000
 20
-53.000000
 11
275.250000
 21
-53.000000
  0
LINE
  8
0
 10
262.000000
 20
-53.811989
 11
276.062012
 21
-53.811989
  0
LINE
  8
0
 10
262.000000
 20
-68.187988
 11
276.062012
 21
-68.187988
  0
LINE
  8
0
 10
262.000000
 20
-69.000000
 11
275.250000
 21
-69.000000
  0
LINE
  8
0
 10
-242.000000
 20
-51.499954
 11
-235.000000
 21
-51.499954
  0
LINE
  8
0
 10
-241.999969
 20
-70.499985
 11
-241.999969
 21
-60.999985
  0
LINE
  8
0
 10
-242.000000
 20
-70.499985
 11
-235.000000
 21
-70.499985
  0
LINE
  8
0
 10
-241.281097
 20
-60.999969
 11
-235.718933
 21
-60.999969
  0
LINE
  8
0
 10
261.281067
 20
-60.999969
 11
255.718887
 21
-60.999969
  0
LINE
  8
0
 10
262.000000
 20
-51.499977
 11
262.000000
 21
-60.999985
  0
LINE
  8
0
 10
262.000000
 20
-70.499985
 11
255.000015
 21
-70.499985
  0
LINE
  8
0
 10
262.000000
 20
-70.499985
 11
262.000000
 21
-60.999985
  0
LINE
  8
0
 10
262.000000
 20
-51.499954
 11
255.000015
 21
-51.499954
  0
LINE
  8
0
 10
-274.000000
 20
-54.699982
 11
-274.000000
 21
-67.299973
  0
LINE
  8
0
 10
-267.000000
 20
-54.699982
 11
-267.000000
 21
-67.299973
  0
LINE
  8
0
 10
-267.200012
 20
-54.499962
 11
-273.799988
 21
-54.499962
  0
LINE
  8
0
 10
-267.200012
 20
-67.499969
 11
-273.799988
 21
-67.499969
  0
LINE
  8
0
 10
-273.999756
 20
-54.700180
 11
-273.799774
 21
-54.500175
  0
LINE
  8
0
 10
-274.000244
 20
-67.300125
 11
-273.800232
 21
-67.500137
  0
LINE
  8
0
 10
-266.999817
 20
-54.699883
 11
-267.199860
 21
-54.499863
  0
LINE
  8
0
 10
-266.999695
 20
-67.300171
 11
-267.199707
 21
-67.500168
  0
LINE
  8
0
 10
286.999939
 20
-54.700005
 11
286.999939
 21
-67.299988
  0
LINE
  8
0
 10
294.000061
 20
-54.700005
 11
294.000061
 21
-67.299988
  0
LINE
  8
0
 10
293.799988
 20
-54.499985
 11
287.200012
 21
-54.499985
  0
LINE
  8
0
 10
293.799988
 20
-67.500000
 11
287.200012
 21
-67.500000
  0
LINE
  8
0
 10
287.000000
 20
-54.699966
 11
287.200012
 21
-54.499985
  0
LINE
  8
0
 10
287.000183
 20
-67.299713
 11
287.200195
 21
-67.499725
  0
LINE
  8
0
 10
293.999878
 20
-54.700211
 11
293.799866
 21
-54.500206
  0
LINE
  8
0
 10
294.000000
 20
-67.299911
 11
293.799988
 21
-67.499908
  0
LINE
  8
0
 10
-162.000000
 20
-67.582809
 11
-162.000000
 21
-83.716400
  0
LINE
  8
0
 10
-151.000031
 20
-68.500000
 11
-151.000031
 21
-72.500000
  0
LINE
  8
0
 10
-152.000015
 20
-68.500000
 11
-152.000015
 21
-72.500000
  0
LINE
  8
0
 10
-159.999969
 20
-79.149963
 11
-161.049973
 21
-79.149963
  0
LINE
  8
0
 10
-159.999969
 20
-77.849991
 11
-161.049973
 21
-77.849991
  0
LINE
  8
0
 10
-161.350021
 20
-76.499985
 11
-161.350021
 21
-77.550003
  0
LINE
  8
0
 10
-162.650009
 20
-76.499985
 11
-162.650009
 21
-77.550003
  0
LINE
  8
0
 10
-164.000015
 20
-77.849991
 11
-164.000015
 21
-79.149979
  0
LINE
  8
0
 10
-160.000015
 20
-77.849991
 11
-160.000015
 21
-79.149979
  0
LINE
  8
0
 10
-161.349960
 20
-76.499969
 11
-162.649963
 21
-76.499969
  0
LINE
  8
0
 10
-161.349960
 20
-80.499985
 11
-162.649963
 21
-80.499985
  0
LINE
  8
0
 10
-162.949951
 20
-77.849991
 11
-163.999954
 21
-77.849991
  0
LINE
  8
0
 10
-161.350021
 20
-79.449966
 11
-161.350021
 21
-80.499985
  0
LINE
  8
0
 10
-162.949951
 20
-79.149963
 11
-163.999954
 21
-79.149963
  0
LINE
  8
0
 10
-162.650009
 20
-79.449966
 11
-162.650009
 21
-80.499985
  0
LINE
  8
0
 10
-172.999954
 20
-68.500000
 11
-172.999954
 21
-72.500000
  0
LINE
  8
0
 10
-195.623169
 20
-69.500000
 11
-186.030792
 21
-69.500000
  0
LINE
  8
0
 10
-195.623169
 20
-71.500015
 11
-186.383453
 21
-71.500015
  0
LINE
  8
0
 10
-166.383087
 20
-78.499985
 11
-157.891724
 21
-78.499985
  0
LINE
  8
0
 10
-174.499954
 20
-69.500015
 11
-174.499954
 21
-71.500015
  0
LINE
  8
0
 10
-172.999954
 20
-68.500053
 11
-174.499939
 21
-69.500061
  0
LINE
  8
0
 10
-174.499969
 20
-71.500031
 11
-172.999969
 21
-72.500008
  0
LINE
  8
0
 10
-185.205139
 20
-73.500053
 11
-184.147171
 21
-67.500053
  0
LINE
  8
0
 10
-186.736023
 20
-73.500046
 11
-185.678070
 21
-67.500061
  0
LINE
  8
0
 10
-195.623169
 20
-69.500015
 11
-195.623169
 21
-71.500015
  0
LINE
  8
0
 10
-184.499969
 20
-69.500000
 11
-174.499954
 21
-69.500000
  0
LINE
  8
0
 10
-184.852600
 20
-71.500015
 11
-174.499954
 21
-71.500015
  0
LINE
  8
0
 10
-205.623169
 20
-70.500000
 11
-195.623169
 21
-70.500000
  0
LINE
  8
0
 10
-205.623169
 20
-71.250015
 11
-195.623169
 21
-71.250015
  0
LINE
  8
0
 10
-205.623169
 20
-69.750015
 11
-195.623169
 21
-69.750015
  0
LINE
  8
0
 10
33.000000
 20
-68.499985
 11
235.000015
 21
-68.499985
  0
LINE
  8
0
 10
43.000000
 20
-72.500000
 11
235.000015
 21
-72.500000
  0
LINE
  8
0
 10
38.000000
 20
-67.569672
 11
38.000000
 21
-83.242523
  0
LINE
  8
0
 10
48.999985
 20
-68.500000
 11
48.999985
 21
-72.500000
  0
LINE
  8
0
 10
47.999985
 20
-68.500000
 11
47.999985
 21
-72.500000
  0
LINE
  8
0
 10
40.000046
 20
-79.149963
 11
38.950043
 21
-79.149963
  0
LINE
  8
0
 10
40.000046
 20
-77.849991
 11
38.950043
 21
-77.849991
  0
LINE
  8
0
 10
38.649994
 20
-76.499985
 11
38.649994
 21
-77.550003
  0
LINE
  8
0
 10
37.350014
 20
-76.499985
 11
37.350014
 21
-77.550003
  0
LINE
  8
0
 10
36.000000
 20
-77.849991
 11
36.000000
 21
-79.149979
  0
LINE
  8
0
 10
40.000015
 20
-77.849991
 11
40.000015
 21
-79.149979
  0
LINE
  8
0
 10
38.650040
 20
-76.499969
 11
37.350052
 21
-76.499969
  0
LINE
  8
0
 10
38.650040
 20
-80.499985
 11
37.350052
 21
-80.499985
  0
LINE
  8
0
 10
37.050049
 20
-77.849991
 11
36.000046
 21
-77.849991
  0
LINE
  8
0
 10
38.649994
 20
-79.449966
 11
38.649994
 21
-80.499985
  0
LINE
  8
0
 10
37.050049
 20
-79.149963
 11
36.000046
 21
-79.149963
  0
LINE
  8
0
 10
37.350014
 20
-79.449966
 11
37.350014
 21
-80.499985
  0
LINE
  8
0
 10
27.000046
 20
-68.500000
 11
27.000046
 21
-72.500000
  0
LINE
  8
0
 10
4.376823
 20
-69.500000
 11
13.969223
 21
-69.500000
  0
LINE
  8
0
 10
4.376823
 20
-71.500015
 11
13.616547
 21
-71.500015
  0
LINE
  8
0
 10
33.898682
 20
-78.499985
 11
42.249466
 21
-78.499985
  0
LINE
  8
0
 10
25.500046
 20
-69.500015
 11
25.500046
 21
-71.500015
  0
LINE
  8
0
 10
27.000053
 20
-68.500031
 11
25.500053
 21
-69.500046
  0
LINE
  8
0
 10
25.500046
 20
-71.500000
 11
27.000038
 21
-72.499985
  0
LINE
  8
0
 10
14.794754
 20
-73.500015
 11
15.852715
 21
-67.500015
  0
LINE
  8
0
 10
13.263916
 20
-73.500023
 11
14.321877
 21
-67.500023
  0
LINE
  8
0
 10
4.376823
 20
-69.500015
 11
4.376823
 21
-71.500015
  0
LINE
  8
0
 10
15.500046
 20
-69.500000
 11
25.500046
 21
-69.500000
  0
LINE
  8
0
 10
15.147392
 20
-71.500015
 11
25.500046
 21
-71.500015
  0
LINE
  8
0
 10
-5.623177
 20
-70.500000
 11
4.376823
 21
-70.500000
  0
LINE
  8
0
 10
-5.623177
 20
-71.250015
 11
4.376823
 21
-71.250015
  0
LINE
  8
0
 10
-5.623177
 20
-69.750015
 11
4.376823
 21
-69.750015
  0
LINE
  8
0
 10
43.000000
 20
-75.500000
 11
235.000015
 21
-75.500000
  0
LINE
  8
0
 10
-167.000000
 20
-68.499985
 11
33.000000
 21
-68.499985
  0
LINE
  8
0
 10
-157.000000
 20
-72.500000
 11
33.000000
 21
-72.500000
  0
LINE
  8
0
 10
-157.000000
 20
-75.500000
 11
33.000000
 21
-75.500000
  0
LINE
  8
0
 10
-92.999969
 20
-45.999992
 11
-86.999985
 21
-45.999992
  0
LINE
  8
0
 10
-92.999969
 20
-39.999992
 11
-92.999969
 21
-46.000008
  0
LINE
  8
0
 10
-86.999969
 20
-39.999992
 11
-86.999969
 21
-46.000008
  0
LINE
  8
0
 10
-14.999985
 20
-41.500023
 11
240.980789
 21
-41.500023
  0
LINE
  8
0
 10
-235.000000
 20
-41.500023
 11
-229.018188
 21
-41.500023
  0
LINE
  8
0
 10
249.018234
 20
-41.500023
 11
255.000015
 21
-41.500023
  0
LINE
  8
0
 10
-220.980530
 20
-41.500023
 11
-165.000015
 21
-41.500023
  0
LINE
  8
0
 10
-215.000000
 20
-98.649994
 11
235.000015
 21
-98.649994
  0
LINE
  8
0
 10
-215.000000
 20
-93.349991
 11
235.000015
 21
-93.349991
  0
LINE
  8
0
 10
235.000015
 20
-117.571426
 11
255.000015
 21
-117.571426
  0
LINE
  8
0
 10
-235.000000
 20
-117.571426
 11
-215.000000
 21
-117.571426
  0
LINE
  8
0
 10
-157.000000
 20
-68.499985
 11
-157.000000
 21
-81.999985
  0
LINE
  8
0
 10
-167.000000
 20
-68.499985
 11
-167.000000
 21
-81.999985
  0
LINE
  8
0
 10
-167.000000
 20
-73.499985
 11
-157.000000
 21
-73.499985
  0
LINE
  8
0
 10
-167.000000
 20
-81.999985
 11
-157.000000
 21
-81.999985
  0
LINE
  8
0
 10
33.000000
 20
-68.499985
 11
33.000000
 21
-81.999985
  0
LINE
  8
0
 10
43.000000
 20
-68.499985
 11
43.000000
 21
-81.999985
  0
LINE
  8
0
 10
33.000000
 20
-73.499985
 11
43.000000
 21
-73.499985
  0
LINE
  8
0
 10
33.000000
 20
-81.999985
 11
43.000000
 21
-81.999985
  0
LINE
  8
0
 10
-251.100006
 20
-81.100006
 11
-239.800018
 21
-81.100006
  0
LINE
  8
0
 10
-258.500000
 20
-95.250000
 11
-258.000031
 21
-95.250000
  0
LINE
  8
0
 10
-258.500000
 20
-82.749985
 11
-258.000031
 21
-82.749985
  0
LINE
  8
0
 10
-251.899963
 20
-95.999985
 11
-251.899963
 21
-82.000000
  0
LINE
  8
0
 10
-264.500031
 20
-85.000015
 11
-262.000000
 21
-85.000015
  0
LINE
  8
0
 10
-264.500031
 20
-92.999985
 11
-262.000031
 21
-92.999985
  0
LINE
  8
0
 10
-254.700012
 20
-82.000000
 11
-239.000031
 21
-82.000000
  0
LINE
  8
0
 10
-254.700012
 20
-95.999985
 11
-239.000000
 21
-95.999985
  0
LINE
  8
0
 10
-264.500000
 20
-93.000000
 11
-264.500000
 21
-84.999985
  0
LINE
  8
0
 10
-262.000000
 20
-93.000000
 11
-262.000000
 21
-84.999985
  0
LINE
  8
0
 10
-260.199951
 20
-94.000000
 11
-260.199951
 21
-84.000000
  0
LINE
  8
0
 10
-255.100006
 20
-95.307175
 11
-255.100006
 21
-82.692810
  0
LINE
  8
0
 10
-257.500000
 20
-93.199997
 11
-255.100037
 21
-93.199997
  0
LINE
  8
0
 10
-257.500000
 20
-84.799988
 11
-255.100037
 21
-84.799988
  0
LINE
  8
0
 10
-251.100006
 20
-96.899994
 11
-251.100006
 21
-81.099991
  0
LINE
  8
0
 10
-251.899994
 20
-81.999969
 11
-251.099991
 21
-81.099968
  0
LINE
  8
0
 10
-239.000000
 20
-95.999664
 11
-239.000000
 21
-82.000000
  0
LINE
  8
0
 10
-239.799988
 20
-96.899658
 11
-239.799988
 21
-81.099991
  0
LINE
  8
0
 10
-239.000153
 20
-82.000198
 11
-239.800156
 21
-81.100189
  0
LINE
  8
0
 10
-265.000031
 20
-92.499985
 11
-265.000031
 21
-85.500000
  0
LINE
  8
0
 10
-261.500000
 20
-92.499985
 11
-261.500000
 21
-85.500000
  0
LINE
  8
0
 10
-260.699982
 20
-93.499985
 11
-260.699982
 21
-84.500000
  0
LINE
  8
0
 10
-257.500000
 20
-93.499985
 11
-257.500000
 21
-84.500000
  0
LINE
  8
0
 10
-264.499664
 20
-92.999695
 11
-264.999664
 21
-92.499695
  0
LINE
  8
0
 10
-262.000000
 20
-93.000198
 11
-261.499817
 21
-92.500038
  0
LINE
  8
0
 10
-264.999939
 20
-85.500031
 11
-264.499908
 21
-85.000015
  0
LINE
  8
0
 10
-261.500397
 20
-85.500412
 11
-262.000366
 21
-85.000412
  0
LINE
  8
0
 10
-260.700500
 20
-93.500450
 11
-260.200439
 21
-94.000458
  0
LINE
  8
0
 10
-258.000122
 20
-93.999893
 11
-257.500061
 21
-93.499832
  0
LINE
  8
0
 10
-260.700073
 20
-84.499863
 11
-260.200073
 21
-83.999893
  0
LINE
  8
0
 10
-257.499695
 20
-84.499687
 11
-257.999695
 21
-83.999687
  0
LINE
  8
0
 10
-261.500000
 20
-90.999985
 11
-260.700012
 21
-90.999985
  0
LINE
  8
0
 10
-261.500000
 20
-87.000000
 11
-260.700012
 21
-87.000000
  0
LINE
  8
0
 10
-257.399994
 20
-94.649994
 11
-257.399994
 21
-93.199997
  0
LINE
  8
0
 10
-256.799988
 20
-95.250000
 11
-256.799988
 21
-93.199997
  0
LINE
  8
0
 10
-256.200012
 20
-95.250000
 11
-256.200012
 21
-93.199997
  0
LINE
  8
0
 10
-256.800018
 20
-95.250000
 11
-255.100006
 21
-95.250000
  0
LINE
  8
0
 10
-256.800018
 20
-82.749985
 11
-255.100006
 21
-82.749985
  0
LINE
  8
0
 10
-257.400909
 20
-94.650970
 11
-256.800903
 21
-95.250954
  0
LINE
  8
0
 10
-257.400146
 20
-83.349693
 11
-256.800354
 21
-82.749924
  0
LINE
  8
0
 10
-258.000031
 20
-83.999985
 11
-257.400024
 21
-83.999985
  0
LINE
  8
0
 10
-258.000031
 20
-94.000000
 11
-257.400024
 21
-94.000000
  0
LINE
  8
0
 10
-254.700012
 20
-92.500015
 11
-251.900024
 21
-92.500015
  0
LINE
  8
0
 10
-254.700012
 20
-85.500031
 11
-251.900024
 21
-85.500031
  0
LINE
  8
0
 10
-254.699982
 20
-95.999924
 11
-255.100006
 21
-95.307114
  0
LINE
  8
0
 10
-254.700165
 20
-81.999855
 11
-255.100189
 21
-82.692688
  0
LINE
  8
0
 10
-239.000122
 20
-92.999641
 11
-235.000137
 21
-92.499634
  0
LINE
  8
0
 10
-238.999954
 20
-84.999527
 11
-234.999985
 21
-85.499527
  0
LINE
  8
0
 10
-238.999954
 20
-94.000290
 11
-234.999985
 21
-93.500282
  0
LINE
  8
0
 10
-234.999924
 20
-84.499344
 11
-238.999924
 21
-83.999359
  0
LINE
  8
0
 10
-268.073090
 20
-89.000000
 11
-227.591797
 21
-89.000000
  0
LINE
  8
0
 10
-256.200012
 20
-84.799988
 11
-256.200012
 21
-82.749985
  0
LINE
  8
0
 10
-256.799988
 20
-84.799988
 11
-256.799988
 21
-82.749985
  0
LINE
  8
0
 10
-257.999969
 20
-95.250000
 11
-257.999969
 21
-82.749985
  0
LINE
  8
0
 10
-257.399994
 20
-84.799988
 11
-257.399994
 21
-83.349991
  0
LINE
  8
0
 10
-251.100006
 20
-96.899994
 11
-239.800018
 21
-96.899994
  0
LINE
  8
0
 10
-251.899994
 20
-96.000031
 11
-251.099991
 21
-96.900040
  0
LINE
  8
0
 10
-239.000168
 20
-95.999840
 11
-239.800156
 21
-96.899849
  0
LINE
  8
0
 10
-258.500000
 20
-79.249985
 11
-258.000031
 21
-79.249985
  0
LINE
  8
0
 10
-251.899963
 20
-79.999985
 11
-251.899963
 21
-68.999969
  0
LINE
  8
0
 10
-264.500031
 20
-69.000015
 11
-262.000000
 21
-69.000015
  0
LINE
  8
0
 10
-264.500031
 20
-76.999969
 11
-262.000031
 21
-76.999969
  0
LINE
  8
0
 10
-260.200012
 20
-67.999985
 11
-258.000000
 21
-67.999985
  0
LINE
  8
0
 10
-254.700012
 20
-79.999985
 11
-239.000000
 21
-79.999985
  0
LINE
  8
0
 10
-264.500000
 20
-77.000000
 11
-264.500000
 21
-68.999985
  0
LINE
  8
0
 10
-262.000000
 20
-77.000000
 11
-262.000000
 21
-68.999985
  0
LINE
  8
0
 10
-260.199951
 20
-78.000000
 11
-260.199951
 21
-67.999985
  0
LINE
  8
0
 10
-255.100006
 20
-79.307175
 11
-255.100006
 21
-68.999969
  0
LINE
  8
0
 10
-257.500000
 20
-77.199997
 11
-255.100037
 21
-77.199997
  0
LINE
  8
0
 10
-257.500000
 20
-68.799988
 11
-255.449615
 21
-68.799988
  0
LINE
  8
0
 10
-251.100006
 20
-80.899994
 11
-251.100006
 21
-68.999969
  0
LINE
  8
0
 10
-239.000000
 20
-79.999649
 11
-239.000000
 21
-70.499985
  0
LINE
  8
0
 10
-239.799988
 20
-80.899658
 11
-239.799988
 21
-70.499985
  0
LINE
  8
0
 10
-265.000031
 20
-76.499985
 11
-265.000031
 21
-69.500000
  0
LINE
  8
0
 10
-261.500000
 20
-76.499985
 11
-261.500000
 21
-69.500000
  0
LINE
  8
0
 10
-260.699982
 20
-77.499985
 11
-260.699982
 21
-68.500000
  0
LINE
  8
0
 10
-257.500000
 20
-77.499985
 11
-257.500000
 21
-68.500000
  0
LINE
  8
0
 10
-264.499664
 20
-76.999695
 11
-264.999695
 21
-76.499680
  0
LINE
  8
0
 10
-261.999969
 20
-77.000137
 11
-261.499817
 21
-76.500000
  0
LINE
  8
0
 10
-264.999878
 20
-69.500053
 11
-264.499878
 21
-69.000046
  0
LINE
  8
0
 10
-261.500427
 20
-69.500443
 11
-262.000427
 21
-69.000443
  0
LINE
  8
0
 10
-260.700500
 20
-77.500458
 11
-260.200439
 21
-78.000473
  0
LINE
  8
0
 10
-258.000183
 20
-77.999924
 11
-257.500061
 21
-77.499847
  0
LINE
  8
0
 10
-260.700073
 20
-68.499878
 11
-260.200073
 21
-67.999901
  0
LINE
  8
0
 10
-257.499695
 20
-68.499649
 11
-257.999695
 21
-67.999649
  0
LINE
  8
0
 10
-261.500000
 20
-74.999985
 11
-260.700012
 21
-74.999985
  0
LINE
  8
0
 10
-261.500000
 20
-71.000000
 11
-260.700012
 21
-71.000000
  0
LINE
  8
0
 10
-257.399994
 20
-78.649994
 11
-257.399994
 21
-77.199997
  0
LINE
  8
0
 10
-256.799988
 20
-79.250000
 11
-256.799988
 21
-77.199997
  0
LINE
  8
0
 10
-256.200012
 20
-79.250000
 11
-256.200012
 21
-77.199997
  0
LINE
  8
0
 10
-256.800018
 20
-79.249985
 11
-255.100006
 21
-79.249985
  0
LINE
  8
0
 10
-257.400909
 20
-78.650940
 11
-256.800903
 21
-79.250931
  0
LINE
  8
0
 10
-258.000031
 20
-67.999985
 11
-257.400024
 21
-67.999985
  0
LINE
  8
0
 10
-258.000031
 20
-77.999985
 11
-257.400024
 21
-77.999985
  0
LINE
  8
0
 10
-254.700012
 20
-76.500015
 11
-251.900024
 21
-76.500015
  0
LINE
  8
0
 10
-254.700012
 20
-69.500015
 11
-251.900024
 21
-69.500015
  0
LINE
  8
0
 10
-254.699982
 20
-79.999947
 11
-255.100006
 21
-79.307144
  0
LINE
  8
0
 10
-239.000122
 20
-76.999680
 11
-235.000153
 21
-76.499672
  0
LINE
  8
0
 10
-238.999954
 20
-78.000282
 11
-234.999985
 21
-77.500275
  0
LINE
  8
0
 10
-268.073090
 20
-72.999985
 11
-227.591797
 21
-72.999985
  0
LINE
  8
0
 10
-256.200012
 20
-68.799988
 11
-256.200012
 21
-68.049576
  0
LINE
  8
0
 10
-256.799988
 20
-68.799988
 11
-256.799988
 21
-67.749969
  0
LINE
  8
0
 10
-257.999969
 20
-79.250000
 11
-257.999969
 21
-67.749969
  0
LINE
  8
0
 10
-257.399994
 20
-68.799988
 11
-257.399994
 21
-67.749969
  0
LINE
  8
0
 10
-251.100006
 20
-80.899994
 11
-239.800018
 21
-80.899994
  0
LINE
  8
0
 10
-251.899994
 20
-80.000015
 11
-251.099991
 21
-80.900024
  0
LINE
  8
0
 10
-239.000153
 20
-79.999832
 11
-239.800140
 21
-80.899841
  0
ARC
  8
0
 10
245.000015
 20
-50.906387
 40
10.406393
 50
67.387154
 51
86.694633
  0
ARC
  8
0
 10
245.000015
 20
-50.906387
 40
10.406388
 50
93.305367
 51
112.612846
  0
ARC
  8
0
 10
-225.000000
 20
-50.906387
 40
10.406387
 50
93.305283
 51
112.612762
  0
ARC
  8
0
 10
-225.000000
 20
-50.906387
 40
10.406387
 50
67.387238
 51
86.694633
  0
ARC
  8
0
 10
-203.051697
 20
-69.198685
 40
4.948346
 50
145.946136
 51
153.619598
  0
ARC
  8
0
 10
-190.215454
 20
-60.999985
 40
17.784569
 50
162.230118
 51
197.769852
  0
ARC
  8
0
 10
-203.051697
 20
-52.801270
 40
4.948347
 50
154.053940
 51
214.053925
  0
ARC
  8
0
 10
-180.948242
 20
-69.198685
 40
4.948343
 50
26.380320
 51
34.053860
  0
ARC
  8
0
 10
-193.784546
 20
-60.999985
 40
17.784571
 50
342.230103
 51
17.769882
  0
ARC
  8
0
 10
-180.948242
 20
-52.801270
 40
4.948350
 50
325.946075
 51
25.946053
  0
ARC
  8
0
 10
-212.948242
 20
-52.801270
 40
4.948350
 50
325.946075
 51
25.946053
  0
ARC
  8
0
 10
-212.948242
 20
-69.198715
 40
4.948353
 50
26.380556
 51
34.053860
  0
ARC
  8
0
 10
-225.784546
 20
-60.999985
 40
17.784571
 50
342.230103
 51
17.769882
  0
ARC
  8
0
 10
-210.051727
 20
-52.801270
 40
4.948347
 50
154.053940
 51
214.053925
  0
ARC
  8
0
 10
-197.215424
 20
-60.999985
 40
17.784569
 50
162.230118
 51
197.769852
  0
ARC
  8
0
 10
-210.051727
 20
-69.198715
 40
4.948346
 50
145.946136
 51
153.619370
  0
ARC
  8
0
 10
230.051743
 20
-69.198715
 40
4.948353
 50
26.380556
 51
34.053860
  0
ARC
  8
0
 10
223.051712
 20
-69.198685
 40
4.948349
 50
26.380478
 51
34.053860
  0
ARC
  8
0
 10
210.215469
 20
-60.999985
 40
17.784573
 50
342.230072
 51
17.769859
  0
ARC
  8
0
 10
223.051712
 20
-52.801270
 40
4.948350
 50
325.946075
 51
25.946053
  0
ARC
  8
0
 10
200.948288
 20
-69.198685
 40
4.948350
 50
145.946075
 51
153.619675
  0
ARC
  8
0
 10
213.784592
 20
-60.999985
 40
17.784573
 50
162.230072
 51
197.769852
  0
ARC
  8
0
 10
200.948288
 20
-52.801270
 40
4.948350
 50
154.053864
 51
214.053864
  0
ARC
  8
0
 10
198.500015
 20
-60.999985
 40
12.000011
 50
160.528793
 51
199.471130
  0
ARC
  8
0
 10
190.014755
 20
-57.999977
 40
3.000000
 50
90.000000
 51
160.528793
  0
ARC
  8
0
 10
190.014755
 20
-63.999969
 40
3.000003
 50
199.471207
 51
270.000000
  0
ARC
  8
0
 10
232.948257
 20
-52.801270
 40
4.948350
 50
154.053864
 51
214.053864
  0
ARC
  8
0
 10
232.948257
 20
-69.198715
 40
4.948350
 50
145.946075
 51
153.619522
  0
ARC
  8
0
 10
245.784561
 20
-60.999985
 40
17.784573
 50
162.230072
 51
197.769852
  0
ARC
  8
0
 10
230.051743
 20
-52.801270
 40
4.948350
 50
325.946075
 51
25.946053
  0
ARC
  8
0
 10
217.215469
 20
-60.999985
 40
17.784573
 50
342.230072
 51
17.769859
  0
ARC
  8
0
 10
-225.948273
 20
-56.249969
 40
16.051702
 50
162.787338
 51
197.212585
  0
ARC
  8
0
 10
-251.051697
 20
-56.249969
 40
16.051701
 50
342.787354
 51
17.212599
  0
ARC
  8
0
 10
-225.948273
 20
-65.749985
 40
16.051702
 50
162.787338
 51
197.212570
  0
ARC
  8
0
 10
-251.051697
 20
-65.749985
 40
16.051710
 50
342.787415
 51
17.212654
  0
ARC
  8
0
 10
271.051758
 20
-65.749985
 40
16.051722
 50
162.787292
 51
197.212524
  0
ARC
  8
0
 10
245.948318
 20
-56.249969
 40
16.051716
 50
342.787354
 51
17.212599
  0
ARC
  8
0
 10
245.948318
 20
-65.749985
 40
16.051714
 50
342.787384
 51
17.212585
  0
ARC
  8
0
 10
271.051758
 20
-56.249969
 40
16.051718
 50
162.787354
 51
197.212585
  0
CIRCLE
  8
0
 10
-161.999954
 20
-78.499985
 40
3.150000
  0
ARC
  8
0
 10
-162.949966
 20
-79.449951
 40
0.300003
 50
0.000000
 51
90.000000
  0
ARC
  8
0
 10
-162.949966
 20
-77.550003
 40
0.300003
 50
270.000000
 51
0.000000
  0
ARC
  8
0
 10
-161.049942
 20
-79.449951
 40
0.300003
 50
90.000000
 51
180.000000
  0
ARC
  8
0
 10
-161.049942
 20
-77.550003
 40
0.300003
 50
180.000000
 51
270.000000
  0
ARC
  8
0
 10
38.950058
 20
-77.550003
 40
0.300003
 50
180.000000
 51
270.000000
  0
CIRCLE
  8
0
 10
38.000046
 20
-78.499985
 40
3.150000
  0
ARC
  8
0
 10
38.950058
 20
-79.449951
 40
0.300003
 50
90.000000
 51
180.000000
  0
ARC
  8
0
 10
37.050034
 20
-77.550003
 40
0.300003
 50
270.000000
 51
0.000000
  0
ARC
  8
0
 10
37.050034
 20
-79.449951
 40
0.300003
 50
0.000000
 51
90.000000
  0
ARC
  8
0
 10
-251.071838
 20
-83.750015
 40
4.028176
 50
154.250107
 51
205.749603
  0
ARC
  8
0
 10
-239.587555
 20
-89.000000
 40
15.512430
 50
166.960312
 51
193.039520
  0
ARC
  8
0
 10
-258.499969
 20
-93.750015
 40
1.500012
 50
189.593399
 51
270.000000
  0
ARC
  8
0
 10
-258.499969
 20
-84.250015
 40
1.500000
 50
90.000000
 51
170.405167
  0
ARC
  8
0
 10
-251.071869
 20
-94.249985
 40
4.028128
 50
154.250015
 51
205.749893
  0
ARC
  8
0
 10
-251.071838
 20
-67.750015
 40
4.028175
 50
198.077713
 51
205.749603
  0
ARC
  8
0
 10
-239.587555
 20
-72.999985
 40
15.512430
 50
166.960312
 51
193.039490
  0
ARC
  8
0
 10
-258.499969
 20
-77.750015
 40
1.500012
 50
189.593399
 51
270.000000
  0
ARC
  8
0
 10
-258.499969
 20
-68.250015
 40
1.500014
 50
160.527420
 51
170.405167
  0
ARC
  8
0
 10
-251.071869
 20
-78.249969
 40
4.028128
 50
154.250015
 51
205.749893
  0
POINT
  8
0
 10
-89.999985
 20
159.999969
  0
POINT
  8
0
 10
255.000015
 20
159.999969
  0
LINE
  8
0
 10
255.000015
 20
230.999969
 11
255.000015
 21
88.999977
  0
LINE
  8
0
 10
-235.000000
 20
230.999969
 11
-235.000000
 21
88.999977
  0
LINE
  8
0
 10
-89.999985
 20
235.787628
 11
-89.999985
 21
82.770447
  0
LINE
  8
0
 10
-235.000000
 20
230.999969
 11
255.000015
 21
230.999969
  0
LINE
  8
0
 10
-235.000000
 20
88.999977
 11
255.000015
 21
88.999977
  0
LINE
  8
0
 10
-215.000000
 20
230.999969
 11
-215.000000
 21
212.999969
  0
LINE
  8
0
 10
235.000015
 20
230.999969
 11
235.000015
 21
212.999969
  0
LINE
  8
0
 10
-165.000015
 20
229.999969
 11
-165.000015
 21
212.999969
  0
LINE
  8
0
 10
-14.999985
 20
229.999969
 11
-14.999985
 21
212.999969
  0
LINE
  8
0
 10
-165.000015
 20
230.000000
 11
-14.999985
 21
230.000000
  0
LINE
  8
0
 10
-165.000015
 20
89.999969
 11
-14.999985
 21
89.999969
  0
LINE
  8
0
 10
-165.000015
 20
215.000000
 11
-14.999985
 21
215.000000
  0
LINE
  8
0
 10
-165.000015
 20
104.999969
 11
-14.999985
 21
104.999969
  0
LINE
  8
0
 10
-235.000000
 20
212.999969
 11
255.000015
 21
212.999969
  0
LINE
  8
0
 10
-235.000000
 20
107.000008
 11
255.000015
 21
107.000008
  0
LINE
  8
0
 10
-235.000000
 20
107.999985
 11
255.000015
 21
107.999985
  0
LINE
  8
0
 10
-235.000000
 20
211.999969
 11
255.000015
 21
211.999969
  0
LINE
  8
0
 10
-215.000000
 20
106.999985
 11
-215.000000
 21
88.999977
  0
LINE
  8
0
 10
-165.000015
 20
106.999985
 11
-165.000015
 21
89.999969
  0
LINE
  8
0
 10
-14.999985
 20
106.999985
 11
-14.999985
 21
89.999969
  0
LINE
  8
0
 10
235.000015
 20
106.999985
 11
235.000015
 21
88.999977
  0
LINE
  8
0
 10
-235.000000
 20
215.999969
 11
-215.000000
 21
215.999969
  0
LINE
  8
0
 10
-235.000000
 20
103.999977
 11
-215.000000
 21
103.999977
  0
LINE
  8
0
 10
255.000015
 20
215.999969
 11
235.000015
 21
215.999969
  0
LINE
  8
0
 10
255.000015
 20
103.999977
 11
235.000015
 21
103.999977
  0
LINE
  8
0
 10
245.000015
 20
120.999969
 11
245.000015
 21
108.999977
  0
LINE
  8
0
 10
239.000015
 20
114.999969
 11
251.000015
 21
114.999969
  0
LINE
  8
0
 10
242.900040
 20
115.599976
 11
242.900040
 21
114.399979
  0
LINE
  8
0
 10
247.100021
 20
115.599976
 11
247.100021
 21
114.399979
  0
LINE
  8
0
 10
244.400009
 20
117.099976
 11
245.599991
 21
117.099976
  0
LINE
  8
0
 10
244.400009
 20
112.899971
 11
245.599991
 21
112.899971
  0
LINE
  8
0
 10
242.899979
 20
115.599945
 11
243.900009
 21
115.599945
  0
LINE
  8
0
 10
242.899979
 20
114.399994
 11
243.900009
 21
114.399994
  0
LINE
  8
0
 10
244.400040
 20
117.099976
 11
244.400040
 21
116.099976
  0
LINE
  8
0
 10
245.600021
 20
117.099976
 11
245.600021
 21
116.099976
  0
LINE
  8
0
 10
244.400040
 20
113.899963
 11
244.400040
 21
112.899971
  0
LINE
  8
0
 10
246.099991
 20
115.599945
 11
247.099991
 21
115.599945
  0
LINE
  8
0
 10
245.600021
 20
113.899963
 11
245.600021
 21
112.899971
  0
LINE
  8
0
 10
246.099991
 20
114.399994
 11
247.099991
 21
114.399994
  0
LINE
  8
0
 10
245.000015
 20
210.999969
 11
245.000015
 21
198.999969
  0
LINE
  8
0
 10
239.000015
 20
205.000000
 11
251.000015
 21
205.000000
  0
LINE
  8
0
 10
242.900040
 20
205.599976
 11
242.900040
 21
204.399963
  0
LINE
  8
0
 10
247.100021
 20
205.599976
 11
247.100021
 21
204.399963
  0
LINE
  8
0
 10
244.400009
 20
207.099976
 11
245.599991
 21
207.099976
  0
LINE
  8
0
 10
244.400009
 20
202.899994
 11
245.599991
 21
202.899994
  0
LINE
  8
0
 10
242.899979
 20
205.599976
 11
243.900009
 21
205.599976
  0
LINE
  8
0
 10
242.899979
 20
204.399963
 11
243.900009
 21
204.399963
  0
LINE
  8
0
 10
244.400040
 20
207.099976
 11
244.400040
 21
206.099976
  0
LINE
  8
0
 10
245.600021
 20
207.099976
 11
245.600021
 21
206.099976
  0
LINE
  8
0
 10
244.400040
 20
203.899963
 11
244.400040
 21
202.899963
  0
LINE
  8
0
 10
246.099991
 20
205.599976
 11
247.099991
 21
205.599976
  0
LINE
  8
0
 10
245.600021
 20
203.899963
 11
245.600021
 21
202.899963
  0
LINE
  8
0
 10
246.099991
 20
204.399963
 11
247.099991
 21
204.399963
  0
LINE
  8
0
 10
-225.000000
 20
120.999969
 11
-225.000000
 21
108.999977
  0
LINE
  8
0
 10
-231.000000
 20
114.999969
 11
-219.000031
 21
114.999969
  0
LINE
  8
0
 10
-227.099976
 20
115.599976
 11
-227.099976
 21
114.399979
  0
LINE
  8
0
 10
-222.899994
 20
115.599976
 11
-222.899994
 21
114.399979
  0
LINE
  8
0
 10
-225.600006
 20
117.099976
 11
-224.400024
 21
117.099976
  0
LINE
  8
0
 10
-225.600006
 20
112.899971
 11
-224.400024
 21
112.899971
  0
LINE
  8
0
 10
-227.100006
 20
115.599945
 11
-226.100006
 21
115.599945
  0
LINE
  8
0
 10
-227.100006
 20
114.399994
 11
-226.100006
 21
114.399994
  0
LINE
  8
0
 10
-225.599976
 20
117.099976
 11
-225.599976
 21
116.099976
  0
LINE
  8
0
 10
-224.399994
 20
117.099976
 11
-224.399994
 21
116.099976
  0
LINE
  8
0
 10
-225.599976
 20
113.899963
 11
-225.599976
 21
112.899971
  0
LINE
  8
0
 10
-223.900024
 20
115.599945
 11
-222.900024
 21
115.599945
  0
LINE
  8
0
 10
-224.399994
 20
113.899963
 11
-224.399994
 21
112.899971
  0
LINE
  8
0
 10
-223.900024
 20
114.399994
 11
-222.900024
 21
114.399994
  0
LINE
  8
0
 10
-225.000000
 20
210.999969
 11
-225.000000
 21
198.999969
  0
LINE
  8
0
 10
-231.000000
 20
205.000000
 11
-219.000031
 21
205.000000
  0
LINE
  8
0
 10
-227.099976
 20
205.599976
 11
-227.099976
 21
204.399963
  0
LINE
  8
0
 10
-222.899994
 20
205.599976
 11
-222.899994
 21
204.399963
  0
LINE
  8
0
 10
-225.600006
 20
207.099976
 11
-224.400024
 21
207.099976
  0
LINE
  8
0
 10
-225.600006
 20
202.899994
 11
-224.400024
 21
202.899994
  0
LINE
  8
0
 10
-227.100006
 20
205.599976
 11
-226.100006
 21
205.599976
  0
LINE
  8
0
 10
-227.100006
 20
204.399963
 11
-226.100006
 21
204.399963
  0
LINE
  8
0
 10
-225.599976
 20
207.099976
 11
-225.599976
 21
206.099976
  0
LINE
  8
0
 10
-224.399994
 20
207.099976
 11
-224.399994
 21
206.099976
  0
LINE
  8
0
 10
-225.599976
 20
203.899963
 11
-225.599976
 21
202.899963
  0
LINE
  8
0
 10
-223.900024
 20
205.599976
 11
-222.900024
 21
205.599976
  0
LINE
  8
0
 10
-224.399994
 20
203.899963
 11
-224.399994
 21
202.899963
  0
LINE
  8
0
 10
-223.900024
 20
204.399963
 11
-222.900024
 21
204.399963
  0
LINE
  8
0
 10
-92.999969
 20
104.999969
 11
-92.999969
 21
89.999969
  0
LINE
  8
0
 10
-87.000000
 20
104.999969
 11
-87.000000
 21
89.999969
  0
LINE
  8
0
 10
-156.500000
 20
221.999969
 11
-143.499985
 21
221.999969
  0
LINE
  8
0
 10
-36.499992
 20
221.999969
 11
-23.245178
 21
221.999969
  0
LINE
  8
0
 10
-36.499992
 20
97.999977
 11
-23.002304
 21
97.999977
  0
LINE
  8
0
 10
-156.500000
 20
97.999977
 11
-143.499985
 21
97.999977
  0
LINE
  8
0
 10
-150.000015
 20
228.499969
 11
-150.000015
 21
215.499969
  0
LINE
  8
0
 10
-29.999985
 20
228.499969
 11
-29.999985
 21
215.499969
  0
LINE
  8
0
 10
-150.000015
 20
104.499985
 11
-150.000015
 21
91.499977
  0
LINE
  8
0
 10
-29.999985
 20
104.499985
 11
-29.999985
 21
91.499977
  0
LINE
  8
0
 10
-251.100006
 20
188.099991
 11
-239.800018
 21
188.099991
  0
LINE
  8
0
 10
-262.596100
 20
210.199982
 11
-236.355835
 21
210.199982
  0
LINE
  8
0
 10
-258.500000
 20
216.449982
 11
-258.000031
 21
216.449982
  0
LINE
  8
0
 10
-258.500000
 20
203.949982
 11
-258.000031
 21
203.949982
  0
LINE
  8
0
 10
-260.000031
 20
214.949982
 11
-260.000031
 21
205.450012
  0
LINE
  8
0
 10
-251.899994
 20
202.999969
 11
-251.899994
 21
189.000000
  0
LINE
  8
0
 10
-264.500031
 20
191.999985
 11
-262.000000
 21
191.999985
  0
LINE
  8
0
 10
-264.500031
 20
200.000000
 11
-262.000031
 21
200.000000
  0
LINE
  8
0
 10
-260.200012
 20
191.000000
 11
-258.000000
 21
191.000000
  0
LINE
  8
0
 10
-260.199982
 20
201.000000
 11
-258.000000
 21
201.000000
  0
LINE
  8
0
 10
-254.700012
 20
189.000000
 11
-239.000031
 21
189.000000
  0
LINE
  8
0
 10
-254.700012
 20
202.999969
 11
-251.900024
 21
202.999969
  0
LINE
  8
0
 10
-264.500000
 20
200.000000
 11
-264.500000
 21
191.999985
  0
LINE
  8
0
 10
-262.000000
 20
200.000000
 11
-262.000000
 21
191.999985
  0
LINE
  8
0
 10
-260.200012
 20
201.000000
 11
-260.200012
 21
191.000000
  0
LINE
  8
0
 10
-258.000000
 20
201.000000
 11
-258.000000
 21
191.000000
  0
LINE
  8
0
 10
-255.100006
 20
202.307159
 11
-255.100006
 21
189.692810
  0
LINE
  8
0
 10
-257.500000
 20
200.199997
 11
-255.100037
 21
200.199997
  0
LINE
  8
0
 10
-257.500000
 20
191.799988
 11
-255.100037
 21
191.799988
  0
LINE
  8
0
 10
-251.100006
 20
203.474976
 11
-251.100006
 21
188.099991
  0
LINE
  8
0
 10
-251.899719
 20
188.999649
 11
-251.099838
 21
188.099777
  0
LINE
  8
0
 10
-239.000000
 20
213.449982
 11
-239.000000
 21
189.000000
  0
LINE
  8
0
 10
-239.799988
 20
203.474976
 11
-239.799988
 21
188.099991
  0
LINE
  8
0
 10
-238.999832
 20
188.999893
 11
-239.799835
 21
188.099884
  0
LINE
  8
0
 10
-251.899826
 20
202.999863
 11
-251.099823
 21
203.474869
  0
LINE
  8
0
 10
-251.099716
 20
203.474808
 11
-251.899811
 21
203.949875
  0
LINE
  8
0
 10
-251.899994
 20
203.949982
 11
-251.899994
 21
216.449982
  0
LINE
  8
0
 10
-265.000031
 20
199.499985
 11
-265.000031
 21
192.500000
  0
LINE
  8
0
 10
-261.499969
 20
199.499985
 11
-261.499969
 21
192.500000
  0
LINE
  8
0
 10
-260.699982
 20
200.499985
 11
-260.699982
 21
191.500000
  0
LINE
  8
0
 10
-257.500000
 20
200.499985
 11
-257.500000
 21
191.500000
  0
LINE
  8
0
 10
-264.499756
 20
199.999802
 11
-264.999756
 21
199.499786
  0
LINE
  8
0
 10
-261.999939
 20
199.999908
 11
-261.499786
 21
199.499771
  0
LINE
  8
0
 10
-264.999939
 20
192.500061
 11
-264.499817
 21
191.999908
  0
LINE
  8
0
 10
-261.500122
 20
192.500061
 11
-262.000092
 21
192.000061
  0
LINE
  8
0
 10
-260.700256
 20
200.500275
 11
-260.200256
 21
201.000275
  0
LINE
  8
0
 10
-257.999725
 20
200.999725
 11
-257.499817
 21
200.499817
  0
LINE
  8
0
 10
-260.699768
 20
191.499878
 11
-260.199890
 21
191.000000
  0
LINE
  8
0
 10
-257.499451
 20
191.499496
 11
-257.999451
 21
190.999481
  0
LINE
  8
0
 10
-261.500000
 20
197.999985
 11
-260.700012
 21
197.999985
  0
LINE
  8
0
 10
-261.500000
 20
194.000000
 11
-260.700012
 21
194.000000
  0
LINE
  8
0
 10
-258.000000
 20
216.449982
 11
-258.000000
 21
203.949982
  0
LINE
  8
0
 10
-257.399994
 20
215.850006
 11
-257.399994
 21
204.549988
  0
LINE
  8
0
 10
-256.799988
 20
216.449982
 11
-256.799988
 21
203.949982
  0
LINE
  8
0
 10
-256.200012
 20
216.449982
 11
-256.200012
 21
203.949982
  0
LINE
  8
0
 10
-256.800018
 20
216.449982
 11
-242.000031
 21
216.449982
  0
LINE
  8
0
 10
-256.800018
 20
203.949982
 11
-251.900024
 21
203.949982
  0
LINE
  8
0
 10
-257.400757
 20
215.850754
 11
-256.800781
 21
216.450745
  0
LINE
  8
0
 10
-257.400024
 20
204.549942
 11
-256.800049
 21
203.949936
  0
LINE
  8
0
 10
-258.000031
 20
205.199982
 11
-257.400024
 21
205.199982
  0
LINE
  8
0
 10
-258.000031
 20
215.199982
 11
-257.400024
 21
215.199982
  0
LINE
  8
0
 10
-242.612701
 20
159.999969
 11
264.367371
 21
159.999969
  0
LINE
  8
0
 10
-251.100006
 20
203.474976
 11
-239.800018
 21
203.474976
  0
LINE
  8
0
 10
-241.688828
 20
205.363876
 11
-238.999939
 21
202.674988
  0
LINE
  8
0
 10
-241.689026
 20
205.364014
 11
-241.689026
 21
216.449982
  0
LINE
  8
0
 10
-254.700012
 20
199.499985
 11
-251.900024
 21
199.499985
  0
LINE
  8
0
 10
-254.700012
 20
192.500015
 11
-251.900024
 21
192.500015
  0
LINE
  8
0
 10
-254.699722
 20
202.999832
 11
-255.099731
 21
202.306992
  0
LINE
  8
0
 10
-254.699829
 20
189.000046
 11
-255.099869
 21
189.692932
  0
LINE
  8
0
 10
-239.000122
 20
199.999893
 11
-235.000122
 21
199.499878
  0
LINE
  8
0
 10
-239.000076
 20
191.999878
 11
-235.000046
 21
192.499893
  0
LINE
  8
0
 10
-239.000122
 20
201.000031
 11
-235.000122
 21
200.500031
  0
LINE
  8
0
 10
-234.999954
 20
191.499786
 11
-238.999985
 21
190.999802
  0
LINE
  8
0
 10
286.500061
 20
131.749969
 11
286.500061
 21
118.249969
  0
LINE
  8
0
 10
276.500061
 20
131.749969
 11
276.500061
 21
118.249969
  0
LINE
  8
0
 10
276.500000
 20
131.749954
 11
286.500000
 21
131.749954
  0
LINE
  8
0
 10
276.500000
 20
118.250008
 11
286.500000
 21
118.250008
  0
LINE
  8
0
 10
276.499207
 20
131.749222
 11
275.249207
 21
132.999237
  0
LINE
  8
0
 10
276.499756
 20
118.250122
 11
275.249756
 21
117.000130
  0
LINE
  8
0
 10
275.250061
 20
132.999969
 11
275.250061
 21
116.999969
  0
LINE
  8
0
 10
286.500000
 20
126.499977
 11
287.000000
 21
126.499977
  0
LINE
  8
0
 10
286.500000
 20
123.499947
 11
287.000000
 21
123.499947
  0
LINE
  8
0
 10
247.375320
 20
124.999969
 11
298.500000
 21
124.999969
  0
LINE
  8
0
 10
255.848526
 20
135.969620
 11
261.151489
 21
135.969620
  0
LINE
  8
0
 10
255.848526
 20
130.427734
 11
261.151489
 21
130.427734
  0
LINE
  8
0
 10
255.848526
 20
119.572205
 11
261.151489
 21
119.572205
  0
LINE
  8
0
 10
255.848526
 20
114.030342
 11
261.151489
 21
114.030342
  0
LINE
  8
0
 10
254.999924
 20
115.499786
 11
255.848404
 21
114.030144
  0
LINE
  8
0
 10
255.000168
 20
134.499847
 11
255.848709
 21
135.969513
  0
LINE
  8
0
 10
262.000427
 20
134.500122
 11
261.151917
 21
135.969788
  0
LINE
  8
0
 10
262.000183
 20
115.499954
 11
261.151672
 21
114.030281
  0
LINE
  8
0
 10
262.000000
 20
134.499985
 11
262.000000
 21
115.499985
  0
LINE
  8
0
 10
262.000000
 20
132.999954
 11
275.250000
 21
132.999954
  0
LINE
  8
0
 10
262.000000
 20
132.187973
 11
276.062012
 21
132.187973
  0
LINE
  8
0
 10
262.000000
 20
117.811966
 11
276.062012
 21
117.811966
  0
LINE
  8
0
 10
262.000000
 20
117.000008
 11
275.250000
 21
117.000008
  0
LINE
  8
0
 10
-266.500000
 20
131.749969
 11
-266.500000
 21
118.249969
  0
LINE
  8
0
 10
286.999939
 20
131.299988
 11
286.999939
 21
118.699989
  0
LINE
  8
0
 10
-256.500000
 20
131.749969
 11
-256.500000
 21
118.249969
  0
LINE
  8
0
 10
-256.500031
 20
131.749954
 11
-266.500031
 21
131.749954
  0
LINE
  8
0
 10
-256.500031
 20
118.250008
 11
-266.500031
 21
118.250008
  0
LINE
  8
0
 10
-256.499634
 20
131.749634
 11
-255.249603
 21
132.999634
  0
LINE
  8
0
 10
-256.499939
 20
118.250084
 11
-255.249954
 21
117.000107
  0
LINE
  8
0
 10
-255.250000
 20
132.999969
 11
-255.250000
 21
116.999969
  0
LINE
  8
0
 10
294.000061
 20
131.299988
 11
294.000061
 21
118.699989
  0
LINE
  8
0
 10
293.799988
 20
131.499969
 11
287.200012
 21
131.499969
  0
LINE
  8
0
 10
293.799988
 20
118.499947
 11
287.200012
 21
118.499947
  0
LINE
  8
0
 10
287.000061
 20
131.299896
 11
287.200073
 21
131.499878
  0
LINE
  8
0
 10
287.000305
 20
118.700356
 11
287.200317
 21
118.500381
  0
LINE
  8
0
 10
293.999817
 20
131.299774
 11
293.799805
 21
131.499802
  0
LINE
  8
0
 10
294.000000
 20
118.700012
 11
293.799988
 21
118.500000
  0
LINE
  8
0
 10
-266.500031
 20
126.499977
 11
-267.000000
 21
126.499977
  0
LINE
  8
0
 10
-266.500031
 20
123.499947
 11
-267.000000
 21
123.499947
  0
LINE
  8
0
 10
-227.375336
 20
124.999969
 11
-278.500000
 21
124.999969
  0
LINE
  8
0
 10
-235.848541
 20
135.969620
 11
-241.151520
 21
135.969620
  0
LINE
  8
0
 10
-235.848541
 20
130.427734
 11
-241.151520
 21
130.427734
  0
LINE
  8
0
 10
-235.848541
 20
119.572205
 11
-241.151520
 21
119.572205
  0
LINE
  8
0
 10
-235.848541
 20
114.030342
 11
-241.151520
 21
114.030342
  0
LINE
  8
0
 10
-234.999237
 20
115.499474
 11
-235.847748
 21
114.029816
  0
LINE
  8
0
 10
-234.999878
 20
134.500031
 11
-235.848404
 21
135.969681
  0
LINE
  8
0
 10
-241.999939
 20
134.499908
 11
-241.151428
 21
135.969559
  0
LINE
  8
0
 10
-241.999832
 20
115.500092
 11
-241.151306
 21
114.030411
  0
LINE
  8
0
 10
-241.999969
 20
134.499985
 11
-241.999969
 21
115.499985
  0
LINE
  8
0
 10
-242.000000
 20
132.999954
 11
-255.250031
 21
132.999954
  0
LINE
  8
0
 10
-242.000000
 20
132.187973
 11
-256.062012
 21
132.187973
  0
LINE
  8
0
 10
-242.000000
 20
117.811966
 11
-256.062012
 21
117.811966
  0
LINE
  8
0
 10
-242.000000
 20
117.000008
 11
-255.250031
 21
117.000008
  0
LINE
  8
0
 10
287.200012
 20
118.499969
 11
287.200012
 21
131.499969
  0
LINE
  8
0
 10
293.800049
 20
131.499969
 11
293.800049
 21
118.499969
  0
LINE
  8
0
 10
-274.000000
 20
131.299957
 11
-274.000000
 21
118.699966
  0
LINE
  8
0
 10
-267.000000
 20
131.299957
 11
-267.000000
 21
118.699966
  0
LINE
  8
0
 10
-267.200012
 20
131.499969
 11
-273.799988
 21
131.499969
  0
LINE
  8
0
 10
-267.200012
 20
118.499947
 11
-273.799988
 21
118.499947
  0
LINE
  8
0
 10
-273.999695
 20
131.299637
 11
-273.799683
 21
131.499634
  0
LINE
  8
0
 10
-274.000122
 20
118.699860
 11
-273.800110
 21
118.499847
  0
LINE
  8
0
 10
-266.999908
 20
131.300049
 11
-267.199951
 21
131.500061
  0
LINE
  8
0
 10
-266.999725
 20
118.699738
 11
-267.199738
 21
118.499725
  0
LINE
  8
0
 10
33.000046
 20
83.999977
 11
43.000046
 21
83.999977
  0
LINE
  8
0
 10
33.000046
 20
86.999962
 11
43.000046
 21
86.999962
  0
LINE
  8
0
 10
34.850044
 20
83.999977
 11
34.850044
 21
82.999985
  0
LINE
  8
0
 10
41.150055
 20
83.999977
 11
41.150055
 21
82.999985
  0
LINE
  8
0
 10
37.347427
 20
82.299973
 11
37.347427
 21
81.552795
  0
LINE
  8
0
 10
38.644073
 20
82.299973
 11
38.644073
 21
81.551399
  0
LINE
  8
0
 10
34.850044
 20
82.999977
 11
41.150055
 21
82.999977
  0
LINE
  8
0
 10
37.347427
 20
82.299973
 11
38.644073
 21
82.299973
  0
LINE
  8
0
 10
-166.999954
 20
83.999977
 11
-156.999954
 21
83.999977
  0
LINE
  8
0
 10
-166.999954
 20
86.999962
 11
-156.999954
 21
86.999962
  0
LINE
  8
0
 10
-162.652603
 20
82.299973
 11
-162.652603
 21
81.552795
  0
LINE
  8
0
 10
-162.652573
 20
82.299973
 11
-161.355927
 21
82.299973
  0
LINE
  8
0
 10
-161.355911
 20
82.299973
 11
-161.355911
 21
81.551399
  0
LINE
  8
0
 10
-158.849960
 20
83.999977
 11
-158.849960
 21
82.999985
  0
LINE
  8
0
 10
-165.149963
 20
83.999977
 11
-165.149963
 21
82.999985
  0
LINE
  8
0
 10
-165.149963
 20
82.999977
 11
-158.849960
 21
82.999977
  0
LINE
  8
0
 10
-215.000000
 20
219.999969
 11
-165.000015
 21
219.999969
  0
LINE
  8
0
 10
-215.000000
 20
99.999969
 11
-165.000015
 21
99.999969
  0
LINE
  8
0
 10
-14.999985
 20
219.999969
 11
235.000015
 21
219.999969
  0
LINE
  8
0
 10
-14.999985
 20
99.999969
 11
235.000015
 21
99.999969
  0
LINE
  8
0
 10
230.000015
 20
217.999969
 11
230.000015
 21
212.999969
  0
LINE
  8
0
 10
180.000015
 20
217.999969
 11
180.000015
 21
212.999969
  0
LINE
  8
0
 10
-210.000000
 20
217.999969
 11
-210.000000
 21
212.999969
  0
LINE
  8
0
 10
-210.000000
 20
217.999969
 11
-165.000015
 21
217.999969
  0
LINE
  8
0
 10
180.000015
 20
217.999969
 11
230.000015
 21
217.999969
  0
LINE
  8
0
 10
-14.999985
 20
215.999969
 11
180.000015
 21
215.999969
  0
LINE
  8
0
 10
205.000015
 20
217.999969
 11
205.000015
 21
212.999969
  0
LINE
  8
0
 10
-185.000000
 20
217.999969
 11
-185.000000
 21
212.999969
  0
LINE
  8
0
 10
-172.999954
 20
88.999977
 11
-172.999954
 21
88.499969
  0
LINE
  8
0
 10
-152.000015
 20
88.999977
 11
-152.000015
 21
88.499969
  0
LINE
  8
0
 10
27.000046
 20
88.999977
 11
27.000046
 21
88.499969
  0
LINE
  8
0
 10
47.999985
 20
88.999977
 11
47.999985
 21
88.499969
  0
LINE
  8
0
 10
-172.999954
 20
88.499969
 11
-152.000015
 21
88.499969
  0
LINE
  8
0
 10
27.000046
 20
88.499969
 11
47.999985
 21
88.499969
  0
LINE
  8
0
 10
-235.000000
 20
182.999969
 11
255.000015
 21
182.999969
  0
LINE
  8
0
 10
-235.000000
 20
137.000000
 11
255.000015
 21
137.000000
  0
LINE
  8
0
 10
-235.000000
 20
181.499954
 11
255.000015
 21
181.499954
  0
LINE
  8
0
 10
-235.000000
 20
184.499969
 11
255.000015
 21
184.499969
  0
LINE
  8
0
 10
-235.000000
 20
135.500000
 11
255.000015
 21
135.500000
  0
LINE
  8
0
 10
-235.000000
 20
138.500000
 11
255.000015
 21
138.500000
  0
LINE
  8
0
 10
-161.999954
 20
89.697235
 11
-161.999954
 21
80.698235
  0
LINE
  8
0
 10
-166.999954
 20
88.499969
 11
-166.999954
 21
83.999977
  0
LINE
  8
0
 10
-156.999954
 20
88.499969
 11
-156.999954
 21
83.999977
  0
LINE
  8
0
 10
38.000046
 20
90.274307
 11
38.000046
 21
80.705536
  0
LINE
  8
0
 10
33.000046
 20
88.499969
 11
33.000046
 21
83.999977
  0
LINE
  8
0
 10
43.000046
 20
88.499969
 11
43.000046
 21
83.999977
  0
LINE
  8
0
 10
-267.612885
 20
196.000000
 11
-230.176086
 21
196.000000
  0
LINE
  8
0
 10
-95.499969
 20
221.999969
 11
-84.500000
 21
221.999969
  0
CIRCLE
  8
0
 10
245.000015
 20
114.999969
 40
4.150000
  0
ARC
  8
0
 10
243.900040
 20
116.099976
 40
0.500000
 50
270.000000
 51
0.000000
  0
ARC
  8
0
 10
246.099991
 20
116.099976
 40
0.500000
 50
180.000000
 51
270.000000
  0
ARC
  8
0
 10
246.099991
 20
113.899963
 40
0.500000
 50
90.000000
 51
180.000000
  0
ARC
  8
0
 10
243.900040
 20
113.899963
 40
0.500000
 50
0.000000
 51
90.000000
  0
ARC
  8
0
 10
246.099991
 20
203.899994
 40
0.500000
 50
90.000000
 51
180.000000
  0
ARC
  8
0
 10
243.900040
 20
203.899994
 40
0.500000
 50
0.000000
 51
90.000000
  0
CIRCLE
  8
0
 10
245.000015
 20
205.000000
 40
4.150000
  0
ARC
  8
0
 10
243.900040
 20
206.100006
 40
0.500000
 50
270.000000
 51
0.000000
  0
ARC
  8
0
 10
246.099991
 20
206.100006
 40
0.500000
 50
180.000000
 51
270.000000
  0
ARC
  8
0
 10
-223.899994
 20
206.100006
 40
0.500000
 50
180.000000
 51
270.000000
  0
CIRCLE
  8
0
 10
-225.000000
 20
114.999969
 40
4.150000
  0
ARC
  8
0
 10
-226.099976
 20
116.099976
 40
0.500000
 50
270.000000
 51
0.000000
  0
ARC
  8
0
 10
-223.899994
 20
116.099976
 40
0.500000
 50
180.000000
 51
270.000000
  0
ARC
  8
0
 10
-223.899994
 20
113.899963
 40
0.500000
 50
90.000000
 51
180.000000
  0
ARC
  8
0
 10
-226.099976
 20
113.899963
 40
0.500000
 50
0.000000
 51
90.000000
  0
ARC
  8
0
 10
-223.899994
 20
203.899994
 40
0.500000
 50
90.000000
 51
180.000000
  0
ARC
  8
0
 10
-226.099976
 20
203.899994
 40
0.500000
 50
0.000000
 51
90.000000
  0
CIRCLE
  8
0
 10
-225.000000
 20
205.000000
 40
4.150000
  0
ARC
  8
0
 10
-226.099976
 20
206.100006
 40
0.500000
 50
270.000000
 51
0.000000
  0
CIRCLE
  8
0
 10
-89.999985
 20
221.999969
 40
2.999999
  0
CIRCLE
  8
0
 10
-150.000015
 20
221.999969
 40
3.999999
  0
CIRCLE
  8
0
 10
-29.999985
 20
221.999969
 40
3.999999
  0
CIRCLE
  8
0
 10
-29.999985
 20
97.999977
 40
3.999999
  0
CIRCLE
  8
0
 10
-150.000015
 20
97.999977
 40
3.999999
  0
CIRCLE
  8
0
 10
-150.000015
 20
221.999969
 40
2.699999
  0
CIRCLE
  8
0
 10
-29.999985
 20
221.999969
 40
2.699999
  0
CIRCLE
  8
0
 10
-29.999985
 20
97.999977
 40
2.699999
  0
CIRCLE
  8
0
 10
-150.000015
 20
97.999977
 40
2.699999
  0
ARC
  8
0
 10
-258.499969
 20
214.949982
 40
1.500000
 50
90.000000
 51
180.000000
  0
ARC
  8
0
 10
-258.499969
 20
205.450012
 40
1.500000
 50
180.000000
 51
270.000000
  0
ARC
  8
0
 10
-242.000000
 20
213.449982
 40
3.000000
 50
0.000000
 51
90.000000
  0
ARC
  8
0
 10
-251.071869
 20
201.250000
 40
4.028121
 50
154.250214
 51
205.749985
  0
ARC
  8
0
 10
-239.587555
 20
196.000015
 40
15.512425
 50
166.960388
 51
193.039536
  0
ARC
  8
0
 10
-251.071808
 20
190.750000
 40
4.028176
 50
154.250107
 51
205.749603
  0
ARC
  8
0
 10
257.051758
 20
133.198700
 40
4.948380
 50
325.946198
 51
25.945894
  0
ARC
  8
0
 10
259.948242
 20
133.198700
 40
4.948333
 50
154.053864
 51
214.053955
  0
ARC
  8
0
 10
257.051758
 20
116.801254
 40
4.948350
 50
334.053864
 51
34.054058
  0
ARC
  8
0
 10
244.215469
 20
124.999969
 40
17.784586
 50
342.230103
 51
17.769844
  0
ARC
  8
0
 10
272.784546
 20
124.999969
 40
17.784561
 50
162.230026
 51
197.769867
  0
ARC
  8
0
 10
259.948242
 20
116.801254
 40
4.948333
 50
145.946045
 51
205.946136
  0
ARC
  8
0
 10
-237.051727
 20
133.198700
 40
4.948340
 50
154.054108
 51
214.054001
  0
ARC
  8
0
 10
-239.948273
 20
133.198700
 40
4.948355
 50
325.945984
 51
25.945894
  0
ARC
  8
0
 10
-237.051697
 20
116.801254
 40
4.948346
 50
145.946136
 51
205.946060
  0
ARC
  8
0
 10
-224.215424
 20
124.999969
 40
17.784555
 50
162.230072
 51
197.769852
  0
ARC
  8
0
 10
-252.784546
 20
124.999969
 40
17.784555
 50
342.230072
 51
17.769905
  0
ARC
  8
0
 10
-239.948273
 20
116.801254
 40
4.948347
 50
334.053955
 51
34.053860
  0
ARC
  8
0
 10
38.000046
 20
85.557465
 40
4.057498
 50
219.073242
 51
260.744202
  0
ARC
  8
0
 10
38.000046
 20
85.557465
 40
4.057496
 50
279.132935
 51
320.926819
  0
ARC
  8
0
 10
-161.999954
 20
85.557465
 40
4.057504
 50
219.073181
 51
260.744202
  0
ARC
  8
0
 10
-161.999954
 20
85.557465
 40
4.057496
 50
279.132935
 51
320.926819
  0
ARC
  8
0
 10
-201.999969
 20
209.999939
 40
4.500005
 50
41.810516
 51
138.189484
  0
ARC
  8
0
 10
222.000015
 20
209.999939
 40
4.500005
 50
41.810516
 51
138.189484
  0
POINT
  8
0
 10
-429.999908
 20
159.999969
  0
POINT
  8
0
 10
-353.000031
 20
159.999969
  0
LINE
  8
0
 10
-429.999878
 20
230.999939
 11
-384.500092
 21
230.999939
  0
LINE
  8
0
 10
-429.999878
 20
88.999977
 11
-384.500092
 21
88.999977
  0
LINE
  8
0
 10
-349.999908
 20
229.999969
 11
-349.999908
 21
214.999969
  0
LINE
  8
0
 10
-429.999908
 20
230.999969
 11
-429.999908
 21
88.999977
  0
LINE
  8
0
 10
-409.086456
 20
196.000000
 11
-372.368378
 21
196.000000
  0
LINE
  8
0
 10
-367.000427
 20
89.999969
 11
-349.999878
 21
89.999969
  0
LINE
  8
0
 10
-367.000092
 20
230.000000
 11
-349.999878
 21
230.000000
  0
LINE
  8
0
 10
-353.000031
 20
104.999969
 11
-349.999878
 21
104.999969
  0
LINE
  8
0
 10
-353.000031
 20
215.000000
 11
-349.999878
 21
215.000000
  0
LINE
  8
0
 10
-349.999908
 20
104.999969
 11
-349.999908
 21
89.999969
  0
LINE
  8
0
 10
-428.999969
 20
229.999939
 11
-428.999969
 21
89.999969
  0
LINE
  8
0
 10
-353.000031
 20
215.999969
 11
-353.000031
 21
213.499969
  0
LINE
  8
0
 10
-353.000305
 20
104.000046
 11
-368.000275
 21
89.000069
  0
LINE
  8
0
 10
-353.000122
 20
215.999969
 11
-368.000000
 21
230.999847
  0
LINE
  8
0
 10
-428.000397
 20
231.000214
 11
-429.000397
 21
230.000198
  0
LINE
  8
0
 10
-429.000000
 20
90.000076
 11
-427.999969
 21
89.000031
  0
LINE
  8
0
 10
-384.500122
 20
230.999969
 11
-384.500122
 21
227.499969
  0
LINE
  8
0
 10
-377.499908
 20
230.999969
 11
-377.499908
 21
227.499969
  0
LINE
  8
0
 10
-384.500092
 20
227.500000
 11
-377.499878
 21
227.500000
  0
LINE
  8
0
 10
-384.500092
 20
92.499969
 11
-377.499878
 21
92.499969
  0
LINE
  8
0
 10
-384.500122
 20
92.499969
 11
-384.500122
 21
88.999977
  0
LINE
  8
0
 10
-377.499908
 20
92.499969
 11
-377.499908
 21
88.999977
  0
LINE
  8
0
 10
-377.499878
 20
230.999939
 11
-368.000031
 21
230.999939
  0
LINE
  8
0
 10
-377.499878
 20
88.999977
 11
-368.000366
 21
88.999977
  0
LINE
  8
0
 10
-358.000031
 20
106.499977
 11
-353.000031
 21
106.499977
  0
LINE
  8
0
 10
-358.000031
 20
213.499939
 11
-353.000031
 21
213.499939
  0
LINE
  8
0
 10
-358.000031
 20
110.499985
 11
-355.500031
 21
110.499985
  0
LINE
  8
0
 10
-358.000031
 20
209.499969
 11
-355.500031
 21
209.499969
  0
LINE
  8
0
 10
-358.000031
 20
175.499985
 11
-355.500031
 21
175.499985
  0
LINE
  8
0
 10
-358.000031
 20
179.499985
 11
-355.500031
 21
179.499985
  0
LINE
  8
0
 10
-358.000031
 20
144.499985
 11
-355.500031
 21
144.499985
  0
LINE
  8
0
 10
-358.000031
 20
140.499969
 11
-355.500031
 21
140.499969
  0
LINE
  8
0
 10
-358.000031
 20
213.499969
 11
-358.000031
 21
209.499969
  0
LINE
  8
0
 10
-358.000031
 20
179.499985
 11
-358.000031
 21
175.499985
  0
LINE
  8
0
 10
-358.000031
 20
144.499985
 11
-358.000031
 21
140.499985
  0
LINE
  8
0
 10
-358.000031
 20
110.499985
 11
-358.000031
 21
106.499977
  0
LINE
  8
0
 10
-355.500031
 20
175.499985
 11
-355.500031
 21
144.499985
  0
LINE
  8
0
 10
-355.500031
 20
140.499985
 11
-355.500031
 21
110.499985
  0
LINE
  8
0
 10
-355.500031
 20
209.499969
 11
-355.500031
 21
179.499985
  0
LINE
  8
0
 10
-353.000031
 20
106.499977
 11
-353.000031
 21
103.999954
  0
LINE
  8
0
 10
-421.000183
 20
135.999969
 11
-421.000183
 21
123.999977
  0
LINE
  8
0
 10
-421.000183
 20
195.999969
 11
-421.000183
 21
183.999969
  0
LINE
  8
0
 10
-427.000092
 20
189.999969
 11
-414.999878
 21
189.999969
  0
LINE
  8
0
 10
-427.000092
 20
129.999969
 11
-414.999878
 21
129.999969
  0
LINE
  8
0
 10
-429.500092
 20
114.999969
 11
-414.500092
 21
114.999969
  0
LINE
  8
0
 10
-429.500092
 20
205.000000
 11
-414.500092
 21
205.000000
  0
LINE
  8
0
 10
-399.500092
 20
225.000000
 11
-384.500092
 21
225.000000
  0
LINE
  8
0
 10
-399.500092
 20
94.999969
 11
-384.500092
 21
94.999969
  0
LINE
  8
0
 10
-392.000122
 20
232.499969
 11
-392.000122
 21
217.499969
  0
LINE
  8
0
 10
-422.000122
 20
212.499969
 11
-422.000122
 21
197.499969
  0
LINE
  8
0
 10
-422.000122
 20
122.499969
 11
-422.000122
 21
107.499969
  0
LINE
  8
0
 10
-392.000122
 20
102.499969
 11
-392.000122
 21
87.499969
  0
LINE
  8
0
 10
-394.250031
 20
226.299011
 11
-394.250031
 21
223.700928
  0
LINE
  8
0
 10
-389.750183
 20
226.299011
 11
-389.750183
 21
223.700928
  0
LINE
  8
0
 10
-394.250031
 20
226.299042
 11
-392.000031
 21
227.598083
  0
LINE
  8
0
 10
-392.000031
 20
222.402100
 11
-389.750061
 21
223.701141
  0
LINE
  8
0
 10
-392.000153
 20
227.598053
 11
-389.749908
 21
226.298874
  0
LINE
  8
0
 10
-394.250153
 20
223.700928
 11
-391.999908
 21
222.401764
  0
LINE
  8
0
 10
-424.250031
 20
206.299011
 11
-424.250031
 21
203.700928
  0
LINE
  8
0
 10
-419.750183
 20
206.299011
 11
-419.750183
 21
203.700928
  0
LINE
  8
0
 10
-424.250122
 20
206.299194
 11
-422.000122
 21
207.598236
  0
LINE
  8
0
 10
-422.000031
 20
202.401855
 11
-419.750031
 21
203.700897
  0
LINE
  8
0
 10
-422.000183
 20
207.598053
 11
-419.749939
 21
206.298874
  0
LINE
  8
0
 10
-424.250153
 20
203.700912
 11
-422.000214
 21
202.401917
  0
LINE
  8
0
 10
-424.250031
 20
116.298996
 11
-424.250031
 21
113.700951
  0
LINE
  8
0
 10
-419.750183
 20
116.298996
 11
-419.750183
 21
113.700951
  0
LINE
  8
0
 10
-424.250214
 20
116.299156
 11
-422.000214
 21
117.598198
  0
LINE
  8
0
 10
-422.000092
 20
112.401855
 11
-419.750092
 21
113.700897
  0
LINE
  8
0
 10
-422.000183
 20
117.597977
 11
-419.749969
 21
116.298813
  0
LINE
  8
0
 10
-424.250153
 20
113.700882
 11
-422.000244
 21
112.401886
  0
LINE
  8
0
 10
-394.250031
 20
96.298996
 11
-394.250031
 21
93.700928
  0
LINE
  8
0
 10
-389.750183
 20
96.298996
 11
-389.750183
 21
93.700928
  0
LINE
  8
0
 10
-394.250275
 20
96.299240
 11
-392.000244
 21
97.598282
  0
LINE
  8
0
 10
-392.000122
 20
92.401970
 11
-389.750122
 21
93.701004
  0
LINE
  8
0
 10
-392.000183
 20
97.597992
 11
-389.749969
 21
96.298828
  0
LINE
  8
0
 10
-394.250183
 20
93.700859
 11
-392.000275
 21
92.401863
  0
LINE
  8
0
 10
-353.000031
 20
211.999969
 11
-353.000031
 21
184.499939
  0
LINE
  8
0
 10
-358.000031
 20
106.999985
 11
-353.999939
 21
106.999985
  0
LINE
  8
0
 10
-358.000031
 20
212.999969
 11
-353.999939
 21
212.999969
  0
LINE
  8
0
 10
-354.000092
 20
212.999939
 11
-353.000061
 21
211.999908
  0
LINE
  8
0
 10
-352.999847
 20
107.999741
 11
-353.999847
 21
106.999741
  0
LINE
  8
0
 10
-351.300110
 20
209.001251
 11
-351.300110
 21
200.998703
  0
LINE
  8
0
 10
-352.999908
 20
200.849457
 11
-351.299866
 21
200.998184
  0
LINE
  8
0
 10
-353.000183
 20
209.149429
 11
-351.300110
 21
209.000702
  0
LINE
  8
0
 10
-356.908722
 20
205.000000
 11
-348.727570
 21
205.000000
  0
LINE
  8
0
 10
-351.000153
 20
204.399963
 11
-350.517456
 21
204.399963
  0
LINE
  8
0
 10
-351.000153
 20
205.599976
 11
-350.517456
 21
205.599976
  0
LINE
  8
0
 10
-351.000183
 20
205.599976
 11
-351.000183
 21
204.399963
  0
LINE
  8
0
 10
-356.908722
 20
114.999969
 11
-348.727570
 21
114.999969
  0
LINE
  8
0
 10
-351.300110
 20
119.001244
 11
-351.300110
 21
110.998703
  0
LINE
  8
0
 10
-352.999847
 20
110.849548
 11
-351.300171
 21
110.998253
  0
LINE
  8
0
 10
-353.000183
 20
119.149628
 11
-351.300140
 21
119.000900
  0
LINE
  8
0
 10
-351.000153
 20
114.399994
 11
-350.517456
 21
114.399994
  0
LINE
  8
0
 10
-351.000153
 20
115.599945
 11
-350.517456
 21
115.599945
  0
LINE
  8
0
 10
-351.000183
 20
115.599976
 11
-351.000183
 21
114.399979
  0
LINE
  8
0
 10
-398.999969
 20
218.975037
 11
-398.999969
 21
185.626801
  0
LINE
  8
0
 10
-398.999969
 20
202.999878
 11
-392.937897
 21
199.499939
  0
LINE
  8
0
 10
-405.062256
 20
199.500214
 11
-399.000061
 21
203.000214
  0
LINE
  8
0
 10
-405.062317
 20
192.500000
 11
-405.062317
 21
199.499985
  0
LINE
  8
0
 10
-399.000092
 20
188.999924
 11
-405.062134
 21
192.499847
  0
LINE
  8
0
 10
-392.938049
 20
192.500488
 11
-399.000214
 21
189.000488
  0
LINE
  8
0
 10
-392.937958
 20
199.499985
 11
-392.937958
 21
192.500000
  0
LINE
  8
0
 10
-403.500183
 20
205.862640
 11
-403.500183
 21
201.361908
  0
LINE
  8
0
 10
-394.500122
 20
205.862640
 11
-394.500122
 21
201.361908
  0
LINE
  8
0
 10
-396.249908
 20
204.587494
 11
-396.249908
 21
202.437195
  0
LINE
  8
0
 10
-401.750031
 20
204.587494
 11
-401.750031
 21
202.437195
  0
LINE
  8
0
 10
-382.999695
 20
218.975037
 11
-382.999695
 21
185.626801
  0
LINE
  8
0
 10
-383.000000
 20
202.999893
 11
-376.937927
 21
199.499954
  0
LINE
  8
0
 10
-389.062317
 20
199.500015
 11
-383.000122
 21
203.000031
  0
LINE
  8
0
 10
-389.062042
 20
192.500000
 11
-389.062042
 21
199.499985
  0
LINE
  8
0
 10
-383.000122
 20
188.999939
 11
-389.062195
 21
192.499878
  0
LINE
  8
0
 10
-376.938141
 20
192.500320
 11
-383.000336
 21
189.000320
  0
LINE
  8
0
 10
-376.937683
 20
199.499985
 11
-376.937683
 21
192.500000
  0
LINE
  8
0
 10
-387.499908
 20
205.862640
 11
-387.499908
 21
201.361908
  0
LINE
  8
0
 10
-378.499817
 20
205.862640
 11
-378.499817
 21
201.361908
  0
LINE
  8
0
 10
-380.249634
 20
204.587494
 11
-380.249634
 21
202.437195
  0
LINE
  8
0
 10
-385.749756
 20
204.587494
 11
-385.749756
 21
202.437195
  0
LINE
  8
0
 10
-369.999908
 20
139.767014
 11
-369.999908
 21
109.849411
  0
LINE
  8
0
 10
-369.999939
 20
135.969315
 11
-360.500305
 21
130.484695
  0
LINE
  8
0
 10
-379.499908
 20
130.484833
 11
-370.000061
 21
135.969574
  0
LINE
  8
0
 10
-379.499756
 20
119.515228
 11
-379.499756
 21
130.484711
  0
LINE
  8
0
 10
-370.000183
 20
114.030472
 11
-379.499817
 21
119.515099
  0
LINE
  8
0
 10
-360.500427
 20
119.515640
 11
-370.000275
 21
114.030899
  0
LINE
  8
0
 10
-360.500031
 20
130.484741
 11
-360.500031
 21
119.515244
  0
LINE
  8
0
 10
-382.499878
 20
124.999969
 11
-357.499878
 21
124.999969
  0
LINE
  8
0
 10
-406.384521
 20
210.199982
 11
-375.235657
 21
210.199982
  0
LINE
  8
0
 10
-389.900146
 20
83.499969
 11
-389.900146
 21
82.499969
  0
LINE
  8
0
 10
-383.599915
 20
83.499969
 11
-383.599915
 21
82.499969
  0
LINE
  8
0
 10
-387.402588
 20
81.799988
 11
-387.402588
 21
81.052811
  0
LINE
  8
0
 10
-386.105865
 20
81.799988
 11
-386.105865
 21
81.051414
  0
LINE
  8
0
 10
-389.900146
 20
82.499969
 11
-383.599915
 21
82.499969
  0
LINE
  8
0
 10
-387.402588
 20
81.799988
 11
-386.105835
 21
81.799988
  0
LINE
  8
0
 10
-391.000153
 20
83.499969
 11
-382.499878
 21
83.499969
  0
LINE
  8
0
 10
-377.499908
 20
88.999977
 11
-377.499908
 21
86.386711
  0
LINE
  8
0
 10
-391.000183
 20
88.999977
 11
-391.000183
 21
83.499969
  0
LINE
  8
0
 10
-382.500214
 20
83.500053
 11
-377.500244
 21
86.386780
  0
LINE
  8
0
 10
-387.000122
 20
88.999977
 11
-387.000122
 21
85.999969
  0
LINE
  8
0
 10
-387.000092
 20
85.999969
 11
-383.000031
 21
85.999969
  0
LINE
  8
0
 10
-383.000031
 20
91.999962
 11
-383.000031
 21
85.999969
  0
LINE
  8
0
 10
-381.499969
 20
92.499969
 11
-381.499969
 21
89.499962
  0
LINE
  8
0
 10
-381.499939
 20
89.499962
 11
-377.499878
 21
89.499962
  0
LINE
  8
0
 10
-383.999969
 20
90.999969
 11
-383.999969
 21
85.999969
  0
LINE
  8
0
 10
-383.000031
 20
91.499977
 11
-381.499939
 21
91.499977
  0
LINE
  8
0
 10
-353.000122
 20
184.499939
 11
-351.500183
 21
182.999985
  0
LINE
  8
0
 10
-351.499878
 20
182.999695
 11
-352.999878
 21
181.499710
  0
LINE
  8
0
 10
-353.000031
 20
138.499924
 11
-351.500092
 21
136.999954
  0
LINE
  8
0
 10
-351.500122
 20
137.000000
 11
-353.000122
 21
135.500000
  0
LINE
  8
0
 10
-353.000031
 20
181.499954
 11
-353.000031
 21
138.500000
  0
LINE
  8
0
 10
-353.000031
 20
135.500031
 11
-353.000031
 21
107.999954
  0
LINE
  8
0
 10
-433.723022
 20
159.999969
 11
-348.701385
 21
159.999969
  0
LINE
  8
0
 10
-390.525818
 20
184.499985
 11
-378.668976
 21
184.499985
  0
LINE
  8
0
 10
-384.500122
 20
190.324265
 11
-384.500122
 21
178.467682
  0
LINE
  8
0
 10
-382.500244
 20
185.734116
 11
-382.500244
 21
183.265854
  0
LINE
  8
0
 10
-386.499969
 20
185.734116
 11
-386.499969
 21
183.265854
  0
LINE
  8
0
 10
-386.499939
 20
185.734116
 11
-384.500092
 21
186.849991
  0
LINE
  8
0
 10
-384.500214
 20
186.850052
 11
-382.500122
 21
185.734039
  0
LINE
  8
0
 10
-382.500183
 20
183.265823
 11
-384.500061
 21
182.149963
  0
LINE
  8
0
 10
-384.499969
 20
182.149902
 11
-386.500061
 21
183.265900
  0
LINE
  8
0
 10
-417.525696
 20
211.499969
 11
-405.668823
 21
211.499969
  0
LINE
  8
0
 10
-411.499969
 20
217.324249
 11
-411.499969
 21
205.467682
  0
LINE
  8
0
 10
-409.500122
 20
212.734100
 11
-409.500122
 21
210.265839
  0
LINE
  8
0
 10
-413.499817
 20
212.734100
 11
-413.499817
 21
210.265839
  0
LINE
  8
0
 10
-413.499939
 20
212.734268
 11
-411.500061
 21
213.850143
  0
LINE
  8
0
 10
-411.500031
 20
213.850067
 11
-409.499908
 21
212.734055
  0
LINE
  8
0
 10
-409.500214
 20
210.265961
 11
-411.500061
 21
209.150085
  0
LINE
  8
0
 10
-411.499756
 20
209.149902
 11
-413.499878
 21
210.265930
  0
LINE
  8
0
 10
-417.525696
 20
184.499985
 11
-405.668823
 21
184.499985
  0
LINE
  8
0
 10
-411.499969
 20
190.324265
 11
-411.499969
 21
178.467682
  0
LINE
  8
0
 10
-409.500122
 20
185.734116
 11
-409.500122
 21
183.265854
  0
LINE
  8
0
 10
-413.499817
 20
185.734116
 11
-413.499817
 21
183.265854
  0
LINE
  8
0
 10
-413.499878
 20
185.734161
 11
-411.500031
 21
186.850037
  0
LINE
  8
0
 10
-411.499969
 20
186.850021
 11
-409.499847
 21
185.734009
  0
LINE
  8
0
 10
-409.500183
 20
183.265900
 11
-411.500031
 21
182.150040
  0
LINE
  8
0
 10
-411.499725
 20
182.149887
 11
-413.499817
 21
183.265900
  0
CIRCLE
  8
0
 10
-421.000183
 20
189.999969
 40
3.999999
  0
CIRCLE
  8
0
 10
-421.000183
 20
129.999969
 40
3.999999
  0
CIRCLE
  8
0
 10
-421.000183
 20
189.999969
 40
2.999999
  0
CIRCLE
  8
0
 10
-421.000183
 20
129.999969
 40
2.999999
  0
CIRCLE
  8
0
 10
-392.000122
 20
225.000000
 40
5.500000
  0
CIRCLE
  8
0
 10
-422.000122
 20
205.000000
 40
5.500000
  0
CIRCLE
  8
0
 10
-422.000122
 20
114.999969
 40
5.500000
  0
CIRCLE
  8
0
 10
-392.000122
 20
94.999969
 40
5.500000
  0
CIRCLE
  8
0
 10
-392.000122
 20
225.000000
 40
5.000000
  0
CIRCLE
  8
0
 10
-392.000122
 20
225.000000
 40
3.960769
  0
CIRCLE
  8
0
 10
-392.000122
 20
225.000000
 40
2.598076
  0
CIRCLE
  8
0
 10
-422.000122
 20
205.000000
 40
5.000000
  0
CIRCLE
  8
0
 10
-422.000122
 20
205.000000
 40
3.960769
  0
CIRCLE
  8
0
 10
-422.000122
 20
205.000000
 40
2.598076
  0
CIRCLE
  8
0
 10
-422.000122
 20
114.999969
 40
5.000000
  0
CIRCLE
  8
0
 10
-422.000122
 20
114.999969
 40
3.960769
  0
CIRCLE
  8
0
 10
-422.000122
 20
114.999969
 40
2.598076
  0
CIRCLE
  8
0
 10
-392.000122
 20
94.999969
 40
5.000000
  0
CIRCLE
  8
0
 10
-392.000122
 20
94.999969
 40
3.960769
  0
CIRCLE
  8
0
 10
-392.000122
 20
94.999969
 40
2.598076
  0
ARC
  8
0
 10
-360.906372
 20
205.000000
 40
10.406386
 50
337.387146
 51
356.694641
  0
ARC
  8
0
 10
-360.906372
 20
205.000000
 40
10.406380
 50
3.305282
 51
22.612705
  0
ARC
  8
0
 10
-360.906372
 20
114.999969
 40
10.406380
 50
3.305324
 51
22.612782
  0
ARC
  8
0
 10
-360.906372
 20
114.999969
 40
10.406381
 50
337.387207
 51
356.694672
  0
CIRCLE
  8
0
 10
-398.999969
 20
196.000000
 40
3.999999
  0
CIRCLE
  8
0
 10
-398.999969
 20
196.000000
 40
5.000000
  0
CIRCLE
  8
0
 10
-398.999969
 20
196.000000
 40
7.000000
  0
CIRCLE
  8
0
 10
-398.999969
 20
210.199982
 40
6.250000
  0
CIRCLE
  8
0
 10
-382.999695
 20
196.000000
 40
3.999999
  0
CIRCLE
  8
0
 10
-382.999695
 20
196.000000
 40
5.000000
  0
CIRCLE
  8
0
 10
-382.999695
 20
196.000000
 40
7.000000
  0
CIRCLE
  8
0
 10
-382.999695
 20
210.199982
 40
6.250000
  0
CIRCLE
  8
0
 10
-369.999908
 20
124.999969
 40
8.000000
  0
CIRCLE
  8
0
 10
-369.999908
 20
124.999969
 40
6.750000
  0
ARC
  8
0
 10
-386.750031
 20
85.057472
 40
4.057498
 50
279.133148
 51
320.926697
  0
ARC
  8
0
 10
-386.750031
 20
85.057472
 40
4.057492
 50
219.073303
 51
260.744202
  0
CIRCLE
  8
0
 10
-379.500122
 20
90.999947
 40
1.499999
  0
CIRCLE
  8
0
 10
-380.000244
 20
90.999947
 40
0.500000
  0
CIRCLE
  8
0
 10
-378.999969
 20
90.999947
 40
0.500000
  0
ARC
  8
0
 10
-384.500122
 20
90.999969
 40
0.500000
 50
0.000000
 51
90.000000
  0
ARC
  8
0
 10
-383.500183
 20
91.999962
 40
0.500000
 50
0.000000
 51
90.000000
  0
CIRCLE
  8
0
 10
-365.428528
 20
124.999969
 40
1.071429
  0
CIRCLE
  8
0
 10
-398.999969
 20
210.199982
 40
3.000001
  0
CIRCLE
  8
0
 10
-382.999695
 20
210.199982
 40
3.000001
  0
CIRCLE
  8
0
 10
-384.500122
 20
184.499985
 40
4.250000
  0
ARC
  8
0
 10
-384.500122
 20
184.499985
 40
5.000000
 50
0.000000
 51
64.893784
  0
CIRCLE
  8
0
 10
-411.499969
 20
211.499969
 40
4.250000
  0
CIRCLE
  8
0
 10
-411.499969
 20
211.499969
 40
5.000000
  0
CIRCLE
  8
0
 10
-411.499969
 20
184.499985
 40
4.250000
  0
CIRCLE
  8
0
 10
-411.499969
 20
184.499985
 40
5.000000
  0
ARC
  8
0
 10
-384.500122
 20
209.500000
 40
5.000000
 50
158.150986
 51
233.133209
  0
ARC
  8
0
 10
-384.500122
 20
184.499985
 40
4.999994
 50
100.239258
 51
0.000000
  0
POINT
  8
0
 10
359.999939
 20
159.999969
  0
POINT
  8
0
 10
436.999878
 20
159.999969
  0
LINE
  8
0
 10
435.999939
 20
88.999992
 11
391.499878
 21
88.999992
  0
LINE
  8
0
 10
435.999939
 20
230.999969
 11
391.499878
 21
230.999969
  0
LINE
  8
0
 10
356.999878
 20
90.000008
 11
356.999878
 21
105.000015
  0
LINE
  8
0
 10
436.999878
 20
89.999985
 11
436.999878
 21
229.999954
  0
LINE
  8
0
 10
445.333191
 20
159.999969
 11
352.721619
 21
159.999969
  0
LINE
  8
0
 10
374.000244
 20
229.999969
 11
356.999817
 21
229.999969
  0
LINE
  8
0
 10
374.000031
 20
89.999947
 11
356.999817
 21
89.999947
  0
LINE
  8
0
 10
359.999908
 20
214.999969
 11
356.999817
 21
214.999969
  0
LINE
  8
0
 10
359.999908
 20
104.999947
 11
356.999817
 21
104.999947
  0
LINE
  8
0
 10
356.999878
 20
215.000015
 11
356.999878
 21
230.000015
  0
LINE
  8
0
 10
435.999939
 20
89.999397
 11
435.999939
 21
90.000031
  0
LINE
  8
0
 10
359.999908
 20
104.000015
 11
359.999908
 21
106.500015
  0
LINE
  8
0
 10
360.000092
 20
215.999802
 11
374.999969
 21
230.999695
  0
LINE
  8
0
 10
359.999878
 20
104.000031
 11
374.999878
 21
89.000023
  0
LINE
  8
0
 10
391.499939
 20
89.000015
 11
391.499939
 21
92.500015
  0
LINE
  8
0
 10
384.499939
 20
89.000015
 11
384.499939
 21
92.500015
  0
LINE
  8
0
 10
391.499878
 20
92.499939
 11
384.499878
 21
92.499939
  0
LINE
  8
0
 10
391.499878
 20
227.499969
 11
384.499878
 21
227.499969
  0
LINE
  8
0
 10
391.499939
 20
227.500015
 11
391.499939
 21
231.000015
  0
LINE
  8
0
 10
384.499939
 20
227.500015
 11
384.499939
 21
231.000015
  0
LINE
  8
0
 10
384.499878
 20
88.999992
 11
375.000000
 21
88.999992
  0
LINE
  8
0
 10
384.499878
 20
230.999969
 11
375.000214
 21
230.999969
  0
LINE
  8
0
 10
364.999939
 20
213.499969
 11
359.999847
 21
213.499969
  0
LINE
  8
0
 10
364.999939
 20
106.499992
 11
359.999847
 21
106.499992
  0
LINE
  8
0
 10
364.999878
 20
209.499954
 11
362.499878
 21
209.499954
  0
LINE
  8
0
 10
364.999878
 20
110.499969
 11
362.499878
 21
110.499969
  0
LINE
  8
0
 10
364.999878
 20
144.499954
 11
362.499878
 21
144.499954
  0
LINE
  8
0
 10
364.999878
 20
140.499954
 11
362.499878
 21
140.499954
  0
LINE
  8
0
 10
364.999878
 20
175.499954
 11
362.499878
 21
175.499954
  0
LINE
  8
0
 10
364.999878
 20
179.499969
 11
362.499878
 21
179.499969
  0
LINE
  8
0
 10
364.999939
 20
106.500015
 11
364.999939
 21
110.500015
  0
LINE
  8
0
 10
364.999939
 20
140.500000
 11
364.999939
 21
144.500000
  0
LINE
  8
0
 10
364.999939
 20
175.500000
 11
364.999939
 21
179.500000
  0
LINE
  8
0
 10
364.999939
 20
209.500000
 11
364.999939
 21
213.500015
  0
LINE
  8
0
 10
362.499939
 20
144.500000
 11
362.499939
 21
175.500000
  0
LINE
  8
0
 10
362.499939
 20
179.500000
 11
362.499939
 21
209.500000
  0
LINE
  8
0
 10
362.499939
 20
110.500015
 11
362.499939
 21
140.500000
  0
LINE
  8
0
 10
359.999908
 20
213.500015
 11
359.999908
 21
216.000031
  0
LINE
  8
0
 10
427.999939
 20
184.000015
 11
427.999939
 21
196.000000
  0
LINE
  8
0
 10
427.999939
 20
124.000015
 11
427.999939
 21
136.000000
  0
LINE
  8
0
 10
433.999878
 20
129.999969
 11
421.999817
 21
129.999969
  0
LINE
  8
0
 10
433.999878
 20
189.999969
 11
421.999817
 21
189.999969
  0
LINE
  8
0
 10
436.499878
 20
204.999969
 11
421.499878
 21
204.999969
  0
LINE
  8
0
 10
436.499878
 20
114.999939
 11
421.499878
 21
114.999939
  0
LINE
  8
0
 10
406.499878
 20
94.999939
 11
391.499878
 21
94.999939
  0
LINE
  8
0
 10
406.499878
 20
224.999969
 11
391.499878
 21
224.999969
  0
LINE
  8
0
 10
398.999939
 20
87.500008
 11
398.999939
 21
102.500015
  0
LINE
  8
0
 10
428.999939
 20
107.500015
 11
428.999939
 21
122.500015
  0
LINE
  8
0
 10
428.999939
 20
197.500015
 11
428.999939
 21
212.500015
  0
LINE
  8
0
 10
398.999939
 20
217.500015
 11
398.999939
 21
232.500015
  0
LINE
  8
0
 10
401.249939
 20
93.700966
 11
401.249939
 21
96.299057
  0
LINE
  8
0
 10
396.749939
 20
93.700966
 11
396.749939
 21
96.299057
  0
LINE
  8
0
 10
401.249969
 20
93.700668
 11
398.999969
 21
92.401627
  0
LINE
  8
0
 10
398.999817
 20
97.597710
 11
396.749878
 21
96.298706
  0
LINE
  8
0
 10
398.999939
 20
92.401917
 11
396.749908
 21
93.700958
  0
LINE
  8
0
 10
401.249939
 20
96.299011
 11
398.999939
 21
97.598061
  0
LINE
  8
0
 10
431.249939
 20
113.700966
 11
431.249939
 21
116.299057
  0
LINE
  8
0
 10
426.749939
 20
113.700966
 11
426.749939
 21
116.299057
  0
LINE
  8
0
 10
431.249725
 20
113.700531
 11
428.999756
 21
112.401520
  0
LINE
  8
0
 10
428.999695
 20
117.597687
 11
426.749756
 21
116.298676
  0
LINE
  8
0
 10
429.000000
 20
112.402023
 11
426.750000
 21
113.701080
  0
LINE
  8
0
 10
431.250061
 20
116.299080
 11
429.000061
 21
117.598129
  0
LINE
  8
0
 10
431.249939
 20
203.700989
 11
431.249939
 21
206.299042
  0
LINE
  8
0
 10
426.749939
 20
203.700989
 11
426.749939
 21
206.299042
  0
LINE
  8
0
 10
431.249634
 20
203.700623
 11
428.999725
 21
202.401627
  0
LINE
  8
0
 10
428.999969
 20
207.597916
 11
426.750031
 21
206.298920
  0
LINE
  8
0
 10
428.999939
 20
202.401901
 11
426.749878
 21
203.700958
  0
LINE
  8
0
 10
431.250061
 20
206.299164
 11
429.000031
 21
207.598206
  0
LINE
  8
0
 10
401.249939
 20
223.700974
 11
401.249939
 21
226.299057
  0
LINE
  8
0
 10
396.749939
 20
223.700974
 11
396.749939
 21
226.299057
  0
LINE
  8
0
 10
401.249756
 20
223.700577
 11
398.999817
 21
222.401566
  0
LINE
  8
0
 10
398.999756
 20
227.597672
 11
396.749786
 21
226.298660
  0
LINE
  8
0
 10
399.000061
 20
222.402054
 11
396.750061
 21
223.701111
  0
LINE
  8
0
 10
401.249969
 20
226.299072
 11
398.999969
 21
227.598114
  0
LINE
  8
0
 10
359.999939
 20
108.000015
 11
359.999939
 21
135.499969
  0
LINE
  8
0
 10
364.999878
 20
212.999954
 11
360.999817
 21
212.999954
  0
LINE
  8
0
 10
364.999878
 20
106.999977
 11
360.999817
 21
106.999977
  0
LINE
  8
0
 10
360.999847
 20
107.000015
 11
359.999817
 21
108.000023
  0
LINE
  8
0
 10
359.999664
 20
212.000076
 11
360.999695
 21
213.000122
  0
LINE
  8
0
 10
358.299866
 20
110.998741
 11
358.299866
 21
119.001282
  0
LINE
  8
0
 10
359.999969
 20
119.150436
 11
358.299988
 21
119.001717
  0
LINE
  8
0
 10
359.999939
 20
110.850510
 11
358.299957
 21
110.999237
  0
LINE
  8
0
 10
363.908478
 20
114.999939
 11
355.727325
 21
114.999939
  0
LINE
  8
0
 10
357.999817
 20
115.599960
 11
357.517151
 21
115.599960
  0
LINE
  8
0
 10
357.999817
 20
114.399963
 11
357.517151
 21
114.399963
  0
LINE
  8
0
 10
357.999878
 20
114.400009
 11
357.999878
 21
115.600006
  0
LINE
  8
0
 10
363.908478
 20
204.999969
 11
355.727325
 21
204.999969
  0
LINE
  8
0
 10
358.299866
 20
200.998749
 11
358.299866
 21
209.001282
  0
LINE
  8
0
 10
359.999847
 20
209.150253
 11
358.299896
 21
209.001526
  0
LINE
  8
0
 10
360.000000
 20
200.850281
 11
358.299988
 21
200.999008
  0
LINE
  8
0
 10
357.999817
 20
205.599945
 11
357.517151
 21
205.599945
  0
LINE
  8
0
 10
357.999817
 20
204.399994
 11
357.517151
 21
204.399994
  0
LINE
  8
0
 10
357.999878
 20
204.400009
 11
357.999878
 21
205.600006
  0
LINE
  8
0
 10
376.999878
 20
139.766968
 11
376.999878
 21
109.849365
  0
LINE
  8
0
 10
376.999908
 20
135.969482
 11
367.500061
 21
130.484726
  0
LINE
  8
0
 10
386.499664
 20
130.484894
 11
376.999817
 21
135.969635
  0
LINE
  8
0
 10
386.499756
 20
119.515175
 11
386.499756
 21
130.484650
  0
LINE
  8
0
 10
376.999939
 20
114.030472
 11
386.499817
 21
119.515213
  0
LINE
  8
0
 10
367.500275
 20
119.515564
 11
377.000153
 21
114.030815
  0
LINE
  8
0
 10
367.500000
 20
130.484695
 11
367.500000
 21
119.515198
  0
LINE
  8
0
 10
389.499817
 20
124.999969
 11
364.499817
 21
124.999969
  0
LINE
  8
0
 10
396.899902
 20
83.499939
 11
396.899902
 21
82.499924
  0
LINE
  8
0
 10
390.599915
 20
83.499939
 11
390.599915
 21
82.499924
  0
LINE
  8
0
 10
394.402527
 20
81.799934
 11
394.402527
 21
81.052757
  0
LINE
  8
0
 10
393.105835
 20
81.799934
 11
393.105835
 21
81.051361
  0
LINE
  8
0
 10
396.899841
 20
82.499985
 11
390.599915
 21
82.499985
  0
LINE
  8
0
 10
394.402466
 20
81.799980
 11
393.105835
 21
81.799980
  0
LINE
  8
0
 10
397.999939
 20
83.499985
 11
389.499939
 21
83.499985
  0
LINE
  8
0
 10
384.499939
 20
88.999924
 11
384.499939
 21
86.386688
  0
LINE
  8
0
 10
397.999939
 20
88.999924
 11
397.999939
 21
83.499939
  0
LINE
  8
0
 10
389.499847
 20
83.500130
 11
384.499878
 21
86.386879
  0
LINE
  8
0
 10
394.000000
 20
88.999924
 11
394.000000
 21
85.999939
  0
LINE
  8
0
 10
393.999939
 20
85.999985
 11
390.000000
 21
85.999985
  0
LINE
  8
0
 10
390.000000
 20
91.999916
 11
390.000000
 21
85.999939
  0
LINE
  8
0
 10
391.499939
 20
228.499969
 11
391.499878
 21
228.499969
  0
LINE
  8
0
 10
388.500000
 20
92.499924
 11
388.500000
 21
89.499916
  0
LINE
  8
0
 10
388.499939
 20
89.499977
 11
384.499878
 21
89.499977
  0
LINE
  8
0
 10
391.000000
 20
90.999939
 11
391.000000
 21
85.999939
  0
LINE
  8
0
 10
389.999939
 20
91.499969
 11
388.499939
 21
91.499969
  0
LINE
  8
0
 10
359.999847
 20
184.499847
 11
358.499908
 21
182.999908
  0
LINE
  8
0
 10
358.499878
 20
182.999908
 11
359.999878
 21
181.499908
  0
LINE
  8
0
 10
359.999908
 20
138.499969
 11
358.499908
 21
136.999969
  0
LINE
  8
0
 10
358.499878
 20
136.999924
 11
359.999878
 21
135.499924
  0
LINE
  8
0
 10
359.999939
 20
184.499969
 11
359.999939
 21
212.000031
  0
LINE
  8
0
 10
359.999939
 20
138.499985
 11
359.999939
 21
181.499939
  0
LINE
  8
0
 10
433.999878
 20
214.799973
 11
433.999878
 21
216.849960
  0
LINE
  8
0
 10
428.499878
 20
214.799973
 11
428.499878
 21
225.199966
  0
LINE
  8
0
 10
433.999878
 20
214.799973
 11
428.499878
 21
214.799973
  0
LINE
  8
0
 10
433.999878
 20
225.199966
 11
428.499878
 21
225.199966
  0
LINE
  8
0
 10
436.999817
 20
216.849960
 11
433.999878
 21
216.849960
  0
LINE
  8
0
 10
436.999817
 20
223.149963
 11
433.999878
 21
223.149963
  0
LINE
  8
0
 10
433.999878
 20
94.799988
 11
428.499878
 21
94.799988
  0
LINE
  8
0
 10
433.999878
 20
105.199989
 11
428.499878
 21
105.199989
  0
LINE
  8
0
 10
436.999817
 20
103.149994
 11
433.999878
 21
103.149994
  0
LINE
  8
0
 10
436.999817
 20
96.849983
 11
433.999878
 21
96.849983
  0
LINE
  8
0
 10
433.999878
 20
223.149979
 11
433.999878
 21
225.199966
  0
LINE
  8
0
 10
435.999939
 20
229.999725
 11
435.999939
 21
230.000015
  0
LINE
  8
0
 10
433.999878
 20
94.799988
 11
433.999878
 21
96.849991
  0
LINE
  8
0
 10
428.499878
 20
94.799988
 11
428.499878
 21
105.199989
  0
LINE
  8
0
 10
433.999878
 20
103.149994
 11
433.999878
 21
105.199989
  0
LINE
  8
0
 10
435.999939
 20
106.232132
 11
435.999939
 21
212.149994
  0
LINE
  8
0
 10
417.199890
 20
91.999977
 11
415.649902
 21
91.999977
  0
LINE
  8
0
 10
417.199890
 20
96.499992
 11
408.799927
 21
96.499992
  0
LINE
  8
0
 10
417.199890
 20
91.999985
 11
417.199890
 21
96.499992
  0
LINE
  8
0
 10
408.799866
 20
91.999985
 11
408.799866
 21
96.499992
  0
LINE
  8
0
 10
415.649902
 20
89.000015
 11
415.649902
 21
91.999985
  0
LINE
  8
0
 10
410.349915
 20
89.000015
 11
410.349915
 21
91.999985
  0
LINE
  8
0
 10
410.349915
 20
91.999977
 11
408.799927
 21
91.999977
  0
LINE
  8
0
 10
436.999878
 20
90.000031
 11
435.999878
 21
89.000031
  0
LINE
  8
0
 10
424.999939
 20
99.999985
 11
424.999939
 21
101.291824
  0
LINE
  8
0
 10
424.999939
 20
99.999985
 11
409.224915
 21
99.999985
  0
LINE
  8
0
 10
412.999878
 20
221.348083
 11
412.999878
 21
233.849548
  0
LINE
  8
0
 10
410.349915
 20
227.999954
 11
410.349915
 21
231.000015
  0
LINE
  8
0
 10
415.649902
 20
227.999954
 11
415.649902
 21
231.000015
  0
LINE
  8
0
 10
408.799866
 20
223.499969
 11
408.799866
 21
227.999954
  0
LINE
  8
0
 10
417.199890
 20
223.499969
 11
417.199890
 21
227.999954
  0
LINE
  8
0
 10
417.199890
 20
227.999954
 11
415.649902
 21
227.999954
  0
LINE
  8
0
 10
417.199890
 20
223.499969
 11
408.799927
 21
223.499969
  0
LINE
  8
0
 10
410.349915
 20
227.999954
 11
408.799927
 21
227.999954
  0
LINE
  8
0
 10
422.999878
 20
219.999969
 11
406.257812
 21
219.999969
  0
LINE
  8
0
 10
422.999878
 20
219.023117
 11
422.999878
 21
219.999969
  0
LINE
  8
0
 10
435.999847
 20
230.999908
 11
436.999847
 21
229.999878
  0
CIRCLE
  8
0
 10
427.999878
 20
130.000015
 40
3.999999
  0
CIRCLE
  8
0
 10
427.999878
 20
190.000000
 40
3.999999
  0
CIRCLE
  8
0
 10
427.999878
 20
130.000015
 40
2.999999
  0
CIRCLE
  8
0
 10
427.999878
 20
190.000000
 40
2.999999
  0
CIRCLE
  8
0
 10
398.999878
 20
94.999985
 40
5.500000
  0
CIRCLE
  8
0
 10
428.999878
 20
114.999985
 40
5.500000
  0
CIRCLE
  8
0
 10
428.999878
 20
205.000015
 40
5.500000
  0
CIRCLE
  8
0
 10
398.999878
 20
225.000015
 40
5.500000
  0
CIRCLE
  8
0
 10
398.999878
 20
94.999985
 40
5.000000
  0
CIRCLE
  8
0
 10
398.999878
 20
94.999985
 40
3.960769
  0
CIRCLE
  8
0
 10
398.999878
 20
94.999985
 40
2.598076
  0
CIRCLE
  8
0
 10
428.999878
 20
114.999985
 40
5.000000
  0
CIRCLE
  8
0
 10
428.999878
 20
114.999985
 40
3.960769
  0
CIRCLE
  8
0
 10
428.999878
 20
114.999985
 40
2.598076
  0
CIRCLE
  8
0
 10
428.999878
 20
205.000015
 40
5.000000
  0
CIRCLE
  8
0
 10
428.999878
 20
205.000015
 40
3.960769
  0
CIRCLE
  8
0
 10
428.999878
 20
205.000015
 40
2.598076
  0
CIRCLE
  8
0
 10
398.999878
 20
225.000015
 40
5.000000
  0
CIRCLE
  8
0
 10
398.999878
 20
225.000015
 40
3.960769
  0
CIRCLE
  8
0
 10
398.999878
 20
225.000015
 40
2.598076
  0
ARC
  8
0
 10
367.906189
 20
114.999985
 40
10.406386
 50
157.387146
 51
176.694641
  0
ARC
  8
0
 10
367.906189
 20
114.999985
 40
10.406381
 50
183.305359
 51
202.612778
  0
ARC
  8
0
 10
367.906189
 20
205.000015
 40
10.406381
 50
183.305359
 51
202.612778
  0
ARC
  8
0
 10
367.906189
 20
205.000015
 40
10.406381
 50
157.387222
 51
176.694641
  0
CIRCLE
  8
0
 10
376.999817
 20
124.999924
 40
8.000000
  0
CIRCLE
  8
0
 10
376.999817
 20
124.999924
 40
6.750000
  0
ARC
  8
0
 10
393.749878
 20
85.057426
 40
4.057492
 50
219.073303
 51
260.867279
  0
ARC
  8
0
 10
393.749878
 20
85.057426
 40
4.057502
 50
279.256226
 51
320.926971
  0
CIRCLE
  8
0
 10
386.499939
 20
90.999893
 40
1.499999
  0
CIRCLE
  8
0
 10
386.999939
 20
90.999893
 40
0.500000
  0
CIRCLE
  8
0
 10
385.999878
 20
90.999893
 40
0.500000
  0
ARC
  8
0
 10
391.500000
 20
90.999939
 40
0.500000
 50
90.000000
 51
180.000000
  0
ARC
  8
0
 10
390.500000
 20
91.999908
 40
0.500000
 50
90.000000
 51
180.000000
  0
CIRCLE
  8
0
 10
372.428406
 20
124.999924
 40
1.071429
  0
POLYLINE
  8
0
 66
     1
  0
VERTEX
  8
0
 10
406.017883
 20
89.025253
  0
VERTEX
  8
0
 10
405.931274
 20
89.958420
  0
VERTEX
  8
0
 10
405.903198
 20
90.902267
  0
VERTEX
  8
0
 10
405.934296
 20
91.850830
  0
VERTEX
  8
0
 10
406.025177
 20
92.798180
  0
VERTEX
  8
0
 10
406.176483
 20
93.738358
  0
VERTEX
  8
0
 10
406.388855
 20
94.665421
  0
VERTEX
  8
0
 10
406.662872
 20
95.573418
  0
VERTEX
  8
0
 10
406.999207
 20
96.456413
  0
VERTEX
  8
0
 10
407.398437
 20
97.308441
  0
VERTEX
  8
0
 10
407.875397
 20
98.162979
  0
VERTEX
  8
0
 10
408.413208
 20
98.989243
  0
VERTEX
  8
0
 10
409.006653
 20
99.765587
  0
VERTEX
  8
0
 10
409.650452
 20
100.470345
  0
VERTEX
  8
0
 10
410.339417
 20
101.081856
  0
VERTEX
  8
0
 10
411.068268
 20
101.578468
  0
VERTEX
  8
0
 10
411.831787
 20
101.938507
  0
VERTEX
  8
0
 10
412.624756
 20
102.140320
  0
VERTEX
  8
0
 10
413.470764
 20
102.162613
  0
VERTEX
  8
0
 10
414.345276
 20
102.020714
  0
VERTEX
  8
0
 10
415.243469
 20
101.758316
  0
VERTEX
  8
0
 10
416.160553
 20
101.419113
  0
VERTEX
  8
0
 10
417.091736
 20
101.046799
  0
VERTEX
  8
0
 10
418.032196
 20
100.685066
  0
VERTEX
  8
0
 10
418.977173
 20
100.377609
  0
VERTEX
  8
0
 10
419.921814
 20
100.168121
  0
VERTEX
  8
0
 10
420.925293
 20
100.086647
  0
VERTEX
  8
0
 10
421.937683
 20
100.144440
  0
VERTEX
  8
0
 10
422.924774
 20
100.336212
  0
VERTEX
  8
0
 10
423.852386
 20
100.656693
  0
VERTEX
  8
0
 10
424.686432
 20
101.100594
  0
VERTEX
  8
0
 10
425.392700
 20
101.662628
  0
VERTEX
  8
0
 10
425.937012
 20
102.337524
  0
VERTEX
  8
0
 10
426.358765
 20
103.184944
  0
VERTEX
  8
0
 10
426.691895
 20
104.121048
  0
VERTEX
  8
0
 10
426.984833
 20
105.071609
  0
VERTEX
  8
0
 10
427.285950
 20
105.962433
  0
VERTEX
  8
0
 10
427.643646
 20
106.719307
  0
VERTEX
  8
0
 10
428.106384
 20
107.268005
  0
VERTEX
  8
0
 10
428.827881
 20
107.672127
  0
VERTEX
  8
0
 10
429.685333
 20
107.867355
  0
VERTEX
  8
0
 10
430.690094
 20
107.886169
  0
VERTEX
  8
0
 10
431.853577
 20
107.761047
  0
VERTEX
  8
0
 10
432.801331
 20
107.585304
  0
VERTEX
  8
0
 10
433.687073
 20
107.346397
  0
VERTEX
  8
0
 10
434.524323
 20
107.036064
  0
VERTEX
  8
0
 10
435.326569
 20
106.646042
  0
VERTEX
  8
0
 10
436.107239
 20
106.168068
  0
VERTEX
  8
0
 10
436.879852
 20
105.593887
  0
SEQEND
  0
POLYLINE
  8
0
 66
     1
  0
VERTEX
  8
0
 10
436.883728
 20
105.587715
  0
VERTEX
  8
0
 10
436.944611
 20
105.542557
  0
VERTEX
  8
0
 10
437.005493
 20
105.497406
  0
SEQEND
  0
POLYLINE
  8
0
 66
     1
  0
VERTEX
  8
0
 10
406.017090
 20
89.027458
  0
VERTEX
  8
0
 10
406.019592
 20
89.013748
  0
VERTEX
  8
0
 10
406.022095
 20
89.000038
  0
SEQEND
  0
POLYLINE
  8
0
 66
     1
  0
VERTEX
  8
0
 10
406.134125
 20
230.999832
  0
VERTEX
  8
0
 10
406.351013
 20
230.251266
  0
VERTEX
  8
0
 10
406.530731
 20
229.510223
  0
VERTEX
  8
0
 10
406.679596
 20
228.726730
  0
VERTEX
  8
0
 10
406.804016
 20
227.850815
  0
VERTEX
  8
0
 10
406.888489
 20
226.986572
  0
VERTEX
  8
0
 10
406.925964
 20
226.130035
  0
VERTEX
  8
0
 10
406.912964
 20
225.253647
  0
VERTEX
  8
0
 10
406.846069
 20
224.329895
  0
VERTEX
  8
0
 10
406.721863
 20
223.331223
  0
VERTEX
  8
0
 10
406.524231
 20
222.236359
  0
VERTEX
  8
0
 10
406.315338
 20
221.158585
  0
VERTEX
  8
0
 10
406.188843
 20
220.135193
  0
VERTEX
  8
0
 10
406.238342
 20
219.203476
  0
VERTEX
  8
0
 10
406.557556
 20
218.400757
  0
VERTEX
  8
0
 10
407.045532
 20
217.975983
  0
VERTEX
  8
0
 10
407.750366
 20
217.765823
  0
VERTEX
  8
0
 10
408.625977
 20
217.732468
  0
VERTEX
  8
0
 10
409.626282
 20
217.838089
  0
VERTEX
  8
0
 10
410.705231
 20
218.044861
  0
VERTEX
  8
0
 10
411.816772
 20
218.314941
  0
VERTEX
  8
0
 10
412.914795
 20
218.610535
  0
VERTEX
  8
0
 10
413.953247
 20
218.893799
  0
VERTEX
  8
0
 10
415.019287
 20
219.154907
  0
VERTEX
  8
0
 10
416.050018
 20
219.360840
  0
VERTEX
  8
0
 10
417.045990
 20
219.511261
  0
VERTEX
  8
0
 10
418.007629
 20
219.605850
  0
VERTEX
  8
0
 10
418.935425
 20
219.644241
  0
VERTEX
  8
0
 10
419.829895
 20
219.626129
  0
VERTEX
  8
0
 10
420.691528
 20
219.551178
  0
VERTEX
  8
0
 10
421.622833
 20
219.411087
  0
VERTEX
  8
0
 10
422.542267
 20
219.192963
  0
VERTEX
  8
0
 10
423.382263
 20
218.864090
  0
VERTEX
  8
0
 10
424.075287
 20
218.391785
  0
VERTEX
  8
0
 10
424.553711
 20
217.743347
  0
VERTEX
  8
0
 10
424.773010
 20
216.876892
  0
VERTEX
  8
0
 10
424.799591
 20
215.888809
  0
VERTEX
  8
0
 10
424.765808
 20
214.882004
  0
VERTEX
  8
0
 10
424.804077
 20
213.959351
  0
VERTEX
  8
0
 10
425.046753
 20
213.223755
  0
VERTEX
  8
0
 10
425.534851
 20
212.748001
  0
VERTEX
  8
0
 10
426.225677
 20
212.459702
  0
VERTEX
  8
0
 10
427.083313
 20
212.310654
  0
VERTEX
  8
0
 10
428.071899
 20
212.252716
  0
VERTEX
  8
0
 10
429.155518
 20
212.237671
  0
VERTEX
  8
0
 10
430.218658
 20
212.225967
  0
VERTEX
  8
0
 10
431.265472
 20
212.210571
  0
VERTEX
  8
0
 10
432.268677
 20
212.193665
  0
VERTEX
  8
0
 10
433.200928
 20
212.177414
  0
VERTEX
  8
0
 10
434.034943
 20
212.163971
  0
VERTEX
  8
0
 10
434.743347
 20
212.155487
  0
VERTEX
  8
0
 10
435.490356
 20
212.151184
  0
VERTEX
  8
0
 10
436.250397
 20
212.149918
  0
VERTEX
  8
0
 10
436.997406
 20
212.151062
  0
SEQEND
  0
POINT
  8
0
 10
-89.999985
 20
-269.999969
  0
POINT
  8
0
 10
255.000015
 20
-269.999969
  0
LINE
  8
0
 10
-234.999985
 20
-198.999985
 11
255.000015
 21
-198.999985
  0
LINE
  8
0
 10
-234.999985
 20
-341.000000
 11
255.000015
 21
-341.000000
  0
LINE
  8
0
 10
-234.999985
 20
-198.999985
 11
-234.999985
 21
-341.000000
  0
LINE
  8
0
 10
255.000015
 20
-198.999985
 11
255.000015
 21
-341.000000
  0
LINE
  8
0
 10
235.000015
 20
-198.999985
 11
235.000015
 21
-341.000000
  0
LINE
  8
0
 10
-214.999985
 20
-198.999985
 11
-214.999985
 21
-341.000000
  0
LINE
  8
0
 10
-240.584091
 20
-269.999969
 11
268.203308
 21
-269.999969
  0
LINE
  8
0
 10
-184.999985
 20
-265.000000
 11
-184.999985
 21
-275.000000
  0
LINE
  8
0
 10
203.000046
 20
-265.000000
 11
203.000046
 21
-275.000000
  0
LINE
  8
0
 10
205.000015
 20
-265.000000
 11
205.000015
 21
-275.000000
  0
LINE
  8
0
 10
207.000015
 20
-265.000000
 11
207.000015
 21
-275.000000
  0
LINE
  8
0
 10
203.000015
 20
-266.999969
 11
207.000015
 21
-266.999969
  0
LINE
  8
0
 10
203.000015
 20
-273.000000
 11
207.000015
 21
-273.000000
  0
LINE
  8
0
 10
-266.500000
 20
-228.250031
 11
-266.500000
 21
-241.750000
  0
LINE
  8
0
 10
-256.500000
 20
-228.250031
 11
-256.500000
 21
-241.750000
  0
LINE
  8
0
 10
-256.500000
 20
-228.250031
 11
-266.500000
 21
-228.250031
  0
LINE
  8
0
 10
-256.500000
 20
-241.750031
 11
-266.500000
 21
-241.750031
  0
LINE
  8
0
 10
-256.499878
 20
-228.250092
 11
-255.249908
 21
-227.000122
  0
LINE
  8
0
 10
-256.499725
 20
-241.749832
 11
-255.249725
 21
-242.999832
  0
LINE
  8
0
 10
-255.249985
 20
-227.000031
 11
-255.249985
 21
-243.000000
  0
LINE
  8
0
 10
-266.500000
 20
-233.500000
 11
-267.000000
 21
-233.500000
  0
LINE
  8
0
 10
-266.500000
 20
-236.500000
 11
-267.000000
 21
-236.500000
  0
LINE
  8
0
 10
-227.375320
 20
-234.999969
 11
-278.500000
 21
-234.999969
  0
LINE
  8
0
 10
-235.848526
 20
-224.030365
 11
-241.151505
 21
-224.030365
  0
LINE
  8
0
 10
-235.848526
 20
-229.572205
 11
-241.151505
 21
-229.572205
  0
LINE
  8
0
 10
-235.848526
 20
-240.427795
 11
-241.151505
 21
-240.427795
  0
LINE
  8
0
 10
-235.848526
 20
-245.969666
 11
-241.151505
 21
-245.969666
  0
LINE
  8
0
 10
-234.999451
 20
-244.500320
 11
-235.847961
 21
-245.969986
  0
LINE
  8
0
 10
-234.999802
 20
-225.499985
 11
-235.848312
 21
-224.030334
  0
LINE
  8
0
 10
-241.999908
 20
-225.500076
 11
-241.151413
 21
-224.030441
  0
LINE
  8
0
 10
-241.999725
 20
-244.499893
 11
-241.151215
 21
-245.969543
  0
LINE
  8
0
 10
-241.999954
 20
-225.500000
 11
-241.999954
 21
-244.500000
  0
LINE
  8
0
 10
-241.999985
 20
-227.000031
 11
-255.250015
 21
-227.000031
  0
LINE
  8
0
 10
-241.999985
 20
-227.812012
 11
-256.062012
 21
-227.812012
  0
LINE
  8
0
 10
-241.999985
 20
-242.188019
 11
-256.062012
 21
-242.188019
  0
LINE
  8
0
 10
-241.999985
 20
-243.000031
 11
-255.250015
 21
-243.000031
  0
LINE
  8
0
 10
286.500061
 20
-228.250031
 11
286.500061
 21
-241.750000
  0
LINE
  8
0
 10
276.500061
 20
-228.250031
 11
276.500061
 21
-241.750000
  0
LINE
  8
0
 10
276.500000
 20
-228.250031
 11
286.500000
 21
-228.250031
  0
LINE
  8
0
 10
276.500000
 20
-241.750031
 11
286.500000
 21
-241.750031
  0
LINE
  8
0
 10
276.500305
 20
-228.249802
 11
275.250305
 21
-226.999802
  0
LINE
  8
0
 10
276.499207
 20
-241.749451
 11
275.249268
 21
-242.999435
  0
LINE
  8
0
 10
275.250061
 20
-227.000031
 11
275.250061
 21
-243.000000
  0
LINE
  8
0
 10
286.500000
 20
-233.500000
 11
287.000000
 21
-233.500000
  0
LINE
  8
0
 10
286.500000
 20
-236.500000
 11
287.000000
 21
-236.500000
  0
LINE
  8
0
 10
247.375320
 20
-234.999969
 11
298.500000
 21
-234.999969
  0
LINE
  8
0
 10
255.848526
 20
-224.030365
 11
261.151489
 21
-224.030365
  0
LINE
  8
0
 10
255.848526
 20
-229.572205
 11
261.151489
 21
-229.572205
  0
LINE
  8
0
 10
255.848526
 20
-240.427795
 11
261.151489
 21
-240.427795
  0
LINE
  8
0
 10
255.848526
 20
-245.969666
 11
261.151489
 21
-245.969666
  0
LINE
  8
0
 10
254.999588
 20
-244.500290
 11
255.848129
 21
-245.969971
  0
LINE
  8
0
 10
254.998856
 20
-225.499435
 11
255.847366
 21
-224.029785
  0
LINE
  8
0
 10
262.000061
 20
-225.499985
 11
261.151550
 21
-224.030350
  0
LINE
  8
0
 10
262.000366
 20
-244.500214
 11
261.151794
 21
-245.969879
  0
LINE
  8
0
 10
262.000000
 20
-225.500000
 11
262.000000
 21
-244.500000
  0
LINE
  8
0
 10
262.000000
 20
-227.000031
 11
275.250000
 21
-227.000031
  0
LINE
  8
0
 10
262.000000
 20
-227.812012
 11
276.062012
 21
-227.812012
  0
LINE
  8
0
 10
262.000000
 20
-242.188019
 11
276.062012
 21
-242.188019
  0
LINE
  8
0
 10
262.000000
 20
-243.000031
 11
275.250000
 21
-243.000031
  0
LINE
  8
0
 10
-251.099991
 20
-298.100006
 11
-239.800003
 21
-298.100006
  0
LINE
  8
0
 10
-262.596069
 20
-320.200012
 11
-236.355820
 21
-320.200012
  0
LINE
  8
0
 10
-258.500000
 20
-326.450012
 11
-258.000000
 21
-326.450012
  0
LINE
  8
0
 10
-258.500000
 20
-313.950012
 11
-258.000000
 21
-313.950012
  0
LINE
  8
0
 10
-260.000000
 20
-324.950012
 11
-260.000000
 21
-315.450012
  0
LINE
  8
0
 10
-251.899948
 20
-313.000000
 11
-251.899948
 21
-299.000000
  0
LINE
  8
0
 10
-264.500000
 20
-302.000031
 11
-262.000000
 21
-302.000031
  0
LINE
  8
0
 10
-264.500000
 20
-309.999969
 11
-262.000000
 21
-309.999969
  0
LINE
  8
0
 10
-260.200012
 20
-301.000000
 11
-258.000000
 21
-301.000000
  0
LINE
  8
0
 10
-260.199951
 20
-311.000000
 11
-258.000000
 21
-311.000000
  0
LINE
  8
0
 10
-254.699997
 20
-299.000000
 11
-239.000015
 21
-299.000000
  0
LINE
  8
0
 10
-254.699997
 20
-313.000000
 11
-251.900009
 21
-313.000000
  0
LINE
  8
0
 10
-264.500000
 20
-310.000000
 11
-264.500000
 21
-302.000000
  0
LINE
  8
0
 10
-262.000000
 20
-310.000000
 11
-262.000000
 21
-302.000000
  0
LINE
  8
0
 10
-260.199951
 20
-311.000000
 11
-260.199951
 21
-301.000000
  0
LINE
  8
0
 10
-257.999939
 20
-311.000000
 11
-257.999939
 21
-301.000000
  0
LINE
  8
0
 10
-255.099991
 20
-312.307190
 11
-255.099991
 21
-299.692841
  0
LINE
  8
0
 10
-257.500000
 20
-310.200012
 11
-255.100021
 21
-310.200012
  0
LINE
  8
0
 10
-257.500000
 20
-301.799988
 11
-255.100021
 21
-301.799988
  0
LINE
  8
0
 10
-251.099991
 20
-313.475006
 11
-251.099991
 21
-298.100006
  0
LINE
  8
0
 10
-251.899933
 20
-299.000000
 11
-251.099945
 21
-298.099976
  0
LINE
  8
0
 10
-238.999985
 20
-323.450012
 11
-238.999985
 21
-299.000000
  0
LINE
  8
0
 10
-239.799973
 20
-313.475006
 11
-239.799973
 21
-298.100006
  0
LINE
  8
0
 10
-239.000122
 20
-299.000153
 11
-239.800110
 21
-298.100159
  0
LINE
  8
0
 10
-251.899918
 20
-313.000000
 11
-251.099945
 21
-313.475006
  0
LINE
  8
0
 10
-251.100006
 20
-313.474976
 11
-251.899811
 21
-313.949890
  0
LINE
  8
0
 10
-251.899948
 20
-313.950012
 11
-251.899948
 21
-326.450012
  0
LINE
  8
0
 10
-265.000000
 20
-309.500000
 11
-265.000000
 21
-302.500000
  0
LINE
  8
0
 10
-261.500000
 20
-309.500000
 11
-261.500000
 21
-302.500000
  0
LINE
  8
0
 10
-260.699951
 20
-310.500000
 11
-260.699951
 21
-301.500000
  0
LINE
  8
0
 10
-257.500000
 20
-310.500000
 11
-257.500000
 21
-301.500000
  0
LINE
  8
0
 10
-264.499603
 20
-309.999664
 11
-264.999603
 21
-309.499664
  0
LINE
  8
0
 10
-261.999939
 20
-310.000153
 11
-261.499756
 21
-309.500000
  0
LINE
  8
0
 10
-264.999908
 20
-302.500061
 11
-264.499878
 21
-302.000061
  0
LINE
  8
0
 10
-261.500427
 20
-302.500458
 11
-262.000397
 21
-302.000458
  0
LINE
  8
0
 10
-260.700439
 20
-310.500458
 11
-260.200439
 21
-311.000458
  0
LINE
  8
0
 10
-258.000122
 20
-310.999908
 11
-257.500000
 21
-310.499817
  0
LINE
  8
0
 10
-260.700073
 20
-301.499939
 11
-260.200073
 21
-300.999939
  0
LINE
  8
0
 10
-257.499695
 20
-301.499664
 11
-257.999695
 21
-300.999664
  0
LINE
  8
0
 10
-261.500000
 20
-308.000000
 11
-260.700012
 21
-308.000000
  0
LINE
  8
0
 10
-261.500000
 20
-304.000000
 11
-260.700012
 21
-304.000000
  0
LINE
  8
0
 10
-257.999939
 20
-326.450012
 11
-257.999939
 21
-313.950012
  0
LINE
  8
0
 10
-257.399963
 20
-325.850006
 11
-257.399963
 21
-314.550018
  0
LINE
  8
0
 10
-256.799988
 20
-326.450012
 11
-256.799988
 21
-313.950012
  0
LINE
  8
0
 10
-256.200012
 20
-326.450012
 11
-256.200012
 21
-313.950012
  0
LINE
  8
0
 10
-256.799988
 20
-326.450012
 11
-242.000015
 21
-326.450012
  0
LINE
  8
0
 10
-256.799988
 20
-313.950012
 11
-251.900009
 21
-313.950012
  0
LINE
  8
0
 10
-257.400818
 20
-325.850891
 11
-256.800842
 21
-326.450897
  0
LINE
  8
0
 10
-257.400085
 20
-314.549683
 11
-256.800293
 21
-313.949921
  0
LINE
  8
0
 10
-258.000000
 20
-315.200012
 11
-257.400024
 21
-315.200012
  0
LINE
  8
0
 10
-258.000000
 20
-325.200012
 11
-257.400024
 21
-325.200012
  0
LINE
  8
0
 10
-251.099991
 20
-313.474976
 11
-239.800003
 21
-313.474976
  0
LINE
  8
0
 10
-241.688980
 20
-315.364136
 11
-238.999924
 21
-312.675079
  0
LINE
  8
0
 10
-241.689011
 20
-315.364044
 11
-241.689011
 21
-326.450012
  0
LINE
  8
0
 10
-254.699997
 20
-309.500031
 11
-251.900009
 21
-309.500031
  0
LINE
  8
0
 10
-254.699997
 20
-302.500031
 11
-251.900009
 21
-302.500031
  0
LINE
  8
0
 10
-254.700058
 20
-313.000000
 11
-255.100067
 21
-312.307190
  0
LINE
  8
0
 10
-254.700150
 20
-298.999847
 11
-255.100159
 21
-299.692688
  0
LINE
  8
0
 10
-239.000107
 20
-309.999664
 11
-235.000137
 21
-309.499664
  0
LINE
  8
0
 10
-238.999939
 20
-301.999542
 11
-234.999939
 21
-302.499573
  0
LINE
  8
0
 10
-238.999954
 20
-311.000214
 11
-235.000000
 21
-310.500214
  0
LINE
  8
0
 10
-234.999908
 20
-301.499298
 11
-238.999908
 21
-300.999298
  0
LINE
  8
0
 10
-274.000000
 20
-228.700012
 11
-274.000000
 21
-241.300018
  0
LINE
  8
0
 10
-267.000000
 20
-228.700012
 11
-267.000000
 21
-241.300018
  0
LINE
  8
0
 10
-267.200012
 20
-228.500000
 11
-273.799988
 21
-228.500000
  0
LINE
  8
0
 10
-267.200012
 20
-241.500000
 11
-273.799988
 21
-241.500000
  0
LINE
  8
0
 10
-273.999817
 20
-228.700180
 11
-273.799805
 21
-228.500183
  0
LINE
  8
0
 10
-274.000305
 20
-241.300186
 11
-273.800323
 21
-241.500183
  0
LINE
  8
0
 10
-266.999786
 20
-228.699875
 11
-267.199799
 21
-228.499878
  0
LINE
  8
0
 10
-266.999756
 20
-241.300140
 11
-267.199799
 21
-241.500153
  0
LINE
  8
0
 10
287.000061
 20
-228.700012
 11
287.000061
 21
-241.300018
  0
LINE
  8
0
 10
294.000061
 20
-228.700012
 11
294.000061
 21
-241.300018
  0
LINE
  8
0
 10
293.799988
 20
-228.500000
 11
287.200012
 21
-228.500000
  0
LINE
  8
0
 10
293.799988
 20
-241.500000
 11
287.200012
 21
-241.500000
  0
LINE
  8
0
 10
287.000000
 20
-228.700027
 11
287.199951
 21
-228.500046
  0
LINE
  8
0
 10
287.000122
 20
-241.299942
 11
287.200134
 21
-241.499924
  0
LINE
  8
0
 10
294.000000
 20
-228.700073
 11
293.799988
 21
-228.500061
  0
LINE
  8
0
 10
294.000000
 20
-241.299911
 11
293.799988
 21
-241.499924
  0
LINE
  8
0
 10
33.000107
 20
-193.999985
 11
43.000107
 21
-193.999985
  0
LINE
  8
0
 10
37.347488
 20
-192.299988
 11
37.347488
 21
-191.552811
  0
LINE
  8
0
 10
37.347488
 20
-192.300003
 11
38.644135
 21
-192.300003
  0
LINE
  8
0
 10
38.644135
 20
-192.299988
 11
38.644135
 21
-191.551407
  0
LINE
  8
0
 10
41.150101
 20
-193.999985
 11
41.150101
 21
-192.999985
  0
LINE
  8
0
 10
34.850105
 20
-193.999985
 11
34.850105
 21
-192.999985
  0
LINE
  8
0
 10
34.850098
 20
-192.999985
 11
41.150101
 21
-192.999985
  0
LINE
  8
0
 10
-166.999939
 20
-194.004257
 11
-156.999939
 21
-194.004257
  0
LINE
  8
0
 10
-162.652588
 20
-192.304260
 11
-162.652588
 21
-191.557083
  0
LINE
  8
0
 10
-162.652557
 20
-192.304276
 11
-161.355911
 21
-192.304276
  0
LINE
  8
0
 10
-161.355896
 20
-192.304260
 11
-161.355896
 21
-191.555679
  0
LINE
  8
0
 10
-158.849945
 20
-194.004257
 11
-158.849945
 21
-193.004257
  0
LINE
  8
0
 10
-165.149948
 20
-194.004257
 11
-165.149948
 21
-193.004257
  0
LINE
  8
0
 10
-165.149948
 20
-193.004257
 11
-158.849945
 21
-193.004257
  0
LINE
  8
0
 10
-172.999939
 20
-198.499985
 11
-172.999939
 21
-198.999985
  0
LINE
  8
0
 10
-152.000000
 20
-198.499985
 11
-152.000000
 21
-198.999985
  0
LINE
  8
0
 10
27.000061
 20
-198.499985
 11
27.000061
 21
-198.999985
  0
LINE
  8
0
 10
48.000000
 20
-198.499985
 11
48.000000
 21
-198.999985
  0
LINE
  8
0
 10
-172.999939
 20
-198.500000
 11
-166.999939
 21
-198.500000
  0
LINE
  8
0
 10
27.000061
 20
-198.500000
 11
33.000107
 21
-198.500000
  0
LINE
  8
0
 10
-156.999939
 20
-198.500000
 11
-152.000000
 21
-198.500000
  0
LINE
  8
0
 10
43.000107
 20
-198.500000
 11
48.000000
 21
-198.500000
  0
LINE
  8
0
 10
-214.999985
 20
-333.149994
 11
235.000015
 21
-333.149994
  0
LINE
  8
0
 10
-214.999985
 20
-326.850006
 11
235.000015
 21
-326.850006
  0
LINE
  8
0
 10
-214.999985
 20
-206.849976
 11
235.000015
 21
-206.849976
  0
LINE
  8
0
 10
-214.999985
 20
-213.149994
 11
235.000015
 21
-213.149994
  0
LINE
  8
0
 10
-214.999985
 20
-311.000000
 11
235.000015
 21
-311.000000
  0
LINE
  8
0
 10
-214.999985
 20
-312.000000
 11
235.000015
 21
-312.000000
  0
LINE
  8
0
 10
-214.999985
 20
-229.000000
 11
235.000015
 21
-229.000000
  0
LINE
  8
0
 10
-214.999985
 20
-228.000000
 11
235.000015
 21
-228.000000
  0
LINE
  8
0
 10
-214.999985
 20
-285.000000
 11
235.000015
 21
-285.000000
  0
LINE
  8
0
 10
-214.999985
 20
-284.000000
 11
235.000015
 21
-284.000000
  0
LINE
  8
0
 10
-214.999985
 20
-254.999969
 11
235.000015
 21
-254.999969
  0
LINE
  8
0
 10
-214.999985
 20
-255.999969
 11
235.000015
 21
-255.999969
  0
LINE
  8
0
 10
-234.999985
 20
-200.428558
 11
255.000015
 21
-200.428558
  0
LINE
  8
0
 10
-234.999985
 20
-339.571442
 11
255.000015
 21
-339.571442
  0
LINE
  8
0
 10
-161.999939
 20
-190.383453
 11
-161.999939
 21
-200.211533
  0
LINE
  8
0
 10
-156.999939
 20
-194.004257
 11
-156.999939
 21
-198.999985
  0
LINE
  8
0
 10
-166.999939
 20
-194.004257
 11
-166.999939
 21
-198.999985
  0
LINE
  8
0
 10
-165.999939
 20
-195.504242
 11
-165.999939
 21
-198.999985
  0
LINE
  8
0
 10
-157.999939
 20
-195.504242
 11
-157.999939
 21
-198.999985
  0
LINE
  8
0
 10
-165.999954
 20
-195.504242
 11
-157.999939
 21
-195.504242
  0
LINE
  8
0
 10
38.000107
 20
-190.450211
 11
38.000107
 21
-200.167374
  0
LINE
  8
0
 10
43.000107
 20
-193.999985
 11
43.000107
 21
-198.999985
  0
LINE
  8
0
 10
33.000107
 20
-193.999985
 11
33.000107
 21
-198.999985
  0
LINE
  8
0
 10
34.000107
 20
-195.499969
 11
34.000107
 21
-198.999985
  0
LINE
  8
0
 10
42.000107
 20
-195.499969
 11
42.000107
 21
-198.999985
  0
LINE
  8
0
 10
34.000107
 20
-195.499969
 11
42.000107
 21
-195.499969
  0
LINE
  8
0
 10
-268.073059
 20
-306.000000
 11
-227.591782
 21
-306.000000
  0
CIRCLE
  8
0
 10
-184.999985
 20
-269.999969
 40
2.999999
  0
ARC
  8
0
 10
203.000046
 20
-269.999969
 40
3.000000
 50
90.000000
 51
270.000000
  0
ARC
  8
0
 10
207.000015
 20
-269.999969
 40
3.000000
 50
0.000000
 51
90.000000
  0
ARC
  8
0
 10
207.000015
 20
-269.999969
 40
3.000000
 50
270.000000
 51
0.000000
  0
ARC
  8
0
 10
-239.948257
 20
-226.801270
 40
4.948346
 50
325.946136
 51
25.946053
  0
ARC
  8
0
 10
-237.051682
 20
-243.198700
 40
4.948346
 50
145.946136
 51
205.946060
  0
ARC
  8
0
 10
-224.215408
 20
-234.999969
 40
17.784555
 50
162.230072
 51
197.769852
  0
ARC
  8
0
 10
-252.784500
 20
-234.999969
 40
17.784555
 50
342.230072
 51
17.769905
  0
ARC
  8
0
 10
-239.948257
 20
-243.198700
 40
4.948347
 50
334.053955
 51
34.053860
  0
ARC
  8
0
 10
-237.051712
 20
-226.801270
 40
4.948347
 50
154.053940
 51
214.053864
  0
ARC
  8
0
 10
257.051758
 20
-226.801270
 40
4.948371
 50
325.946350
 51
25.946053
  0
ARC
  8
0
 10
259.948303
 20
-226.801270
 40
4.948360
 50
154.054031
 51
214.053757
  0
ARC
  8
0
 10
257.051758
 20
-243.198700
 40
4.948347
 50
334.053955
 51
34.053661
  0
ARC
  8
0
 10
244.215469
 20
-234.999969
 40
17.784586
 50
342.230103
 51
17.769844
  0
ARC
  8
0
 10
272.784546
 20
-234.999969
 40
17.784561
 50
162.230026
 51
197.769867
  0
ARC
  8
0
 10
259.948303
 20
-243.198700
 40
4.948367
 50
145.946091
 51
205.945969
  0
ARC
  8
0
 10
-251.071823
 20
-300.750031
 40
4.028169
 50
154.250305
 51
205.749603
  0
ARC
  8
0
 10
-239.587540
 20
-306.000000
 40
15.512428
 50
166.960342
 51
193.039536
  0
ARC
  8
0
 10
-258.499939
 20
-324.950012
 40
1.500000
 50
180.000000
 51
270.000000
  0
ARC
  8
0
 10
-258.499939
 20
-315.450043
 40
1.500000
 50
90.000000
 51
180.000000
  0
ARC
  8
0
 10
-241.999985
 20
-323.449951
 40
3.000000
 50
270.000000
 51
0.000000
  0
ARC
  8
0
 10
-251.071854
 20
-311.249969
 40
4.028128
 50
154.250015
 51
205.749985
  0
ARC
  8
0
 10
38.000107
 20
-195.557495
 40
4.057504
 50
39.073174
 51
80.867081
  0
ARC
  8
0
 10
38.000107
 20
-195.557495
 40
4.057498
 50
99.255806
 51
140.926758
  0
ARC
  8
0
 10
-161.999939
 20
-195.561768
 40
4.057492
 50
39.073311
 51
80.866867
  0
ARC
  8
0
 10
-161.999939
 20
-195.561768
 40
4.057498
 50
99.255806
 51
140.926697
  0
TEXT
  8
0
 10
-153.702881
 20
53.915112
 40
10.000000
  1
6F8-6
 50
359.899994
 41
1.052632
 51
0.000000
  7
STANDARD
  0
LINE
  8
0
 10
-92.999969
 20
52.869404
 11
-151.097519
 21
52.869404
  0
LINE
  8
0
 10
-92.999969
 20
52.869404
 11
-87.000000
 21
52.869404
  0
LINE
  8
0
 10
-92.999969
 20
52.869404
 11
-95.897743
 21
52.092945
  0
LINE
  8
0
 10
-92.999969
 20
52.869404
 11
-95.897743
 21
53.645863
  0
LINE
  8
0
 10
-92.999969
 20
52.869404
 11
-98.999969
 21
52.869404
  0
LINE
  8
0
 10
-87.000000
 20
52.869404
 11
-84.102226
 21
53.645863
  0
LINE
  8
0
 10
-87.000000
 20
52.869404
 11
-84.102226
 21
52.092945
  0
LINE
  8
0
 10
-87.000000
 20
52.869404
 11
-81.000000
 21
52.869404
  0
LINE
  8
0
 10
-92.999969
 20
89.999969
 11
-92.999969
 21
51.369404
  0
LINE
  8
0
 10
-87.000000
 20
89.999969
 11
-87.000000
 21
51.369404
  0
TEXT
  8
0
 10
3.821445
 20
27.142807
 40
10.000000
  1
A
 50
0.000000
 41
1.052632
 51
0.000000
  7
STANDARD
  0
LINE
  8
0
 10
-235.000000
 20
26.142807
 11
255.000015
 21
26.142807
  0
LINE
  8
0
 10
-235.000000
 20
26.142807
 11
-232.102219
 21
26.919264
  0
LINE
  8
0
 10
-235.000000
 20
26.142807
 11
-232.102219
 21
25.366350
  0
LINE
  8
0
 10
255.000015
 20
26.142807
 11
252.102234
 21
25.366350
  0
LINE
  8
0
 10
255.000015
 20
26.142807
 11
252.102234
 21
26.919264
  0
LINE
  8
0
 10
-235.000000
 20
88.999977
 11
-235.000000
 21
23.999969
  0
LINE
  8
0
 10
255.000015
 20
88.999977
 11
255.000015
 21
23.999969
  0
TEXT
  8
0
 10
-5.173952
 20
309.653442
 40
10.000000
  1
ST
 50
359.899994
 41
1.052632
 51
0.000000
  7
STANDARD
  0
LINE
  8
0
 10
-89.999985
 20
308.633911
 11
110.000000
 21
308.633911
  0
LINE
  8
0
 10
-89.999985
 20
308.633911
 11
-87.102211
 21
309.410370
  0
LINE
  8
0
 10
-89.999985
 20
308.633911
 11
-87.102211
 21
307.857452
  0
LINE
  8
0
 10
110.000000
 20
308.633911
 11
107.102226
 21
307.857452
  0
LINE
  8
0
 10
110.000000
 20
308.633911
 11
107.102226
 21
309.410370
  0
LINE
  8
0
 10
-89.999985
 20
230.999939
 11
-89.999985
 21
310.133911
  0
LINE
  8
0
 10
110.000000
 20
230.999939
 11
110.000000
 21
310.133911
  0
TEXT
  8
0
 10
338.972839
 20
-259.510620
 40
10.000000
  1
6F8-6
 50
89.900002
 41
1.052632
 51
0.000000
  7
STANDARD
  0
LINE
  8
0
 10
340.018555
 20
-266.999969
 11
340.018555
 21
-209.762390
  0
LINE
  8
0
 10
340.018555
 20
-266.999969
 11
340.018555
 21
-273.000000
  0
LINE
  8
0
 10
340.018555
 20
-266.999969
 11
339.242096
 21
-264.102203
  0
LINE
  8
0
 10
340.018555
 20
-266.999969
 11
340.795013
 21
-264.102203
  0
LINE
  8
0
 10
340.018555
 20
-266.999969
 11
340.018555
 21
-260.999969
  0
LINE
  8
0
 10
340.018555
 20
-273.000000
 11
340.795013
 21
-275.897766
  0
LINE
  8
0
 10
340.018555
 20
-273.000000
 11
339.242096
 21
-275.897766
  0
LINE
  8
0
 10
340.018555
 20
-273.000000
 11
340.018555
 21
-279.000000
  0
LINE
  8
0
 10
207.000015
 20
-266.999969
 11
341.518555
 21
-266.999969
  0
LINE
  8
0
 10
207.000015
 20
-273.000000
 11
341.518555
 21
-273.000000
  0
ENDSEC
  0
EOF
