  0
SECTION
  2
HEADER
  0
ENDSEC
  0
SECTION
  2
TABLES
  0
TABLE
  2
LTYPE
 70
     4
  0
LTYPE
  2
CONTINUOUS
 70
    64
  3
Solid line
 72
    65
 73
     0
 40
0.000000
  0
LTYPE
  2
DASHED
 70
    64
  3
__ __ __ __ __ __ __ __ __ __ __ __ __ __ __
 72
    65
 73
     2
 40
3.500000
 49
2.000000
 49
-1.500000
  0
LTYPE
  2
CENTER
 70
    64
  3
____ _ ____ _ ____ _ ____ _ ____ _ ____ _ ____
 72
    65
 73
     4
 40
17.500000
 49
13.000000
 49
-1.500000
 49
1.500000
 49
-1.500000
  0
LTYPE
  2
PHANTOM
 70
    64
  3
_____ _ _ _____ _ _ _____ _ _ _____ _ _ ____  
 72
    65
 73
     6
 40
15.500000
 49
8.000000
 49
-1.500000
 49
1.500000
 49
-1.500000
 49
1.500000
 49
-1.500000
  0
LTYPE
  2
DASHED1
 70
    64
  3
__ __ __ __ __ __ __ __ __ __ __ __ __ __ __
 72
    65
 73
     2
 40
1.500000
 49
1.000000
 49
-0.500000
  0
LTYPE
  2
DASHED2
 70
    64
  3
__ __ __ __ __ __ __ __ __ __ __ __ __ __ __
 72
    65
 73
     2
 40
3.500000
 49
2.500000
 49
-1.000000
  0
LTYPE
  2
DASHED3
 70
    64
  3
__ __ __ __ __ __ __ __ __ __ __ __ __ __ __
 72
    65
 73
     2
 40
6.000000
 49
4.000000
 49
-2.000000
  0
LTYPE
  2
DASHED4
 70
    64
  3
__ __ __ __ __ __ __ __ __ __ __ __ __ __ __
 72
    65
 73
     2
 40
12.000000
 49
10.000000
 49
-2.000000
  0
LTYPE
  2
DASHED5
 70
    64
  3
__ __ __ __ __ __ __ __ __ __ __ __ __ __ __
 72
    65
 73
     2
 40
17.000000
 49
15.000000
 49
-2.000000
  0
LTYPE
  2
DASHED6
 70
    64
  3
__ __ __ __ __ __ __ __ __ __ __ __ __ __ __
 72
    65
 73
     2
 40
29.000000
 49
27.000000
 49
-2.000000
  0
LTYPE
  2
PHANTOM1
 70
    64
  3
_____ _ _ _____ _ _ _____ _ _ _____ _ _ ____  
 72
    65
 73
     6
 40
31.000000
 49
25.000000
 49
-1.500000
 49
1.000000
 49
-1.000000
 49
1.000000
 49
-1.500000
  0
LTYPE
  2
PHANTOM2
 70
    64
  3
_____ _ _ _____ _ _ _____ _ _ _____ _ _ ____  
 72
    65
 73
     6
 40
36.000000
 49
27.000000
 49
-1.500000
 49
2.500000
 49
-1.000000
 49
2.500000
 49
-1.500000
  0
LTYPE
  2
PHANTOM3
 70
    64
  3
_____ _ _ _____ _ _ _____ _ _ _____ _ _ ____  
 72
    65
 73
     6
 40
78.000000
 49
64.000000
 49
-2.000000
 49
4.000000
 49
-2.000000
 49
4.000000
 49
-2.000000
  0
LTYPE
  2
CENTER1
 70
    64
  3
____ _ ____ _ ____ _ ____ _ ____ _ ____ _ ____
 72
    65
 73
     4
 40
19.000000
 49
14.000000
 49
-1.000000
 49
3.000000
 49
-1.000000
  0
LTYPE
  2
CENTER2
 70
    64
  3
____ _ ____ _ ____ _ ____ _ ____ _ ____ _ ____
 72
    65
 73
     4
 40
28.500000
 49
25.000000
 49
-1.000000
 49
1.500000
 49
-1.000000
  0
LTYPE
  2
CENTER3
 70
    64
  3
____ _ ____ _ ____ _ ____ _ ____ _ ____ _ ____
 72
    65
 73
     4
 40
31.500000
 49
27.000000
 49
-1.000000
 49
2.500000
 49
-1.000000
  0
LTYPE
  2
CENTER4
 70
    64
  3
____ _ ____ _ ____ _ ____ _ ____ _ ____ _ ____
 72
    65
 73
     4
 40
50.000000
 49
45.000000
 49
-1.000000
 49
3.000000
 49
-1.000000
  0
LTYPE
  2
CENTER5
 70
    64
  3
____ _ ____ _ ____ _ ____ _ ____ _ ____ _ ____
 72
    65
 73
     4
 40
100.000000
 49
92.000000
 49
-2.000000
 49
4.000000
 49
-2.000000
  0
LTYPE
  2
SBK1
 70
    64
  3
______ _ _ _ ______ _ _ _ ______ _ _ _ _____  
 72
    65
 73
     8
 40
60.500000
 49
45.000000
 49
-2.000000
 49
2.500000
 49
-2.000000
 49
2.500000
 49
-2.000000
 49
2.500000
 49
-2.000000
  0
LTYPE
  2
SBK2
 70
    64
  3
______ _ _ _ ______ _ _ _ ______ _ _ _ _____  
 72
    65
 73
     8
 40
84.000000
 49
64.000000
 49
-2.000000
 49
4.000000
 49
-2.000000
 49
4.000000
 49
-2.000000
 49
4.000000
 49
-2.000000
  0
LTYPE
  2
STCH
 70
    64
  3
__ __ __ __ __ __ __ __ __ __ __ __ __ __ __
 72
    65
 73
     2
 40
3.000000
 49
1.000000
 49
-2.000000
  0
LTYPE
  2
MTCH
 70
    64
  3
_____ _ _ _____ _ _ _____ _ _ _____ _ _ ____  
 72
    65
 73
     6
 40
80.000000
 49
66.000000
 49
-2.000000
 49
4.000000
 49
-2.000000
 49
4.000000
 49
-2.000000
  0
ENDTAB
  0
TABLE
  2
LAYER
 70
     1
  0
LAYER
  2
0
 70
     0
 62
     7
  6
CONTINUOUS
  0
ENDTAB
  0
TABLE
  2
STYLE
 70
     1
  0
STYLE
  2
STANDARD
 70
     0
 40
0.000000
 41
1.000000
 50
0.000000
 71
     0
 42
0.200000
  3
txt
  4
BIGFONT
  0
ENDTAB
  0
TABLE
  2
VIEW
 70
     0
  0
ENDTAB
  0
ENDSEC
  0
SECTION
  2
BLOCKS
  0
ENDSEC
  0
SECTION
  2
ENTITIES
  0
LINE
  8
0
 10
299.799988
 20
276.250000
 11
299.799988
 21
261.250000
  0
LINE
  8
0
 10
299.799988
 20
-256.750000
 11
299.799988
 21
-276.750000
  0
LINE
  8
0
 10
299.799988
 20
261.250000
 11
399.799988
 21
261.250000
  0
LINE
  8
0
 10
299.799988
 20
-256.750000
 11
399.799988
 21
-256.750000
  0
LINE
  8
0
 10
-420.500000
 20
297.000000
 11
420.500000
 21
297.000000
  0
LINE
  8
0
 10
-420.500000
 20
-297.000000
 11
420.500000
 21
-297.000000
  0
LINE
  8
0
 10
420.500000
 20
297.000000
 11
420.500000
 21
-297.000000
  0
LINE
  8
0
 10
-420.500000
 20
297.000000
 11
-420.500000
 21
-297.000000
  0
LINE
  8
0
 10
399.799988
 20
276.250000
 11
399.799988
 21
-276.750000
  0
LINE
  8
0
 10
-399.250000
 20
276.250000
 11
-399.250000
 21
-276.750000
  0
LINE
  8
0
 10
-399.250000
 20
276.250000
 11
399.799988
 21
276.250000
  0
LINE
  8
0
 10
-399.250000
 20
-276.750000
 11
399.799988
 21
-276.750000
  0
LINE
  8
0
 62
     3
 10
-392.944336
 20
229.121658
 11
-354.673096
 21
267.392914
  0
LINE
  8
0
 62
     3
 10
-354.673126
 20
267.392944
 11
-354.673126
 21
241.368500
  0
LINE
  8
0
 62
     3
 10
-350.080566
 20
236.775940
 11
-343.446899
 21
236.775940
  0
LINE
  8
0
 62
     3
 10
-343.446899
 20
236.775940
 11
-344.365417
 21
234.479660
  0
LINE
  8
0
 62
     3
 10
-392.944397
 20
229.121689
 11
-364.623627
 21
229.121689
  0
LINE
  8
0
 62
     3
 10
-364.623749
 20
229.121780
 11
-363.666748
 21
231.418060
  0
LINE
  8
0
 62
     1
 10
-363.666748
 20
231.418060
 11
-363.028748
 21
232.948914
  0
LINE
  8
0
 62
     1
 10
-344.365417
 20
234.479660
 11
-344.977753
 21
232.948807
  0
LINE
  8
0
 62
     1
 10
-350.080566
 20
234.479675
 11
-344.365387
 21
234.479675
  0
LINE
  8
0
 62
     1
 10
-387.400665
 20
231.417969
 11
-363.666626
 21
231.417969
  0
LINE
  8
0
 62
     1
 10
-387.400696
 20
231.417953
 11
-356.969421
 21
261.849243
  0
LINE
  8
0
 62
     1
 10
-356.969391
 20
261.849243
 11
-356.969391
 21
241.368500
  0
LINE
  8
0
 62
     5
 10
-374.465393
 20
236.775940
 11
-361.433655
 21
236.775940
  0
LINE
  8
0
 62
     5
 10
-374.465332
 20
236.775894
 11
-362.327332
 21
248.913895
  0
LINE
  8
0
 62
     5
 10
-362.327393
 20
248.913940
 11
-362.327393
 21
241.368500
  0
LINE
  8
0
 62
     5
 10
-350.080566
 20
229.121689
 11
-346.508606
 21
229.121689
  0
LINE
  8
0
 62
     5
 10
-350.080566
 20
232.948822
 11
-344.977753
 21
232.948822
  0
LINE
  8
0
 62
     5
 10
-344.977753
 20
232.948807
 11
-346.508606
 21
229.121689
  0
LINE
  8
0
 62
     5
 10
-363.028748
 20
232.948914
 11
-361.433777
 21
236.776031
  0
LINE
  8
0
 62
     5
 10
-383.704895
 20
232.948822
 11
-363.028656
 21
232.948822
  0
LINE
  8
0
 62
     5
 10
-383.704865
 20
232.948822
 11
-358.500244
 21
258.153442
  0
LINE
  8
0
 62
     5
 10
-358.500244
 20
258.153442
 11
-358.500244
 21
241.368500
  0
LINE
  8
0
 10
-399.250000
 20
212.610382
 11
-172.975800
 21
212.610382
  0
LINE
  8
0
 10
-172.975800
 20
212.610382
 11
-172.975800
 21
276.250000
  0
LINE
  8
0
 10
0.274994
 20
276.250000
 11
0.274994
 21
-276.750000
  0
LINE
  8
0
  6
DASHED
 10
-239.999954
 20
168.755127
 11
-239.999954
 21
91.612251
  0
LINE
  8
0
  6
DASHED
 10
-239.999954
 20
168.755112
 11
-282.856750
 21
168.755112
  0
LINE
  8
0
  6
DASHED
 10
-239.999954
 20
91.612251
 11
-282.807251
 21
91.612251
  0
LINE
  8
0
 10
-282.225830
 20
129.999985
 11
-233.341202
 21
129.999985
  0
LINE
  8
0
  6
DASHED
 10
-110.714241
 20
168.571396
 11
-132.499939
 21
168.571396
  0
LINE
  8
0
  6
DASHED
 10
-110.714241
 20
91.428535
 11
-132.499939
 21
91.428535
  0
LINE
  8
0
  6
DASHED
 10
-109.999977
 20
167.857117
 11
-109.999977
 21
92.142815
  0
LINE
  8
0
 10
-106.892403
 20
129.999985
 11
-155.207458
 21
129.999985
  0
LINE
  8
0
  6
DASHED
 10
-132.499969
 20
168.571411
 11
-132.499969
 21
166.071411
  0
LINE
  8
0
  6
DASHED
 10
-137.499969
 20
168.571411
 11
-137.499969
 21
166.071411
  0
LINE
  8
0
  6
DASHED
 10
-132.499939
 20
166.071396
 11
-137.499939
 21
166.071396
  0
LINE
  8
0
  6
DASHED
 10
-137.499939
 20
168.571396
 11
-143.571381
 21
168.571396
  0
LINE
  8
0
  6
DASHED
 10
-147.499939
 20
103.214272
 11
-149.285675
 21
103.214272
  0
LINE
  8
0
  6
DASHED
 10
-147.499939
 20
121.785683
 11
-149.285675
 21
121.785683
  0
LINE
  8
0
  6
DASHED
 10
-147.499939
 20
119.642799
 11
-149.285675
 21
119.642799
  0
LINE
  8
0
  6
DASHED
 10
-147.499939
 20
138.214249
 11
-149.285675
 21
138.214249
  0
LINE
  8
0
  6
DASHED
 10
-147.499939
 20
140.357117
 11
-149.285675
 21
140.357117
  0
LINE
  8
0
  6
DASHED
 10
-147.499939
 20
156.785645
 11
-149.285675
 21
156.785645
  0
LINE
  8
0
  6
DASHED
 10
-147.499969
 20
158.928497
 11
-147.499969
 21
156.785645
  0
LINE
  8
0
  6
DASHED
 10
-149.285675
 20
156.785645
 11
-149.285675
 21
140.357117
  0
LINE
  8
0
  6
DASHED
 10
-147.499969
 20
140.357101
 11
-147.499969
 21
138.214249
  0
LINE
  8
0
  6
DASHED
 10
-147.499969
 20
121.785683
 11
-147.499969
 21
119.642815
  0
LINE
  8
0
  6
DASHED
 10
-147.499969
 20
103.214272
 11
-147.499969
 21
101.071388
  0
LINE
  8
0
  6
DASHED
 10
-132.499969
 20
91.428535
 11
-132.499969
 21
93.928535
  0
LINE
  8
0
  6
DASHED
 10
-132.499939
 20
93.928535
 11
-137.499939
 21
93.928535
  0
LINE
  8
0
  6
DASHED
 10
-137.499969
 20
91.428535
 11
-137.499969
 21
93.928535
  0
LINE
  8
0
  6
DASHED
 10
-137.499939
 20
91.428535
 11
-143.571381
 21
91.428535
  0
LINE
  8
0
  6
DASHED
 10
-149.285675
 20
138.214249
 11
-149.285675
 21
121.785683
  0
LINE
  8
0
  6
DASHED
 10
-149.285675
 20
119.642799
 11
-149.285675
 21
103.214272
  0
LINE
  8
0
  6
DASHED
 10
-110.714706
 20
168.570801
 11
-110.000427
 21
167.856537
  0
LINE
  8
0
  6
DASHED
 10
-110.000099
 20
92.142868
 11
-110.714554
 21
91.428398
  0
LINE
  8
0
  6
DASHED
 10
-147.499939
 20
101.071388
 11
-150.714233
 21
101.071388
  0
LINE
  8
0
  6
DASHED
 10
-147.499939
 20
158.928528
 11
-150.714233
 21
158.928528
  0
LINE
  8
0
  6
DASHED
 10
-150.714157
 20
161.428665
 11
-143.571335
 21
168.571472
  0
LINE
  8
0
  6
DASHED
 10
-150.714233
 20
161.428543
 11
-150.714233
 21
158.928528
  0
LINE
  8
0
  6
DASHED
 10
-150.714279
 20
98.571411
 11
-143.571381
 21
91.428505
  0
LINE
  8
0
  6
DASHED
 10
-150.714233
 20
101.071388
 11
-150.714233
 21
98.571419
  0
LINE
  8
0
  6
DASHED
 10
-343.571228
 20
18.571438
 11
-236.428528
 21
18.571438
  0
LINE
  8
0
  6
DASHED
 10
-347.190460
 20
-58.571423
 11
-232.809296
 21
-58.571423
  0
LINE
  8
0
 10
-350.714050
 20
-19.999989
 11
-229.285645
 21
-19.999989
  0
LINE
  8
0
 10
-289.999939
 20
21.303722
 11
-289.999939
 21
-62.586926
  0
LINE
  8
0
  6
DASHED
 10
-110.714211
 20
18.571438
 11
-132.499969
 21
18.571438
  0
LINE
  8
0
  6
DASHED
 10
-110.714211
 20
-58.571423
 11
-132.499969
 21
-58.571423
  0
LINE
  8
0
  6
DASHED
 10
-109.999977
 20
17.857155
 11
-109.999977
 21
-57.857136
  0
LINE
  8
0
 10
-106.892372
 20
-19.999989
 11
-155.207458
 21
-19.999989
  0
LINE
  8
0
  6
DASHED
 10
-132.499969
 20
18.571438
 11
-132.499969
 21
16.071438
  0
LINE
  8
0
  6
DASHED
 10
-137.499969
 20
18.571438
 11
-137.499969
 21
16.071438
  0
LINE
  8
0
  6
DASHED
 10
-132.499969
 20
16.071438
 11
-137.499969
 21
16.071438
  0
LINE
  8
0
  6
DASHED
 10
-137.499969
 20
18.571438
 11
-143.571381
 21
18.571438
  0
LINE
  8
0
  6
DASHED
 10
-147.499939
 20
-46.785683
 11
-149.285645
 21
-46.785683
  0
LINE
  8
0
  6
DASHED
 10
-147.499939
 20
-28.214275
 11
-149.285645
 21
-28.214275
  0
LINE
  8
0
  6
DASHED
 10
-147.499939
 20
-30.357155
 11
-149.285645
 21
-30.357155
  0
LINE
  8
0
  6
DASHED
 10
-147.499939
 20
-11.785704
 11
-149.285645
 21
-11.785704
  0
LINE
  8
0
  6
DASHED
 10
-147.499939
 20
-9.642830
 11
-149.285645
 21
-9.642830
  0
LINE
  8
0
  6
DASHED
 10
-147.499939
 20
6.785725
 11
-149.285645
 21
6.785725
  0
LINE
  8
0
  6
DASHED
 10
-147.499939
 20
8.928581
 11
-147.499939
 21
6.785725
  0
LINE
  8
0
  6
DASHED
 10
-149.285645
 20
6.785725
 11
-149.285645
 21
-9.642824
  0
LINE
  8
0
  6
DASHED
 10
-147.499939
 20
-9.642847
 11
-147.499939
 21
-11.785704
  0
LINE
  8
0
  6
DASHED
 10
-147.499939
 20
-28.214275
 11
-147.499939
 21
-30.357132
  0
LINE
  8
0
  6
DASHED
 10
-147.499939
 20
-46.785683
 11
-147.499939
 21
-48.928558
  0
LINE
  8
0
  6
DASHED
 10
-132.499969
 20
-58.571423
 11
-132.499969
 21
-56.071423
  0
LINE
  8
0
  6
DASHED
 10
-132.499969
 20
-56.071423
 11
-137.499969
 21
-56.071423
  0
LINE
  8
0
  6
DASHED
 10
-137.499969
 20
-58.571423
 11
-137.499969
 21
-56.071423
  0
LINE
  8
0
  6
DASHED
 10
-137.499969
 20
-58.571423
 11
-143.571381
 21
-58.571423
  0
LINE
  8
0
  6
DASHED
 10
-149.285645
 20
-11.785704
 11
-149.285645
 21
-28.214275
  0
LINE
  8
0
  6
DASHED
 10
-149.285645
 20
-30.357155
 11
-149.285645
 21
-46.785683
  0
LINE
  8
0
  6
DASHED
 10
-110.714691
 20
18.570908
 11
-110.000496
 21
17.856691
  0
LINE
  8
0
  6
DASHED
 10
-109.999535
 20
-57.857422
 11
-110.713860
 21
-58.571766
  0
LINE
  8
0
  6
DASHED
 10
-144.285645
 20
-57.857136
 11
-152.857086
 21
-57.857136
  0
LINE
  8
0
  6
DASHED
 10
-144.285645
 20
17.857132
 11
-152.857086
 21
17.857132
  0
LINE
  8
0
  6
DASHED
 10
-147.499939
 20
-48.928581
 11
-150.714233
 21
-48.928581
  0
LINE
  8
0
  6
DASHED
 10
-147.499939
 20
8.928560
 11
-150.714233
 21
8.928560
  0
LINE
  8
0
  6
DASHED
 10
-150.714249
 20
11.428547
 11
-143.571411
 21
18.571388
  0
LINE
  8
0
  6
DASHED
 10
-150.714111
 20
-51.428734
 11
-143.571304
 21
-58.571552
  0
LINE
  8
0
  6
DASHED
 10
-150.714233
 20
-48.928581
 11
-150.714233
 21
-51.428581
  0
LINE
  8
0
  6
DASHED
 10
-150.714233
 20
11.428541
 11
-150.714233
 21
8.928560
  0
LINE
  8
0
  6
DASHED
 10
-239.999954
 20
-131.428543
 11
-239.999954
 21
-208.571426
  0
LINE
  8
0
  6
DASHED
 10
-239.999954
 20
-131.428543
 11
-282.856812
 21
-131.428543
  0
LINE
  8
0
  6
DASHED
 10
-239.999954
 20
-208.571426
 11
-282.807373
 21
-208.571426
  0
LINE
  8
0
 10
-225.105637
 20
-169.999969
 11
-282.856812
 21
-169.999969
  0
LINE
  8
0
  6
DASHED
 10
-110.714272
 20
-131.428543
 11
-132.499969
 21
-131.428543
  0
LINE
  8
0
  6
DASHED
 10
-110.714272
 20
-208.571426
 11
-132.499969
 21
-208.571426
  0
LINE
  8
0
  6
DASHED
 10
-109.999977
 20
-132.142838
 11
-109.999977
 21
-207.857147
  0
LINE
  8
0
 10
-106.892433
 20
-169.999969
 11
-155.207489
 21
-169.999969
  0
LINE
  8
0
  6
DASHED
 10
-132.499969
 20
-131.428543
 11
-132.499969
 21
-133.928543
  0
LINE
  8
0
  6
DASHED
 10
-137.499969
 20
-131.428543
 11
-137.499969
 21
-133.928543
  0
LINE
  8
0
  6
DASHED
 10
-132.499969
 20
-133.928543
 11
-137.499969
 21
-133.928543
  0
LINE
  8
0
  6
DASHED
 10
-137.499969
 20
-131.428543
 11
-143.571747
 21
-131.428543
  0
LINE
  8
0
  6
DASHED
 10
-147.499969
 20
-196.785690
 11
-149.285675
 21
-196.785690
  0
LINE
  8
0
  6
DASHED
 10
-147.499969
 20
-178.214279
 11
-149.285675
 21
-178.214279
  0
LINE
  8
0
  6
DASHED
 10
-147.499969
 20
-180.357162
 11
-149.285675
 21
-180.357162
  0
LINE
  8
0
  6
DASHED
 10
-147.499969
 20
-161.785706
 11
-149.285675
 21
-161.785706
  0
LINE
  8
0
  6
DASHED
 10
-147.499969
 20
-159.642822
 11
-149.285675
 21
-159.642822
  0
LINE
  8
0
  6
DASHED
 10
-147.499969
 20
-143.214279
 11
-149.285675
 21
-143.214279
  0
LINE
  8
0
  6
DASHED
 10
-147.499969
 20
-141.071426
 11
-147.499969
 21
-143.214279
  0
LINE
  8
0
  6
DASHED
 10
-149.285706
 20
-143.214279
 11
-149.285706
 21
-159.642838
  0
LINE
  8
0
  6
DASHED
 10
-147.499969
 20
-159.642853
 11
-147.499969
 21
-161.785706
  0
LINE
  8
0
  6
DASHED
 10
-147.499969
 20
-178.214279
 11
-147.499969
 21
-180.357132
  0
LINE
  8
0
  6
DASHED
 10
-147.499969
 20
-196.785690
 11
-147.499969
 21
-198.928574
  0
LINE
  8
0
  6
DASHED
 10
-132.499969
 20
-208.571426
 11
-132.499969
 21
-206.071426
  0
LINE
  8
0
  6
DASHED
 10
-132.499969
 20
-206.071426
 11
-137.499969
 21
-206.071426
  0
LINE
  8
0
  6
DASHED
 10
-137.499969
 20
-208.571426
 11
-137.499969
 21
-206.071426
  0
LINE
  8
0
  6
DASHED
 10
-137.499969
 20
-208.571426
 11
-143.571411
 21
-208.571426
  0
LINE
  8
0
  6
DASHED
 10
-149.285706
 20
-161.785706
 11
-149.285706
 21
-178.214279
  0
LINE
  8
0
  6
DASHED
 10
-149.285706
 20
-180.357162
 11
-149.285706
 21
-196.785690
  0
LINE
  8
0
  6
DASHED
 10
-110.714806
 20
-131.429153
 11
-110.000626
 21
-132.143387
  0
LINE
  8
0
  6
DASHED
 10
-110.000305
 20
-207.856628
 11
-110.714622
 21
-208.570908
  0
LINE
  8
0
  6
DASHED
 10
-147.499969
 20
-198.928574
 11
-150.714264
 21
-198.928574
  0
LINE
  8
0
  6
DASHED
 10
-147.499969
 20
-141.071426
 11
-150.714264
 21
-141.071426
  0
LINE
  8
0
  6
DASHED
 10
-150.714279
 20
-138.571182
 11
-143.571625
 21
-131.428528
  0
LINE
  8
0
  6
DASHED
 10
-150.714279
 20
-201.428543
 11
-143.571426
 21
-208.571381
  0
LINE
  8
0
  6
DASHED
 10
-150.714264
 20
-198.928574
 11
-150.714264
 21
-201.428574
  0
LINE
  8
0
  6
DASHED
 10
-150.714264
 20
-138.571426
 11
-150.714264
 21
-141.071426
  0
LINE
  8
0
  6
DASHED
 10
139.999969
 20
170.571381
 11
139.999969
 21
89.428543
  0
LINE
  8
0
  6
DASHED
 10
139.999969
 20
170.571381
 11
111.428558
 21
170.571381
  0
LINE
  8
0
  6
DASHED
 10
139.999969
 20
89.428528
 11
110.314575
 21
89.428528
  0
LINE
  8
0
 10
143.498871
 20
129.999969
 11
107.348969
 21
129.999969
  0
LINE
  8
0
  6
DASHED
 10
290.000000
 20
170.571381
 11
264.000031
 21
170.571381
  0
LINE
  8
0
  6
DASHED
 10
290.000000
 20
89.428528
 11
264.000031
 21
89.428528
  0
LINE
  8
0
  6
DASHED
 10
289.999939
 20
170.571381
 11
289.999939
 21
89.428543
  0
LINE
  8
0
 10
294.761780
 20
129.999969
 11
241.841156
 21
129.999969
  0
LINE
  8
0
  6
DASHED
 10
245.999878
 20
161.999969
 11
245.999878
 21
160.571381
  0
LINE
  8
0
  6
DASHED
 10
246.000061
 20
97.999985
 11
254.571503
 21
89.428528
  0
LINE
  8
0
  6
DASHED
 10
246.000015
 20
161.999847
 11
254.571487
 21
170.571365
  0
LINE
  8
0
  6
DASHED
 10
264.000031
 20
170.571381
 11
264.000031
 21
168.571396
  0
LINE
  8
0
  6
DASHED
 10
259.999939
 20
170.571381
 11
259.999939
 21
168.571396
  0
LINE
  8
0
  6
DASHED
 10
264.000031
 20
168.571396
 11
259.999969
 21
168.571396
  0
LINE
  8
0
  6
DASHED
 10
264.000031
 20
91.428528
 11
259.999969
 21
91.428528
  0
LINE
  8
0
  6
DASHED
 10
264.000031
 20
91.428543
 11
264.000031
 21
89.428543
  0
LINE
  8
0
  6
DASHED
 10
259.999939
 20
91.428543
 11
259.999939
 21
89.428543
  0
LINE
  8
0
  6
DASHED
 10
259.999969
 20
170.571381
 11
254.571320
 21
170.571381
  0
LINE
  8
0
  6
DASHED
 10
259.999969
 20
89.428528
 11
254.571320
 21
89.428528
  0
LINE
  8
0
  6
DASHED
 10
248.857056
 20
99.428528
 11
245.999908
 21
99.428528
  0
LINE
  8
0
  6
DASHED
 10
248.857056
 20
160.571381
 11
245.999908
 21
160.571381
  0
LINE
  8
0
  6
DASHED
 10
248.857056
 20
101.714249
 11
247.428467
 21
101.714249
  0
LINE
  8
0
  6
DASHED
 10
248.857056
 20
158.285675
 11
247.428467
 21
158.285675
  0
LINE
  8
0
  6
DASHED
 10
248.857056
 20
138.857101
 11
247.428467
 21
138.857101
  0
LINE
  8
0
  6
DASHED
 10
248.857056
 20
141.142822
 11
247.428467
 21
141.142822
  0
LINE
  8
0
  6
DASHED
 10
248.857056
 20
121.142822
 11
247.428467
 21
121.142822
  0
LINE
  8
0
  6
DASHED
 10
248.857056
 20
118.857101
 11
247.428467
 21
118.857101
  0
LINE
  8
0
  6
DASHED
 10
248.857025
 20
160.571381
 11
248.857025
 21
158.285675
  0
LINE
  8
0
  6
DASHED
 10
248.857025
 20
141.142822
 11
248.857025
 21
138.857132
  0
LINE
  8
0
  6
DASHED
 10
248.857025
 20
121.142822
 11
248.857025
 21
118.857117
  0
LINE
  8
0
  6
DASHED
 10
248.857025
 20
101.714249
 11
248.857025
 21
99.428543
  0
LINE
  8
0
  6
DASHED
 10
247.428436
 20
138.857132
 11
247.428436
 21
121.142822
  0
LINE
  8
0
  6
DASHED
 10
247.428436
 20
118.857117
 11
247.428436
 21
101.714249
  0
LINE
  8
0
  6
DASHED
 10
247.428436
 20
158.285675
 11
247.428436
 21
141.142822
  0
LINE
  8
0
  6
DASHED
 10
245.999878
 20
99.428543
 11
245.999878
 21
97.999954
  0
LINE
  8
0
 10
109.999985
 20
23.307228
 11
109.999985
 21
-64.131165
  0
LINE
  8
0
  6
DASHED
 10
167.142838
 20
20.571411
 11
52.669907
 21
20.571411
  0
LINE
  8
0
  6
DASHED
 10
169.986038
 20
-60.571442
 11
52.047531
 21
-60.571442
  0
LINE
  8
0
 10
172.665665
 20
-20.000000
 11
47.007126
 21
-20.000000
  0
LINE
  8
0
  6
DASHED
 10
289.999939
 20
20.571411
 11
264.000000
 21
20.571411
  0
LINE
  8
0
  6
DASHED
 10
289.999939
 20
-60.571442
 11
264.000000
 21
-60.571442
  0
LINE
  8
0
  6
DASHED
 10
289.999939
 20
20.571411
 11
289.999939
 21
-60.571442
  0
LINE
  8
0
  6
DASHED
 10
294.762085
 20
-20.000000
 11
241.841095
 21
-20.000000
  0
LINE
  8
0
  6
DASHED
 10
254.000366
 20
-60.000000
 11
244.285614
 21
-60.000000
  0
LINE
  8
0
  6
DASHED
 10
253.999664
 20
19.999992
 11
244.285614
 21
19.999992
  0
LINE
  8
0
  6
DASHED
 10
246.000183
 20
11.999985
 11
246.000183
 21
10.571411
  0
LINE
  8
0
  6
DASHED
 10
246.000473
 20
-51.999722
 11
254.571701
 21
-60.570995
  0
LINE
  8
0
  6
DASHED
 10
245.999725
 20
12.000094
 11
254.571213
 21
20.571579
  0
LINE
  8
0
  6
DASHED
 10
263.999969
 20
20.571411
 11
263.999969
 21
18.571426
  0
LINE
  8
0
  6
DASHED
 10
259.999908
 20
20.571411
 11
259.999908
 21
18.571426
  0
LINE
  8
0
  6
DASHED
 10
264.000000
 20
18.571426
 11
259.999939
 21
18.571426
  0
LINE
  8
0
  6
DASHED
 10
264.000000
 20
-58.571442
 11
259.999939
 21
-58.571442
  0
LINE
  8
0
  6
DASHED
 10
263.999969
 20
-58.571442
 11
263.999969
 21
-60.571442
  0
LINE
  8
0
  6
DASHED
 10
259.999908
 20
-58.571442
 11
259.999908
 21
-60.571442
  0
LINE
  8
0
  6
DASHED
 10
248.857361
 20
-50.571442
 11
246.000214
 21
-50.571442
  0
LINE
  8
0
  6
DASHED
 10
248.857361
 20
10.571411
 11
246.000214
 21
10.571411
  0
LINE
  8
0
  6
DASHED
 10
248.857361
 20
-48.285721
 11
247.428802
 21
-48.285721
  0
LINE
  8
0
  6
DASHED
 10
248.857361
 20
8.285690
 11
247.428802
 21
8.285690
  0
LINE
  8
0
  6
DASHED
 10
248.857361
 20
-11.142891
 11
247.428802
 21
-11.142891
  0
LINE
  8
0
  6
DASHED
 10
248.857361
 20
-8.857170
 11
247.428802
 21
-8.857170
  0
LINE
  8
0
  6
DASHED
 10
248.857361
 20
-28.857147
 11
247.428802
 21
-28.857147
  0
LINE
  8
0
  6
DASHED
 10
248.857361
 20
-31.142868
 11
247.428802
 21
-31.142868
  0
LINE
  8
0
  6
DASHED
 10
248.857330
 20
10.571411
 11
248.857330
 21
8.285690
  0
LINE
  8
0
  6
DASHED
 10
248.857330
 20
-8.857162
 11
248.857330
 21
-11.142868
  0
LINE
  8
0
  6
DASHED
 10
248.857330
 20
-28.857147
 11
248.857330
 21
-31.142868
  0
LINE
  8
0
  6
DASHED
 10
248.857330
 20
-48.285736
 11
248.857330
 21
-50.571442
  0
LINE
  8
0
  6
DASHED
 10
247.428772
 20
-11.142868
 11
247.428772
 21
-28.857147
  0
LINE
  8
0
  6
DASHED
 10
247.428772
 20
-31.142868
 11
247.428772
 21
-48.285736
  0
LINE
  8
0
  6
DASHED
 10
247.428772
 20
8.285690
 11
247.428772
 21
-8.857162
  0
LINE
  8
0
  6
DASHED
 10
246.000183
 20
-50.571442
 11
246.000183
 21
-52.000015
  0
LINE
  8
0
  6
DASHED
 10
254.571289
 20
20.571526
 11
259.999939
 21
20.571526
  0
LINE
  8
0
  6
DASHED
 10
254.571655
 20
-60.571228
 11
259.999939
 21
-60.571228
  0
LINE
  8
0
  6
DASHED
 10
149.999969
 20
-129.428497
 11
149.999969
 21
-210.571350
  0
LINE
  8
0
  6
DASHED
 10
150.000000
 20
-129.428558
 11
121.428558
 21
-129.428558
  0
LINE
  8
0
  6
DASHED
 10
150.000000
 20
-210.571442
 11
120.314606
 21
-210.571442
  0
LINE
  8
0
 10
117.826630
 20
-169.999969
 11
168.113739
 21
-169.999969
  0
LINE
  8
0
  6
DASHED
 10
289.999969
 20
-129.428558
 11
264.000031
 21
-129.428558
  0
LINE
  8
0
  6
DASHED
 10
289.999969
 20
-210.571442
 11
264.000031
 21
-210.571442
  0
LINE
  8
0
  6
DASHED
 10
289.999939
 20
-129.428497
 11
289.999939
 21
-210.571350
  0
LINE
  8
0
 10
294.761749
 20
-169.999969
 11
241.840790
 21
-169.999969
  0
LINE
  8
0
  6
DASHED
 10
245.999878
 20
-137.999939
 11
245.999878
 21
-139.428497
  0
LINE
  8
0
  6
DASHED
 10
245.999817
 20
-201.999802
 11
254.571274
 21
-210.571289
  0
LINE
  8
0
  6
DASHED
 10
245.999725
 20
-137.999725
 11
254.571136
 21
-129.428268
  0
LINE
  8
0
  6
DASHED
 10
264.000000
 20
-129.428497
 11
264.000000
 21
-131.428497
  0
LINE
  8
0
  6
DASHED
 10
259.999939
 20
-129.428497
 11
259.999939
 21
-131.428497
  0
LINE
  8
0
  6
DASHED
 10
264.000031
 20
-131.428528
 11
259.999969
 21
-131.428528
  0
LINE
  8
0
  6
DASHED
 10
264.000031
 20
-208.571411
 11
259.999969
 21
-208.571411
  0
LINE
  8
0
  6
DASHED
 10
264.000000
 20
-208.571350
 11
264.000000
 21
-210.571350
  0
LINE
  8
0
  6
DASHED
 10
259.999939
 20
-208.571350
 11
259.999939
 21
-210.571350
  0
LINE
  8
0
  6
DASHED
 10
259.999969
 20
-129.428558
 11
254.571320
 21
-129.428558
  0
LINE
  8
0
  6
DASHED
 10
259.999969
 20
-210.571442
 11
254.571320
 21
-210.571442
  0
LINE
  8
0
  6
DASHED
 10
248.857025
 20
-200.571442
 11
245.999878
 21
-200.571442
  0
LINE
  8
0
  6
DASHED
 10
248.857025
 20
-139.428558
 11
245.999878
 21
-139.428558
  0
LINE
  8
0
  6
DASHED
 10
248.857025
 20
-198.285675
 11
247.428467
 21
-198.285675
  0
LINE
  8
0
  6
DASHED
 10
248.857025
 20
-141.714264
 11
247.428467
 21
-141.714264
  0
LINE
  8
0
  6
DASHED
 10
248.857025
 20
-161.142822
 11
247.428467
 21
-161.142822
  0
LINE
  8
0
  6
DASHED
 10
248.857025
 20
-158.857117
 11
247.428467
 21
-158.857117
  0
LINE
  8
0
  6
DASHED
 10
248.857025
 20
-178.857117
 11
247.428467
 21
-178.857117
  0
LINE
  8
0
  6
DASHED
 10
248.857025
 20
-181.142822
 11
247.428467
 21
-181.142822
  0
LINE
  8
0
  6
DASHED
 10
248.856995
 20
-139.428497
 11
248.856995
 21
-141.714203
  0
LINE
  8
0
  6
DASHED
 10
248.856995
 20
-158.857056
 11
248.856995
 21
-161.142731
  0
LINE
  8
0
  6
DASHED
 10
248.856995
 20
-178.857056
 11
248.856995
 21
-181.142761
  0
LINE
  8
0
  6
DASHED
 10
248.856995
 20
-198.285614
 11
248.856995
 21
-200.571350
  0
LINE
  8
0
  6
DASHED
 10
247.428436
 20
-161.142731
 11
247.428436
 21
-178.857056
  0
LINE
  8
0
  6
DASHED
 10
247.428436
 20
-181.142761
 11
247.428436
 21
-198.285614
  0
LINE
  8
0
  6
DASHED
 10
247.428436
 20
-141.714203
 11
247.428436
 21
-158.857056
  0
LINE
  8
0
  6
DASHED
 10
245.999878
 20
-200.571350
 11
245.999878
 21
-201.999969
  0
ARC
  8
0
 62
     3
 10
-350.080566
 20
241.368500
 40
4.592560
 50
180.000000
 51
270.000000
  0
ARC
  8
0
 62
     1
 10
-350.080566
 20
241.368500
 40
6.888824
 50
180.000000
 51
270.000000
  0
ARC
  8
0
 62
     5
 10
-350.080566
 20
241.368500
 40
12.246796
 50
180.000000
 51
270.000000
  0
ARC
  8
0
 62
     5
 10
-350.080566
 20
241.368500
 40
8.419678
 50
180.000000
 51
270.000000
  0
POLYLINE
  8
0
  6
DASHED
 66
     1
  0
VERTEX
  8
0
  6
DASHED
 10
-282.856750
 20
168.755112
  0
VERTEX
  8
0
  6
DASHED
 10
-282.303986
 20
167.975220
  0
VERTEX
  8
0
  6
DASHED
 10
-281.779114
 20
167.209412
  0
VERTEX
  8
0
  6
DASHED
 10
-281.275177
 20
166.437927
  0
VERTEX
  8
0
  6
DASHED
 10
-280.785278
 20
165.641022
  0
VERTEX
  8
0
  6
DASHED
 10
-280.302460
 20
164.798920
  0
VERTEX
  8
0
  6
DASHED
 10
-279.819794
 20
163.891876
  0
VERTEX
  8
0
  6
DASHED
 10
-279.330322
 20
162.900131
  0
VERTEX
  8
0
  6
DASHED
 10
-278.943481
 20
162.054123
  0
VERTEX
  8
0
  6
DASHED
 10
-278.580780
 20
161.198441
  0
VERTEX
  8
0
  6
DASHED
 10
-278.238739
 20
160.334198
  0
VERTEX
  8
0
  6
DASHED
 10
-277.913910
 20
159.462509
  0
VERTEX
  8
0
  6
DASHED
 10
-277.602814
 20
158.584518
  0
VERTEX
  8
0
  6
DASHED
 10
-277.301971
 20
157.701309
  0
VERTEX
  8
0
  6
DASHED
 10
-277.007904
 20
156.814011
  0
VERTEX
  8
0
  6
DASHED
 10
-276.717133
 20
155.923752
  0
VERTEX
  8
0
  6
DASHED
 10
-276.426239
 20
155.031647
  0
VERTEX
  8
0
  6
DASHED
 10
-276.131714
 20
154.138809
  0
VERTEX
  8
0
  6
DASHED
 10
-275.828979
 20
153.235947
  0
VERTEX
  8
0
  6
DASHED
 10
-275.521912
 20
152.323914
  0
VERTEX
  8
0
  6
DASHED
 10
-275.215302
 20
151.406052
  0
VERTEX
  8
0
  6
DASHED
 10
-274.914032
 20
150.485718
  0
VERTEX
  8
0
  6
DASHED
 10
-274.622925
 20
149.566269
  0
VERTEX
  8
0
  6
DASHED
 10
-274.346832
 20
148.651031
  0
VERTEX
  8
0
  6
DASHED
 10
-274.090576
 20
147.743378
  0
VERTEX
  8
0
  6
DASHED
 10
-273.859039
 20
146.846649
  0
VERTEX
  8
0
  6
DASHED
 10
-273.657043
 20
145.964188
  0
VERTEX
  8
0
  6
DASHED
 10
-273.489441
 20
145.099350
  0
VERTEX
  8
0
  6
DASHED
 10
-273.339630
 20
144.108856
  0
VERTEX
  8
0
  6
DASHED
 10
-273.229584
 20
143.097870
  0
VERTEX
  8
0
  6
DASHED
 10
-273.158325
 20
142.076584
  0
VERTEX
  8
0
  6
DASHED
 10
-273.124939
 20
141.055206
  0
VERTEX
  8
0
  6
DASHED
 10
-273.128418
 20
140.043915
  0
VERTEX
  8
0
  6
DASHED
 10
-273.167755
 20
139.052887
  0
VERTEX
  8
0
  6
DASHED
 10
-273.242035
 20
138.092346
  0
VERTEX
  8
0
  6
DASHED
 10
-273.350281
 20
137.172455
  0
VERTEX
  8
0
  6
DASHED
 10
-273.491974
 20
136.264923
  0
VERTEX
  8
0
  6
DASHED
 10
-273.657074
 20
135.383804
  0
VERTEX
  8
0
  6
DASHED
 10
-273.842926
 20
134.511963
  0
VERTEX
  8
0
  6
DASHED
 10
-274.046875
 20
133.632309
  0
VERTEX
  8
0
  6
DASHED
 10
-274.266296
 20
132.727707
  0
VERTEX
  8
0
  6
DASHED
 10
-274.498505
 20
131.781082
  0
VERTEX
  8
0
  6
DASHED
 10
-274.740845
 20
130.775299
  0
VERTEX
  8
0
  6
DASHED
 10
-274.952728
 20
129.863861
  0
VERTEX
  8
0
  6
DASHED
 10
-275.161469
 20
128.948807
  0
VERTEX
  8
0
  6
DASHED
 10
-275.372192
 20
128.033310
  0
VERTEX
  8
0
  6
DASHED
 10
-275.590057
 20
127.120567
  0
VERTEX
  8
0
  6
DASHED
 10
-275.820190
 20
126.213745
  0
VERTEX
  8
0
  6
DASHED
 10
-276.067719
 20
125.316032
  0
VERTEX
  8
0
  6
DASHED
 10
-276.337769
 20
124.430603
  0
VERTEX
  8
0
  6
DASHED
 10
-276.635498
 20
123.560646
  0
VERTEX
  8
0
  6
DASHED
 10
-276.966003
 20
122.709343
  0
VERTEX
  8
0
  6
DASHED
 10
-277.329498
 20
121.881836
  0
VERTEX
  8
0
  6
DASHED
 10
-277.727509
 20
121.054100
  0
VERTEX
  8
0
  6
DASHED
 10
-278.149384
 20
120.228798
  0
VERTEX
  8
0
  6
DASHED
 10
-278.584381
 20
119.408607
  0
VERTEX
  8
0
  6
DASHED
 10
-279.021820
 20
118.596199
  0
VERTEX
  8
0
  6
DASHED
 10
-279.450989
 20
117.794235
  0
VERTEX
  8
0
  6
DASHED
 10
-279.861145
 20
117.005394
  0
VERTEX
  8
0
  6
DASHED
 10
-280.241638
 20
116.232346
  0
VERTEX
  8
0
  6
DASHED
 10
-280.581726
 20
115.477760
  0
VERTEX
  8
0
  6
DASHED
 10
-280.923462
 20
114.627647
  0
VERTEX
  8
0
  6
DASHED
 10
-281.227081
 20
113.783264
  0
VERTEX
  8
0
  6
DASHED
 10
-281.502747
 20
112.932396
  0
VERTEX
  8
0
  6
DASHED
 10
-281.760590
 20
112.062828
  0
VERTEX
  8
0
  6
DASHED
 10
-282.010773
 20
111.162331
  0
VERTEX
  8
0
  6
DASHED
 10
-282.263367
 20
110.218689
  0
VERTEX
  8
0
  6
DASHED
 10
-282.528564
 20
109.219688
  0
VERTEX
  8
0
  6
DASHED
 10
-282.766907
 20
108.319656
  0
VERTEX
  8
0
  6
DASHED
 10
-283.001953
 20
107.404877
  0
VERTEX
  8
0
  6
DASHED
 10
-283.226166
 20
106.482071
  0
VERTEX
  8
0
  6
DASHED
 10
-283.431915
 20
105.557983
  0
VERTEX
  8
0
  6
DASHED
 10
-283.611694
 20
104.639336
  0
VERTEX
  8
0
  6
DASHED
 10
-283.757843
 20
103.732849
  0
VERTEX
  8
0
  6
DASHED
 10
-283.862885
 20
102.845261
  0
VERTEX
  8
0
  6
DASHED
 10
-283.919159
 20
101.983299
  0
VERTEX
  8
0
  6
DASHED
 10
-283.919128
 20
101.153694
  0
VERTEX
  8
0
  6
DASHED
 10
-283.848267
 20
100.191277
  0
VERTEX
  8
0
  6
DASHED
 10
-283.720062
 20
99.187851
  0
VERTEX
  8
0
  6
DASHED
 10
-283.555298
 20
98.173759
  0
VERTEX
  8
0
  6
DASHED
 10
-283.374695
 20
97.179337
  0
VERTEX
  8
0
  6
DASHED
 10
-283.199066
 20
96.234917
  0
VERTEX
  8
0
  6
DASHED
 10
-283.049133
 20
95.370857
  0
VERTEX
  8
0
  6
DASHED
 10
-282.945679
 20
94.617485
  0
VERTEX
  8
0
  6
DASHED
 10
-282.880096
 20
93.854095
  0
VERTEX
  8
0
  6
DASHED
 10
-282.840485
 20
93.089294
  0
VERTEX
  8
0
  6
DASHED
 10
-282.818665
 20
92.323723
  0
VERTEX
  8
0
  6
DASHED
 10
-282.806519
 20
91.557991
  0
SEQEND
  0
POLYLINE
  8
0
  6
DASHED
 66
     1
  0
VERTEX
  8
0
  6
DASHED
 10
-343.571228
 20
18.571449
  0
VERTEX
  8
0
  6
DASHED
 10
-343.760468
 20
17.678831
  0
VERTEX
  8
0
  6
DASHED
 10
-343.938904
 20
16.794836
  0
VERTEX
  8
0
  6
DASHED
 10
-344.108765
 20
15.909110
  0
VERTEX
  8
0
  6
DASHED
 10
-344.272339
 20
15.011299
  0
VERTEX
  8
0
  6
DASHED
 10
-344.431854
 20
14.091051
  0
VERTEX
  8
0
  6
DASHED
 10
-344.589630
 20
13.138012
  0
VERTEX
  8
0
  6
DASHED
 10
-344.729095
 20
12.265025
  0
VERTEX
  8
0
  6
DASHED
 10
-344.859589
 20
11.411518
  0
VERTEX
  8
0
  6
DASHED
 10
-344.980927
 20
10.561974
  0
VERTEX
  8
0
  6
DASHED
 10
-345.092865
 20
9.700874
  0
VERTEX
  8
0
  6
DASHED
 10
-345.195221
 20
8.812704
  0
VERTEX
  8
0
  6
DASHED
 10
-345.287750
 20
7.881946
  0
VERTEX
  8
0
  6
DASHED
 10
-345.370239
 20
6.893082
  0
VERTEX
  8
0
  6
DASHED
 10
-345.429291
 20
5.987164
  0
VERTEX
  8
0
  6
DASHED
 10
-345.471710
 20
5.063210
  0
VERTEX
  8
0
  6
DASHED
 10
-345.498260
 20
4.129981
  0
VERTEX
  8
0
  6
DASHED
 10
-345.509796
 20
3.196244
  0
VERTEX
  8
0
  6
DASHED
 10
-345.507111
 20
2.270763
  0
VERTEX
  8
0
  6
DASHED
 10
-345.491028
 20
1.362304
  0
VERTEX
  8
0
  6
DASHED
 10
-345.462280
 20
0.479630
  0
VERTEX
  8
0
  6
DASHED
 10
-345.421753
 20
-0.368494
  0
VERTEX
  8
0
  6
DASHED
 10
-345.370239
 20
-1.173302
  0
VERTEX
  8
0
  6
DASHED
 10
-345.302368
 20
-2.027055
  0
VERTEX
  8
0
  6
DASHED
 10
-345.225922
 20
-2.877163
  0
VERTEX
  8
0
  6
DASHED
 10
-345.144775
 20
-3.726056
  0
VERTEX
  8
0
  6
DASHED
 10
-345.062744
 20
-4.576162
  0
VERTEX
  8
0
  6
DASHED
 10
-344.983673
 20
-5.429908
  0
VERTEX
  8
0
  6
DASHED
 10
-344.911438
 20
-6.289725
  0
VERTEX
  8
0
  6
DASHED
 10
-344.849854
 20
-7.158039
  0
VERTEX
  8
0
  6
DASHED
 10
-344.800262
 20
-8.020901
  0
VERTEX
  8
0
  6
DASHED
 10
-344.764557
 20
-8.847338
  0
VERTEX
  8
0
  6
DASHED
 10
-344.744354
 20
-9.665060
  0
VERTEX
  8
0
  6
DASHED
 10
-344.741180
 20
-10.501775
  0
VERTEX
  8
0
  6
DASHED
 10
-344.756683
 20
-11.385191
  0
VERTEX
  8
0
  6
DASHED
 10
-344.792358
 20
-12.343017
  0
VERTEX
  8
0
  6
DASHED
 10
-344.849854
 20
-13.402962
  0
VERTEX
  8
0
  6
DASHED
 10
-344.920135
 20
-14.365219
  0
VERTEX
  8
0
  6
DASHED
 10
-345.012573
 20
-15.354602
  0
VERTEX
  8
0
  6
DASHED
 10
-345.123810
 20
-16.358812
  0
VERTEX
  8
0
  6
DASHED
 10
-345.250580
 20
-17.365549
  0
VERTEX
  8
0
  6
DASHED
 10
-345.389526
 20
-18.362518
  0
VERTEX
  8
0
  6
DASHED
 10
-345.537354
 20
-19.337420
  0
VERTEX
  8
0
  6
DASHED
 10
-345.690704
 20
-20.277954
  0
VERTEX
  8
0
  6
DASHED
 10
-345.846283
 20
-21.171824
  0
VERTEX
  8
0
  6
DASHED
 10
-346.000793
 20
-22.006729
  0
VERTEX
  8
0
  6
DASHED
 10
-346.150879
 20
-22.770374
  0
VERTEX
  8
0
  6
DASHED
 10
-346.324097
 20
-23.602287
  0
VERTEX
  8
0
  6
DASHED
 10
-346.493805
 20
-24.391636
  0
VERTEX
  8
0
  6
DASHED
 10
-346.662689
 20
-25.180975
  0
VERTEX
  8
0
  6
DASHED
 10
-346.833527
 20
-26.012856
  0
VERTEX
  8
0
  6
DASHED
 10
-347.008942
 20
-26.929838
  0
VERTEX
  8
0
  6
DASHED
 10
-347.191681
 20
-27.974472
  0
VERTEX
  8
0
  6
DASHED
 10
-347.333466
 20
-28.912781
  0
VERTEX
  8
0
  6
DASHED
 10
-347.453705
 20
-29.886806
  0
VERTEX
  8
0
  6
DASHED
 10
-347.552612
 20
-30.879835
  0
VERTEX
  8
0
  6
DASHED
 10
-347.630493
 20
-31.875153
  0
VERTEX
  8
0
  6
DASHED
 10
-347.687500
 20
-32.856045
  0
VERTEX
  8
0
  6
DASHED
 10
-347.723938
 20
-33.805798
  0
VERTEX
  8
0
  6
DASHED
 10
-347.740021
 20
-34.707695
  0
VERTEX
  8
0
  6
DASHED
 10
-347.735992
 20
-35.545021
  0
VERTEX
  8
0
  6
DASHED
 10
-347.712097
 20
-36.301064
  0
VERTEX
  8
0
  6
DASHED
 10
-347.661316
 20
-37.153721
  0
VERTEX
  8
0
  6
DASHED
 10
-347.599915
 20
-37.972256
  0
VERTEX
  8
0
  6
DASHED
 10
-347.537903
 20
-38.806808
  0
VERTEX
  8
0
  6
DASHED
 10
-347.485229
 20
-39.707531
  0
VERTEX
  8
0
  6
DASHED
 10
-347.451904
 20
-40.724564
  0
VERTEX
  8
0
  6
DASHED
 10
-347.451080
 20
-41.655220
  0
VERTEX
  8
0
  6
DASHED
 10
-347.477417
 20
-42.589340
  0
VERTEX
  8
0
  6
DASHED
 10
-347.522186
 20
-43.524574
  0
VERTEX
  8
0
  6
DASHED
 10
-347.576721
 20
-44.458580
  0
VERTEX
  8
0
  6
DASHED
 10
-347.632324
 20
-45.389004
  0
VERTEX
  8
0
  6
DASHED
 10
-347.680359
 20
-46.313499
  0
VERTEX
  8
0
  6
DASHED
 10
-347.712097
 20
-47.229713
  0
VERTEX
  8
0
  6
DASHED
 10
-347.719971
 20
-48.140564
  0
VERTEX
  8
0
  6
DASHED
 10
-347.705811
 20
-49.075531
  0
VERTEX
  8
0
  6
DASHED
 10
-347.673859
 20
-50.016396
  0
VERTEX
  8
0
  6
DASHED
 10
-347.628265
 20
-50.944950
  0
VERTEX
  8
0
  6
DASHED
 10
-347.573273
 20
-51.842987
  0
VERTEX
  8
0
  6
DASHED
 10
-347.513092
 20
-52.692291
  0
VERTEX
  8
0
  6
DASHED
 10
-347.451904
 20
-53.474659
  0
VERTEX
  8
0
  6
DASHED
 10
-347.382904
 20
-54.357075
  0
VERTEX
  8
0
  6
DASHED
 10
-347.315552
 20
-55.289433
  0
VERTEX
  8
0
  6
DASHED
 10
-347.256683
 20
-56.196911
  0
VERTEX
  8
0
  6
DASHED
 10
-347.213135
 20
-57.004684
  0
VERTEX
  8
0
  6
DASHED
 10
-347.191681
 20
-57.637936
  0
VERTEX
  8
0
  6
DASHED
 10
-347.188019
 20
-58.158314
  0
VERTEX
  8
0
  6
DASHED
 10
-347.191681
 20
-58.678761
  0
SEQEND
  0
POLYLINE
  8
0
  6
DASHED
 66
     1
  0
VERTEX
  8
0
  6
DASHED
 10
-236.428528
 20
18.571449
  0
VERTEX
  8
0
  6
DASHED
 10
-236.239273
 20
17.678833
  0
VERTEX
  8
0
  6
DASHED
 10
-236.060837
 20
16.794838
  0
VERTEX
  8
0
  6
DASHED
 10
-235.890976
 20
15.909112
  0
VERTEX
  8
0
  6
DASHED
 10
-235.727402
 20
15.011301
  0
VERTEX
  8
0
  6
DASHED
 10
-235.567856
 20
14.091052
  0
VERTEX
  8
0
  6
DASHED
 10
-235.410095
 20
13.138012
  0
VERTEX
  8
0
  6
DASHED
 10
-235.270645
 20
12.265024
  0
VERTEX
  8
0
  6
DASHED
 10
-235.140152
 20
11.411516
  0
VERTEX
  8
0
  6
DASHED
 10
-235.018829
 20
10.561972
  0
VERTEX
  8
0
  6
DASHED
 10
-234.906906
 20
9.700872
  0
VERTEX
  8
0
  6
DASHED
 10
-234.804565
 20
8.812702
  0
VERTEX
  8
0
  6
DASHED
 10
-234.712051
 20
7.881945
  0
VERTEX
  8
0
  6
DASHED
 10
-234.629547
 20
6.893082
  0
VERTEX
  8
0
  6
DASHED
 10
-234.570496
 20
5.987165
  0
VERTEX
  8
0
  6
DASHED
 10
-234.528076
 20
5.063211
  0
VERTEX
  8
0
  6
DASHED
 10
-234.501511
 20
4.129982
  0
VERTEX
  8
0
  6
DASHED
 10
-234.489975
 20
3.196246
  0
VERTEX
  8
0
  6
DASHED
 10
-234.492661
 20
2.270765
  0
VERTEX
  8
0
  6
DASHED
 10
-234.508774
 20
1.362305
  0
VERTEX
  8
0
  6
DASHED
 10
-234.537491
 20
0.479631
  0
VERTEX
  8
0
  6
DASHED
 10
-234.578018
 20
-0.368493
  0
VERTEX
  8
0
  6
DASHED
 10
-234.629547
 20
-1.173302
  0
VERTEX
  8
0
  6
DASHED
 10
-234.697418
 20
-2.027055
  0
VERTEX
  8
0
  6
DASHED
 10
-234.773849
 20
-2.877164
  0
VERTEX
  8
0
  6
DASHED
 10
-234.854996
 20
-3.726057
  0
VERTEX
  8
0
  6
DASHED
 10
-234.937027
 20
-4.576163
  0
VERTEX
  8
0
  6
DASHED
 10
-235.016098
 20
-5.429909
  0
VERTEX
  8
0
  6
DASHED
 10
-235.088333
 20
-6.289725
  0
VERTEX
  8
0
  6
DASHED
 10
-235.149902
 20
-7.158039
  0
VERTEX
  8
0
  6
DASHED
 10
-235.199493
 20
-8.020901
  0
VERTEX
  8
0
  6
DASHED
 10
-235.235199
 20
-8.847338
  0
VERTEX
  8
0
  6
DASHED
 10
-235.255417
 20
-9.665060
  0
VERTEX
  8
0
  6
DASHED
 10
-235.258560
 20
-10.501775
  0
VERTEX
  8
0
  6
DASHED
 10
-235.243088
 20
-11.385192
  0
VERTEX
  8
0
  6
DASHED
 10
-235.207397
 20
-12.343018
  0
VERTEX
  8
0
  6
DASHED
 10
-235.149902
 20
-13.402962
  0
VERTEX
  8
0
  6
DASHED
 10
-235.079605
 20
-14.365219
  0
VERTEX
  8
0
  6
DASHED
 10
-234.987167
 20
-15.354602
  0
VERTEX
  8
0
  6
DASHED
 10
-234.875885
 20
-16.358810
  0
VERTEX
  8
0
  6
DASHED
 10
-234.749084
 20
-17.365547
  0
VERTEX
  8
0
  6
DASHED
 10
-234.610107
 20
-18.362514
  0
VERTEX
  8
0
  6
DASHED
 10
-234.462265
 20
-19.337416
  0
VERTEX
  8
0
  6
DASHED
 10
-234.308868
 20
-20.277948
  0
VERTEX
  8
0
  6
DASHED
 10
-234.153244
 20
-21.171820
  0
VERTEX
  8
0
  6
DASHED
 10
-233.998734
 20
-22.006727
  0
VERTEX
  8
0
  6
DASHED
 10
-233.848633
 20
-22.770374
  0
VERTEX
  8
0
  6
DASHED
 10
-233.675430
 20
-23.602287
  0
VERTEX
  8
0
  6
DASHED
 10
-233.505737
 20
-24.391638
  0
VERTEX
  8
0
  6
DASHED
 10
-233.336853
 20
-25.180977
  0
VERTEX
  8
0
  6
DASHED
 10
-233.166061
 20
-26.012859
  0
VERTEX
  8
0
  6
DASHED
 10
-232.990662
 20
-26.929840
  0
VERTEX
  8
0
  6
DASHED
 10
-232.807922
 20
-27.974472
  0
VERTEX
  8
0
  6
DASHED
 10
-232.666138
 20
-28.912779
  0
VERTEX
  8
0
  6
DASHED
 10
-232.545914
 20
-29.886805
  0
VERTEX
  8
0
  6
DASHED
 10
-232.446991
 20
-30.879833
  0
VERTEX
  8
0
  6
DASHED
 10
-232.369141
 20
-31.875153
  0
VERTEX
  8
0
  6
DASHED
 10
-232.312119
 20
-32.856045
  0
VERTEX
  8
0
  6
DASHED
 10
-232.275681
 20
-33.805798
  0
VERTEX
  8
0
  6
DASHED
 10
-232.259613
 20
-34.707695
  0
VERTEX
  8
0
  6
DASHED
 10
-232.263641
 20
-35.545021
  0
VERTEX
  8
0
  6
DASHED
 10
-232.287537
 20
-36.301064
  0
VERTEX
  8
0
  6
DASHED
 10
-232.338318
 20
-37.153721
  0
VERTEX
  8
0
  6
DASHED
 10
-232.399719
 20
-37.972256
  0
VERTEX
  8
0
  6
DASHED
 10
-232.461731
 20
-38.806808
  0
VERTEX
  8
0
  6
DASHED
 10
-232.514404
 20
-39.707531
  0
VERTEX
  8
0
  6
DASHED
 10
-232.547729
 20
-40.724564
  0
VERTEX
  8
0
  6
DASHED
 10
-232.548553
 20
-41.655220
  0
VERTEX
  8
0
  6
DASHED
 10
-232.522232
 20
-42.589340
  0
VERTEX
  8
0
  6
DASHED
 10
-232.477463
 20
-43.524578
  0
VERTEX
  8
0
  6
DASHED
 10
-232.422928
 20
-44.458580
  0
VERTEX
  8
0
  6
DASHED
 10
-232.367294
 20
-45.389004
  0
VERTEX
  8
0
  6
DASHED
 10
-232.319275
 20
-46.313499
  0
VERTEX
  8
0
  6
DASHED
 10
-232.287537
 20
-47.229713
  0
VERTEX
  8
0
  6
DASHED
 10
-232.279663
 20
-48.140564
  0
VERTEX
  8
0
  6
DASHED
 10
-232.293823
 20
-49.075531
  0
VERTEX
  8
0
  6
DASHED
 10
-232.325790
 20
-50.016396
  0
VERTEX
  8
0
  6
DASHED
 10
-232.371368
 20
-50.944950
  0
VERTEX
  8
0
  6
DASHED
 10
-232.426346
 20
-51.842987
  0
VERTEX
  8
0
  6
DASHED
 10
-232.486542
 20
-52.692291
  0
VERTEX
  8
0
  6
DASHED
 10
-232.547729
 20
-53.474659
  0
VERTEX
  8
0
  6
DASHED
 10
-232.616730
 20
-54.357075
  0
VERTEX
  8
0
  6
DASHED
 10
-232.684067
 20
-55.289433
  0
VERTEX
  8
0
  6
DASHED
 10
-232.742920
 20
-56.196911
  0
VERTEX
  8
0
  6
DASHED
 10
-232.786469
 20
-57.004684
  0
VERTEX
  8
0
  6
DASHED
 10
-232.807922
 20
-57.637936
  0
VERTEX
  8
0
  6
DASHED
 10
-232.811569
 20
-58.158314
  0
VERTEX
  8
0
  6
DASHED
 10
-232.807922
 20
-58.678761
  0
SEQEND
  0
POLYLINE
  8
0
  6
DASHED
 66
     1
  0
VERTEX
  8
0
  6
DASHED
 10
-282.856812
 20
-131.428543
  0
VERTEX
  8
0
  6
DASHED
 10
-282.304016
 20
-132.208435
  0
VERTEX
  8
0
  6
DASHED
 10
-281.779083
 20
-132.974243
  0
VERTEX
  8
0
  6
DASHED
 10
-281.275116
 20
-133.745712
  0
VERTEX
  8
0
  6
DASHED
 10
-280.785126
 20
-134.542633
  0
VERTEX
  8
0
  6
DASHED
 10
-280.302246
 20
-135.384735
  0
VERTEX
  8
0
  6
DASHED
 10
-279.819519
 20
-136.291779
  0
VERTEX
  8
0
  6
DASHED
 10
-279.330017
 20
-137.283539
  0
VERTEX
  8
0
  6
DASHED
 10
-278.943176
 20
-138.129547
  0
VERTEX
  8
0
  6
DASHED
 10
-278.580475
 20
-138.985229
  0
VERTEX
  8
0
  6
DASHED
 10
-278.238434
 20
-139.849472
  0
VERTEX
  8
0
  6
DASHED
 10
-277.913605
 20
-140.721146
  0
VERTEX
  8
0
  6
DASHED
 10
-277.602509
 20
-141.599152
  0
VERTEX
  8
0
  6
DASHED
 10
-277.301636
 20
-142.482361
  0
VERTEX
  8
0
  6
DASHED
 10
-277.007599
 20
-143.369644
  0
VERTEX
  8
0
  6
DASHED
 10
-276.716827
 20
-144.259903
  0
VERTEX
  8
0
  6
DASHED
 10
-276.425934
 20
-145.152008
  0
VERTEX
  8
0
  6
DASHED
 10
-276.131409
 20
-146.044846
  0
VERTEX
  8
0
  6
DASHED
 10
-275.828674
 20
-146.947708
  0
VERTEX
  8
0
  6
DASHED
 10
-275.521606
 20
-147.859741
  0
VERTEX
  8
0
  6
DASHED
 10
-275.214996
 20
-148.777603
  0
VERTEX
  8
0
  6
DASHED
 10
-274.913727
 20
-149.697937
  0
VERTEX
  8
0
  6
DASHED
 10
-274.622620
 20
-150.617386
  0
VERTEX
  8
0
  6
DASHED
 10
-274.346527
 20
-151.532623
  0
VERTEX
  8
0
  6
DASHED
 10
-274.090271
 20
-152.440277
  0
VERTEX
  8
0
  6
DASHED
 10
-273.858734
 20
-153.337006
  0
VERTEX
  8
0
  6
DASHED
 10
-273.656738
 20
-154.219467
  0
VERTEX
  8
0
  6
DASHED
 10
-273.489136
 20
-155.084305
  0
VERTEX
  8
0
  6
DASHED
 10
-273.339325
 20
-156.074799
  0
VERTEX
  8
0
  6
DASHED
 10
-273.229279
 20
-157.085785
  0
VERTEX
  8
0
  6
DASHED
 10
-273.158051
 20
-158.107071
  0
VERTEX
  8
0
  6
DASHED
 10
-273.124664
 20
-159.128448
  0
VERTEX
  8
0
  6
DASHED
 10
-273.128143
 20
-160.139740
  0
VERTEX
  8
0
  6
DASHED
 10
-273.167511
 20
-161.130768
  0
VERTEX
  8
0
  6
DASHED
 10
-273.241791
 20
-162.091309
  0
VERTEX
  8
0
  6
DASHED
 10
-273.350037
 20
-163.011200
  0
VERTEX
  8
0
  6
DASHED
 10
-273.491730
 20
-163.918732
  0
VERTEX
  8
0
  6
DASHED
 10
-273.656860
 20
-164.799850
  0
VERTEX
  8
0
  6
DASHED
 10
-273.842743
 20
-165.671692
  0
VERTEX
  8
0
  6
DASHED
 10
-274.046722
 20
-166.551361
  0
VERTEX
  8
0
  6
DASHED
 10
-274.266144
 20
-167.455948
  0
VERTEX
  8
0
  6
DASHED
 10
-274.498383
 20
-168.402588
  0
VERTEX
  8
0
  6
DASHED
 10
-274.740723
 20
-169.408371
  0
VERTEX
  8
0
  6
DASHED
 10
-274.952606
 20
-170.319809
  0
VERTEX
  8
0
  6
DASHED
 10
-275.161346
 20
-171.234863
  0
VERTEX
  8
0
  6
DASHED
 10
-275.372070
 20
-172.150360
  0
VERTEX
  8
0
  6
DASHED
 10
-275.589905
 20
-173.063110
  0
VERTEX
  8
0
  6
DASHED
 10
-275.820038
 20
-173.969925
  0
VERTEX
  8
0
  6
DASHED
 10
-276.067535
 20
-174.867645
  0
VERTEX
  8
0
  6
DASHED
 10
-276.337585
 20
-175.753067
  0
VERTEX
  8
0
  6
DASHED
 10
-276.635315
 20
-176.623032
  0
VERTEX
  8
0
  6
DASHED
 10
-276.965820
 20
-177.474335
  0
VERTEX
  8
0
  6
DASHED
 10
-277.329315
 20
-178.301834
  0
VERTEX
  8
0
  6
DASHED
 10
-277.727356
 20
-179.129578
  0
VERTEX
  8
0
  6
DASHED
 10
-278.149231
 20
-179.954880
  0
VERTEX
  8
0
  6
DASHED
 10
-278.584229
 20
-180.775070
  0
VERTEX
  8
0
  6
DASHED
 10
-279.021667
 20
-181.587479
  0
VERTEX
  8
0
  6
DASHED
 10
-279.450836
 20
-182.389435
  0
VERTEX
  8
0
  6
DASHED
 10
-279.861023
 20
-183.178284
  0
VERTEX
  8
0
  6
DASHED
 10
-280.241516
 20
-183.951324
  0
VERTEX
  8
0
  6
DASHED
 10
-280.581604
 20
-184.705917
  0
VERTEX
  8
0
  6
DASHED
 10
-280.923340
 20
-185.556030
  0
VERTEX
  8
0
  6
DASHED
 10
-281.226990
 20
-186.400406
  0
VERTEX
  8
0
  6
DASHED
 10
-281.502686
 20
-187.251266
  0
VERTEX
  8
0
  6
DASHED
 10
-281.760559
 20
-188.120850
  0
VERTEX
  8
0
  6
DASHED
 10
-282.010742
 20
-189.021332
  0
VERTEX
  8
0
  6
DASHED
 10
-282.263367
 20
-189.964981
  0
VERTEX
  8
0
  6
DASHED
 10
-282.528564
 20
-190.963974
  0
VERTEX
  8
0
  6
DASHED
 10
-282.766907
 20
-191.864014
  0
VERTEX
  8
0
  6
DASHED
 10
-283.001953
 20
-192.778793
  0
VERTEX
  8
0
  6
DASHED
 10
-283.226196
 20
-193.701584
  0
VERTEX
  8
0
  6
DASHED
 10
-283.431976
 20
-194.625671
  0
VERTEX
  8
0
  6
DASHED
 10
-283.611755
 20
-195.544327
  0
VERTEX
  8
0
  6
DASHED
 10
-283.757935
 20
-196.450806
  0
VERTEX
  8
0
  6
DASHED
 10
-283.862976
 20
-197.338394
  0
VERTEX
  8
0
  6
DASHED
 10
-283.919281
 20
-198.200363
  0
VERTEX
  8
0
  6
DASHED
 10
-283.919250
 20
-199.029968
  0
VERTEX
  8
0
  6
DASHED
 10
-283.848389
 20
-199.992386
  0
VERTEX
  8
0
  6
DASHED
 10
-283.720184
 20
-200.995804
  0
VERTEX
  8
0
  6
DASHED
 10
-283.555420
 20
-202.009903
  0
VERTEX
  8
0
  6
DASHED
 10
-283.374817
 20
-203.004333
  0
VERTEX
  8
0
  6
DASHED
 10
-283.199188
 20
-203.948746
  0
VERTEX
  8
0
  6
DASHED
 10
-283.049255
 20
-204.812805
  0
VERTEX
  8
0
  6
DASHED
 10
-282.945801
 20
-205.566177
  0
VERTEX
  8
0
  6
DASHED
 10
-282.880249
 20
-206.329575
  0
VERTEX
  8
0
  6
DASHED
 10
-282.840637
 20
-207.094376
  0
VERTEX
  8
0
  6
DASHED
 10
-282.818848
 20
-207.859955
  0
VERTEX
  8
0
  6
DASHED
 10
-282.806702
 20
-208.625687
  0
SEQEND
  0
POLYLINE
  8
0
  6
DASHED
 66
     1
  0
VERTEX
  8
0
  6
DASHED
 10
111.428528
 20
170.571381
  0
VERTEX
  8
0
  6
DASHED
 10
111.671715
 20
169.735458
  0
VERTEX
  8
0
  6
DASHED
 10
111.902306
 20
168.895920
  0
VERTEX
  8
0
  6
DASHED
 10
112.149445
 20
167.930817
  0
VERTEX
  8
0
  6
DASHED
 10
112.368729
 20
167.020035
  0
VERTEX
  8
0
  6
DASHED
 10
112.569778
 20
166.125702
  0
VERTEX
  8
0
  6
DASHED
 10
112.766090
 20
165.188919
  0
VERTEX
  8
0
  6
DASHED
 10
112.971161
 20
164.150787
  0
VERTEX
  8
0
  6
DASHED
 10
113.131958
 20
163.295364
  0
VERTEX
  8
0
  6
DASHED
 10
113.286568
 20
162.426514
  0
VERTEX
  8
0
  6
DASHED
 10
113.432472
 20
161.556183
  0
VERTEX
  8
0
  6
DASHED
 10
113.567162
 20
160.696350
  0
VERTEX
  8
0
  6
DASHED
 10
113.688126
 20
159.858948
  0
VERTEX
  8
0
  6
DASHED
 10
113.792847
 20
159.055969
  0
VERTEX
  8
0
  6
DASHED
 10
113.889824
 20
158.229935
  0
VERTEX
  8
0
  6
DASHED
 10
113.971802
 20
157.428452
  0
VERTEX
  8
0
  6
DASHED
 10
114.038147
 20
156.612671
  0
VERTEX
  8
0
  6
DASHED
 10
114.088226
 20
155.743774
  0
VERTEX
  8
0
  6
DASHED
 10
114.121399
 20
154.782898
  0
VERTEX
  8
0
  6
DASHED
 10
114.132805
 20
153.808380
  0
VERTEX
  8
0
  6
DASHED
 10
114.122650
 20
152.847427
  0
VERTEX
  8
0
  6
DASHED
 10
114.095474
 20
151.886398
  0
VERTEX
  8
0
  6
DASHED
 10
114.055801
 20
150.911636
  0
VERTEX
  8
0
  6
DASHED
 10
114.008179
 20
149.909500
  0
VERTEX
  8
0
  6
DASHED
 10
113.957123
 20
148.866348
  0
VERTEX
  8
0
  6
DASHED
 10
113.911537
 20
147.881927
  0
VERTEX
  8
0
  6
DASHED
 10
113.868301
 20
146.900131
  0
VERTEX
  8
0
  6
DASHED
 10
113.825737
 20
145.919052
  0
VERTEX
  8
0
  6
DASHED
 10
113.782173
 20
144.936798
  0
VERTEX
  8
0
  6
DASHED
 10
113.735909
 20
143.951416
  0
VERTEX
  8
0
  6
DASHED
 10
113.685265
 20
142.961014
  0
VERTEX
  8
0
  6
DASHED
 10
113.628571
 20
141.963684
  0
VERTEX
  8
0
  6
DASHED
 10
113.574509
 20
141.088303
  0
VERTEX
  8
0
  6
DASHED
 10
113.516159
 20
140.232819
  0
VERTEX
  8
0
  6
DASHED
 10
113.448708
 20
139.386139
  0
VERTEX
  8
0
  6
DASHED
 10
113.367340
 20
138.537186
  0
VERTEX
  8
0
  6
DASHED
 10
113.267250
 20
137.674835
  0
VERTEX
  8
0
  6
DASHED
 10
113.143623
 20
136.788040
  0
VERTEX
  8
0
  6
DASHED
 10
112.991653
 20
135.865677
  0
VERTEX
  8
0
  6
DASHED
 10
112.806519
 20
134.896683
  0
VERTEX
  8
0
  6
DASHED
 10
112.609726
 20
133.996658
  0
VERTEX
  8
0
  6
DASHED
 10
112.389648
 20
133.092834
  0
VERTEX
  8
0
  6
DASHED
 10
112.152252
 20
132.187668
  0
VERTEX
  8
0
  6
DASHED
 10
111.903481
 20
131.283646
  0
VERTEX
  8
0
  6
DASHED
 10
111.649300
 20
130.383240
  0
VERTEX
  8
0
  6
DASHED
 10
111.395668
 20
129.488922
  0
VERTEX
  8
0
  6
DASHED
 10
111.148529
 20
128.603149
  0
VERTEX
  8
0
  6
DASHED
 10
110.913849
 20
127.728394
  0
VERTEX
  8
0
  6
DASHED
 10
110.697578
 20
126.867142
  0
VERTEX
  8
0
  6
DASHED
 10
110.505676
 20
126.021851
  0
VERTEX
  8
0
  6
DASHED
 10
110.314987
 20
125.059875
  0
VERTEX
  8
0
  6
DASHED
 10
110.151604
 20
124.112183
  0
VERTEX
  8
0
  6
DASHED
 10
110.008575
 20
123.168175
  0
VERTEX
  8
0
  6
DASHED
 10
109.878952
 20
122.217278
  0
VERTEX
  8
0
  6
DASHED
 10
109.755775
 20
121.248909
  0
VERTEX
  8
0
  6
DASHED
 10
109.632103
 20
120.252472
  0
VERTEX
  8
0
  6
DASHED
 10
109.500977
 20
119.217392
  0
VERTEX
  8
0
  6
DASHED
 10
109.355438
 20
118.133087
  0
VERTEX
  8
0
  6
DASHED
 10
109.211235
 20
117.131325
  0
VERTEX
  8
0
  6
DASHED
 10
109.057236
 20
116.108383
  0
VERTEX
  8
0
  6
DASHED
 10
108.898163
 20
115.073524
  0
VERTEX
  8
0
  6
DASHED
 10
108.738762
 20
114.035973
  0
VERTEX
  8
0
  6
DASHED
 10
108.583763
 20
113.004990
  0
VERTEX
  8
0
  6
DASHED
 10
108.437904
 20
111.989822
  0
VERTEX
  8
0
  6
DASHED
 10
108.305923
 20
110.999710
  0
VERTEX
  8
0
  6
DASHED
 10
108.192543
 20
110.043900
  0
VERTEX
  8
0
  6
DASHED
 10
108.102516
 20
109.131638
  0
VERTEX
  8
0
  6
DASHED
 10
108.040558
 20
108.272171
  0
VERTEX
  8
0
  6
DASHED
 10
107.999969
 20
107.309471
  0
VERTEX
  8
0
  6
DASHED
 10
107.981636
 20
106.339516
  0
VERTEX
  8
0
  6
DASHED
 10
107.980324
 20
105.366669
  0
VERTEX
  8
0
  6
DASHED
 10
107.990799
 20
104.395309
  0
VERTEX
  8
0
  6
DASHED
 10
108.007820
 20
103.429802
  0
VERTEX
  8
0
  6
DASHED
 10
108.026154
 20
102.474525
  0
VERTEX
  8
0
  6
DASHED
 10
108.040558
 20
101.533844
  0
VERTEX
  8
0
  6
DASHED
 10
108.048340
 20
100.636299
  0
VERTEX
  8
0
  6
DASHED
 10
108.056267
 20
99.738731
  0
VERTEX
  8
0
  6
DASHED
 10
108.072090
 20
98.842232
  0
VERTEX
  8
0
  6
DASHED
 10
108.103569
 20
97.947884
  0
VERTEX
  8
0
  6
DASHED
 10
108.158447
 20
97.056770
  0
VERTEX
  8
0
  6
DASHED
 10
108.244492
 20
96.169983
  0
VERTEX
  8
0
  6
DASHED
 10
108.369446
 20
95.288605
  0
VERTEX
  8
0
  6
DASHED
 10
108.538933
 20
94.414635
  0
VERTEX
  8
0
  6
DASHED
 10
108.751526
 20
93.547867
  0
VERTEX
  8
0
  6
DASHED
 10
109.003807
 20
92.689728
  0
VERTEX
  8
0
  6
DASHED
 10
109.292358
 20
91.841644
  0
VERTEX
  8
0
  6
DASHED
 10
109.613747
 20
91.005051
  0
VERTEX
  8
0
  6
DASHED
 10
109.964569
 20
90.181374
  0
VERTEX
  8
0
  6
DASHED
 10
110.341400
 20
89.372040
  0
SEQEND
  0
POLYLINE
  8
0
  6
DASHED
 66
     1
  0
VERTEX
  8
0
  6
DASHED
 10
167.142838
 20
20.571411
  0
VERTEX
  8
0
  6
DASHED
 10
167.467026
 20
19.998795
  0
VERTEX
  8
0
  6
DASHED
 10
167.750290
 20
19.404833
  0
VERTEX
  8
0
  6
DASHED
 10
168.044754
 20
18.619644
  0
VERTEX
  8
0
  6
DASHED
 10
168.303421
 20
17.726233
  0
VERTEX
  8
0
  6
DASHED
 10
168.480728
 20
16.822502
  0
VERTEX
  8
0
  6
DASHED
 10
168.589493
 20
15.883280
  0
VERTEX
  8
0
  6
DASHED
 10
168.642532
 20
14.883392
  0
VERTEX
  8
0
  6
DASHED
 10
168.648544
 20
13.984399
  0
VERTEX
  8
0
  6
DASHED
 10
168.617905
 20
13.089623
  0
VERTEX
  8
0
  6
DASHED
 10
168.554382
 20
12.195997
  0
VERTEX
  8
0
  6
DASHED
 10
168.461716
 20
11.300447
  0
VERTEX
  8
0
  6
DASHED
 10
168.343643
 20
10.399902
  0
VERTEX
  8
0
  6
DASHED
 10
168.201340
 20
9.487197
  0
VERTEX
  8
0
  6
DASHED
 10
168.032211
 20
8.580494
  0
VERTEX
  8
0
  6
DASHED
 10
167.829651
 20
7.681796
  0
VERTEX
  8
0
  6
DASHED
 10
167.587006
 20
6.793109
  0
VERTEX
  8
0
  6
DASHED
 10
167.297684
 20
5.916435
  0
VERTEX
  8
0
  6
DASHED
 10
166.957001
 20
5.047003
  0
VERTEX
  8
0
  6
DASHED
 10
166.585266
 20
4.188499
  0
VERTEX
  8
0
  6
DASHED
 10
166.204544
 20
3.331308
  0
VERTEX
  8
0
  6
DASHED
 10
165.836868
 20
2.465813
  0
VERTEX
  8
0
  6
DASHED
 10
165.504288
 20
1.582397
  0
VERTEX
  8
0
  6
DASHED
 10
165.227386
 20
0.674454
  0
VERTEX
  8
0
  6
DASHED
 10
165.018143
 20
-0.254243
  0
VERTEX
  8
0
  6
DASHED
 10
164.887573
 20
-1.192264
  0
VERTEX
  8
0
  6
DASHED
 10
164.846680
 20
-2.128175
  0
VERTEX
  8
0
  6
DASHED
 10
164.906509
 20
-3.050545
  0
VERTEX
  8
0
  6
DASHED
 10
165.078278
 20
-3.962434
  0
VERTEX
  8
0
  6
DASHED
 10
165.346237
 20
-4.875696
  0
VERTEX
  8
0
  6
DASHED
 10
165.677780
 20
-5.766418
  0
VERTEX
  8
0
  6
DASHED
 10
166.040237
 20
-6.610685
  0
VERTEX
  8
0
  6
DASHED
 10
166.400986
 20
-7.384583
  0
VERTEX
  8
0
  6
DASHED
 10
166.766586
 20
-8.140502
  0
VERTEX
  8
0
  6
DASHED
 10
167.115555
 20
-8.882084
  0
VERTEX
  8
0
  6
DASHED
 10
167.443451
 20
-9.659529
  0
VERTEX
  8
0
  6
DASHED
 10
167.745865
 20
-10.523033
  0
VERTEX
  8
0
  6
DASHED
 10
167.971817
 20
-11.368946
  0
VERTEX
  8
0
  6
DASHED
 10
168.136856
 20
-12.238493
  0
VERTEX
  8
0
  6
DASHED
 10
168.248688
 20
-13.118487
  0
VERTEX
  8
0
  6
DASHED
 10
168.315048
 20
-13.995745
  0
VERTEX
  8
0
  6
DASHED
 10
168.343643
 20
-14.857079
  0
VERTEX
  8
0
  6
DASHED
 10
168.341476
 20
-15.677150
  0
VERTEX
  8
0
  6
DASHED
 10
168.311020
 20
-16.499712
  0
VERTEX
  8
0
  6
DASHED
 10
168.251755
 20
-17.315754
  0
VERTEX
  8
0
  6
DASHED
 10
168.163177
 20
-18.116259
  0
VERTEX
  8
0
  6
DASHED
 10
168.044754
 20
-18.892212
  0
VERTEX
  8
0
  6
DASHED
 10
167.880524
 20
-19.740862
  0
VERTEX
  8
0
  6
DASHED
 10
167.691437
 20
-20.546188
  0
VERTEX
  8
0
  6
DASHED
 10
167.454834
 20
-21.421230
  0
VERTEX
  8
0
  6
DASHED
 10
167.148056
 20
-22.479019
  0
VERTEX
  8
0
  6
DASHED
 10
166.893555
 20
-23.351238
  0
VERTEX
  8
0
  6
DASHED
 10
166.635941
 20
-24.256691
  0
VERTEX
  8
0
  6
DASHED
 10
166.385284
 20
-25.171793
  0
VERTEX
  8
0
  6
DASHED
 10
166.151642
 20
-26.072958
  0
VERTEX
  8
0
  6
DASHED
 10
165.945099
 20
-26.936602
  0
VERTEX
  8
0
  6
DASHED
 10
165.775726
 20
-27.739140
  0
VERTEX
  8
0
  6
DASHED
 10
165.653580
 20
-28.456985
  0
VERTEX
  8
0
  6
DASHED
 10
165.557770
 20
-29.218948
  0
VERTEX
  8
0
  6
DASHED
 10
165.489380
 20
-29.947670
  0
VERTEX
  8
0
  6
DASHED
 10
165.428360
 20
-30.753023
  0
VERTEX
  8
0
  6
DASHED
 10
165.354660
 20
-31.744873
  0
VERTEX
  8
0
  6
DASHED
 10
165.274887
 20
-32.720245
  0
VERTEX
  8
0
  6
DASHED
 10
165.187012
 20
-33.729755
  0
VERTEX
  8
0
  6
DASHED
 10
165.098648
 20
-34.739143
  0
VERTEX
  8
0
  6
DASHED
 10
165.017380
 20
-35.714146
  0
VERTEX
  8
0
  6
DASHED
 10
164.950806
 20
-36.620506
  0
VERTEX
  8
0
  6
DASHED
 10
164.906509
 20
-37.423965
  0
VERTEX
  8
0
  6
DASHED
 10
164.878952
 20
-38.186180
  0
VERTEX
  8
0
  6
DASHED
 10
164.878128
 20
-38.928288
  0
VERTEX
  8
0
  6
DASHED
 10
164.928802
 20
-39.702847
  0
VERTEX
  8
0
  6
DASHED
 10
165.055771
 20
-40.562408
  0
VERTEX
  8
0
  6
DASHED
 10
165.259720
 20
-41.417576
  0
VERTEX
  8
0
  6
DASHED
 10
165.527344
 20
-42.265682
  0
VERTEX
  8
0
  6
DASHED
 10
165.827499
 20
-43.104664
  0
VERTEX
  8
0
  6
DASHED
 10
166.129074
 20
-43.932457
  0
VERTEX
  8
0
  6
DASHED
 10
166.400986
 20
-44.746994
  0
VERTEX
  8
0
  6
DASHED
 10
166.611526
 20
-45.503929
  0
VERTEX
  8
0
  6
DASHED
 10
166.791489
 20
-46.247303
  0
VERTEX
  8
0
  6
DASHED
 10
166.970779
 20
-47.000778
  0
VERTEX
  8
0
  6
DASHED
 10
167.179291
 20
-47.788017
  0
VERTEX
  8
0
  6
DASHED
 10
167.446945
 20
-48.632690
  0
VERTEX
  8
0
  6
DASHED
 10
167.770569
 20
-49.476864
  0
VERTEX
  8
0
  6
DASHED
 10
168.137634
 20
-50.330368
  0
VERTEX
  8
0
  6
DASHED
 10
168.515640
 20
-51.179550
  0
VERTEX
  8
0
  6
DASHED
 10
168.872040
 20
-52.010742
  0
VERTEX
  8
0
  6
DASHED
 10
169.174332
 20
-52.810287
  0
VERTEX
  8
0
  6
DASHED
 10
169.389969
 20
-53.564529
  0
VERTEX
  8
0
  6
DASHED
 10
169.540833
 20
-54.490593
  0
VERTEX
  8
0
  6
DASHED
 10
169.616531
 20
-55.441956
  0
VERTEX
  8
0
  6
DASHED
 10
169.653671
 20
-56.388660
  0
VERTEX
  8
0
  6
DASHED
 10
169.688858
 20
-57.300766
  0
VERTEX
  8
0
  6
DASHED
 10
169.745224
 20
-58.126625
  0
VERTEX
  8
0
  6
DASHED
 10
169.820587
 20
-58.948292
  0
VERTEX
  8
0
  6
DASHED
 10
169.904816
 20
-59.768173
  0
VERTEX
  8
0
  6
DASHED
 10
169.987747
 20
-60.588654
  0
SEQEND
  0
POLYLINE
  8
0
  6
DASHED
 66
     1
  0
VERTEX
  8
0
  6
DASHED
 10
52.857162
 20
20.571411
  0
VERTEX
  8
0
  6
DASHED
 10
52.774261
 20
19.753633
  0
VERTEX
  8
0
  6
DASHED
 10
52.706017
 20
18.963589
  0
VERTEX
  8
0
  6
DASHED
 10
52.629169
 20
18.115891
  0
VERTEX
  8
0
  6
DASHED
 10
52.520462
 20
17.125153
  0
VERTEX
  8
0
  6
DASHED
 10
52.408306
 20
16.221844
  0
VERTEX
  8
0
  6
DASHED
 10
52.296623
 20
15.285793
  0
VERTEX
  8
0
  6
DASHED
 10
52.203762
 20
14.351014
  0
VERTEX
  8
0
  6
DASHED
 10
52.148064
 20
13.451517
  0
VERTEX
  8
0
  6
DASHED
 10
52.147877
 20
12.621314
  0
VERTEX
  8
0
  6
DASHED
 10
52.221542
 20
11.894417
  0
VERTEX
  8
0
  6
DASHED
 10
52.429436
 20
11.009291
  0
VERTEX
  8
0
  6
DASHED
 10
52.723816
 20
10.134734
  0
VERTEX
  8
0
  6
DASHED
 10
53.118240
 20
9.054863
  0
VERTEX
  8
0
  6
DASHED
 10
53.437057
 20
8.110194
  0
VERTEX
  8
0
  6
DASHED
 10
53.719471
 20
7.155744
  0
VERTEX
  8
0
  6
DASHED
 10
53.962032
 20
6.195389
  0
VERTEX
  8
0
  6
DASHED
 10
54.161297
 20
5.233007
  0
VERTEX
  8
0
  6
DASHED
 10
54.313828
 20
4.272476
  0
VERTEX
  8
0
  6
DASHED
 10
54.418644
 20
3.332467
  0
VERTEX
  8
0
  6
DASHED
 10
54.488792
 20
2.394823
  0
VERTEX
  8
0
  6
DASHED
 10
54.536430
 20
1.448944
  0
VERTEX
  8
0
  6
DASHED
 10
54.573696
 20
0.484232
  0
VERTEX
  8
0
  6
DASHED
 10
54.612747
 20
-0.509911
  0
VERTEX
  8
0
  6
DASHED
 10
54.649689
 20
-1.409785
  0
VERTEX
  8
0
  6
DASHED
 10
54.676609
 20
-2.331367
  0
VERTEX
  8
0
  6
DASHED
 10
54.682472
 20
-3.249950
  0
VERTEX
  8
0
  6
DASHED
 10
54.656235
 20
-4.140828
  0
VERTEX
  8
0
  6
DASHED
 10
54.586857
 20
-4.979295
  0
VERTEX
  8
0
  6
DASHED
 10
54.463303
 20
-5.740646
  0
VERTEX
  8
0
  6
DASHED
 10
54.253265
 20
-6.558878
  0
VERTEX
  8
0
  6
DASHED
 10
53.993469
 20
-7.329718
  0
VERTEX
  8
0
  6
DASHED
 10
53.669689
 20
-8.165359
  0
VERTEX
  8
0
  6
DASHED
 10
53.267685
 20
-9.177994
  0
VERTEX
  8
0
  6
DASHED
 10
52.956711
 20
-10.004237
  0
VERTEX
  8
0
  6
DASHED
 10
52.663422
 20
-10.850366
  0
VERTEX
  8
0
  6
DASHED
 10
52.392437
 20
-11.705730
  0
VERTEX
  8
0
  6
DASHED
 10
52.148365
 20
-12.559678
  0
VERTEX
  8
0
  6
DASHED
 10
51.935822
 20
-13.401560
  0
VERTEX
  8
0
  6
DASHED
 10
51.759415
 20
-14.220725
  0
VERTEX
  8
0
  6
DASHED
 10
51.623764
 20
-15.006523
  0
VERTEX
  8
0
  6
DASHED
 10
51.505657
 20
-15.951002
  0
VERTEX
  8
0
  6
DASHED
 10
51.432140
 20
-16.895926
  0
VERTEX
  8
0
  6
DASHED
 10
51.402733
 20
-17.846849
  0
VERTEX
  8
0
  6
DASHED
 10
51.416950
 20
-18.809326
  0
VERTEX
  8
0
  6
DASHED
 10
51.474319
 20
-19.788910
  0
VERTEX
  8
0
  6
DASHED
 10
51.554073
 20
-20.621428
  0
VERTEX
  8
0
  6
DASHED
 10
51.655499
 20
-21.426954
  0
VERTEX
  8
0
  6
DASHED
 10
51.775780
 20
-22.230043
  0
VERTEX
  8
0
  6
DASHED
 10
51.912090
 20
-23.055244
  0
VERTEX
  8
0
  6
DASHED
 10
52.061619
 20
-23.927111
  0
VERTEX
  8
0
  6
DASHED
 10
52.221542
 20
-24.870193
  0
VERTEX
  8
0
  6
DASHED
 10
52.380150
 20
-25.843342
  0
VERTEX
  8
0
  6
DASHED
 10
52.538624
 20
-26.823559
  0
VERTEX
  8
0
  6
DASHED
 10
52.703758
 20
-27.804125
  0
VERTEX
  8
0
  6
DASHED
 10
52.882336
 20
-28.778316
  0
VERTEX
  8
0
  6
DASHED
 10
53.081142
 20
-29.739412
  0
VERTEX
  8
0
  6
DASHED
 10
53.306973
 20
-30.680689
  0
VERTEX
  8
0
  6
DASHED
 10
53.566605
 20
-31.595428
  0
VERTEX
  8
0
  6
DASHED
 10
53.850384
 20
-32.460075
  0
VERTEX
  8
0
  6
DASHED
 10
54.157413
 20
-33.334831
  0
VERTEX
  8
0
  6
DASHED
 10
54.468227
 20
-34.211502
  0
VERTEX
  8
0
  6
DASHED
 10
54.763363
 20
-35.081894
  0
VERTEX
  8
0
  6
DASHED
 10
55.023350
 20
-35.937805
  0
VERTEX
  8
0
  6
DASHED
 10
55.228718
 20
-36.771042
  0
VERTEX
  8
0
  6
DASHED
 10
55.360001
 20
-37.573410
  0
VERTEX
  8
0
  6
DASHED
 10
55.414597
 20
-38.564571
  0
VERTEX
  8
0
  6
DASHED
 10
55.375404
 20
-39.578430
  0
VERTEX
  8
0
  6
DASHED
 10
55.264080
 20
-40.589893
  0
VERTEX
  8
0
  6
DASHED
 10
55.102283
 20
-41.573864
  0
VERTEX
  8
0
  6
DASHED
 10
54.911667
 20
-42.505249
  0
VERTEX
  8
0
  6
DASHED
 10
54.728466
 20
-43.301441
  0
VERTEX
  8
0
  6
DASHED
 10
54.542183
 20
-44.076111
  0
VERTEX
  8
0
  6
DASHED
 10
54.357822
 20
-44.856194
  0
VERTEX
  8
0
  6
DASHED
 10
54.180405
 20
-45.668633
  0
VERTEX
  8
0
  6
DASHED
 10
54.014938
 20
-46.540375
  0
VERTEX
  8
0
  6
DASHED
 10
53.881100
 20
-47.395496
  0
VERTEX
  8
0
  6
DASHED
 10
53.764370
 20
-48.268772
  0
VERTEX
  8
0
  6
DASHED
 10
53.654709
 20
-49.144119
  0
VERTEX
  8
0
  6
DASHED
 10
53.542065
 20
-50.005444
  0
VERTEX
  8
0
  6
DASHED
 10
53.416405
 20
-50.836658
  0
VERTEX
  8
0
  6
DASHED
 10
53.267685
 20
-51.621674
  0
VERTEX
  8
0
  6
DASHED
 10
53.071716
 20
-52.440083
  0
VERTEX
  8
0
  6
DASHED
 10
52.849026
 20
-53.262142
  0
VERTEX
  8
0
  6
DASHED
 10
52.619705
 20
-54.078514
  0
VERTEX
  8
0
  6
DASHED
 10
52.403847
 20
-54.879848
  0
VERTEX
  8
0
  6
DASHED
 10
52.221542
 20
-55.656815
  0
VERTEX
  8
0
  6
DASHED
 10
52.065971
 20
-56.593964
  0
VERTEX
  8
0
  6
DASHED
 10
51.965755
 20
-57.572472
  0
VERTEX
  8
0
  6
DASHED
 10
51.918713
 20
-58.489853
  0
VERTEX
  8
0
  6
DASHED
 10
51.922653
 20
-59.243607
  0
VERTEX
  8
0
  6
DASHED
 10
51.977234
 20
-59.993080
  0
VERTEX
  8
0
  6
DASHED
 10
52.072098
 20
-60.738098
  0
SEQEND
  0
POLYLINE
  8
0
  6
DASHED
 66
     1
  0
VERTEX
  8
0
  6
DASHED
 10
121.428558
 20
-129.428558
  0
VERTEX
  8
0
  6
DASHED
 10
121.671661
 20
-130.264496
  0
VERTEX
  8
0
  6
DASHED
 10
121.902084
 20
-131.104050
  0
VERTEX
  8
0
  6
DASHED
 10
122.149139
 20
-132.069153
  0
VERTEX
  8
0
  6
DASHED
 10
122.368423
 20
-132.979919
  0
VERTEX
  8
0
  6
DASHED
 10
122.569458
 20
-133.874252
  0
VERTEX
  8
0
  6
DASHED
 10
122.765755
 20
-134.811035
  0
VERTEX
  8
0
  6
DASHED
 10
122.970825
 20
-135.849152
  0
VERTEX
  8
0
  6
DASHED
 10
123.131622
 20
-136.704575
  0
VERTEX
  8
0
  6
DASHED
 10
123.286240
 20
-137.573441
  0
VERTEX
  8
0
  6
DASHED
 10
123.432152
 20
-138.443756
  0
VERTEX
  8
0
  6
DASHED
 10
123.566849
 20
-139.303604
  0
VERTEX
  8
0
  6
DASHED
 10
123.687820
 20
-140.140991
  0
VERTEX
  8
0
  6
DASHED
 10
123.792542
 20
-140.943970
  0
VERTEX
  8
0
  6
DASHED
 10
123.889557
 20
-141.770004
  0
VERTEX
  8
0
  6
DASHED
 10
123.971619
 20
-142.571487
  0
VERTEX
  8
0
  6
DASHED
 10
124.038063
 20
-143.387268
  0
VERTEX
  8
0
  6
DASHED
 10
124.088219
 20
-144.256165
  0
VERTEX
  8
0
  6
DASHED
 10
124.121429
 20
-145.217041
  0
VERTEX
  8
0
  6
DASHED
 10
124.132835
 20
-146.191559
  0
VERTEX
  8
0
  6
DASHED
 10
124.122681
 20
-147.152512
  0
VERTEX
  8
0
  6
DASHED
 10
124.095505
 20
-148.113556
  0
VERTEX
  8
0
  6
DASHED
 10
124.055832
 20
-149.088318
  0
VERTEX
  8
0
  6
DASHED
 10
124.008209
 20
-150.090454
  0
VERTEX
  8
0
  6
DASHED
 10
123.957153
 20
-151.133606
  0
VERTEX
  8
0
  6
DASHED
 10
123.911545
 20
-152.118027
  0
VERTEX
  8
0
  6
DASHED
 10
123.868263
 20
-153.099808
  0
VERTEX
  8
0
  6
DASHED
 10
123.825638
 20
-154.080872
  0
VERTEX
  8
0
  6
DASHED
 10
123.781998
 20
-155.063141
  0
VERTEX
  8
0
  6
DASHED
 10
123.735672
 20
-156.048508
  0
VERTEX
  8
0
  6
DASHED
 10
123.684982
 20
-157.038910
  0
VERTEX
  8
0
  6
DASHED
 10
123.628265
 20
-158.036255
  0
VERTEX
  8
0
  6
DASHED
 10
123.574219
 20
-158.911636
  0
VERTEX
  8
0
  6
DASHED
 10
123.515907
 20
-159.767120
  0
VERTEX
  8
0
  6
DASHED
 10
123.448517
 20
-160.613800
  0
VERTEX
  8
0
  6
DASHED
 10
123.367218
 20
-161.462753
  0
VERTEX
  8
0
  6
DASHED
 10
123.267197
 20
-162.325104
  0
VERTEX
  8
0
  6
DASHED
 10
123.143631
 20
-163.211899
  0
VERTEX
  8
0
  6
DASHED
 10
122.991699
 20
-164.134247
  0
VERTEX
  8
0
  6
DASHED
 10
122.806580
 20
-165.103241
  0
VERTEX
  8
0
  6
DASHED
 10
122.609787
 20
-166.003265
  0
VERTEX
  8
0
  6
DASHED
 10
122.389709
 20
-166.907104
  0
VERTEX
  8
0
  6
DASHED
 10
122.152306
 20
-167.812271
  0
VERTEX
  8
0
  6
DASHED
 10
121.903534
 20
-168.716293
  0
VERTEX
  8
0
  6
DASHED
 10
121.649345
 20
-169.616714
  0
VERTEX
  8
0
  6
DASHED
 10
121.395706
 20
-170.511047
  0
VERTEX
  8
0
  6
DASHED
 10
121.148567
 20
-171.396820
  0
VERTEX
  8
0
  6
DASHED
 10
120.913879
 20
-172.271576
  0
VERTEX
  8
0
  6
DASHED
 10
120.697609
 20
-173.132828
  0
VERTEX
  8
0
  6
DASHED
 10
120.505707
 20
-173.978119
  0
VERTEX
  8
0
  6
DASHED
 10
120.315002
 20
-174.940094
  0
VERTEX
  8
0
  6
DASHED
 10
120.151573
 20
-175.887787
  0
VERTEX
  8
0
  6
DASHED
 10
120.008492
 20
-176.831787
  0
VERTEX
  8
0
  6
DASHED
 10
119.878799
 20
-177.782669
  0
VERTEX
  8
0
  6
DASHED
 10
119.755562
 20
-178.751038
  0
VERTEX
  8
0
  6
DASHED
 10
119.631828
 20
-179.747467
  0
VERTEX
  8
0
  6
DASHED
 10
119.500656
 20
-180.782547
  0
VERTEX
  8
0
  6
DASHED
 10
119.355103
 20
-181.866852
  0
VERTEX
  8
0
  6
DASHED
 10
119.210907
 20
-182.868622
  0
VERTEX
  8
0
  6
DASHED
 10
119.056938
 20
-183.891556
  0
VERTEX
  8
0
  6
DASHED
 10
118.897903
 20
-184.926422
  0
VERTEX
  8
0
  6
DASHED
 10
118.738556
 20
-185.963974
  0
VERTEX
  8
0
  6
DASHED
 10
118.583611
 20
-186.994965
  0
VERTEX
  8
0
  6
DASHED
 10
118.437805
 20
-188.010132
  0
VERTEX
  8
0
  6
DASHED
 10
118.305870
 20
-189.000244
  0
VERTEX
  8
0
  6
DASHED
 10
118.192535
 20
-189.956055
  0
VERTEX
  8
0
  6
DASHED
 10
118.102531
 20
-190.868317
  0
VERTEX
  8
0
  6
DASHED
 10
118.040588
 20
-191.727783
  0
VERTEX
  8
0
  6
DASHED
 10
118.000000
 20
-192.690475
  0
VERTEX
  8
0
  6
DASHED
 10
117.981667
 20
-193.660446
  0
VERTEX
  8
0
  6
DASHED
 10
117.980354
 20
-194.633286
  0
VERTEX
  8
0
  6
DASHED
 10
117.990829
 20
-195.604660
  0
VERTEX
  8
0
  6
DASHED
 10
118.007851
 20
-196.570160
  0
VERTEX
  8
0
  6
DASHED
 10
118.026184
 20
-197.525452
  0
VERTEX
  8
0
  6
DASHED
 10
118.040588
 20
-198.466125
  0
VERTEX
  8
0
  6
DASHED
 10
118.048355
 20
-199.363678
  0
VERTEX
  8
0
  6
DASHED
 10
118.056236
 20
-200.261246
  0
VERTEX
  8
0
  6
DASHED
 10
118.071991
 20
-201.157745
  0
VERTEX
  8
0
  6
DASHED
 10
118.103394
 20
-202.052094
  0
VERTEX
  8
0
  6
DASHED
 10
118.158211
 20
-202.943207
  0
VERTEX
  8
0
  6
DASHED
 10
118.244202
 20
-203.830002
  0
VERTEX
  8
0
  6
DASHED
 10
118.369141
 20
-204.711365
  0
VERTEX
  8
0
  6
DASHED
 10
118.538651
 20
-205.585327
  0
VERTEX
  8
0
  6
DASHED
 10
118.751289
 20
-206.452087
  0
VERTEX
  8
0
  6
DASHED
 10
119.003639
 20
-207.310226
  0
VERTEX
  8
0
  6
DASHED
 10
119.292252
 20
-208.158310
  0
VERTEX
  8
0
  6
DASHED
 10
119.613716
 20
-208.994888
  0
VERTEX
  8
0
  6
DASHED
 10
119.964584
 20
-209.818573
  0
VERTEX
  8
0
  6
DASHED
 10
120.341431
 20
-210.627899
  0
SEQEND
  0
TEXT
  8
0
 10
305.721680
 20
264.529999
 40
5.800000
  1
DATE: MAY ,1992
 50
0.000000
 41
1.052632
 51
0.000000
  7
STANDARD
  0
TEXT
  8
0
 10
-327.892914
 20
237.150192
 40
9.200000
  1
RTB SLIDE TABLE
 50
0.000000
 41
1.052632
 51
0.000000
  7
STANDARD
  0
TEXT
  8
0
 10
-393.901611
 20
217.592209
 40
7.259630
  1
alpha series
 50
0.000000
 41
0.612674
 51
0.000000
  7
STANDARD
  0
TEXT
  8
0
 10
-377.749939
 20
196.949966
 40
8.000000
  1
MODEL: ARTB 16
 50
0.000000
 41
1.052632
 51
0.000000
  7
STANDARD
  0
TEXT
  8
0
 10
-244.892471
 20
43.799992
 40
8.000000
  1
ADJUST BOLT
 50
0.000000
 41
1.052632
 51
0.000000
  7
STANDARD
  0
TEXT
  8
0
 10
-246.892456
 20
-106.199989
 40
8.000000
  1
SUB PLATE
 50
0.000000
 41
1.052632
 51
0.000000
  7
STANDARD
  0
TEXT
  8
0
 10
-248.892471
 20
-256.199951
 40
8.000000
  1
FOOT BLACKET
 50
0.000000
 41
1.052632
 51
0.000000
  7
STANDARD
  0
TEXT
  8
0
 10
165.107468
 20
43.799992
 40
8.000000
  1
ADJUST BOLT
 50
0.000000
 41
1.052632
 51
0.000000
  7
STANDARD
  0
TEXT
  8
0
 10
163.107468
 20
-106.199989
 40
8.000000
  1
SUB PLATE
 50
0.000000
 41
1.052632
 51
0.000000
  7
STANDARD
  0
TEXT
  8
0
 10
161.107468
 20
-256.199951
 40
8.000000
  1
FOOT BLACKET
 50
0.000000
 41
1.052632
 51
0.000000
  7
STANDARD
  0
TEXT
  8
0
 10
35.107559
 20
194.549973
 40
8.000000
  1
MODEL: ARTB 25
 50
0.000000
 41
1.052632
 51
0.000000
  7
STANDARD
  0
TEXT
  8
0
 10
295.700867
 20
-272.049988
 40
7.000000
  1
KOGANEI CORP.
 50
0.000000
 41
1.139832
 51
0.000000
  7
STANDARD
  0
POINT
  8
0
 10
-239.999954
 20
129.999985
  0
POINT
  8
0
 10
-219.999954
 20
129.999985
  0
LINE
  8
0
 10
-239.999954
 20
117.326561
 11
-239.999954
 21
107.326561
  0
LINE
  8
0
 10
-237.349991
 20
118.100044
 11
-238.571396
 21
118.100044
  0
LINE
  8
0
 10
-237.349991
 20
115.213310
 11
-238.571396
 21
115.213310
  0
LINE
  8
0
 10
-237.349991
 20
109.439766
 11
-238.571396
 21
109.439766
  0
LINE
  8
0
 10
-237.349991
 20
106.553017
 11
-238.571396
 21
106.553017
  0
LINE
  8
0
 10
-237.142807
 20
117.326561
 11
-237.142807
 21
107.326561
  0
LINE
  8
0
 10
-237.142181
 20
117.326675
 11
-237.349442
 21
118.100166
  0
LINE
  8
0
 10
-237.349930
 20
106.553055
 11
-237.142670
 21
107.326553
  0
LINE
  8
0
 10
-239.792435
 20
118.100044
 11
-238.571396
 21
118.100044
  0
LINE
  8
0
 10
-239.792435
 20
115.213310
 11
-238.571396
 21
115.213310
  0
LINE
  8
0
 10
-239.792435
 20
109.439766
 11
-238.571396
 21
109.439766
  0
LINE
  8
0
 10
-239.792435
 20
106.553017
 11
-238.571396
 21
106.553017
  0
LINE
  8
0
 10
-239.999954
 20
117.326561
 11
-239.999954
 21
107.326561
  0
LINE
  8
0
 10
-239.999176
 20
117.326401
 11
-239.791916
 21
118.099899
  0
LINE
  8
0
 10
-239.792114
 20
106.553078
 11
-239.999374
 21
107.326553
  0
LINE
  8
0
 10
-242.368820
 20
112.326561
 11
-226.409912
 21
112.326561
  0
LINE
  8
0
 10
-237.142807
 20
108.040840
 11
-230.714249
 21
108.040840
  0
LINE
  8
0
 10
-237.142807
 20
116.612267
 11
-230.714249
 21
116.612267
  0
LINE
  8
0
 10
-229.999954
 20
115.897972
 11
-229.999954
 21
108.755135
  0
LINE
  8
0
 10
-230.714020
 20
116.612236
 11
-229.999710
 21
115.897911
  0
LINE
  8
0
 10
-229.999756
 20
108.755013
 11
-230.713959
 21
108.040802
  0
LINE
  8
0
 10
-237.142807
 20
108.755135
 11
-229.999954
 21
108.755135
  0
LINE
  8
0
 10
-237.142807
 20
115.897987
 11
-229.999954
 21
115.897987
  0
LINE
  8
0
 10
-230.714249
 20
116.612267
 11
-230.714249
 21
108.040840
  0
ARC
  8
0
 10
-242.272202
 20
107.996422
 40
5.129541
 50
346.343018
 51
16.342772
  0
ARC
  8
0
 10
-242.272202
 20
116.656700
 40
5.129546
 50
343.657135
 51
13.656890
  0
ARC
  8
0
 10
-257.349976
 20
112.326561
 40
20.207260
 50
351.786774
 51
8.213140
  0
ARC
  8
0
 10
-234.870224
 20
107.996422
 40
5.129546
 50
163.657150
 51
193.656815
  0
ARC
  8
0
 10
-234.870224
 20
116.656670
 40
5.129541
 50
166.343033
 51
196.342773
  0
ARC
  8
0
 10
-219.792435
 20
112.326561
 40
20.207273
 50
171.786804
 51
188.213135
  0
POINT
  8
0
 10
-109.999977
 20
129.999985
  0
POINT
  8
0
 10
-89.999977
 20
129.999985
  0
LINE
  8
0
 10
-140.714310
 20
117.916389
 11
-145.714386
 21
115.029602
  0
LINE
  8
0
 10
-135.714478
 20
115.029160
 11
-140.714508
 21
117.915916
  0
LINE
  8
0
 10
-135.714233
 20
109.256035
 11
-135.714233
 21
115.029625
  0
LINE
  8
0
 10
-140.714508
 20
106.369423
 11
-135.714462
 21
109.256210
  0
LINE
  8
0
 10
-145.714127
 20
109.256470
 11
-140.714050
 21
106.369682
  0
LINE
  8
0
 10
-145.714600
 20
115.029625
 11
-145.714600
 21
109.256035
  0
LINE
  8
0
 10
-134.285675
 20
112.142845
 11
-147.142822
 21
112.142845
  0
LINE
  8
0
 10
-140.714233
 20
119.999962
 11
-140.714233
 21
104.285698
  0
LINE
  8
0
 10
-137.232788
 20
111.785698
 11
-144.196045
 21
111.785698
  0
LINE
  8
0
 10
-137.232788
 20
112.499992
 11
-144.196045
 21
112.499992
  0
CIRCLE
  8
0
 10
-140.714233
 20
112.142845
 40
4.285714
  0
CIRCLE
  8
0
 10
-140.714233
 20
112.142845
 40
3.500000
  0
POINT
  8
0
 10
-289.999878
 20
-19.999987
  0
POINT
  8
0
 10
-250.714172
 20
-19.999987
  0
LINE
  8
0
 10
-329.285431
 20
-57.857109
 11
-250.714172
 21
-57.857109
  0
LINE
  8
0
 10
-329.285431
 20
17.857157
 11
-250.714172
 21
17.857157
  0
LINE
  8
0
 10
-329.285431
 20
17.857157
 11
-329.285431
 21
-48.571396
  0
LINE
  8
0
 10
-250.714172
 20
17.857157
 11
-250.714172
 21
-48.571396
  0
LINE
  8
0
 10
-329.285431
 20
-48.571396
 11
-329.285431
 21
-57.857109
  0
LINE
  8
0
 10
-250.714172
 20
-48.571396
 11
-250.714172
 21
-57.857109
  0
LINE
  8
0
 10
-327.402191
 20
-53.571396
 11
-254.285583
 21
-53.571396
  0
LINE
  8
0
 10
-327.872772
 20
13.571440
 11
-254.285583
 21
13.571440
  0
LINE
  8
0
 10
-322.142578
 20
-48.207626
 11
-322.142578
 21
-58.560478
  0
LINE
  8
0
 10
-257.857025
 20
-48.913498
 11
-257.857025
 21
-58.678123
  0
LINE
  8
0
 10
-257.857025
 20
18.968256
 11
-257.857025
 21
8.615408
  0
LINE
  8
0
 10
-311.428284
 20
17.142870
 11
-311.428284
 21
10.000013
  0
LINE
  8
0
 10
-268.571320
 20
17.142870
 11
-268.571320
 21
10.000013
  0
LINE
  8
0
 10
-311.428284
 20
-49.999969
 11
-311.428284
 21
-57.142830
  0
LINE
  8
0
 10
-268.571320
 20
-49.999969
 11
-268.571320
 21
-57.142830
  0
LINE
  8
0
 10
-323.571136
 20
14.396223
 11
-323.571136
 21
12.746660
  0
LINE
  8
0
 10
-320.713989
 20
14.396223
 11
-320.713989
 21
12.746660
  0
LINE
  8
0
 10
-323.571136
 20
14.396139
 11
-322.142578
 21
15.220922
  0
LINE
  8
0
 10
-322.142578
 20
11.921797
 11
-320.714020
 21
12.746580
  0
LINE
  8
0
 10
-322.142517
 20
15.221071
 11
-320.713959
 21
14.396288
  0
LINE
  8
0
 10
-323.571106
 20
12.746729
 11
-322.142517
 21
11.921944
  0
LINE
  8
0
 10
-259.285583
 20
14.396223
 11
-259.285583
 21
12.746660
  0
LINE
  8
0
 10
-256.428467
 20
14.396223
 11
-256.428467
 21
12.746660
  0
LINE
  8
0
 10
-259.285400
 20
14.396158
 11
-257.856812
 21
15.220957
  0
LINE
  8
0
 10
-257.856873
 20
11.921801
 11
-256.428253
 21
12.746614
  0
LINE
  8
0
 10
-257.856812
 20
15.221117
 11
-256.428253
 21
14.396338
  0
LINE
  8
0
 10
-259.285370
 20
12.746752
 11
-257.856812
 21
11.921970
  0
LINE
  8
0
 10
-323.571136
 20
-52.746613
 11
-323.571136
 21
-54.396179
  0
LINE
  8
0
 10
-320.713989
 20
-52.746613
 11
-320.713989
 21
-54.396179
  0
LINE
  8
0
 10
-323.571136
 20
-52.746681
 11
-322.142548
 21
-51.921902
  0
LINE
  8
0
 10
-322.142548
 20
-55.221039
 11
-320.713959
 21
-54.396255
  0
LINE
  8
0
 10
-322.142548
 20
-51.921772
 11
-320.713989
 21
-52.746559
  0
LINE
  8
0
 10
-323.571136
 20
-54.396133
 11
-322.142578
 21
-55.220917
  0
LINE
  8
0
 10
-259.285583
 20
-52.746613
 11
-259.285583
 21
-54.396179
  0
LINE
  8
0
 10
-256.428467
 20
-52.746613
 11
-256.428467
 21
-54.396179
  0
LINE
  8
0
 10
-259.285339
 20
-52.746803
 11
-257.856781
 21
-51.922020
  0
LINE
  8
0
 10
-257.856812
 20
-55.221123
 11
-256.428253
 21
-54.396339
  0
LINE
  8
0
 10
-257.856934
 20
-51.921722
 11
-256.428223
 21
-52.746582
  0
LINE
  8
0
 10
-259.285492
 20
-54.396088
 11
-257.856812
 21
-55.220932
  0
LINE
  8
0
 10
-322.142578
 20
18.497675
 11
-322.142578
 21
8.615408
  0
CIRCLE
  8
0
 10
-311.428314
 20
13.571451
 40
2.142857
  0
CIRCLE
  8
0
 10
-268.571320
 20
13.571451
 40
2.142857
  0
CIRCLE
  8
0
 10
-311.428314
 20
-53.571396
 40
2.142857
  0
CIRCLE
  8
0
 10
-268.571320
 20
-53.571396
 40
2.142857
  0
CIRCLE
  8
0
 10
-311.428314
 20
13.571451
 40
1.357143
  0
CIRCLE
  8
0
 10
-268.571320
 20
13.571451
 40
1.357143
  0
CIRCLE
  8
0
 10
-311.428314
 20
-53.571396
 40
1.357143
  0
CIRCLE
  8
0
 10
-268.571320
 20
-53.571396
 40
1.357143
  0
CIRCLE
  8
0
 10
-322.142578
 20
13.571440
 40
3.571429
  0
CIRCLE
  8
0
 10
-322.142578
 20
13.571440
 40
3.076556
  0
CIRCLE
  8
0
 10
-322.142578
 20
13.571440
 40
1.649572
  0
CIRCLE
  8
0
 10
-257.857025
 20
13.571440
 40
3.571429
  0
CIRCLE
  8
0
 10
-257.857025
 20
13.571440
 40
3.076556
  0
CIRCLE
  8
0
 10
-257.857025
 20
13.571440
 40
1.649572
  0
CIRCLE
  8
0
 10
-322.142578
 20
-53.571396
 40
3.571429
  0
CIRCLE
  8
0
 10
-322.142578
 20
-53.571396
 40
3.076556
  0
CIRCLE
  8
0
 10
-322.142578
 20
-53.571396
 40
1.649572
  0
CIRCLE
  8
0
 10
-257.857025
 20
-53.571396
 40
3.571429
  0
CIRCLE
  8
0
 10
-257.857025
 20
-53.571396
 40
3.076556
  0
CIRCLE
  8
0
 10
-257.857025
 20
-53.571396
 40
1.649572
  0
POINT
  8
0
 10
-109.999969
 20
-19.999985
  0
POINT
  8
0
 10
-89.999969
 20
-19.999985
  0
LINE
  8
0
 10
-152.857086
 20
17.857159
 11
-152.857086
 21
-49.999969
  0
LINE
  8
0
 10
-152.857086
 20
-57.857109
 11
-161.428497
 21
-57.857109
  0
LINE
  8
0
 10
-152.857086
 20
17.857159
 11
-161.428497
 21
17.857159
  0
LINE
  8
0
 10
-152.857086
 20
-49.999969
 11
-152.857086
 21
-57.857109
  0
LINE
  8
0
 10
-161.428528
 20
17.857159
 11
-161.428528
 21
-57.857109
  0
POINT
  8
0
 10
-239.999954
 20
-169.999969
  0
POINT
  8
0
 10
-229.285660
 20
-169.999969
  0
LINE
  8
0
 10
-239.999954
 20
-182.857117
 11
-239.999954
 21
-192.857117
  0
LINE
  8
0
 10
-229.285660
 20
-134.285690
 11
-229.285660
 21
-205.714264
  0
LINE
  8
0
 10
-229.285660
 20
-205.714264
 11
-239.999954
 21
-205.714264
  0
LINE
  8
0
 10
-229.285660
 20
-134.285690
 11
-239.999954
 21
-134.285690
  0
LINE
  8
0
 10
-239.642807
 20
-198.571396
 11
-229.642807
 21
-198.571396
  0
LINE
  8
0
 10
-239.642807
 20
-141.428543
 11
-229.642807
 21
-141.428543
  0
LINE
  8
0
 10
-234.642807
 20
-136.428543
 11
-234.642807
 21
-146.428543
  0
LINE
  8
0
 10
-234.642807
 20
-193.571396
 11
-234.642807
 21
-203.571396
  0
LINE
  8
0
 10
-229.285660
 20
-180.714264
 11
-239.999954
 21
-180.714264
  0
LINE
  8
0
 10
-229.285660
 20
-159.285690
 11
-239.999954
 21
-159.285690
  0
CIRCLE
  8
0
 10
-234.642807
 20
-141.428543
 40
2.357142
  0
CIRCLE
  8
0
 10
-234.642807
 20
-198.571396
 40
2.357142
  0
CIRCLE
  8
0
 10
-234.642807
 20
-141.428543
 40
3.928571
  0
CIRCLE
  8
0
 10
-234.642807
 20
-198.571396
 40
3.928571
  0
POINT
  8
0
 10
-109.999962
 20
-169.999969
  0
POINT
  8
0
 10
-89.999962
 20
-169.999969
  0
LINE
  8
0
 10
-114.285698
 20
-141.209335
 11
-114.285698
 21
-151.066086
  0
LINE
  8
0
 10
-114.285698
 20
-189.201675
 11
-114.285698
 21
-198.978287
  0
LINE
  8
0
 10
-112.857109
 20
-144.889481
 11
-112.857109
 21
-146.539047
  0
LINE
  8
0
 10
-115.714256
 20
-144.889481
 11
-115.714256
 21
-146.539047
  0
LINE
  8
0
 10
-112.857101
 20
-144.889343
 11
-114.285812
 21
-144.064499
  0
LINE
  8
0
 10
-114.286011
 20
-147.363571
 11
-115.714386
 21
-146.538895
  0
LINE
  8
0
 10
-114.285721
 20
-144.064560
 11
-115.714287
 21
-144.889343
  0
LINE
  8
0
 10
-112.857292
 20
-146.538559
 11
-114.285866
 21
-147.363342
  0
LINE
  8
0
 10
-112.857109
 20
-193.460922
 11
-112.857109
 21
-195.110489
  0
LINE
  8
0
 10
-115.714256
 20
-193.460922
 11
-115.714256
 21
-195.110489
  0
LINE
  8
0
 10
-112.857117
 20
-193.460876
 11
-114.285767
 21
-192.636063
  0
LINE
  8
0
 10
-114.285881
 20
-195.935226
 11
-115.714584
 21
-195.110367
  0
LINE
  8
0
 10
-114.285995
 20
-192.635742
 11
-115.714523
 21
-193.460526
  0
LINE
  8
0
 10
-112.857170
 20
-195.110229
 11
-114.285736
 21
-195.935013
  0
LINE
  8
0
 10
-109.642845
 20
-194.285706
 11
-118.928551
 21
-194.285706
  0
LINE
  8
0
 10
-109.642845
 20
-145.714264
 11
-118.928551
 21
-145.714264
  0
LINE
  8
0
 10
-120.714256
 20
-134.285690
 11
-120.714256
 21
-159.285690
  0
LINE
  8
0
 10
-109.999962
 20
-205.714264
 11
-120.714256
 21
-205.714264
  0
LINE
  8
0
 10
-109.999962
 20
-134.285690
 11
-120.714256
 21
-134.285690
  0
LINE
  8
0
 10
-117.142815
 20
-180.714264
 11
-120.714256
 21
-180.714264
  0
LINE
  8
0
 10
-117.142815
 20
-159.285690
 11
-120.714256
 21
-159.285690
  0
LINE
  8
0
 10
-117.142815
 20
-159.285690
 11
-117.142815
 21
-180.714264
  0
LINE
  8
0
 10
-120.714256
 20
-180.714264
 11
-120.714256
 21
-205.714264
  0
CIRCLE
  8
0
 10
-114.285698
 20
-145.714264
 40
3.035714
  0
CIRCLE
  8
0
 10
-114.285698
 20
-145.714264
 40
2.664561
  0
CIRCLE
  8
0
 10
-114.285698
 20
-145.714264
 40
1.649572
  0
CIRCLE
  8
0
 10
-114.285698
 20
-194.285706
 40
3.035714
  0
CIRCLE
  8
0
 10
-114.285698
 20
-194.285706
 40
2.664561
  0
CIRCLE
  8
0
 10
-114.285698
 20
-194.285706
 40
1.649572
  0
CIRCLE
  8
0
 10
-114.285698
 20
-145.714264
 40
3.392857
  0
CIRCLE
  8
0
 10
-114.285698
 20
-194.285706
 40
3.392857
  0
POINT
  8
0
 10
139.999985
 20
129.999985
  0
POINT
  8
0
 10
159.999985
 20
129.999985
  0
LINE
  8
0
 10
149.143051
 20
113.857117
 11
149.143051
 21
106.142822
  0
LINE
  8
0
 10
149.142792
 20
113.856766
 11
148.428543
 21
114.571045
  0
LINE
  8
0
 10
149.143066
 20
106.142822
 11
148.428833
 21
105.428589
  0
LINE
  8
0
 10
148.428757
 20
114.571411
 11
148.428757
 21
105.428543
  0
LINE
  8
0
 10
135.643143
 20
109.999985
 11
151.180252
 21
109.999985
  0
LINE
  8
0
 10
140.485153
 20
116.268356
 11
143.515274
 21
116.268356
  0
LINE
  8
0
 10
140.485153
 20
113.101547
 11
143.515274
 21
113.101547
  0
LINE
  8
0
 10
140.485153
 20
106.898392
 11
143.515274
 21
106.898392
  0
LINE
  8
0
 10
140.485153
 20
103.731613
 11
143.515274
 21
103.731613
  0
LINE
  8
0
 10
139.999771
 20
104.571083
 11
140.484604
 21
103.731293
  0
LINE
  8
0
 10
140.000229
 20
115.428513
 11
140.485031
 21
116.268173
  0
LINE
  8
0
 10
144.000153
 20
115.428452
 11
143.515320
 21
116.268242
  0
LINE
  8
0
 10
144.000244
 20
104.571327
 11
143.515289
 21
103.731339
  0
LINE
  8
0
 10
144.000046
 20
115.428558
 11
144.000046
 21
104.571411
  0
LINE
  8
0
 10
144.000076
 20
114.571411
 11
148.428787
 21
114.571411
  0
LINE
  8
0
 10
144.000076
 20
114.107407
 11
148.892654
 21
114.107407
  0
LINE
  8
0
 10
144.000076
 20
105.892563
 11
148.892654
 21
105.892563
  0
LINE
  8
0
 10
144.000076
 20
105.428558
 11
148.428787
 21
105.428558
  0
ARC
  8
0
 10
141.172562
 20
114.684952
 40
2.827622
 50
325.945953
 51
25.945993
  0
ARC
  8
0
 10
142.827835
 20
114.684952
 40
2.827626
 50
154.053864
 51
214.053925
  0
ARC
  8
0
 10
141.172562
 20
105.314987
 40
2.827626
 50
334.053864
 51
34.053921
  0
ARC
  8
0
 10
133.837509
 20
109.999985
 40
10.162611
 50
342.230072
 51
17.769857
  0
ARC
  8
0
 10
150.162857
 20
109.999985
 40
10.162611
 50
162.230057
 51
197.769897
  0
ARC
  8
0
 10
142.827835
 20
105.314987
 40
2.827622
 50
145.945953
 51
205.945999
  0
POINT
  8
0
 10
289.999969
 20
129.999985
  0
POINT
  8
0
 10
309.999969
 20
129.999985
  0
LINE
  8
0
 10
255.714264
 20
118.438293
 11
255.714264
 21
101.342514
  0
LINE
  8
0
 10
255.714371
 20
116.268280
 11
250.286026
 21
113.134216
  0
LINE
  8
0
 10
261.142944
 20
113.134384
 11
255.714462
 21
116.268532
  0
LINE
  8
0
 10
261.142914
 20
106.865829
 11
261.142914
 21
113.134109
  0
LINE
  8
0
 10
255.714218
 20
103.731583
 11
261.142883
 21
106.865829
  0
LINE
  8
0
 10
250.285858
 20
106.865807
 11
255.714371
 21
103.731667
  0
LINE
  8
0
 10
250.285614
 20
113.134140
 11
250.285614
 21
106.865845
  0
LINE
  8
0
 10
262.857147
 20
109.999985
 11
248.571442
 21
109.999985
  0
LINE
  8
0
 10
259.475098
 20
109.142838
 11
251.953491
 21
109.142838
  0
LINE
  8
0
 10
259.475098
 20
110.857132
 11
251.953491
 21
110.857132
  0
CIRCLE
  8
0
 10
255.714264
 20
109.999985
 40
4.571428
  0
CIRCLE
  8
0
 10
255.714264
 20
109.999985
 40
3.857143
  0
POINT
  8
0
 10
110.000031
 20
-19.999987
  0
POINT
  8
0
 10
152.857147
 20
-19.999987
  0
LINE
  8
0
 10
110.000031
 20
23.307241
 11
110.000031
 21
-64.131149
  0
LINE
  8
0
 10
152.857147
 20
20.000006
 11
152.857147
 21
-50.285706
  0
LINE
  8
0
 10
67.142944
 20
20.000006
 11
67.142944
 21
-50.285706
  0
LINE
  8
0
 10
152.857178
 20
20.000006
 11
67.142944
 21
20.000006
  0
LINE
  8
0
 10
152.857178
 20
-59.999985
 11
67.142944
 21
-59.999985
  0
LINE
  8
0
 10
152.857147
 20
-50.285706
 11
152.857147
 21
-59.999985
  0
LINE
  8
0
 10
67.142944
 20
-50.285706
 11
67.142944
 21
-59.999985
  0
LINE
  8
0
 10
172.665710
 20
-19.999987
 11
47.007172
 21
-19.999987
  0
LINE
  8
0
 10
80.857239
 20
15.428564
 11
87.714355
 21
15.428564
  0
LINE
  8
0
 10
132.285553
 20
15.428564
 11
139.142761
 21
15.428564
  0
LINE
  8
0
 10
80.857239
 20
-55.428558
 11
87.714355
 21
-55.428558
  0
LINE
  8
0
 10
132.285553
 20
-55.428558
 11
139.142761
 21
-55.428558
  0
LINE
  8
0
 10
84.285797
 20
18.857122
 11
84.285797
 21
11.999998
  0
LINE
  8
0
 10
135.714294
 20
18.857122
 11
135.714294
 21
11.999998
  0
LINE
  8
0
 10
84.285797
 20
-52.000000
 11
84.285797
 21
-58.857117
  0
LINE
  8
0
 10
135.714294
 20
-52.000000
 11
135.714294
 21
-58.857117
  0
LINE
  8
0
 10
74.285797
 20
16.253340
 11
74.285797
 21
14.603781
  0
LINE
  8
0
 10
77.142944
 20
16.253340
 11
77.142944
 21
14.603781
  0
LINE
  8
0
 10
74.285812
 20
16.253328
 11
75.714371
 21
17.078104
  0
LINE
  8
0
 10
75.714386
 20
13.778936
 11
77.142944
 21
14.603720
  0
LINE
  8
0
 10
75.714371
 20
17.078215
 11
77.142929
 21
16.253431
  0
LINE
  8
0
 10
74.285812
 20
14.603876
 11
75.714371
 21
13.779097
  0
LINE
  8
0
 10
74.285797
 20
-54.603775
 11
74.285797
 21
-56.253342
  0
LINE
  8
0
 10
77.142944
 20
-54.603775
 11
77.142944
 21
-56.253342
  0
LINE
  8
0
 10
74.285805
 20
-54.603813
 11
75.714371
 21
-53.779030
  0
LINE
  8
0
 10
75.714417
 20
-57.078156
 11
77.142975
 21
-56.253380
  0
LINE
  8
0
 10
75.714401
 20
-53.778961
 11
77.142975
 21
-54.603745
  0
LINE
  8
0
 10
74.285812
 20
-56.253304
 11
75.714378
 21
-57.078087
  0
LINE
  8
0
 10
142.857147
 20
16.253340
 11
142.857147
 21
14.603781
  0
LINE
  8
0
 10
145.714294
 20
16.253340
 11
145.714294
 21
14.603781
  0
LINE
  8
0
 10
142.856995
 20
16.253187
 11
144.285660
 21
17.078032
  0
LINE
  8
0
 10
144.285583
 20
13.778791
 11
145.714249
 21
14.603636
  0
LINE
  8
0
 10
144.285843
 20
17.078211
 11
145.714417
 21
16.253428
  0
LINE
  8
0
 10
142.857330
 20
14.603872
 11
144.285889
 21
13.779089
  0
LINE
  8
0
 10
142.857147
 20
-54.603775
 11
142.857147
 21
-56.253342
  0
LINE
  8
0
 10
145.714294
 20
-54.603775
 11
145.714294
 21
-56.253342
  0
LINE
  8
0
 10
142.857239
 20
-54.603760
 11
144.285828
 21
-53.778961
  0
LINE
  8
0
 10
144.285828
 20
-57.078239
 11
145.714432
 21
-56.253433
  0
LINE
  8
0
 10
144.285812
 20
-53.778908
 11
145.714355
 21
-54.603676
  0
LINE
  8
0
 10
142.857254
 20
-56.253311
 11
144.285812
 21
-57.078094
  0
LINE
  8
0
 10
70.857239
 20
15.428564
 11
80.571503
 21
15.428564
  0
LINE
  8
0
 10
139.428406
 20
15.428564
 11
149.142761
 21
15.428564
  0
LINE
  8
0
 10
70.857239
 20
-55.428558
 11
80.571503
 21
-55.428558
  0
LINE
  8
0
 10
139.428406
 20
-55.428558
 11
149.142761
 21
-55.428558
  0
LINE
  8
0
 10
75.714355
 20
20.285696
 11
75.714355
 21
10.571424
  0
LINE
  8
0
 10
75.714355
 20
-50.571426
 11
75.714355
 21
-60.285690
  0
LINE
  8
0
 10
144.285736
 20
20.285696
 11
144.285736
 21
10.571424
  0
LINE
  8
0
 10
144.285736
 20
-50.571426
 11
144.285736
 21
-60.285690
  0
CIRCLE
  8
0
 10
84.285797
 20
15.428564
 40
2.285713
  0
CIRCLE
  8
0
 10
135.714294
 20
15.428564
 40
2.285713
  0
CIRCLE
  8
0
 10
84.285797
 20
-55.428528
 40
2.285713
  0
CIRCLE
  8
0
 10
135.714294
 20
-55.428528
 40
2.285713
  0
CIRCLE
  8
0
 10
84.285797
 20
15.428564
 40
1.571428
  0
CIRCLE
  8
0
 10
135.714294
 20
15.428564
 40
1.571428
  0
CIRCLE
  8
0
 10
84.285797
 20
-55.428528
 40
1.571428
  0
CIRCLE
  8
0
 10
135.714294
 20
-55.428528
 40
1.571428
  0
CIRCLE
  8
0
 10
75.714355
 20
15.428564
 40
3.714285
  0
CIRCLE
  8
0
 10
75.714355
 20
15.428564
 40
3.120439
  0
CIRCLE
  8
0
 10
75.714355
 20
15.428564
 40
1.649572
  0
CIRCLE
  8
0
 10
75.714355
 20
-55.428558
 40
3.714285
  0
CIRCLE
  8
0
 10
75.714355
 20
-55.428558
 40
3.120439
  0
CIRCLE
  8
0
 10
75.714355
 20
-55.428558
 40
1.649572
  0
CIRCLE
  8
0
 10
144.285736
 20
15.428564
 40
3.714285
  0
CIRCLE
  8
0
 10
144.285736
 20
15.428564
 40
3.120439
  0
CIRCLE
  8
0
 10
144.285736
 20
15.428564
 40
1.649572
  0
CIRCLE
  8
0
 10
144.285736
 20
-55.428558
 40
3.714285
  0
CIRCLE
  8
0
 10
144.285736
 20
-55.428558
 40
3.120439
  0
CIRCLE
  8
0
 10
144.285736
 20
-55.428558
 40
1.649572
  0
POINT
  8
0
 10
289.999969
 20
-19.999981
  0
POINT
  8
0
 10
309.999969
 20
-19.999981
  0
LINE
  8
0
 10
244.285645
 20
20.000011
 11
244.285645
 21
-59.999981
  0
LINE
  8
0
 10
234.000000
 20
20.000011
 11
234.000000
 21
-59.999981
  0
LINE
  8
0
 10
244.285645
 20
-59.999981
 11
234.000031
 21
-59.999981
  0
LINE
  8
0
 10
244.285645
 20
20.000011
 11
234.000031
 21
20.000011
  0
POINT
  8
0
 10
161.428574
 20
-169.999985
  0
POINT
  8
0
 10
149.999985
 20
-169.999985
  0
LINE
  8
0
 10
161.428574
 20
-207.142838
 11
150.000015
 21
-207.142838
  0
LINE
  8
0
 10
161.428574
 20
-132.857132
 11
150.000015
 21
-132.857132
  0
LINE
  8
0
 10
161.428574
 20
-132.857132
 11
161.428574
 21
-207.142838
  0
LINE
  8
0
 10
155.714279
 20
-136.285721
 11
155.714279
 21
-146.571426
  0
LINE
  8
0
 10
155.714279
 20
-193.428574
 11
155.714279
 21
-203.714279
  0
LINE
  8
0
 10
150.571304
 20
-141.428543
 11
160.857285
 21
-141.428543
  0
LINE
  8
0
 10
150.571304
 20
-198.571426
 11
160.857285
 21
-198.571426
  0
LINE
  8
0
 10
150.000015
 20
-158.571426
 11
161.428574
 21
-158.571426
  0
LINE
  8
0
 10
150.000015
 20
-181.428543
 11
161.428574
 21
-181.428543
  0
CIRCLE
  8
0
 10
155.714279
 20
-141.428543
 40
2.571428
  0
CIRCLE
  8
0
 10
155.714279
 20
-198.571426
 40
2.571428
  0
CIRCLE
  8
0
 10
155.714279
 20
-141.428543
 40
3.999999
  0
CIRCLE
  8
0
 10
155.714279
 20
-198.571426
 40
3.999999
  0
POINT
  8
0
 10
290.000061
 20
-170.000046
  0
POINT
  8
0
 10
310.000061
 20
-170.000046
  0
LINE
  8
0
 10
278.571472
 20
-132.857193
 11
278.571472
 21
-158.571487
  0
LINE
  8
0
 10
290.000092
 20
-207.142899
 11
278.571503
 21
-207.142899
  0
LINE
  8
0
 10
290.000092
 20
-132.857193
 11
278.571503
 21
-132.857193
  0
LINE
  8
0
 10
282.571228
 20
-181.428604
 11
278.571503
 21
-181.428604
  0
LINE
  8
0
 10
282.571228
 20
-158.571487
 11
278.571503
 21
-158.571487
  0
LINE
  8
0
 10
282.571198
 20
-158.571487
 11
282.571198
 21
-181.428604
  0
LINE
  8
0
 10
278.571472
 20
-181.428604
 11
278.571472
 21
-207.142899
  0
LINE
  8
0
 10
284.000122
 20
-143.460983
 11
284.000122
 21
-145.110550
  0
LINE
  8
0
 10
286.857269
 20
-143.460983
 11
286.857269
 21
-145.110550
  0
LINE
  8
0
 10
283.999939
 20
-143.460937
 11
285.428589
 21
-142.636108
  0
LINE
  8
0
 10
285.428497
 20
-145.935303
 11
286.857178
 21
-145.110458
  0
LINE
  8
0
 10
285.428619
 20
-142.636093
 11
286.857330
 21
-143.460953
  0
LINE
  8
0
 10
284.000092
 20
-145.110382
 11
285.428772
 21
-145.935242
  0
LINE
  8
0
 10
284.000122
 20
-194.889572
 11
284.000122
 21
-196.539139
  0
LINE
  8
0
 10
286.857269
 20
-194.889572
 11
286.857269
 21
-196.539139
  0
LINE
  8
0
 10
284.000061
 20
-194.889526
 11
285.428680
 21
-194.064728
  0
LINE
  8
0
 10
285.428619
 20
-197.363937
 11
286.857208
 21
-196.539154
  0
LINE
  8
0
 10
285.428619
 20
-194.064682
 11
286.857330
 21
-194.889542
  0
LINE
  8
0
 10
284.000061
 20
-196.539093
 11
285.428741
 21
-197.363953
  0
LINE
  8
0
 10
285.428711
 20
-190.857193
 11
285.428711
 21
-200.571487
  0
LINE
  8
0
 10
285.428711
 20
-139.428635
 11
285.428711
 21
-149.142929
  0
LINE
  8
0
 10
280.571381
 20
-144.285751
 11
290.285736
 21
-144.285751
  0
LINE
  8
0
 10
280.571381
 20
-195.714340
 11
290.285736
 21
-195.714340
  0
CIRCLE
  8
0
 10
285.428711
 20
-144.285751
 40
3.714285
  0
CIRCLE
  8
0
 10
285.428711
 20
-144.285751
 40
3.120439
  0
CIRCLE
  8
0
 10
285.428711
 20
-144.285751
 40
1.649572
  0
CIRCLE
  8
0
 10
285.428711
 20
-195.714340
 40
3.714285
  0
CIRCLE
  8
0
 10
285.428711
 20
-195.714340
 40
3.120439
  0
CIRCLE
  8
0
 10
285.428711
 20
-195.714340
 40
1.649572
  0
ENDSEC
  0
EOF
