  0
SECTION
  2
HEADER
  0
ENDSEC
  0
SECTION
  2
TABLES
  0
TABLE
  2
LTYPE
 70
     4
  0
LTYPE
  2
CONTINUOUS
 70
    64
  3
Solid line
 72
    65
 73
     0
 40
0.000000
  0
LTYPE
  2
DASHED
 70
    64
  3
__ __ __ __ __ __ __ __ __ __ __ __ __ __ __
 72
    65
 73
     2
 40
3.500000
 49
2.000000
 49
-1.500000
  0
LTYPE
  2
CENTER
 70
    64
  3
____ _ ____ _ ____ _ ____ _ ____ _ ____ _ ____
 72
    65
 73
     4
 40
17.500000
 49
13.000000
 49
-1.500000
 49
1.500000
 49
-1.500000
  0
LTYPE
  2
PHANTOM
 70
    64
  3
_____ _ _ _____ _ _ _____ _ _ _____ _ _ ____  
 72
    65
 73
     6
 40
15.500000
 49
8.000000
 49
-1.500000
 49
1.500000
 49
-1.500000
 49
1.500000
 49
-1.500000
  0
LTYPE
  2
DASHED1
 70
    64
  3
__ __ __ __ __ __ __ __ __ __ __ __ __ __ __
 72
    65
 73
     2
 40
1.500000
 49
1.000000
 49
-0.500000
  0
LTYPE
  2
DASHED2
 70
    64
  3
__ __ __ __ __ __ __ __ __ __ __ __ __ __ __
 72
    65
 73
     2
 40
3.500000
 49
2.500000
 49
-1.000000
  0
LTYPE
  2
DASHED3
 70
    64
  3
__ __ __ __ __ __ __ __ __ __ __ __ __ __ __
 72
    65
 73
     2
 40
6.000000
 49
4.000000
 49
-2.000000
  0
LTYPE
  2
DASHED4
 70
    64
  3
__ __ __ __ __ __ __ __ __ __ __ __ __ __ __
 72
    65
 73
     2
 40
12.000000
 49
10.000000
 49
-2.000000
  0
LTYPE
  2
DASHED5
 70
    64
  3
__ __ __ __ __ __ __ __ __ __ __ __ __ __ __
 72
    65
 73
     2
 40
17.000000
 49
15.000000
 49
-2.000000
  0
LTYPE
  2
DASHED6
 70
    64
  3
__ __ __ __ __ __ __ __ __ __ __ __ __ __ __
 72
    65
 73
     2
 40
29.000000
 49
27.000000
 49
-2.000000
  0
LTYPE
  2
PHANTOM1
 70
    64
  3
_____ _ _ _____ _ _ _____ _ _ _____ _ _ ____  
 72
    65
 73
     6
 40
31.000000
 49
25.000000
 49
-1.500000
 49
1.000000
 49
-1.000000
 49
1.000000
 49
-1.500000
  0
LTYPE
  2
PHANTOM2
 70
    64
  3
_____ _ _ _____ _ _ _____ _ _ _____ _ _ ____  
 72
    65
 73
     6
 40
36.000000
 49
27.000000
 49
-1.500000
 49
2.500000
 49
-1.000000
 49
2.500000
 49
-1.500000
  0
LTYPE
  2
PHANTOM3
 70
    64
  3
_____ _ _ _____ _ _ _____ _ _ _____ _ _ ____  
 72
    65
 73
     6
 40
78.000000
 49
64.000000
 49
-2.000000
 49
4.000000
 49
-2.000000
 49
4.000000
 49
-2.000000
  0
LTYPE
  2
CENTER1
 70
    64
  3
____ _ ____ _ ____ _ ____ _ ____ _ ____ _ ____
 72
    65
 73
     4
 40
19.000000
 49
14.000000
 49
-1.000000
 49
3.000000
 49
-1.000000
  0
LTYPE
  2
CENTER2
 70
    64
  3
____ _ ____ _ ____ _ ____ _ ____ _ ____ _ ____
 72
    65
 73
     4
 40
28.500000
 49
25.000000
 49
-1.000000
 49
1.500000
 49
-1.000000
  0
LTYPE
  2
CENTER3
 70
    64
  3
____ _ ____ _ ____ _ ____ _ ____ _ ____ _ ____
 72
    65
 73
     4
 40
31.500000
 49
27.000000
 49
-1.000000
 49
2.500000
 49
-1.000000
  0
LTYPE
  2
CENTER4
 70
    64
  3
____ _ ____ _ ____ _ ____ _ ____ _ ____ _ ____
 72
    65
 73
     4
 40
50.000000
 49
45.000000
 49
-1.000000
 49
3.000000
 49
-1.000000
  0
LTYPE
  2
CENTER5
 70
    64
  3
____ _ ____ _ ____ _ ____ _ ____ _ ____ _ ____
 72
    65
 73
     4
 40
100.000000
 49
92.000000
 49
-2.000000
 49
4.000000
 49
-2.000000
  0
LTYPE
  2
SBK1
 70
    64
  3
______ _ _ _ ______ _ _ _ ______ _ _ _ _____  
 72
    65
 73
     8
 40
60.500000
 49
45.000000
 49
-2.000000
 49
2.500000
 49
-2.000000
 49
2.500000
 49
-2.000000
 49
2.500000
 49
-2.000000
  0
LTYPE
  2
SBK2
 70
    64
  3
______ _ _ _ ______ _ _ _ ______ _ _ _ _____  
 72
    65
 73
     8
 40
84.000000
 49
64.000000
 49
-2.000000
 49
4.000000
 49
-2.000000
 49
4.000000
 49
-2.000000
 49
4.000000
 49
-2.000000
  0
LTYPE
  2
STCH
 70
    64
  3
__ __ __ __ __ __ __ __ __ __ __ __ __ __ __
 72
    65
 73
     2
 40
3.000000
 49
1.000000
 49
-2.000000
  0
LTYPE
  2
MTCH
 70
    64
  3
_____ _ _ _____ _ _ _____ _ _ _____ _ _ ____  
 72
    65
 73
     6
 40
80.000000
 49
66.000000
 49
-2.000000
 49
4.000000
 49
-2.000000
 49
4.000000
 49
-2.000000
  0
ENDTAB
  0
TABLE
  2
LAYER
 70
     1
  0
LAYER
  2
0
 70
     0
 62
     7
  6
CONTINUOUS
  0
ENDTAB
  0
TABLE
  2
STYLE
 70
     1
  0
STYLE
  2
STANDARD
 70
     0
 40
0.000000
 41
1.000000
 50
0.000000
 71
     0
 42
0.200000
  3
txt
  4
BIGFONT
  0
ENDTAB
  0
TABLE
  2
VIEW
 70
     0
  0
ENDTAB
  0
ENDSEC
  0
SECTION
  2
BLOCKS
  0
ENDSEC
  0
SECTION
  2
ENTITIES
  0
LINE
  8
0
  6
PHANTOM
 62
     3
 10
-39.500000
 20
156.000000
 11
-39.500000
 21
36.500000
  0
LINE
  8
0
  6
PHANTOM
 62
     3
 10
37.999996
 20
136.000000
 11
37.999996
 21
36.500000
  0
LINE
  8
0
  6
PHANTOM
 62
     3
 10
16.000000
 20
146.000000
 11
16.000000
 21
36.500000
  0
LINE
  8
0
 10
-27.999973
 20
125.785698
 11
-27.999973
 21
54.214260
  0
LINE
  8
0
 10
-45.999973
 20
93.999985
 11
-45.999973
 21
86.000000
  0
LINE
  8
0
 10
-46.999989
 20
126.000000
 11
-46.999989
 21
53.999985
  0
LINE
  8
0
 10
-46.999973
 20
101.000000
 11
-27.999981
 21
101.000000
  0
LINE
  8
0
 10
-46.999973
 20
112.999992
 11
-27.999981
 21
112.999992
  0
LINE
  8
0
 10
-46.999973
 20
66.999977
 11
-27.999981
 21
66.999977
  0
LINE
  8
0
 10
-46.999973
 20
78.999985
 11
-27.999981
 21
78.999985
  0
LINE
  8
0
 10
-27.285694
 20
126.499969
 11
65.285736
 21
126.499969
  0
LINE
  8
0
  6
CENTER
 62
     2
 10
-59.399975
 20
106.999977
 11
-23.166649
 21
106.999977
  0
LINE
  8
0
  6
CENTER
 62
     2
 10
-61.960827
 20
89.999985
 11
69.711639
 21
89.999985
  0
LINE
  8
0
 10
-27.285694
 20
53.499977
 11
65.285736
 21
53.499977
  0
LINE
  8
0
 10
-56.999973
 20
125.999985
 11
-46.999973
 21
125.999985
  0
LINE
  8
0
 10
-56.999973
 20
53.999992
 11
-46.999973
 21
53.999992
  0
LINE
  8
0
 10
-46.999973
 20
86.000000
 11
-45.999973
 21
86.000000
  0
LINE
  8
0
 10
-46.999973
 20
93.999969
 11
-45.999973
 21
93.999969
  0
LINE
  8
0
  6
DASHED
 10
-46.999973
 20
110.160683
 11
-44.999973
 21
110.160683
  0
LINE
  8
0
 10
-46.999973
 20
103.839272
 11
-44.999973
 21
103.839272
  0
LINE
  8
0
 10
-44.999973
 20
110.160698
 11
-44.999973
 21
103.839287
  0
LINE
  8
0
 10
-44.999973
 20
110.160683
 11
-46.999973
 21
110.160683
  0
LINE
  8
0
 10
-44.999973
 20
76.160675
 11
-44.999973
 21
69.839279
  0
LINE
  8
0
 10
-44.999973
 20
69.839287
 11
-46.999973
 21
69.839287
  0
LINE
  8
0
 10
-44.999973
 20
76.160675
 11
-46.999973
 21
76.160675
  0
LINE
  8
0
  6
CENTER
 62
     2
 10
-55.499973
 20
61.999977
 11
-47.833309
 21
61.999977
  0
LINE
  8
0
  6
CENTER
 62
     2
 10
-55.833309
 20
117.999992
 11
-48.499973
 21
117.999992
  0
LINE
  8
0
  6
CENTER
 62
     2
 10
-51.999989
 20
122.166664
 11
-51.999989
 21
113.500000
  0
LINE
  8
0
  6
CENTER
 62
     2
 10
-51.999989
 20
66.833321
 11
-51.999989
 21
57.166641
  0
LINE
  8
0
  6
CENTER
 62
     2
 10
27.000027
 20
127.748985
 11
27.000027
 21
116.499985
  0
LINE
  8
0
  6
CENTER
 62
     2
 10
-12.999973
 20
95.499985
 11
-12.999973
 21
83.833313
  0
LINE
  8
0
  6
CENTER
 62
     2
 10
47.000042
 20
96.499985
 11
47.000042
 21
83.833313
  0
LINE
  8
0
  6
CENTER
 62
     2
 10
21.013016
 20
56.999977
 11
33.166683
 21
56.999977
  0
LINE
  8
0
  6
CENTER
 62
     2
 10
21.500011
 20
122.999992
 11
33.500027
 21
122.999992
  0
LINE
  8
0
  6
CENTER
 62
     2
 10
27.000027
 20
63.234734
 11
27.000027
 21
50.833305
  0
LINE
  8
0
 10
-35.711315
 20
94.618774
 11
-32.499996
 21
94.618774
  0
LINE
  8
0
 10
-35.711315
 20
92.309387
 11
-32.499996
 21
92.309387
  0
LINE
  8
0
 10
-35.711315
 20
87.690590
 11
-32.499996
 21
87.690590
  0
LINE
  8
0
 10
-35.711315
 20
85.381195
 11
-32.499996
 21
85.381195
  0
LINE
  8
0
 10
-32.499989
 20
94.618790
 11
-32.499989
 21
85.381187
  0
LINE
  8
0
 10
-30.479984
 20
94.118790
 11
-30.479984
 21
85.881195
  0
LINE
  8
0
 10
-35.999992
 20
94.118736
 11
-35.711292
 21
94.618774
  0
LINE
  8
0
 10
-35.999992
 20
85.881256
 11
-35.711277
 21
85.381187
  0
LINE
  8
0
 10
-30.191319
 20
94.618774
 11
-28.288677
 21
94.618774
  0
LINE
  8
0
 10
-30.191319
 20
85.381195
 11
-28.288654
 21
85.381195
  0
LINE
  8
0
 10
-27.999975
 20
94.118767
 11
-28.288651
 21
94.618759
  0
LINE
  8
0
 10
-27.999968
 20
85.881149
 11
-28.288643
 21
85.381149
  0
LINE
  8
0
 10
-30.479973
 20
94.118782
 11
-30.191301
 21
94.618782
  0
LINE
  8
0
 10
-30.480000
 20
85.881149
 11
-30.191324
 21
85.381149
  0
LINE
  8
0
 10
-30.191319
 20
87.690590
 11
-28.288654
 21
87.690590
  0
LINE
  8
0
 10
-30.191319
 20
92.309387
 11
-28.288654
 21
92.309387
  0
LINE
  8
0
 10
-32.499996
 20
92.499985
 11
-30.479992
 21
92.499985
  0
LINE
  8
0
 10
-32.499996
 20
87.499985
 11
-30.479992
 21
87.499985
  0
LINE
  8
0
 62
     2
 10
-32.499996
 20
87.904999
 11
-30.479992
 21
87.904999
  0
LINE
  8
0
 62
     2
 10
-32.499996
 20
92.094971
 11
-30.479992
 21
92.094971
  0
LINE
  8
0
  6
CENTER
 62
     2
 10
-58.999973
 20
72.999992
 11
-24.166645
 21
72.999992
  0
LINE
  8
0
 10
-56.999989
 20
126.000000
 11
-56.999989
 21
53.999985
  0
LINE
  8
0
 10
-35.999989
 20
94.118736
 11
-35.999989
 21
85.881256
  0
LINE
  8
0
 10
42.800060
 20
126.499969
 11
44.800053
 21
126.499969
  0
LINE
  8
0
 10
-27.285692
 20
126.499969
 11
-27.999983
 21
125.785675
  0
LINE
  8
0
 10
65.285728
 20
126.499954
 11
66.000015
 21
125.785667
  0
LINE
  8
0
 10
-27.999994
 20
54.214260
 11
-27.285706
 21
53.499973
  0
LINE
  8
0
 10
66.000008
 20
54.214314
 11
65.285721
 21
53.500027
  0
LINE
  8
0
 10
-11.145239
 20
94.099976
 11
45.145321
 21
94.099976
  0
LINE
  8
0
 10
-27.999981
 20
119.799988
 11
23.836178
 21
119.799988
  0
LINE
  8
0
 10
-27.999981
 20
116.599983
 11
66.000031
 21
116.599983
  0
LINE
  8
0
 10
-27.999981
 20
94.099976
 11
-14.854708
 21
94.099976
  0
LINE
  8
0
 10
-27.999981
 20
97.299988
 11
66.000031
 21
97.299988
  0
LINE
  8
0
 10
30.163864
 20
119.799988
 11
66.000031
 21
119.799988
  0
LINE
  8
0
 10
48.854771
 20
94.099976
 11
66.000031
 21
94.099976
  0
LINE
  8
0
 10
66.000031
 20
125.785706
 11
66.000031
 21
54.214260
  0
LINE
  8
0
 62
     2
 10
-44.999973
 20
76.160675
 11
-46.999973
 21
69.839287
  0
LINE
  8
0
 62
     2
 10
-46.999973
 20
76.160675
 11
-44.999973
 21
69.839287
  0
LINE
  8
0
 62
     2
 10
-44.999973
 20
103.839294
 11
-46.999977
 21
110.160683
  0
LINE
  8
0
 62
     2
 10
-46.999973
 20
103.839294
 11
-44.999973
 21
110.160683
  0
LINE
  8
0
 10
-157.285797
 20
53.500031
 11
-146.550079
 21
53.500031
  0
LINE
  8
0
 10
-157.285797
 20
126.500023
 11
-144.600098
 21
126.500023
  0
LINE
  8
0
  6
CENTER
 62
     2
 10
-160.259048
 20
90.000038
 11
-125.016586
 21
90.000038
  0
LINE
  8
0
  6
CENTER
 62
     2
 10
-149.748138
 20
107.000031
 11
-135.372925
 21
107.000031
  0
LINE
  8
0
  6
CENTER
 62
     2
 10
-150.057281
 20
73.000046
 11
-135.836639
 21
73.000046
  0
LINE
  8
0
 10
-157.500061
 20
126.000038
 11
-128.500061
 21
126.000038
  0
LINE
  8
0
 10
-157.500061
 20
54.000046
 11
-128.500061
 21
54.000046
  0
LINE
  8
0
  6
CENTER
 62
     2
 10
-143.000076
 20
130.062897
 11
-143.000076
 21
49.530716
  0
LINE
  8
0
 10
-128.500076
 20
126.000053
 11
-128.500076
 21
54.000038
  0
LINE
  8
0
 10
-157.500076
 20
126.000053
 11
-157.500076
 21
54.000038
  0
LINE
  8
0
 10
-158.000076
 20
125.785728
 11
-158.000076
 21
119.800034
  0
LINE
  8
0
 10
-128.000076
 20
125.785751
 11
-128.000076
 21
119.800034
  0
LINE
  8
0
  6
CENTER
 62
     2
 10
-146.192978
 20
57.000031
 11
-139.546356
 21
57.000031
  0
LINE
  8
0
 10
-158.000076
 20
94.100006
 11
-158.000076
 21
54.214314
  0
LINE
  8
0
 10
-141.400055
 20
126.500023
 11
-128.714355
 21
126.500023
  0
LINE
  8
0
 10
-128.000076
 20
94.100006
 11
-128.000076
 21
54.214314
  0
LINE
  8
0
 10
-146.550079
 20
53.500031
 11
-128.714355
 21
53.500031
  0
LINE
  8
0
 10
-140.500076
 20
74.443413
 11
-140.500076
 21
71.556671
  0
LINE
  8
0
 10
-145.500076
 20
74.443413
 11
-145.500076
 21
71.556671
  0
LINE
  8
0
 10
-145.500076
 20
74.443459
 11
-143.000076
 21
75.886841
  0
LINE
  8
0
 10
-143.000061
 20
70.113327
 11
-140.500061
 21
71.556702
  0
LINE
  8
0
 10
-143.000107
 20
75.886795
 11
-140.500107
 21
74.443420
  0
LINE
  8
0
 10
-145.500107
 20
71.556679
 11
-143.000122
 21
70.113312
  0
LINE
  8
0
 10
-145.500092
 20
108.443497
 11
-143.000107
 21
109.886864
  0
LINE
  8
0
 10
-145.500076
 20
108.443420
 11
-145.500076
 21
105.556671
  0
LINE
  8
0
 10
-145.500076
 20
105.556679
 11
-143.000061
 21
104.113297
  0
LINE
  8
0
 10
-143.000092
 20
104.113335
 11
-140.500107
 21
105.556702
  0
LINE
  8
0
 10
-140.500076
 20
108.443420
 11
-140.500076
 21
105.556671
  0
LINE
  8
0
 10
-143.000061
 20
109.886787
 11
-140.500061
 21
108.443413
  0
LINE
  8
0
 10
-146.600067
 20
126.000038
 11
-147.600052
 21
126.000038
  0
LINE
  8
0
 10
-135.100082
 20
126.000038
 11
-138.100067
 21
126.000038
  0
LINE
  8
0
  6
CENTER
 62
     2
 10
-146.621140
 20
123.000046
 11
-139.148865
 21
123.000046
  0
LINE
  8
0
 10
-128.000046
 20
82.100037
 11
-128.000046
 21
85.100044
  0
LINE
  8
0
 10
-157.285767
 20
126.500000
 11
-158.000061
 21
125.785698
  0
LINE
  8
0
 10
-128.714401
 20
126.500046
 11
-128.000107
 21
125.785759
  0
LINE
  8
0
 10
-158.000046
 20
54.214344
 11
-157.285751
 21
53.500050
  0
LINE
  8
0
 10
-128.000076
 20
54.214310
 11
-128.714355
 21
53.500031
  0
LINE
  8
0
 10
-128.000076
 20
97.300041
 11
-128.500061
 21
97.300041
  0
LINE
  8
0
 10
-128.000076
 20
94.100014
 11
-128.500061
 21
94.100014
  0
LINE
  8
0
 10
-158.000076
 20
116.600014
 11
-157.500092
 21
116.600014
  0
LINE
  8
0
 10
-158.000076
 20
119.800041
 11
-157.500092
 21
119.800041
  0
LINE
  8
0
 10
-144.600082
 20
126.500015
 11
-144.600082
 21
126.000031
  0
LINE
  8
0
 10
-141.400070
 20
126.500015
 11
-141.400070
 21
126.000031
  0
LINE
  8
0
 10
-158.000076
 20
94.100014
 11
-157.500092
 21
94.100014
  0
LINE
  8
0
 10
-158.000076
 20
97.300041
 11
-157.500092
 21
97.300041
  0
LINE
  8
0
 10
-158.000076
 20
116.600006
 11
-158.000076
 21
97.300034
  0
LINE
  8
0
 10
-128.000092
 20
119.800041
 11
-128.500061
 21
119.800041
  0
LINE
  8
0
 10
-128.000092
 20
116.600014
 11
-128.500061
 21
116.600014
  0
LINE
  8
0
 10
-128.000076
 20
116.600006
 11
-128.000076
 21
97.300034
  0
LINE
  8
0
  6
CENTER
 62
     2
 10
144.000107
 20
129.554932
 11
144.000107
 21
51.298256
  0
LINE
  8
0
 10
129.000107
 20
125.785759
 11
129.000107
 21
119.800041
  0
LINE
  8
0
 10
159.000122
 20
125.785759
 11
159.000122
 21
119.800018
  0
LINE
  8
0
 10
129.714401
 20
53.500038
 11
158.285828
 21
53.500038
  0
LINE
  8
0
 10
129.714401
 20
126.500031
 11
142.400085
 21
126.500031
  0
LINE
  8
0
  6
CENTER
 62
     2
 10
126.885330
 20
90.000046
 11
161.431076
 21
90.000046
  0
LINE
  8
0
  6
CENTER
 62
     2
 10
126.885330
 20
73.000053
 11
160.726059
 21
73.000053
  0
LINE
  8
0
  6
CENTER
 62
     2
 10
127.590378
 20
107.000038
 11
160.867065
 21
107.000038
  0
LINE
  8
0
 10
129.000107
 20
94.100014
 11
129.000107
 21
54.214321
  0
LINE
  8
0
 10
159.000122
 20
94.099991
 11
159.000122
 21
54.214321
  0
LINE
  8
0
 10
145.600113
 20
126.500031
 11
158.285828
 21
126.500031
  0
LINE
  8
0
 10
129.714401
 20
126.500038
 11
129.000122
 21
125.785759
  0
LINE
  8
0
 10
158.285797
 20
126.500008
 11
159.000076
 21
125.785728
  0
LINE
  8
0
 10
129.000107
 20
54.214329
 11
129.714386
 21
53.500046
  0
LINE
  8
0
 10
159.000076
 20
54.214344
 11
158.285767
 21
53.500042
  0
LINE
  8
0
 10
129.000107
 20
97.300041
 11
129.000107
 21
97.500046
  0
LINE
  8
0
 10
130.000259
 20
93.600037
 11
131.570129
 21
93.600037
  0
LINE
  8
0
 10
129.000153
 20
94.100037
 11
129.500137
 21
94.100037
  0
LINE
  8
0
 10
129.000153
 20
97.300049
 11
129.499832
 21
97.300049
  0
LINE
  8
0
 10
129.500046
 20
94.100060
 11
130.000031
 21
93.600075
  0
LINE
  8
0
 10
130.000137
 20
93.600037
 11
131.600128
 21
93.600037
  0
LINE
  8
0
 10
130.000137
 20
97.800034
 11
131.600128
 21
97.800034
  0
LINE
  8
0
 10
129.499908
 20
97.300117
 11
129.999939
 21
97.800148
  0
LINE
  8
0
 10
157.983643
 20
93.599991
 11
156.383652
 21
93.599991
  0
LINE
  8
0
 10
158.483459
 20
94.100243
 11
157.983475
 21
93.600250
  0
LINE
  8
0
 10
157.983658
 20
97.799988
 11
156.383652
 21
97.799988
  0
LINE
  8
0
 10
157.983734
 20
97.800133
 11
158.483704
 21
97.300140
  0
LINE
  8
0
 10
159.000122
 20
97.300026
 11
158.483673
 21
97.300026
  0
LINE
  8
0
 10
159.000122
 20
94.099991
 11
158.483643
 21
94.099991
  0
LINE
  8
0
  6
CENTER
 62
     2
 10
126.885330
 20
95.700027
 11
161.431076
 21
95.700027
  0
LINE
  8
0
  6
CENTER
 62
     2
 10
126.789917
 20
118.200035
 11
161.431076
 21
118.200035
  0
LINE
  8
0
 10
142.400070
 20
126.500023
 11
142.400070
 21
125.983559
  0
LINE
  8
0
 10
145.600113
 20
126.500023
 11
145.600113
 21
125.983559
  0
LINE
  8
0
 10
146.100113
 20
125.483551
 11
146.100113
 21
123.883560
  0
LINE
  8
0
 10
145.599915
 20
125.983345
 11
146.099899
 21
125.483353
  0
LINE
  8
0
 10
141.900116
 20
125.483574
 11
141.900116
 21
123.883560
  0
LINE
  8
0
 10
141.900131
 20
125.483551
 11
142.400116
 21
125.983528
  0
LINE
  8
0
 10
159.000122
 20
119.800026
 11
158.483673
 21
119.800026
  0
LINE
  8
0
 10
159.000122
 20
116.599998
 11
158.483643
 21
116.599998
  0
LINE
  8
0
 10
157.983643
 20
116.099991
 11
156.383652
 21
116.099991
  0
LINE
  8
0
 10
158.483459
 20
116.600204
 11
157.983459
 21
116.100204
  0
LINE
  8
0
 10
157.983658
 20
120.299995
 11
156.383652
 21
120.299995
  0
LINE
  8
0
 10
157.983719
 20
120.300140
 11
158.483719
 21
119.800156
  0
LINE
  8
0
 10
159.000122
 20
116.599991
 11
159.000122
 21
97.300018
  0
LINE
  8
0
 10
129.000107
 20
116.600014
 11
129.000107
 21
97.300041
  0
LINE
  8
0
 10
129.000107
 20
119.800041
 11
129.000107
 21
120.000023
  0
LINE
  8
0
 10
130.000259
 20
116.100029
 11
131.570129
 21
116.100029
  0
LINE
  8
0
 10
129.000153
 20
116.600044
 11
129.500137
 21
116.600044
  0
LINE
  8
0
 10
129.000153
 20
119.800049
 11
129.499832
 21
119.800049
  0
LINE
  8
0
 10
129.500046
 20
116.600021
 11
130.000031
 21
116.100029
  0
LINE
  8
0
 10
130.000137
 20
116.100029
 11
131.600128
 21
116.100029
  0
LINE
  8
0
 10
130.000137
 20
120.300034
 11
131.600128
 21
120.300034
  0
LINE
  8
0
 10
129.499924
 20
119.800156
 11
129.999954
 21
120.300179
  0
LINE
  8
0
  6
PHANTOM
 62
     3
 10
26.000000
 20
12.499996
 11
26.000000
 21
0.499996
  0
LINE
  8
0
  6
PHANTOM
 62
     3
 10
-39.500000
 20
36.500000
 11
-39.500000
 21
-8.433872
  0
LINE
  8
0
  6
PHANTOM
 62
     3
 10
38.000004
 20
36.500000
 11
38.000004
 21
-15.499973
  0
LINE
  8
0
 10
-47.000027
 20
20.999981
 11
-47.000027
 21
11.600002
  0
LINE
  8
0
 10
-46.000027
 20
1.400005
 11
-46.000027
 21
-4.500004
  0
LINE
  8
0
 10
-28.000011
 20
20.785702
 11
-28.000011
 21
-7.785725
  0
LINE
  8
0
 10
-27.285732
 20
21.499996
 11
65.499969
 21
21.499996
  0
LINE
  8
0
 10
-27.285732
 20
-8.499989
 11
65.499969
 21
-8.499989
  0
LINE
  8
0
  6
CENTER
 62
     2
 10
-59.399998
 20
6.499996
 11
70.841263
 21
6.499996
  0
LINE
  8
0
 10
-57.000004
 20
-7.999989
 11
-47.000011
 21
-7.999989
  0
LINE
  8
0
 10
-57.000004
 20
21.000011
 11
-47.000011
 21
21.000011
  0
LINE
  8
0
 10
-45.000004
 20
12.499996
 11
-28.000019
 21
12.499996
  0
LINE
  8
0
 10
-45.000004
 20
0.499996
 11
-28.000019
 21
0.499996
  0
LINE
  8
0
 10
-48.000027
 20
11.600002
 11
-48.000027
 21
1.400005
  0
LINE
  8
0
 10
-48.000011
 20
1.400005
 11
-45.000004
 21
1.400005
  0
LINE
  8
0
 10
-48.000011
 20
11.600002
 11
-45.000004
 21
11.600002
  0
LINE
  8
0
 10
-45.000011
 20
12.500011
 11
-45.000011
 21
11.600002
  0
LINE
  8
0
 10
-47.000027
 20
1.400005
 11
-47.000027
 21
-8.000004
  0
LINE
  8
0
 10
-47.000011
 20
-4.500004
 11
-46.000019
 21
-4.500004
  0
LINE
  8
0
 10
-45.000011
 20
1.400005
 11
-45.000011
 21
0.499996
  0
LINE
  8
0
 10
-36.000011
 20
-0.500004
 11
-36.000011
 21
-3.999989
  0
LINE
  8
0
 10
-35.711330
 20
-4.500004
 11
-32.500034
 21
-4.500004
  0
LINE
  8
0
 10
-32.500027
 20
-0.500004
 11
-32.500027
 21
-4.500004
  0
LINE
  8
0
 10
-30.480022
 20
-0.500004
 11
-30.480022
 21
-3.999989
  0
LINE
  8
0
 10
-35.999989
 20
-3.999976
 11
-35.711315
 21
-4.499973
  0
LINE
  8
0
 10
-30.479992
 20
-3.999998
 11
-30.191334
 21
-4.499970
  0
LINE
  8
0
 10
-28.000004
 20
-4.000004
 11
-28.288677
 21
-4.500001
  0
LINE
  8
0
 10
-30.191357
 20
-4.500004
 11
-28.288692
 21
-4.500004
  0
LINE
  8
0
 10
-32.500034
 20
-2.999989
 11
-30.480030
 21
-2.999989
  0
LINE
  8
0
 62
     2
 10
-32.500034
 20
-2.595020
 11
-30.480030
 21
-2.595020
  0
LINE
  8
0
 10
-36.000011
 20
-0.500004
 11
-36.000011
 21
0.499996
  0
LINE
  8
0
 10
-32.500027
 20
-0.500004
 11
-32.500027
 21
0.499996
  0
LINE
  8
0
 10
-30.480022
 20
-0.500004
 11
-30.480022
 21
0.499996
  0
LINE
  8
0
 10
-35.711330
 20
-0.499989
 11
-32.500034
 21
-0.499989
  0
LINE
  8
0
 10
-30.191357
 20
-0.499989
 11
-28.288692
 21
-0.499989
  0
LINE
  8
0
 10
-56.999996
 20
21.000004
 11
-56.999996
 21
-8.000004
  0
LINE
  8
0
 10
-27.285740
 20
21.500002
 11
-28.000011
 21
20.785730
  0
LINE
  8
0
 10
-28.000021
 20
-7.785703
 11
-27.285732
 21
-8.499990
  0
LINE
  8
0
 10
65.999954
 20
20.999981
 11
65.999954
 21
-8.000004
  0
LINE
  8
0
 10
66.000053
 20
-8.000074
 11
65.500053
 21
-8.500084
  0
LINE
  8
0
 10
65.500061
 20
21.500074
 11
66.000061
 21
21.000072
  0
LINE
  8
0
  6
CENTER
 62
     2
 10
19.999973
 20
10.000011
 11
19.999973
 21
2.999996
  0
LINE
  8
0
  6
CENTER
 62
     2
 10
53.999973
 20
10.000011
 11
53.999973
 21
2.999996
  0
LINE
  8
0
 10
24.171543
 20
21.499989
 11
24.171543
 21
15.499996
  0
LINE
  8
0
 10
29.828419
 20
21.499989
 11
29.828419
 21
15.499996
  0
LINE
  8
0
 10
24.171547
 20
-2.500019
 11
29.828419
 21
-2.500019
  0
LINE
  8
0
 10
24.171547
 20
15.499996
 11
29.828419
 21
15.499996
  0
LINE
  8
0
 10
29.828419
 20
-2.500019
 11
29.828419
 21
-8.500019
  0
LINE
  8
0
 10
24.171543
 20
-2.500019
 11
24.171543
 21
-8.500019
  0
LINE
  8
0
  6
PHANTOM
 62
     3
 10
16.000000
 20
12.499996
 11
26.000000
 21
12.499996
  0
LINE
  8
0
  6
PHANTOM
 62
     3
 10
16.000000
 20
0.499996
 11
26.000000
 21
0.499996
  0
LINE
  8
0
  6
PHANTOM
 62
     3
 10
16.000000
 20
36.500000
 11
16.000000
 21
12.499996
  0
LINE
  8
0
  6
PHANTOM
 62
     3
 10
16.000000
 20
0.499996
 11
16.000000
 21
-15.499973
  0
LINE
  8
0
 62
     4
 10
-37.341675
 20
-97.309509
 11
-32.596375
 21
-97.309509
  0
LINE
  8
0
 62
     4
 10
-41.096405
 20
-99.909515
 11
-37.340607
 21
-99.909515
  0
LINE
  8
0
 62
     4
 10
-35.840576
 20
-99.909515
 11
-32.596375
 21
-99.909515
  0
LINE
  8
0
 62
     4
 10
-63.096405
 20
-96.309525
 11
-41.096405
 21
-96.309525
  0
LINE
  8
0
 62
     4
 10
-58.396393
 20
-100.909523
 11
-41.096405
 21
-100.909523
  0
LINE
  8
0
 62
     4
 10
-41.096405
 20
-96.309525
 11
-41.096405
 21
-100.909523
  0
LINE
  8
0
 62
     4
 10
-63.096405
 20
-98.109520
 11
-63.096405
 21
-96.309525
  0
LINE
  8
0
 62
     4
 10
-58.396393
 20
-99.351486
 11
-58.396393
 21
-100.909523
  0
LINE
  8
0
 62
     4
 10
-63.096405
 20
-98.109520
 11
-58.846390
 21
-98.109520
  0
LINE
  8
0
  6
CENTER
 62
     1
 10
-61.096390
 20
-95.502808
 11
-61.096390
 21
-101.741425
  0
LINE
  8
0
 62
     4
 10
-58.846390
 20
-98.109520
 11
-58.846390
 21
-99.351486
  0
LINE
  8
0
 62
     4
 10
-59.096390
 20
-98.109520
 11
-59.096390
 21
-98.909523
  0
LINE
  8
0
 62
     4
 10
-63.096405
 20
-98.109520
 11
-63.096405
 21
-98.909523
  0
LINE
  8
0
 62
     4
 10
-63.096405
 20
-98.909523
 11
-59.096390
 21
-98.909523
  0
LINE
  8
0
 62
     4
 10
-58.896393
 20
-98.109520
 11
-58.896393
 21
-100.109520
  0
LINE
  8
0
 62
     4
 10
-58.896393
 20
-100.109520
 11
-58.396393
 21
-100.109520
  0
LINE
  8
0
 62
     4
 10
-58.846390
 20
-99.351486
 11
-58.396393
 21
-99.351486
  0
LINE
  8
0
 62
     4
 10
-32.596375
 20
-97.309509
 11
-32.596375
 21
-99.909515
  0
LINE
  8
0
  6
CENTER
 62
     1
 10
-34.319275
 20
-98.159439
 11
-22.387207
 21
-98.159439
  0
LINE
  8
0
  6
CENTER
 62
     1
 10
-34.268982
 20
-99.059433
 11
-22.345337
 21
-99.059433
  0
LINE
  8
0
 62
     4
 10
-22.596375
 20
-97.909454
 11
-22.596375
 21
-98.409454
  0
LINE
  8
0
 62
     4
 10
-22.596375
 20
-98.809448
 11
-22.596375
 21
-99.309448
  0
LINE
  8
0
 62
     4
 10
-25.596375
 20
-97.709442
 11
-25.596375
 21
-99.509460
  0
LINE
  8
0
 62
     4
 10
-32.596375
 20
-99.509445
 11
-28.590820
 21
-99.509445
  0
LINE
  8
0
 62
     4
 10
-32.596375
 20
-98.609421
 11
-29.110413
 21
-98.609421
  0
LINE
  8
0
 62
     4
 10
-27.610413
 20
-98.609421
 11
-25.596375
 21
-98.609421
  0
LINE
  8
0
 62
     4
 10
-27.090820
 20
-99.509445
 11
-25.596375
 21
-99.509445
  0
LINE
  8
0
 62
     4
 10
-32.596375
 20
-97.709427
 11
-29.630066
 21
-97.709427
  0
LINE
  8
0
 62
     4
 10
-28.130066
 20
-97.709427
 11
-25.596375
 21
-97.709427
  0
LINE
  8
0
 62
     4
 10
-25.596375
 20
-97.909439
 11
-22.596375
 21
-97.909439
  0
LINE
  8
0
 62
     4
 10
-25.596375
 20
-98.409439
 11
-22.596375
 21
-98.409439
  0
LINE
  8
0
 62
     4
 10
-25.596375
 20
-98.809433
 11
-22.596375
 21
-98.809433
  0
LINE
  8
0
 62
     4
 10
-25.596375
 20
-99.309433
 11
-22.596375
 21
-99.309433
  0
LINE
  8
0
 62
     1
 10
-28.860390
 20
-96.444504
 11
-26.360388
 21
-100.774628
  0
LINE
  8
0
  6
CENTER
 62
     1
 10
-42.410767
 20
-98.609512
 11
-32.596375
 21
-98.609512
  0
LINE
  8
0
 62
     1
 10
-30.360456
 20
-96.444473
 11
-27.860455
 21
-100.774597
  0
LINE
  8
0
 62
     1
 10
-37.841129
 20
-96.444450
 11
-35.341129
 21
-100.774582
  0
LINE
  8
0
 62
     1
 10
-39.341110
 20
-96.444519
 11
-36.841114
 21
-100.774635
  0
LINE
  8
0
 62
     4
 10
-62.121399
 20
-100.309525
 11
-60.071396
 21
-100.309525
  0
LINE
  8
0
 62
     4
 10
-60.070972
 20
-100.309967
 11
-59.845989
 21
-100.084976
  0
LINE
  8
0
 62
     4
 10
-62.121357
 20
-100.309540
 11
-62.346352
 21
-100.084549
  0
LINE
  8
0
 62
     4
 10
-62.346390
 20
-98.908707
 11
-62.346390
 21
-100.084526
  0
LINE
  8
0
 62
     1
 10
-62.121399
 20
-98.908707
 11
-62.121399
 21
-100.309525
  0
LINE
  8
0
 62
     1
 10
-60.071396
 20
-98.908707
 11
-60.071396
 21
-100.309525
  0
LINE
  8
0
 62
     4
 10
-59.846390
 20
-98.908707
 11
-59.846390
 21
-100.084518
  0
LINE
  8
0
 62
     4
 10
-62.346390
 20
-100.084526
 11
-59.846390
 21
-100.084526
  0
LINE
  8
0
 62
     4
 10
-62.346390
 20
-95.809525
 11
-62.346390
 21
-96.309525
  0
LINE
  8
0
 62
     1
 10
-62.121399
 20
-95.809525
 11
-62.121399
 21
-96.309525
  0
LINE
  8
0
 62
     1
 10
-60.071396
 20
-95.809525
 11
-60.071396
 21
-96.309525
  0
LINE
  8
0
 62
     4
 10
-59.846390
 20
-95.809525
 11
-59.846390
 21
-96.309525
  0
LINE
  8
0
 62
     4
 10
-62.346390
 20
-95.809525
 11
-59.846390
 21
-95.809525
  0
LINE
  8
0
 62
     4
 10
-63.096405
 20
-97.309525
 11
-41.096405
 21
-97.309525
  0
LINE
  8
0
 62
     4
 10
-63.096405
 20
-96.759506
 11
-41.096405
 21
-96.759506
  0
LINE
  8
0
 62
     4
 10
-41.096405
 20
-97.309509
 11
-38.841705
 21
-97.309509
  0
LINE
  8
0
 62
     4
 10
-108.889130
 20
-95.809525
 11
-106.389130
 21
-95.809525
  0
LINE
  8
0
  6
CENTER
 62
     1
 10
-107.639130
 20
-94.256554
 11
-107.639130
 21
-102.969315
  0
LINE
  8
0
 62
     4
 10
-109.689117
 20
-97.309525
 11
-109.689117
 21
-98.859520
  0
LINE
  8
0
 62
     4
 10
-109.689186
 20
-97.309502
 11
-109.139183
 21
-96.759491
  0
LINE
  8
0
 62
     4
 10
-109.139130
 20
-96.309525
 11
-109.139130
 21
-96.759521
  0
LINE
  8
0
 62
     4
 10
-109.139130
 20
-96.309525
 11
-106.139130
 21
-96.309525
  0
LINE
  8
0
 62
     4
 10
-106.139130
 20
-96.309525
 11
-106.139130
 21
-96.759521
  0
LINE
  8
0
 62
     4
 10
-105.589119
 20
-97.309471
 11
-106.139114
 21
-96.759460
  0
LINE
  8
0
 62
     4
 10
-105.589127
 20
-97.309525
 11
-105.589127
 21
-98.859520
  0
LINE
  8
0
 62
     4
 10
-109.689117
 20
-98.109520
 11
-105.589127
 21
-98.109520
  0
LINE
  8
0
 62
     4
 10
-109.689133
 20
-98.908707
 11
-105.589127
 21
-98.908707
  0
LINE
  8
0
 62
     4
 10
-108.664139
 20
-100.309525
 11
-106.614136
 21
-100.309525
  0
LINE
  8
0
 62
     4
 10
-106.613701
 20
-100.309998
 11
-106.388702
 21
-100.084984
  0
LINE
  8
0
 62
     4
 10
-108.664116
 20
-100.309563
 11
-108.889114
 21
-100.084564
  0
LINE
  8
0
 62
     4
 10
-108.889130
 20
-98.908707
 11
-108.889130
 21
-100.084526
  0
LINE
  8
0
 62
     1
 10
-108.664139
 20
-98.908707
 11
-108.664139
 21
-100.309525
  0
LINE
  8
0
 62
     1
 10
-106.614136
 20
-98.908707
 11
-106.614136
 21
-100.309525
  0
LINE
  8
0
 62
     4
 10
-106.389130
 20
-98.908707
 11
-106.389130
 21
-100.084518
  0
LINE
  8
0
 62
     4
 10
-108.889130
 20
-100.084526
 11
-106.389130
 21
-100.084526
  0
LINE
  8
0
 62
     4
 10
-108.889130
 20
-95.809525
 11
-108.889130
 21
-96.309525
  0
LINE
  8
0
 62
     1
 10
-108.664139
 20
-95.809525
 11
-108.664139
 21
-96.309525
  0
LINE
  8
0
 62
     1
 10
-106.614136
 20
-95.809525
 11
-106.614136
 21
-96.309525
  0
LINE
  8
0
 62
     4
 10
-106.389130
 20
-95.809525
 11
-106.389130
 21
-96.309525
  0
LINE
  8
0
  6
CENTER
 62
     1
 10
-65.896942
 20
-53.759521
 11
-35.688889
 21
-53.759521
  0
LINE
  8
0
 62
     4
 10
-63.096405
 20
-55.259521
 11
-41.096405
 21
-55.259521
  0
LINE
  8
0
 62
     4
 10
-63.096405
 20
-52.259521
 11
-41.096405
 21
-52.259521
  0
LINE
  8
0
 62
     4
 10
-63.096405
 20
-55.809525
 11
-41.096405
 21
-55.809525
  0
LINE
  8
0
 62
     4
 10
-63.096405
 20
-51.709518
 11
-41.096405
 21
-51.709518
  0
LINE
  8
0
 62
     4
 10
-63.096405
 20
-51.709518
 11
-63.096405
 21
-55.809525
  0
LINE
  8
0
 62
     4
 10
-41.096405
 20
-51.709518
 11
-41.096405
 21
-55.809525
  0
LINE
  8
0
  6
CENTER
 62
     1
 10
-61.096390
 20
-50.923019
 11
-61.096390
 21
-56.512344
  0
LINE
  8
0
 62
     4
 10
-62.141674
 20
-54.472595
 11
-60.408337
 21
-52.739258
  0
LINE
  8
0
 62
     4
 10
-61.788120
 20
-54.826176
 11
-60.154781
 21
-53.192837
  0
LINE
  8
0
 62
     1
 10
-40.007179
 20
-51.594425
 11
-37.507179
 21
-55.924553
  0
LINE
  8
0
 62
     4
 10
-41.096405
 20
-52.459518
 11
-39.507751
 21
-52.459518
  0
LINE
  8
0
 62
     4
 10
-41.096405
 20
-55.059525
 11
-38.006622
 21
-55.059525
  0
LINE
  8
0
 62
     4
 10
112.821899
 20
-85.654793
 11
112.821899
 21
-80.909485
  0
LINE
  8
0
 62
     4
 10
112.821899
 20
-89.409523
 11
112.821899
 21
-87.154778
  0
LINE
  8
0
 62
     4
 10
115.421875
 20
-84.153694
 11
115.421875
 21
-80.909485
  0
LINE
  8
0
 62
     4
 10
94.714539
 20
-96.309525
 11
110.814545
 21
-96.309525
  0
LINE
  8
0
 62
     4
 10
99.414520
 20
-100.909523
 11
116.714539
 21
-100.909523
  0
LINE
  8
0
 62
     4
 10
116.714539
 20
-89.409523
 11
116.714539
 21
-100.909523
  0
LINE
  8
0
 62
     4
 10
94.714539
 20
-98.909523
 11
94.714539
 21
-96.309525
  0
LINE
  8
0
 62
     4
 10
99.414520
 20
-99.291679
 11
99.414520
 21
-100.909523
  0
LINE
  8
0
  6
CENTER
 62
     1
 10
96.714539
 20
-95.579269
 11
96.714539
 21
-101.482193
  0
LINE
  8
0
 62
     4
 10
110.814514
 20
-89.409523
 11
110.814514
 21
-96.309525
  0
LINE
  8
0
 62
     4
 10
94.714539
 20
-98.109528
 11
98.988342
 21
-98.109528
  0
LINE
  8
0
 62
     4
 10
94.714539
 20
-98.909523
 11
98.714539
 21
-98.909523
  0
LINE
  8
0
 62
     4
 10
98.714539
 20
-98.109520
 11
98.714539
 21
-98.909523
  0
LINE
  8
0
 62
     4
 10
110.814545
 20
-89.409523
 11
116.714539
 21
-89.409523
  0
LINE
  8
0
 62
     4
 10
98.914520
 20
-100.109528
 11
99.414520
 21
-100.109528
  0
LINE
  8
0
 62
     4
 10
98.914520
 20
-98.109528
 11
98.914520
 21
-100.109528
  0
LINE
  8
0
 62
     4
 10
98.988342
 20
-99.291679
 11
99.414520
 21
-99.291679
  0
LINE
  8
0
 62
     4
 10
98.988342
 20
-98.109528
 11
98.988342
 21
-99.291679
  0
LINE
  8
0
 62
     4
 10
94.714539
 20
-97.309525
 11
116.714539
 21
-97.309525
  0
LINE
  8
0
 62
     4
 10
94.714539
 20
-96.759521
 11
116.714539
 21
-96.759521
  0
LINE
  8
0
 62
     4
 10
110.814514
 20
-95.159508
 11
116.714539
 21
-95.159508
  0
LINE
  8
0
 62
     4
 10
110.814514
 20
-95.909508
 11
116.714539
 21
-95.909508
  0
LINE
  8
0
 62
     4
 10
110.814514
 20
-90.909523
 11
116.714539
 21
-90.909523
  0
LINE
  8
0
 62
     4
 10
112.821899
 20
-80.909485
 11
115.421875
 21
-80.909485
  0
LINE
  8
0
  6
CENTER
 62
     1
 10
113.671814
 20
-82.632416
 11
113.671814
 21
-70.700333
  0
LINE
  8
0
  6
CENTER
 62
     1
 10
114.571808
 20
-82.582123
 11
114.571808
 21
-70.658478
  0
LINE
  8
0
 62
     4
 10
113.421814
 20
-70.909485
 11
113.921814
 21
-70.909485
  0
LINE
  8
0
 62
     4
 10
114.321808
 20
-70.909485
 11
114.821808
 21
-70.909485
  0
LINE
  8
0
 62
     4
 10
113.221802
 20
-73.909485
 11
115.021820
 21
-73.909485
  0
LINE
  8
0
 62
     4
 10
115.021820
 20
-80.909485
 11
115.021820
 21
-76.903938
  0
LINE
  8
0
 62
     4
 10
114.121796
 20
-80.909485
 11
114.121796
 21
-77.423553
  0
LINE
  8
0
 62
     4
 10
114.121796
 20
-75.923553
 11
114.121796
 21
-73.909485
  0
LINE
  8
0
 62
     4
 10
115.021820
 20
-75.403938
 11
115.021820
 21
-73.909485
  0
LINE
  8
0
 62
     4
 10
113.221802
 20
-80.909485
 11
113.221802
 21
-77.943176
  0
LINE
  8
0
 62
     4
 10
113.221802
 20
-76.443176
 11
113.221802
 21
-73.909485
  0
LINE
  8
0
 62
     4
 10
113.421814
 20
-73.909485
 11
113.421814
 21
-70.909485
  0
LINE
  8
0
 62
     4
 10
113.921814
 20
-73.909485
 11
113.921814
 21
-70.909485
  0
LINE
  8
0
 62
     4
 10
114.321808
 20
-73.909485
 11
114.321808
 21
-70.909485
  0
LINE
  8
0
 62
     4
 10
114.821808
 20
-73.909485
 11
114.821808
 21
-70.909485
  0
LINE
  8
0
 62
     1
 10
111.956955
 20
-77.173668
 11
116.287102
 21
-74.673645
  0
LINE
  8
0
  6
CENTER
 62
     1
 10
114.121887
 20
-90.723892
 11
114.121887
 21
-80.909485
  0
LINE
  8
0
 62
     1
 10
111.956856
 20
-78.673660
 11
116.287010
 21
-76.173645
  0
LINE
  8
0
 62
     1
 10
111.956825
 20
-86.154358
 11
116.286949
 21
-83.654350
  0
LINE
  8
0
 62
     1
 10
111.956871
 20
-87.654343
 11
116.286987
 21
-85.154350
  0
LINE
  8
0
 62
     4
 10
95.689514
 20
-100.309525
 11
97.739532
 21
-100.309525
  0
LINE
  8
0
 62
     4
 10
97.740097
 20
-100.310066
 11
97.965088
 21
-100.085068
  0
LINE
  8
0
 62
     4
 10
95.689598
 20
-100.309395
 11
95.464615
 21
-100.084412
  0
LINE
  8
0
 62
     4
 10
95.464539
 20
-98.909523
 11
95.464539
 21
-100.084526
  0
LINE
  8
0
 62
     1
 10
95.689514
 20
-98.909523
 11
95.689514
 21
-100.309525
  0
LINE
  8
0
 62
     1
 10
97.739532
 20
-98.909523
 11
97.739532
 21
-100.309525
  0
LINE
  8
0
 62
     4
 10
97.964539
 20
-98.909523
 11
97.964539
 21
-100.084518
  0
LINE
  8
0
 62
     4
 10
95.464539
 20
-100.084526
 11
97.964539
 21
-100.084526
  0
LINE
  8
0
 62
     4
 10
95.464539
 20
-95.809525
 11
95.464539
 21
-96.309525
  0
LINE
  8
0
 62
     1
 10
95.689514
 20
-95.809525
 11
95.689514
 21
-96.309525
  0
LINE
  8
0
 62
     1
 10
97.739532
 20
-95.809525
 11
97.739532
 21
-96.309525
  0
LINE
  8
0
 62
     4
 10
97.964539
 20
-95.809525
 11
97.964539
 21
-96.309525
  0
LINE
  8
0
 62
     4
 10
95.464539
 20
-95.809525
 11
97.964539
 21
-95.809525
  0
LINE
  8
0
 62
     4
 10
115.421875
 20
-89.409523
 11
115.421875
 21
-85.653687
  0
LINE
  8
0
 62
     4
 10
52.971802
 20
-85.653702
 11
52.971802
 21
-89.409523
  0
LINE
  8
0
 62
     4
 10
49.421814
 20
-90.909523
 11
53.921814
 21
-90.909523
  0
LINE
  8
0
 62
     4
 10
49.421814
 20
-89.409523
 11
49.421814
 21
-95.159523
  0
LINE
  8
0
 62
     4
 10
50.171764
 20
-95.909492
 11
49.421799
 21
-95.159531
  0
LINE
  8
0
 62
     4
 10
50.171814
 20
-96.759521
 11
50.171814
 21
-95.909523
  0
LINE
  8
0
 62
     4
 10
49.621777
 20
-97.309456
 11
50.171787
 21
-96.759445
  0
LINE
  8
0
 62
     4
 10
49.621796
 20
-97.309525
 11
49.621796
 21
-98.859520
  0
LINE
  8
0
 62
     4
 10
53.721802
 20
-97.309525
 11
53.721802
 21
-98.859520
  0
LINE
  8
0
 62
     4
 10
53.721794
 20
-97.309555
 11
53.171791
 21
-96.759552
  0
LINE
  8
0
 62
     4
 10
53.171814
 20
-96.759521
 11
53.171814
 21
-95.909523
  0
LINE
  8
0
 62
     4
 10
53.171894
 20
-95.909630
 11
53.921890
 21
-95.159630
  0
LINE
  8
0
 62
     4
 10
53.921814
 20
-89.409523
 11
53.921814
 21
-95.159523
  0
LINE
  8
0
  6
CENTER
 62
     1
 10
51.671814
 20
-83.748566
 11
51.671814
 21
-102.376190
  0
LINE
  8
0
 62
     4
 10
50.171814
 20
-96.309525
 11
53.171814
 21
-96.309525
  0
LINE
  8
0
 62
     4
 10
49.621796
 20
-98.109520
 11
53.721802
 21
-98.109520
  0
LINE
  8
0
 62
     4
 10
49.621796
 20
-98.911972
 11
53.721802
 21
-98.911972
  0
LINE
  8
0
 62
     4
 10
49.421814
 20
-89.409523
 11
53.921814
 21
-89.409523
  0
LINE
  8
0
 62
     1
 10
49.506836
 20
-87.654343
 11
53.836964
 21
-85.154350
  0
LINE
  8
0
 62
     4
 10
50.646790
 20
-100.309525
 11
52.696808
 21
-100.309525
  0
LINE
  8
0
 62
     4
 10
52.697315
 20
-100.310051
 11
52.922310
 21
-100.085052
  0
LINE
  8
0
 62
     4
 10
50.646858
 20
-100.309448
 11
50.421852
 21
-100.084442
  0
LINE
  8
0
 62
     4
 10
50.421814
 20
-98.911972
 11
50.421814
 21
-100.084526
  0
LINE
  8
0
 62
     1
 10
50.646790
 20
-98.911972
 11
50.646790
 21
-100.309525
  0
LINE
  8
0
 62
     1
 10
52.696808
 20
-98.911972
 11
52.696808
 21
-100.309525
  0
LINE
  8
0
 62
     4
 10
52.921814
 20
-98.911972
 11
52.921814
 21
-100.084518
  0
LINE
  8
0
 62
     4
 10
50.421814
 20
-100.084526
 11
52.921814
 21
-100.084526
  0
LINE
  8
0
 62
     4
 10
50.421814
 20
-95.809525
 11
50.421814
 21
-96.309525
  0
LINE
  8
0
 62
     1
 10
50.646790
 20
-95.809525
 11
50.646790
 21
-96.309525
  0
LINE
  8
0
 62
     1
 10
52.696808
 20
-95.809525
 11
52.696808
 21
-96.309525
  0
LINE
  8
0
 62
     4
 10
52.921814
 20
-95.809525
 11
52.921814
 21
-96.309525
  0
LINE
  8
0
 62
     4
 10
50.421814
 20
-95.809525
 11
52.921814
 21
-95.809525
  0
LINE
  8
0
 62
     4
 10
50.371826
 20
-87.154800
 11
50.371826
 21
-89.409523
  0
LINE
  8
0
  6
CENTER
 62
     1
 10
93.385345
 20
-48.709511
 11
118.294525
 21
-48.709511
  0
LINE
  8
0
 62
     4
 10
94.714539
 20
-50.209511
 11
111.275146
 21
-50.209511
  0
LINE
  8
0
 62
     4
 10
94.714539
 20
-47.209511
 11
111.275146
 21
-47.209511
  0
LINE
  8
0
 62
     4
 10
94.714539
 20
-50.759506
 11
111.628510
 21
-50.759506
  0
LINE
  8
0
 62
     4
 10
94.714539
 20
-46.659508
 11
111.628510
 21
-46.659508
  0
LINE
  8
0
 62
     4
 10
94.714539
 20
-46.659500
 11
94.714539
 21
-50.759506
  0
LINE
  8
0
  6
CENTER
 62
     1
 10
96.714539
 20
-45.873001
 11
96.714539
 21
-51.462326
  0
LINE
  8
0
 62
     4
 10
111.800507
 20
-46.459511
 11
116.714539
 21
-46.459511
  0
LINE
  8
0
 62
     4
 10
111.800507
 20
-50.959511
 11
116.714539
 21
-50.959511
  0
LINE
  8
0
 62
     4
 10
116.714539
 20
-46.459503
 11
116.714539
 21
-50.959503
  0
LINE
  8
0
 62
     4
 10
96.068794
 20
-49.779846
 11
97.784897
 21
-48.063740
  0
LINE
  8
0
 62
     4
 10
95.644516
 20
-49.355518
 11
97.360611
 21
-47.639423
  0
LINE
  8
0
 10
-281.250000
 20
195.500000
 11
282.099976
 21
195.500000
  0
LINE
  8
0
 10
-281.250000
 20
195.500000
 11
-281.250000
 21
-195.000000
  0
LINE
  8
0
 10
282.099976
 20
195.500000
 11
282.099976
 21
-195.000000
  0
LINE
  8
0
 10
-281.250000
 20
-195.000000
 11
282.099976
 21
-195.000000
  0
LINE
  8
0
 10
162.099976
 20
-175.000000
 11
162.099976
 21
-195.000000
  0
LINE
  8
0
 10
162.099976
 20
-175.000000
 11
282.099976
 21
-175.000000
  0
LINE
  8
0
 10
162.099976
 20
175.500000
 11
282.099976
 21
175.500000
  0
LINE
  8
0
 10
-281.250000
 20
175.500000
 11
-161.250000
 21
175.500000
  0
LINE
  8
0
 10
162.099976
 20
195.500000
 11
162.099976
 21
175.500000
  0
LINE
  8
0
 10
-161.250000
 20
195.500000
 11
-161.250000
 21
175.500000
  0
LINE
  8
0
 10
-271.250000
 20
-133.000000
 11
-271.250000
 21
-185.000000
  0
LINE
  8
0
 10
-271.250000
 20
-185.000000
 11
-6.250000
 21
-185.000000
  0
LINE
  8
0
 10
-271.250000
 20
-155.000015
 11
-6.250000
 21
-155.000015
  0
LINE
  8
0
 10
-271.250000
 20
-133.000000
 11
-6.250000
 21
-133.000000
  0
LINE
  8
0
 10
-226.250000
 20
-133.000000
 11
-226.250000
 21
-185.000000
  0
LINE
  8
0
 10
-204.250000
 20
-133.000000
 11
-204.250000
 21
-185.000000
  0
LINE
  8
0
 10
-182.250000
 20
-133.000000
 11
-182.250000
 21
-185.000000
  0
LINE
  8
0
 10
-160.250000
 20
-133.000000
 11
-160.250000
 21
-185.000000
  0
LINE
  8
0
 10
-138.250000
 20
-133.000000
 11
-138.250000
 21
-185.000000
  0
LINE
  8
0
 10
-116.250000
 20
-133.000000
 11
-116.250000
 21
-185.000000
  0
LINE
  8
0
 10
-94.250000
 20
-133.000000
 11
-94.250000
 21
-185.000000
  0
LINE
  8
0
 10
-6.250000
 20
-133.000000
 11
-6.250000
 21
-185.000000
  0
LINE
  8
0
 10
-271.250000
 20
-175.000015
 11
-6.250000
 21
-175.000015
  0
LINE
  8
0
 10
-271.250031
 20
-165.000000
 11
-6.250000
 21
-165.000000
  0
LINE
  8
0
 10
-271.250000
 20
-141.000000
 11
-234.517441
 21
-141.000000
  0
LINE
  8
0
 10
-234.517502
 20
-141.000046
 11
-226.250092
 21
-155.000061
  0
LINE
  8
0
 10
-72.250000
 20
-133.000000
 11
-72.250000
 21
-185.000000
  0
LINE
  8
0
 10
-50.250000
 20
-133.000000
 11
-50.250000
 21
-185.000000
  0
LINE
  8
0
 10
-28.250000
 20
-133.000000
 11
-28.250000
 21
-185.000000
  0
CIRCLE
  8
0
 10
47.000042
 20
89.999985
 40
4.500000
  0
ARC
  8
0
 10
27.000027
 20
122.999992
 40
4.499997
 50
128.943024
 51
51.056984
  0
CIRCLE
  8
0
 10
-12.999973
 20
89.999985
 40
4.500000
  0
CIRCLE
  8
0
 62
     2
 10
-51.999989
 20
117.999992
 40
2.500000
  0
CIRCLE
  8
0
 62
     2
 10
-51.999989
 20
61.999977
 40
2.500000
  0
CIRCLE
  8
0
 10
-12.999973
 20
89.999985
 40
2.250000
  0
CIRCLE
  8
0
 10
27.000027
 20
56.999977
 40
2.250000
  0
CIRCLE
  8
0
 10
47.000042
 20
89.999985
 40
2.250000
  0
CIRCLE
  8
0
 10
27.000027
 20
122.999992
 40
2.250000
  0
ARC
  8
0
 10
-30.453724
 20
86.535889
 40
2.453746
 50
331.927582
 51
28.072393
  0
ARC
  8
0
 10
-30.453724
 20
93.464081
 40
2.453746
 50
331.927582
 51
28.072393
  0
ARC
  8
0
 10
-37.381962
 20
89.999985
 40
9.381962
 50
345.750000
 51
14.249960
  0
ARC
  8
0
 10
-33.546238
 20
93.464081
 40
2.453748
 50
151.927612
 51
208.072388
  0
ARC
  8
0
 10
-26.618031
 20
89.999985
 40
9.381963
 50
165.749985
 51
194.249908
  0
ARC
  8
0
 10
-33.546238
 20
86.535889
 40
2.453748
 50
151.927612
 51
208.072388
  0
ARC
  8
0
 10
-28.026249
 20
93.464081
 40
2.453748
 50
151.927612
 51
208.072388
  0
ARC
  8
0
 10
-21.098011
 20
89.999985
 40
9.381963
 50
165.749985
 51
194.249908
  0
ARC
  8
0
 10
-28.026249
 20
86.535889
 40
2.453748
 50
151.927612
 51
208.072388
  0
ARC
  8
0
 10
27.000027
 20
56.999977
 40
4.500000
 50
308.942535
 51
231.057480
  0
CIRCLE
  8
0
 10
-51.999989
 20
117.999992
 40
2.100000
  0
CIRCLE
  8
0
 10
-51.999989
 20
61.999977
 40
2.100000
  0
CIRCLE
  8
0
 10
-143.000076
 20
107.000031
 40
4.500000
  0
CIRCLE
  8
0
 10
-143.000076
 20
73.000046
 40
5.000000
  0
CIRCLE
  8
0
 10
-143.000076
 20
73.000046
 40
4.500000
  0
CIRCLE
  8
0
 10
-143.000076
 20
107.000031
 40
5.500000
  0
CIRCLE
  8
0
 10
-143.000076
 20
73.000046
 40
5.500000
  0
CIRCLE
  8
0
 62
     2
 10
-143.000076
 20
123.000046
 40
2.000000
  0
CIRCLE
  8
0
 62
     2
 10
-143.000076
 20
57.000031
 40
2.000000
  0
CIRCLE
  8
0
 10
-143.000076
 20
107.000031
 40
5.000000
  0
CIRCLE
  8
0
 10
-143.000076
 20
123.000046
 40
1.650000
  0
CIRCLE
  8
0
 10
-143.000076
 20
57.000031
 40
1.650000
  0
ARC
  8
0
 10
156.383667
 20
118.200035
 40
2.099998
 50
90.000000
 51
270.000000
  0
ARC
  8
0
 10
131.600082
 20
118.200035
 40
2.099998
 50
270.000000
 51
90.000000
  0
ARC
  8
0
 10
144.000107
 20
123.883560
 40
2.100006
 50
180.000000
 51
0.000000
  0
CIRCLE
  8
0
 10
144.000107
 20
107.000038
 40
14.000001
  0
CIRCLE
  8
0
 10
144.000107
 20
73.000053
 40
14.000001
  0
ARC
  8
0
 10
131.600082
 20
95.700027
 40
2.099998
 50
270.000000
 51
90.000000
  0
ARC
  8
0
 10
156.383667
 20
95.700027
 40
2.099998
 50
90.000000
 51
270.000000
  0
CIRCLE
  8
0
 62
     2
 10
53.999973
 20
6.499996
 40
2.500000
  0
ARC
  8
0
 10
-35.072582
 20
1.499996
 40
7.072559
 50
343.573608
 51
351.871674
  0
CIRCLE
  8
0
 62
     2
 10
19.999973
 20
6.499996
 40
2.500000
  0
ARC
  8
0
 10
-35.072582
 20
-2.499973
 40
7.072560
 50
343.573639
 51
16.426317
  0
ARC
  8
0
 10
-28.927471
 20
-2.499973
 40
7.072560
 50
163.573639
 51
196.426300
  0
ARC
  8
0
 10
-23.407467
 20
-2.499973
 40
7.072560
 50
163.573639
 51
196.426300
  0
ARC
  8
0
 10
-28.927471
 20
1.499996
 40
7.072559
 50
188.128342
 51
196.426315
  0
ARC
  8
0
 10
-23.407467
 20
1.499996
 40
7.072559
 50
188.128342
 51
196.426315
  0
CIRCLE
  8
0
 10
19.999973
 20
6.499996
 40
2.100000
  0
CIRCLE
  8
0
 10
53.999973
 20
6.499996
 40
2.100000
  0
ARC
  8
0
 62
     4
 10
-107.639130
 20
-98.859520
 40
2.050003
 50
180.000000
 51
270.000000
  0
ARC
  8
0
 62
     4
 10
-107.639130
 20
-98.859520
 40
2.050003
 50
270.000000
 51
0.000000
  0
CIRCLE
  8
0
 62
     4
 10
-61.096390
 20
-53.759521
 40
1.250000
  0
CIRCLE
  8
0
 62
     4
 10
-61.096390
 20
-53.759521
 40
1.400000
  0
ARC
  8
0
 62
     4
 10
51.671814
 20
-98.859520
 40
2.049999
 50
180.000000
 51
270.000000
  0
ARC
  8
0
 62
     4
 10
51.671814
 20
-98.859520
 40
2.050003
 50
271.259888
 51
0.000000
  0
CIRCLE
  8
0
 62
     4
 10
114.443695
 20
-49.050514
 40
0.250000
  0
CIRCLE
  8
0
 62
     4
 10
113.831818
 20
-48.391357
 40
0.450000
  0
CIRCLE
  8
0
 62
     4
 10
113.831818
 20
-48.391357
 40
0.250000
  0
ARC
  8
0
 62
     4
 10
114.214539
 20
-48.709511
 40
3.300002
 50
137.014145
 51
222.985855
  0
CIRCLE
  8
0
 62
     4
 10
96.714539
 20
-48.709511
 40
1.250000
  0
CIRCLE
  8
0
 62
     4
 10
96.714539
 20
-48.709511
 40
1.400000
  0
CIRCLE
  8
0
 62
     4
 10
114.121887
 20
-48.709511
 40
1.300000
  0
CIRCLE
  8
0
 62
     4
 10
114.443695
 20
-49.050514
 40
0.450000
  0
TEXT
  8
0
 10
196.250259
 20
180.830002
 40
6.300000
  1
Ver. 1.0
 50
0.000000
 41
1.052632
 51
0.000000
  7
STANDARD
  0
TEXT
  8
0
 10
167.564667
 20
-192.100006
 40
9.000000
  1
KOGANEI CORP.
 50
0.000000
 41
1.052632
 51
0.000000
  7
STANDARD
  0
TEXT
  8
0
 10
-275.449738
 20
180.830002
 40
6.300000
  1
TWIN ROD CYLINDER
 50
0.000000
 41
1.052632
 51
0.000000
  7
STANDARD
  0
TEXT
  8
0
 10
-258.127045
 20
-154.550003
 40
4.500000
  1
PLACE
 50
0.000000
 41
1.052632
 51
0.000000
  7
STANDARD
  0
TEXT
  8
0
 10
-220.142654
 20
-147.050003
 40
4.500000
  1
10
 50
0.000000
 41
1.052632
 51
0.000000
  7
STANDARD
  0
TEXT
  8
0
 10
-212.642654
 20
-131.050003
 40
4.500000
  1
STRETCH LIST
 50
0.000000
 41
1.052632
 51
0.000000
  7
STANDARD
  0
TEXT
  8
0
 10
-270.049713
 20
155.830002
 40
6.300000
  1
MODEL:ATBDA25*ST(10)
 50
0.000000
 41
1.052632
 51
0.000000
  7
STANDARD
  0
TEXT
  8
0
 10
-26.642656
 20
-132.050003
 40
4.500000
  1
(mm)
 50
0.000000
 41
1.052632
 51
0.000000
  7
STANDARD
  0
TEXT
  8
0
 10
-267.127045
 20
-140.050003
 40
4.500000
  1
STROKE
 50
0.000000
 41
1.052632
 51
0.000000
  7
STANDARD
  0
TEXT
  8
0
 10
-267.127045
 20
-148.550003
 40
4.500000
  1
STRETCH
 50
0.000000
 41
1.052632
 51
0.000000
  7
STANDARD
  0
TEXT
  8
0
 10
-251.585724
 20
-163.320007
 40
4.800000
  1
A
 50
0.000000
 41
1.052632
 51
0.000000
  7
STANDARD
  0
TEXT
  8
0
 10
-251.585724
 20
-173.320007
 40
4.800000
  1
B
 50
0.000000
 41
1.052632
 51
0.000000
  7
STANDARD
  0
TEXT
  8
0
 10
-251.585724
 20
-183.320007
 40
4.800000
  1
C
 50
0.000000
 41
1.052632
 51
0.000000
  7
STANDARD
  0
TEXT
  8
0
 10
-198.142853
 20
-147.050003
 40
4.500000
  1
20
 50
0.000000
 41
1.052632
 51
0.000000
  7
STANDARD
  0
TEXT
  8
0
 10
-176.142853
 20
-147.050003
 40
4.500000
  1
30
 50
0.000000
 41
1.052632
 51
0.000000
  7
STANDARD
  0
TEXT
  8
0
 10
-154.142853
 20
-147.050003
 40
4.500000
  1
40
 50
0.000000
 41
1.052632
 51
0.000000
  7
STANDARD
  0
TEXT
  8
0
 10
-132.142853
 20
-147.050003
 40
4.500000
  1
50
 50
0.000000
 41
1.052632
 51
0.000000
  7
STANDARD
  0
TEXT
  8
0
 10
-110.142853
 20
-147.050003
 40
4.500000
  1
60
 50
0.000000
 41
1.052632
 51
0.000000
  7
STANDARD
  0
TEXT
  8
0
 10
-24.392857
 20
-147.050003
 40
4.500000
  1
100
 50
0.000000
 41
1.052632
 51
0.000000
  7
STANDARD
  0
TEXT
  8
0
 10
-22.142857
 20
-183.049973
 40
4.500000
  1
90
 50
0.000000
 41
1.052632
 51
0.000000
  7
STANDARD
  0
TEXT
  8
0
 10
-217.892853
 20
-163.050003
 40
4.500000
  1
0
 50
0.000000
 41
1.052632
 51
0.000000
  7
STANDARD
  0
TEXT
  8
0
 10
-217.892853
 20
-173.049988
 40
4.500000
  1
0
 50
0.000000
 41
1.052632
 51
0.000000
  7
STANDARD
  0
TEXT
  8
0
 10
-217.892853
 20
-183.049973
 40
4.500000
  1
0
 50
0.000000
 41
1.052632
 51
0.000000
  7
STANDARD
  0
TEXT
  8
0
 10
-198.142853
 20
-183.049973
 40
4.500000
  1
10
 50
0.000000
 41
1.052632
 51
0.000000
  7
STANDARD
  0
TEXT
  8
0
 10
-176.142853
 20
-183.049973
 40
4.500000
  1
20
 50
0.000000
 41
1.052632
 51
0.000000
  7
STANDARD
  0
TEXT
  8
0
 10
-154.142853
 20
-183.049973
 40
4.500000
  1
30
 50
0.000000
 41
1.052632
 51
0.000000
  7
STANDARD
  0
TEXT
  8
0
 10
-132.142853
 20
-183.049973
 40
4.500000
  1
40
 50
0.000000
 41
1.052632
 51
0.000000
  7
STANDARD
  0
TEXT
  8
0
 10
-110.142853
 20
-183.049973
 40
4.500000
  1
50
 50
0.000000
 41
1.052632
 51
0.000000
  7
STANDARD
  0
TEXT
  8
0
 62
     3
 10
-51.862728
 20
156.753006
 40
4.500000
  1
STRETCH LINE C
 50
0.000000
 41
1.052632
 51
0.000000
  7
STANDARD
  0
TEXT
  8
0
 62
     3
 10
3.637272
 20
146.753006
 40
4.500000
  1
STRETCH LINE A
 50
0.000000
 41
1.052632
 51
0.000000
  7
STANDARD
  0
TEXT
  8
0
 62
     3
 10
25.637272
 20
136.753006
 40
4.500000
  1
STRETCH LINE B
 50
0.000000
 41
1.052632
 51
0.000000
  7
STANDARD
  0
TEXT
  8
0
 10
-88.142853
 20
-183.049973
 40
4.500000
  1
60
 50
0.000000
 41
1.052632
 51
0.000000
  7
STANDARD
  0
TEXT
  8
0
 10
-88.142853
 20
-147.050003
 40
4.500000
  1
70
 50
0.000000
 41
1.052632
 51
0.000000
  7
STANDARD
  0
TEXT
  8
0
 10
-66.142853
 20
-183.049973
 40
4.500000
  1
70
 50
0.000000
 41
1.052632
 51
0.000000
  7
STANDARD
  0
TEXT
  8
0
 10
-66.142853
 20
-147.050003
 40
4.500000
  1
80
 50
0.000000
 41
1.052632
 51
0.000000
  7
STANDARD
  0
TEXT
  8
0
 10
-44.142857
 20
-183.049973
 40
4.500000
  1
80
 50
0.000000
 41
1.052632
 51
0.000000
  7
STANDARD
  0
TEXT
  8
0
 10
-44.142857
 20
-147.050003
 40
4.500000
  1
90
 50
0.000000
 41
1.052632
 51
0.000000
  7
STANDARD
  0
TEXT
  8
0
 10
-195.892853
 20
-163.050003
 40
4.500000
  1
0
 50
0.000000
 41
1.052632
 51
0.000000
  7
STANDARD
  0
TEXT
  8
0
 10
-198.142853
 20
-173.049988
 40
4.500000
  1
10
 50
0.000000
 41
1.052632
 51
0.000000
  7
STANDARD
  0
TEXT
  8
0
 10
-173.892853
 20
-163.050003
 40
4.500000
  1
0
 50
0.000000
 41
1.052632
 51
0.000000
  7
STANDARD
  0
TEXT
  8
0
 10
-176.142853
 20
-173.049988
 40
4.500000
  1
20
 50
0.000000
 41
1.052632
 51
0.000000
  7
STANDARD
  0
TEXT
  8
0
 10
-151.892853
 20
-163.050003
 40
4.500000
  1
5
 50
0.000000
 41
1.052632
 51
0.000000
  7
STANDARD
  0
TEXT
  8
0
 10
-154.142853
 20
-173.049988
 40
4.500000
  1
25
 50
0.000000
 41
1.052632
 51
0.000000
  7
STANDARD
  0
TEXT
  8
0
 10
-132.142853
 20
-163.050003
 40
4.500000
  1
10
 50
0.000000
 41
1.052632
 51
0.000000
  7
STANDARD
  0
TEXT
  8
0
 10
-132.142853
 20
-173.049988
 40
4.500000
  1
30
 50
0.000000
 41
1.052632
 51
0.000000
  7
STANDARD
  0
TEXT
  8
0
 10
-110.142853
 20
-163.050003
 40
4.500000
  1
15
 50
0.000000
 41
1.052632
 51
0.000000
  7
STANDARD
  0
TEXT
  8
0
 10
-88.142853
 20
-163.050003
 40
4.500000
  1
20
 50
0.000000
 41
1.052632
 51
0.000000
  7
STANDARD
  0
TEXT
  8
0
 10
-66.142853
 20
-163.050003
 40
4.500000
  1
25
 50
0.000000
 41
1.052632
 51
0.000000
  7
STANDARD
  0
TEXT
  8
0
 10
-44.142857
 20
-163.050003
 40
4.500000
  1
30
 50
0.000000
 41
1.052632
 51
0.000000
  7
STANDARD
  0
TEXT
  8
0
 10
-22.142857
 20
-163.050003
 40
4.500000
  1
35
 50
0.000000
 41
1.052632
 51
0.000000
  7
STANDARD
  0
TEXT
  8
0
 10
-110.142853
 20
-173.049988
 40
4.500000
  1
35
 50
0.000000
 41
1.052632
 51
0.000000
  7
STANDARD
  0
TEXT
  8
0
 10
-88.142853
 20
-173.049988
 40
4.500000
  1
40
 50
0.000000
 41
1.052632
 51
0.000000
  7
STANDARD
  0
TEXT
  8
0
 10
-66.142853
 20
-173.049988
 40
4.500000
  1
45
 50
0.000000
 41
1.052632
 51
0.000000
  7
STANDARD
  0
TEXT
  8
0
 10
-44.142857
 20
-173.049988
 40
4.500000
  1
50
 50
0.000000
 41
1.052632
 51
0.000000
  7
STANDARD
  0
TEXT
  8
0
 10
-22.142857
 20
-173.049988
 40
4.500000
  1
55
 50
0.000000
 41
1.052632
 51
0.000000
  7
STANDARD
  0
ENDSEC
  0
EOF
