  0
SECTION
  2
HEADER
  0
ENDSEC
  0
SECTION
  2
TABLES
  0
TABLE
  2
LTYPE
 70
     4
  0
LTYPE
  2
CONTINUOUS
 70
    64
  3
Solid line
 72
    65
 73
     0
 40
0.000000
  0
LTYPE
  2
DASHED
 70
    64
  3
__ __ __ __ __ __ __ __ __ __ __ __ __ __ __
 72
    65
 73
     2
 40
3.500000
 49
2.000000
 49
-1.500000
  0
LTYPE
  2
CENTER
 70
    64
  3
____ _ ____ _ ____ _ ____ _ ____ _ ____ _ ____
 72
    65
 73
     4
 40
17.500000
 49
13.000000
 49
-1.500000
 49
1.500000
 49
-1.500000
  0
LTYPE
  2
PHANTOM
 70
    64
  3
_____ _ _ _____ _ _ _____ _ _ _____ _ _ ____  
 72
    65
 73
     6
 40
15.500000
 49
8.000000
 49
-1.500000
 49
1.500000
 49
-1.500000
 49
1.500000
 49
-1.500000
  0
LTYPE
  2
DASHED1
 70
    64
  3
__ __ __ __ __ __ __ __ __ __ __ __ __ __ __
 72
    65
 73
     2
 40
1.500000
 49
1.000000
 49
-0.500000
  0
LTYPE
  2
DASHED2
 70
    64
  3
__ __ __ __ __ __ __ __ __ __ __ __ __ __ __
 72
    65
 73
     2
 40
3.500000
 49
2.500000
 49
-1.000000
  0
LTYPE
  2
DASHED3
 70
    64
  3
__ __ __ __ __ __ __ __ __ __ __ __ __ __ __
 72
    65
 73
     2
 40
6.000000
 49
4.000000
 49
-2.000000
  0
LTYPE
  2
DASHED4
 70
    64
  3
__ __ __ __ __ __ __ __ __ __ __ __ __ __ __
 72
    65
 73
     2
 40
12.000000
 49
10.000000
 49
-2.000000
  0
LTYPE
  2
DASHED5
 70
    64
  3
__ __ __ __ __ __ __ __ __ __ __ __ __ __ __
 72
    65
 73
     2
 40
17.000000
 49
15.000000
 49
-2.000000
  0
LTYPE
  2
DASHED6
 70
    64
  3
__ __ __ __ __ __ __ __ __ __ __ __ __ __ __
 72
    65
 73
     2
 40
29.000000
 49
27.000000
 49
-2.000000
  0
LTYPE
  2
PHANTOM1
 70
    64
  3
_____ _ _ _____ _ _ _____ _ _ _____ _ _ ____  
 72
    65
 73
     6
 40
31.000000
 49
25.000000
 49
-1.500000
 49
1.000000
 49
-1.000000
 49
1.000000
 49
-1.500000
  0
LTYPE
  2
PHANTOM2
 70
    64
  3
_____ _ _ _____ _ _ _____ _ _ _____ _ _ ____  
 72
    65
 73
     6
 40
36.000000
 49
27.000000
 49
-1.500000
 49
2.500000
 49
-1.000000
 49
2.500000
 49
-1.500000
  0
LTYPE
  2
PHANTOM3
 70
    64
  3
_____ _ _ _____ _ _ _____ _ _ _____ _ _ ____  
 72
    65
 73
     6
 40
78.000000
 49
64.000000
 49
-2.000000
 49
4.000000
 49
-2.000000
 49
4.000000
 49
-2.000000
  0
LTYPE
  2
CENTER1
 70
    64
  3
____ _ ____ _ ____ _ ____ _ ____ _ ____ _ ____
 72
    65
 73
     4
 40
19.000000
 49
14.000000
 49
-1.000000
 49
3.000000
 49
-1.000000
  0
LTYPE
  2
CENTER2
 70
    64
  3
____ _ ____ _ ____ _ ____ _ ____ _ ____ _ ____
 72
    65
 73
     4
 40
28.500000
 49
25.000000
 49
-1.000000
 49
1.500000
 49
-1.000000
  0
LTYPE
  2
CENTER3
 70
    64
  3
____ _ ____ _ ____ _ ____ _ ____ _ ____ _ ____
 72
    65
 73
     4
 40
31.500000
 49
27.000000
 49
-1.000000
 49
2.500000
 49
-1.000000
  0
LTYPE
  2
CENTER4
 70
    64
  3
____ _ ____ _ ____ _ ____ _ ____ _ ____ _ ____
 72
    65
 73
     4
 40
50.000000
 49
45.000000
 49
-1.000000
 49
3.000000
 49
-1.000000
  0
LTYPE
  2
CENTER5
 70
    64
  3
____ _ ____ _ ____ _ ____ _ ____ _ ____ _ ____
 72
    65
 73
     4
 40
100.000000
 49
92.000000
 49
-2.000000
 49
4.000000
 49
-2.000000
  0
LTYPE
  2
SBK1
 70
    64
  3
______ _ _ _ ______ _ _ _ ______ _ _ _ _____  
 72
    65
 73
     8
 40
60.500000
 49
45.000000
 49
-2.000000
 49
2.500000
 49
-2.000000
 49
2.500000
 49
-2.000000
 49
2.500000
 49
-2.000000
  0
LTYPE
  2
SBK2
 70
    64
  3
______ _ _ _ ______ _ _ _ ______ _ _ _ _____  
 72
    65
 73
     8
 40
84.000000
 49
64.000000
 49
-2.000000
 49
4.000000
 49
-2.000000
 49
4.000000
 49
-2.000000
 49
4.000000
 49
-2.000000
  0
LTYPE
  2
STCH
 70
    64
  3
__ __ __ __ __ __ __ __ __ __ __ __ __ __ __
 72
    65
 73
     2
 40
3.000000
 49
1.000000
 49
-2.000000
  0
LTYPE
  2
MTCH
 70
    64
  3
_____ _ _ _____ _ _ _____ _ _ _____ _ _ ____  
 72
    65
 73
     6
 40
80.000000
 49
66.000000
 49
-2.000000
 49
4.000000
 49
-2.000000
 49
4.000000
 49
-2.000000
  0
ENDTAB
  0
TABLE
  2
LAYER
 70
     1
  0
LAYER
  2
0
 70
     0
 62
     7
  6
CONTINUOUS
  0
ENDTAB
  0
TABLE
  2
STYLE
 70
     1
  0
STYLE
  2
STANDARD
 70
     0
 40
0.000000
 41
1.000000
 50
0.000000
 71
     0
 42
0.200000
  3
txt
  4
BIGFONT
  0
ENDTAB
  0
TABLE
  2
VIEW
 70
     0
  0
ENDTAB
  0
ENDSEC
  0
SECTION
  2
BLOCKS
  0
ENDSEC
  0
SECTION
  2
ENTITIES
  0
LINE
  8
0
  6
PHANTOM
 62
     3
 10
-36.500000
 20
147.000000
 11
-36.500000
 21
43.750000
  0
LINE
  8
0
  6
PHANTOM
 62
     3
 10
39.500000
 20
127.000000
 11
39.500000
 21
43.750000
  0
LINE
  8
0
  6
PHANTOM
 62
     3
 10
24.500002
 20
137.000000
 11
24.500002
 21
43.750000
  0
LINE
  8
0
 10
-27.499952
 20
62.999989
 11
86.500053
 21
62.999989
  0
LINE
  8
0
 10
-27.999975
 20
116.499985
 11
-27.999975
 21
63.499977
  0
LINE
  8
0
 10
-44.999977
 20
116.499985
 11
-44.999977
 21
63.499977
  0
LINE
  8
0
 10
-52.999977
 20
116.499985
 11
-52.999977
 21
63.499977
  0
LINE
  8
0
 10
-27.499952
 20
116.999985
 11
86.499947
 21
116.999985
  0
LINE
  8
0
 10
-52.999969
 20
116.499985
 11
-44.999962
 21
116.499985
  0
LINE
  8
0
 10
-52.999969
 20
63.499973
 11
-44.999962
 21
63.499973
  0
LINE
  8
0
 10
-27.999943
 20
63.499950
 11
-27.499943
 21
62.999947
  0
LINE
  8
0
 10
-27.999950
 20
116.499954
 11
-27.499960
 21
116.999939
  0
LINE
  8
0
 10
-44.999962
 20
105.999969
 11
-27.999968
 21
105.999969
  0
LINE
  8
0
 10
-44.999962
 20
97.999985
 11
-27.999968
 21
97.999985
  0
LINE
  8
0
 10
-44.999962
 20
81.999992
 11
-27.999968
 21
81.999992
  0
LINE
  8
0
 10
-44.999962
 20
73.999985
 11
-27.999968
 21
73.999985
  0
LINE
  8
0
  6
CENTER
 62
     2
 10
-55.833282
 20
101.999985
 11
-25.467070
 21
101.999985
  0
LINE
  8
0
  6
CENTER
 62
     2
 10
-55.499969
 20
89.999977
 11
105.584999
 21
89.999977
  0
LINE
  8
0
  6
CENTER
 62
     2
 10
-55.499969
 20
77.999985
 11
-26.008604
 21
77.999985
  0
LINE
  8
0
  6
CENTER
 62
     2
 10
27.000036
 20
66.499985
 11
37.000038
 21
66.499985
  0
LINE
  8
0
  6
CENTER
 62
     2
 10
27.000036
 20
113.499969
 11
37.000038
 21
113.499969
  0
LINE
  8
0
  6
CENTER
 62
     2
 10
-12.999975
 20
94.999985
 11
-12.999975
 21
84.999985
  0
LINE
  8
0
  6
CENTER
 62
     2
 10
32.000038
 20
118.499985
 11
32.000038
 21
108.499985
  0
LINE
  8
0
  6
CENTER
 62
     2
 10
72.000038
 20
94.999985
 11
72.000038
 21
84.999985
  0
LINE
  8
0
  6
CENTER
 62
     2
 10
-48.999977
 20
75.999977
 11
-48.999977
 21
69.999985
  0
LINE
  8
0
  6
CENTER
 62
     2
 10
-48.999977
 20
109.999985
 11
-48.999977
 21
103.999985
  0
LINE
  8
0
  6
CENTER
 62
     2
 10
-51.999969
 20
72.999985
 11
-45.999977
 21
72.999985
  0
LINE
  8
0
  6
CENTER
 62
     2
 10
-51.999969
 20
106.999985
 11
-45.999977
 21
106.999985
  0
LINE
  8
0
 10
-30.399984
 20
93.499977
 11
-30.399984
 21
86.499985
  0
LINE
  8
0
 10
-33.999977
 20
93.499977
 11
-33.999977
 21
86.499985
  0
LINE
  8
0
 10
-33.687355
 20
94.041420
 11
-31.199972
 21
94.041420
  0
LINE
  8
0
 10
-33.687355
 20
92.020699
 11
-31.199972
 21
92.020699
  0
LINE
  8
0
 10
-33.687355
 20
87.979233
 11
-31.199972
 21
87.979233
  0
LINE
  8
0
 10
-33.687355
 20
85.958511
 11
-31.199972
 21
85.958511
  0
LINE
  8
0
 10
-31.199972
 20
94.041428
 11
-31.199972
 21
85.958519
  0
LINE
  8
0
 10
-30.399960
 20
93.499947
 11
-30.087349
 21
94.041405
  0
LINE
  8
0
 10
-30.399977
 20
86.499916
 11
-30.087366
 21
85.958458
  0
LINE
  8
0
 10
-33.999992
 20
93.499954
 11
-33.687382
 21
94.041412
  0
LINE
  8
0
 10
-33.999992
 20
86.499939
 11
-33.687370
 21
85.958466
  0
LINE
  8
0
 10
-27.999998
 20
93.499947
 11
-28.312609
 21
94.041405
  0
LINE
  8
0
 10
-27.999971
 20
86.499931
 11
-28.312580
 21
85.958473
  0
LINE
  8
0
 10
-30.087370
 20
94.041420
 11
-28.312597
 21
94.041420
  0
LINE
  8
0
 10
-30.087370
 20
85.958511
 11
-28.312574
 21
85.958511
  0
LINE
  8
0
 10
-30.087370
 20
87.979233
 11
-28.312574
 21
87.979233
  0
LINE
  8
0
 10
-30.087370
 20
92.020699
 11
-28.312574
 21
92.020699
  0
LINE
  8
0
 10
-31.199972
 20
91.999992
 11
-30.399977
 21
91.999992
  0
LINE
  8
0
 10
-31.199972
 20
87.999985
 11
-30.399977
 21
87.999985
  0
LINE
  8
0
 62
     2
 10
-31.199972
 20
91.729477
 11
-30.399977
 21
91.729477
  0
LINE
  8
0
 62
     2
 10
-31.199972
 20
88.270477
 11
-30.399977
 21
88.270477
  0
LINE
  8
0
 10
-42.999977
 20
104.527832
 11
-42.999977
 21
99.472137
  0
LINE
  8
0
 10
-44.999962
 20
75.472130
 11
-42.999969
 21
75.472130
  0
LINE
  8
0
 10
-44.999962
 20
80.527824
 11
-42.999969
 21
80.527824
  0
LINE
  8
0
 10
-44.999962
 20
104.527802
 11
-42.999969
 21
104.527802
  0
LINE
  8
0
 10
-44.999962
 20
99.472107
 11
-42.999969
 21
99.472107
  0
LINE
  8
0
 10
-42.999977
 20
80.527832
 11
-42.999977
 21
75.472137
  0
LINE
  8
0
 62
     2
 10
-42.999973
 20
80.527840
 11
-44.999973
 21
75.472137
  0
LINE
  8
0
 62
     2
 10
-42.999977
 20
75.472130
 11
-44.999977
 21
80.527824
  0
LINE
  8
0
 62
     2
 10
-44.999989
 20
104.527824
 11
-42.999989
 21
99.472122
  0
LINE
  8
0
 62
     2
 10
-42.999973
 20
104.527824
 11
-44.999973
 21
99.472115
  0
LINE
  8
0
 10
-44.999962
 20
92.749985
 11
-43.999962
 21
92.749985
  0
LINE
  8
0
 10
-44.999962
 20
87.249969
 11
-43.999962
 21
87.249969
  0
LINE
  8
0
 10
-43.999977
 20
92.749985
 11
-43.999977
 21
87.249977
  0
LINE
  8
0
 10
-27.999968
 20
94.399979
 11
87.000038
 21
94.399979
  0
LINE
  8
0
 10
-27.999968
 20
91.199974
 11
-16.815733
 21
91.199974
  0
LINE
  8
0
 10
-27.999968
 20
109.699966
 11
30.751062
 21
109.699966
  0
LINE
  8
0
 10
-27.999968
 20
112.899979
 11
28.045286
 21
112.899979
  0
LINE
  8
0
 10
-9.184221
 20
91.199974
 11
68.184273
 21
91.199974
  0
LINE
  8
0
 10
35.954788
 20
112.899979
 11
87.000038
 21
112.899979
  0
LINE
  8
0
 10
75.815804
 20
91.199974
 11
87.000038
 21
91.199974
  0
LINE
  8
0
 10
33.249016
 20
109.699966
 11
87.000038
 21
109.699966
  0
LINE
  8
0
 10
94.000023
 20
116.499969
 11
94.000023
 21
63.499977
  0
LINE
  8
0
 10
102.000023
 20
116.499969
 11
102.000023
 21
63.499977
  0
LINE
  8
0
 10
102.000038
 20
116.499985
 11
94.000031
 21
116.499985
  0
LINE
  8
0
 10
102.000038
 20
63.499973
 11
94.000031
 21
63.499973
  0
LINE
  8
0
 10
87.000038
 20
63.499977
 11
86.500031
 21
62.999966
  0
LINE
  8
0
 10
87.000008
 20
116.499939
 11
86.500008
 21
116.999931
  0
LINE
  8
0
 10
94.000031
 20
105.999969
 11
87.000038
 21
105.999969
  0
LINE
  8
0
 10
94.000031
 20
97.999969
 11
87.000038
 21
97.999969
  0
LINE
  8
0
 10
94.000031
 20
81.999969
 11
87.000038
 21
81.999969
  0
LINE
  8
0
 10
94.000031
 20
73.999985
 11
87.000038
 21
73.999985
  0
LINE
  8
0
  6
CENTER
 62
     2
 10
104.833366
 20
101.999969
 11
82.869987
 21
101.999969
  0
LINE
  8
0
  6
CENTER
 62
     2
 10
104.500038
 20
77.999969
 11
83.231331
 21
77.999969
  0
LINE
  8
0
  6
CENTER
 62
     2
 10
98.000031
 20
75.999977
 11
98.000031
 21
69.999985
  0
LINE
  8
0
  6
CENTER
 62
     2
 10
98.000031
 20
109.999985
 11
98.000031
 21
103.999969
  0
LINE
  8
0
  6
CENTER
 62
     2
 10
101.000038
 20
72.999969
 11
95.000023
 21
72.999969
  0
LINE
  8
0
  6
CENTER
 62
     2
 10
101.000038
 20
106.999969
 11
95.000023
 21
106.999969
  0
LINE
  8
0
 10
89.400002
 20
93.499977
 11
89.400002
 21
86.499985
  0
LINE
  8
0
 10
93.000031
 20
93.499977
 11
93.000031
 21
86.499985
  0
LINE
  8
0
 10
92.687424
 20
94.041420
 11
90.200020
 21
94.041420
  0
LINE
  8
0
 10
92.687424
 20
92.020699
 11
90.200020
 21
92.020699
  0
LINE
  8
0
 10
92.687424
 20
87.979256
 11
90.200020
 21
87.979256
  0
LINE
  8
0
 10
92.687424
 20
85.958534
 11
90.200020
 21
85.958534
  0
LINE
  8
0
 10
90.200020
 20
94.041428
 11
90.200020
 21
85.958519
  0
LINE
  8
0
 10
89.399940
 20
93.499870
 11
89.087334
 21
94.041321
  0
LINE
  8
0
 10
89.400063
 20
86.499947
 11
89.087456
 21
85.958481
  0
LINE
  8
0
 10
92.999924
 20
93.499886
 11
92.687317
 21
94.041344
  0
LINE
  8
0
 10
93.000061
 20
86.499924
 11
92.687462
 21
85.958473
  0
LINE
  8
0
 10
87.000015
 20
93.499954
 11
87.312607
 21
94.041389
  0
LINE
  8
0
 10
86.999939
 20
86.499893
 11
87.312538
 21
85.958458
  0
LINE
  8
0
 10
89.087418
 20
94.041420
 11
87.312645
 21
94.041420
  0
LINE
  8
0
 10
89.087418
 20
85.958534
 11
87.312645
 21
85.958534
  0
LINE
  8
0
 10
89.087418
 20
87.979256
 11
87.312645
 21
87.979256
  0
LINE
  8
0
 10
89.087418
 20
92.020699
 11
87.312645
 21
92.020699
  0
LINE
  8
0
 10
90.200020
 20
91.999969
 11
89.400032
 21
91.999969
  0
LINE
  8
0
 10
90.200020
 20
87.999969
 11
89.400032
 21
87.999969
  0
LINE
  8
0
 62
     2
 10
90.200020
 20
91.729477
 11
89.400032
 21
91.729477
  0
LINE
  8
0
 62
     2
 10
90.200020
 20
88.270477
 11
89.400032
 21
88.270477
  0
LINE
  8
0
 10
92.000015
 20
104.527832
 11
92.000015
 21
99.472137
  0
LINE
  8
0
 10
94.000031
 20
75.472130
 11
92.000038
 21
75.472130
  0
LINE
  8
0
 10
94.000031
 20
80.527824
 11
92.000038
 21
80.527824
  0
LINE
  8
0
 10
94.000031
 20
104.527832
 11
92.000038
 21
104.527832
  0
LINE
  8
0
 10
94.000031
 20
99.472137
 11
92.000038
 21
99.472137
  0
LINE
  8
0
 10
92.000015
 20
80.527832
 11
92.000015
 21
75.472137
  0
LINE
  8
0
 62
     2
 10
91.999924
 20
80.527756
 11
93.999916
 21
75.472061
  0
LINE
  8
0
 62
     2
 10
92.000076
 20
75.472107
 11
94.000069
 21
80.527794
  0
LINE
  8
0
 62
     2
 10
93.999954
 20
104.527855
 11
91.999954
 21
99.472160
  0
LINE
  8
0
 62
     2
 10
91.999962
 20
104.527779
 11
93.999962
 21
99.472076
  0
LINE
  8
0
 10
94.000031
 20
92.749985
 11
93.000038
 21
92.749985
  0
LINE
  8
0
 10
94.000031
 20
87.249969
 11
93.000038
 21
87.249969
  0
LINE
  8
0
 10
87.000031
 20
116.499985
 11
87.000031
 21
63.499977
  0
LINE
  8
0
 10
86.499893
 20
116.999855
 11
86.999886
 21
116.499870
  0
LINE
  8
0
 10
87.000023
 20
63.499985
 11
86.500000
 21
62.999969
  0
LINE
  8
0
  6
CENTER
 62
     2
 10
32.000038
 20
71.499985
 11
32.000038
 21
61.499985
  0
LINE
  8
0
 10
-117.500061
 20
116.500023
 11
-117.500061
 21
63.500015
  0
LINE
  8
0
 10
-137.500061
 20
116.500023
 11
-137.500061
 21
63.500015
  0
LINE
  8
0
 10
-137.500046
 20
116.500023
 11
-117.500046
 21
116.500023
  0
LINE
  8
0
 10
-137.500046
 20
63.500011
 11
-117.500046
 21
63.500011
  0
LINE
  8
0
  6
CENTER
 62
     2
 10
-132.589279
 20
102.000023
 11
-122.701874
 21
102.000023
  0
LINE
  8
0
  6
CENTER
 62
     2
 10
-139.000046
 20
90.000015
 11
-115.333389
 21
90.000015
  0
LINE
  8
0
  6
CENTER
 62
     2
 10
-132.472275
 20
78.000023
 11
-122.643372
 21
78.000023
  0
LINE
  8
0
  6
CENTER
 62
     2
 10
-127.500061
 20
119.666710
 11
-127.500061
 21
59.333344
  0
LINE
  8
0
 10
-117.000061
 20
91.200020
 11
-117.000061
 21
63.500015
  0
LINE
  8
0
 10
-129.100052
 20
117.000023
 11
-137.500061
 21
117.000023
  0
LINE
  8
0
 10
-117.000061
 20
116.500023
 11
-117.000061
 21
112.900047
  0
LINE
  8
0
 10
-138.000031
 20
116.500023
 11
-138.000031
 21
112.900047
  0
LINE
  8
0
 10
-117.500046
 20
117.000023
 11
-125.900055
 21
117.000023
  0
LINE
  8
0
 10
-117.500046
 20
63.000027
 11
-137.500046
 21
63.000027
  0
LINE
  8
0
 10
-117.500038
 20
117.000031
 11
-117.000046
 21
116.500038
  0
LINE
  8
0
 10
-138.000015
 20
116.499977
 11
-137.500046
 21
116.999977
  0
LINE
  8
0
 10
-137.999985
 20
63.500015
 11
-137.500000
 21
63.000023
  0
LINE
  8
0
 10
-117.000031
 20
63.500008
 11
-117.500015
 21
63.000023
  0
LINE
  8
0
 10
-138.000031
 20
91.200020
 11
-138.000031
 21
63.500015
  0
LINE
  8
0
  6
CENTER
 62
     2
 10
-130.500046
 20
66.500023
 11
-124.500061
 21
66.500023
  0
LINE
  8
0
  6
CENTER
 62
     2
 10
-130.500046
 20
113.500008
 11
-124.500061
 21
113.500008
  0
LINE
  8
0
 10
-129.000061
 20
102.866035
 11
-129.000061
 21
101.133995
  0
LINE
  8
0
 10
-126.000061
 20
102.866051
 11
-126.000061
 21
101.133995
  0
LINE
  8
0
 10
-129.000061
 20
102.866104
 11
-127.500061
 21
103.732124
  0
LINE
  8
0
 10
-127.500008
 20
100.268013
 11
-126.000015
 21
101.134033
  0
LINE
  8
0
 10
-129.000015
 20
78.866066
 11
-127.500031
 21
79.732079
  0
LINE
  8
0
 10
-127.500023
 20
76.267982
 11
-126.000046
 21
77.133995
  0
LINE
  8
0
 10
-127.500061
 20
103.732048
 11
-126.000069
 21
102.866028
  0
LINE
  8
0
 10
-129.000046
 20
101.133980
 11
-127.500061
 21
100.267967
  0
LINE
  8
0
 10
-127.500053
 20
79.732063
 11
-126.000076
 21
78.866051
  0
LINE
  8
0
 10
-129.000046
 20
77.133972
 11
-127.500069
 21
76.267960
  0
LINE
  8
0
 10
-129.000061
 20
78.866051
 11
-129.000061
 21
77.134010
  0
LINE
  8
0
 10
-126.000061
 20
78.866051
 11
-126.000061
 21
77.134010
  0
LINE
  8
0
 10
-138.000046
 20
94.400017
 11
-137.500046
 21
94.400017
  0
LINE
  8
0
 10
-138.000046
 20
91.200012
 11
-137.500046
 21
91.200012
  0
LINE
  8
0
 10
-117.000031
 20
94.400017
 11
-117.500046
 21
94.400017
  0
LINE
  8
0
 10
-117.000031
 20
91.200012
 11
-117.500046
 21
91.200012
  0
LINE
  8
0
 10
-125.900055
 20
117.000038
 11
-125.900055
 21
116.500023
  0
LINE
  8
0
 10
-129.100067
 20
117.000038
 11
-129.100067
 21
116.500023
  0
LINE
  8
0
 10
-117.000061
 20
112.900032
 11
-117.500046
 21
112.900032
  0
LINE
  8
0
 10
-117.000061
 20
109.700005
 11
-117.500046
 21
109.700005
  0
LINE
  8
0
 10
-117.000061
 20
109.700005
 11
-117.000061
 21
94.400024
  0
LINE
  8
0
 10
-138.000046
 20
112.900032
 11
-137.500046
 21
112.900032
  0
LINE
  8
0
 10
-138.000046
 20
109.700005
 11
-137.500046
 21
109.700005
  0
LINE
  8
0
 10
-138.000031
 20
109.700005
 11
-138.000031
 21
94.400024
  0
LINE
  8
0
 10
163.500076
 20
116.499985
 11
163.500076
 21
63.499977
  0
LINE
  8
0
 10
183.500076
 20
116.499985
 11
183.500076
 21
63.499977
  0
LINE
  8
0
 10
183.500076
 20
116.499985
 11
163.500076
 21
116.499985
  0
LINE
  8
0
 10
183.500076
 20
63.499973
 11
163.500076
 21
63.499973
  0
LINE
  8
0
  6
CENTER
 62
     2
 10
178.589310
 20
101.999985
 11
168.701904
 21
101.999985
  0
LINE
  8
0
  6
CENTER
 62
     2
 10
185.000076
 20
89.999977
 11
161.333405
 21
89.999977
  0
LINE
  8
0
  6
CENTER
 62
     2
 10
178.472305
 20
77.999985
 11
168.643402
 21
77.999985
  0
LINE
  8
0
  6
CENTER
 62
     2
 10
173.500076
 20
119.666672
 11
173.500076
 21
59.333305
  0
LINE
  8
0
 10
163.000076
 20
91.199982
 11
163.000076
 21
63.499977
  0
LINE
  8
0
 10
175.100082
 20
116.999985
 11
183.500092
 21
116.999985
  0
LINE
  8
0
 10
163.000076
 20
116.499985
 11
163.000076
 21
112.900009
  0
LINE
  8
0
 10
184.000076
 20
116.499985
 11
184.000076
 21
112.900009
  0
LINE
  8
0
 10
163.500076
 20
116.999985
 11
171.900085
 21
116.999985
  0
LINE
  8
0
 10
163.500076
 20
62.999989
 11
183.500076
 21
62.999989
  0
LINE
  8
0
 10
163.500092
 20
116.999985
 11
163.000092
 21
116.500000
  0
LINE
  8
0
 10
184.000015
 20
116.499924
 11
183.500031
 21
116.999924
  0
LINE
  8
0
 10
184.000031
 20
63.499966
 11
183.500046
 21
62.999977
  0
LINE
  8
0
 10
163.000092
 20
63.499954
 11
163.500061
 21
62.999966
  0
LINE
  8
0
 10
184.000076
 20
91.199982
 11
184.000076
 21
63.499977
  0
LINE
  8
0
  6
CENTER
 62
     2
 10
176.500076
 20
66.499985
 11
170.500092
 21
66.499985
  0
LINE
  8
0
  6
CENTER
 62
     2
 10
176.500076
 20
113.499969
 11
170.500092
 21
113.499969
  0
LINE
  8
0
 10
175.000076
 20
102.865997
 11
175.000076
 21
101.133957
  0
LINE
  8
0
 10
172.000092
 20
102.866013
 11
172.000092
 21
101.133957
  0
LINE
  8
0
 10
175.000107
 20
102.866058
 11
173.500092
 21
103.732086
  0
LINE
  8
0
 10
173.500046
 20
100.267998
 11
172.000061
 21
101.134018
  0
LINE
  8
0
 10
175.000061
 20
78.866020
 11
173.500092
 21
79.732033
  0
LINE
  8
0
 10
173.500076
 20
76.267960
 11
172.000092
 21
77.133972
  0
LINE
  8
0
 10
173.500107
 20
103.732033
 11
172.000092
 21
102.865997
  0
LINE
  8
0
 10
175.000061
 20
101.133957
 11
173.500061
 21
100.267929
  0
LINE
  8
0
 10
173.500076
 20
79.732002
 11
172.000107
 21
78.865997
  0
LINE
  8
0
 10
175.000076
 20
77.133934
 11
173.500092
 21
76.267929
  0
LINE
  8
0
 10
175.000076
 20
78.866013
 11
175.000076
 21
77.133972
  0
LINE
  8
0
 10
172.000092
 20
78.866013
 11
172.000092
 21
77.133972
  0
LINE
  8
0
 10
184.000076
 20
94.399979
 11
183.500076
 21
94.399979
  0
LINE
  8
0
 10
184.000076
 20
91.199974
 11
183.500076
 21
91.199974
  0
LINE
  8
0
 10
163.000061
 20
94.399979
 11
163.500076
 21
94.399979
  0
LINE
  8
0
 10
163.000061
 20
91.199974
 11
163.500076
 21
91.199974
  0
LINE
  8
0
 10
171.900070
 20
117.000000
 11
171.900070
 21
116.499985
  0
LINE
  8
0
 10
175.100082
 20
117.000000
 11
175.100082
 21
116.499985
  0
LINE
  8
0
 10
163.000092
 20
112.899994
 11
163.500076
 21
112.899994
  0
LINE
  8
0
 10
163.000092
 20
109.699966
 11
163.500076
 21
109.699966
  0
LINE
  8
0
 10
163.000076
 20
109.699966
 11
163.000076
 21
94.399986
  0
LINE
  8
0
 10
184.000076
 20
112.899994
 11
183.500076
 21
112.899994
  0
LINE
  8
0
 10
184.000076
 20
109.699966
 11
183.500076
 21
109.699966
  0
LINE
  8
0
 10
184.000076
 20
109.699966
 11
184.000076
 21
94.399986
  0
LINE
  8
0
  6
PHANTOM
 62
     3
 10
24.499998
 20
43.750000
 11
24.499998
 21
-3.500008
  0
LINE
  8
0
  6
PHANTOM
 62
     3
 10
-36.500000
 20
43.750000
 11
-36.500000
 21
-3.500008
  0
LINE
  8
0
  6
PHANTOM
 62
     3
 10
39.500000
 20
43.750000
 11
39.500000
 21
-3.500008
  0
LINE
  8
0
 10
-27.499979
 20
23.000011
 11
86.499939
 21
23.000011
  0
LINE
  8
0
 10
-27.499979
 20
2.000011
 11
86.499924
 21
2.000011
  0
LINE
  8
0
 10
-52.999996
 20
22.500011
 11
-44.999989
 21
22.500011
  0
LINE
  8
0
 10
-52.999996
 20
2.500011
 11
-44.999989
 21
2.500011
  0
LINE
  8
0
 10
-53.000004
 20
22.500027
 11
-53.000004
 21
2.500027
  0
LINE
  8
0
 10
-45.000004
 20
22.500027
 11
-45.000004
 21
15.600018
  0
LINE
  8
0
 10
-28.000002
 20
22.500027
 11
-28.000002
 21
2.500027
  0
LINE
  8
0
 10
87.000008
 20
22.500027
 11
87.000008
 21
2.500027
  0
LINE
  8
0
 10
86.999962
 20
22.499968
 11
86.499969
 21
22.999956
  0
LINE
  8
0
 10
86.999924
 20
2.500051
 11
86.499931
 21
2.000062
  0
LINE
  8
0
 10
-27.999969
 20
22.499981
 11
-27.499968
 21
22.999983
  0
LINE
  8
0
 10
-27.999998
 20
2.500000
 11
-27.499992
 21
1.999995
  0
LINE
  8
0
  6
CENTER
 62
     2
 10
-54.833317
 20
12.500011
 11
107.535950
 21
12.500011
  0
LINE
  8
0
 10
-42.999996
 20
16.499996
 11
-27.999994
 21
16.499996
  0
LINE
  8
0
 10
-42.999996
 20
8.500011
 11
-27.999994
 21
8.500011
  0
LINE
  8
0
 10
-30.400011
 20
8.500027
 11
-30.400011
 21
5.541470
  0
LINE
  8
0
 10
-31.199999
 20
8.500027
 11
-31.199999
 21
5.000027
  0
LINE
  8
0
 10
-34.000004
 20
8.500027
 11
-34.000004
 21
5.541470
  0
LINE
  8
0
 10
-33.687382
 20
5.000011
 11
-31.199999
 21
5.000011
  0
LINE
  8
0
 10
-30.087395
 20
5.000052
 11
-30.399992
 21
5.541491
  0
LINE
  8
0
 10
-33.687405
 20
5.000025
 11
-34.000008
 21
5.541476
  0
LINE
  8
0
 10
-28.312637
 20
5.000056
 11
-28.000031
 21
5.541508
  0
LINE
  8
0
 10
-30.087397
 20
5.000011
 11
-28.312624
 21
5.000011
  0
LINE
  8
0
 10
-31.199999
 20
6.499996
 11
-30.400003
 21
6.499996
  0
LINE
  8
0
 62
     2
 10
-31.199999
 20
6.770519
 11
-30.400003
 21
6.770519
  0
LINE
  8
0
 10
-43.000004
 20
16.500011
 11
-43.000004
 21
15.600018
  0
LINE
  8
0
 10
-45.999989
 20
15.600018
 11
-42.999996
 21
15.600018
  0
LINE
  8
0
 10
-45.999989
 20
9.400021
 11
-42.999996
 21
9.400021
  0
LINE
  8
0
 10
-43.000004
 20
9.400036
 11
-43.000004
 21
8.500027
  0
LINE
  8
0
 10
-44.999989
 20
5.750011
 11
-43.999989
 21
5.750011
  0
LINE
  8
0
 10
-44.000004
 20
9.400036
 11
-44.000004
 21
5.750011
  0
LINE
  8
0
  6
CENTER
 62
     2
 10
11.000013
 20
16.000027
 11
11.000013
 21
9.000011
  0
LINE
  8
0
  6
CENTER
 62
     2
 10
48.000000
 20
16.000027
 11
48.000000
 21
9.000011
  0
LINE
  8
0
 10
102.000000
 20
22.500011
 11
93.999985
 21
22.500011
  0
LINE
  8
0
 10
102.000000
 20
2.500011
 11
93.999985
 21
2.500011
  0
LINE
  8
0
 10
102.000000
 20
22.500027
 11
102.000000
 21
2.500027
  0
LINE
  8
0
 10
93.999977
 20
22.500027
 11
93.999977
 21
15.600018
  0
LINE
  8
0
 10
91.999985
 20
16.499996
 11
87.000015
 21
16.499996
  0
LINE
  8
0
 10
92.687408
 20
8.500011
 11
87.000015
 21
8.500011
  0
LINE
  8
0
 10
89.400024
 20
8.500027
 11
89.400024
 21
5.541470
  0
LINE
  8
0
 10
90.200020
 20
8.500027
 11
90.200020
 21
5.000027
  0
LINE
  8
0
 10
93.000008
 20
8.500027
 11
93.000008
 21
5.541470
  0
LINE
  8
0
 10
92.687393
 20
5.000011
 11
90.200027
 21
5.000011
  0
LINE
  8
0
 10
89.087364
 20
5.000071
 11
89.399979
 21
5.541526
  0
LINE
  8
0
 10
92.687347
 20
5.000065
 11
92.999954
 21
5.541520
  0
LINE
  8
0
 10
87.312614
 20
5.000033
 11
87.000000
 21
5.541497
  0
LINE
  8
0
 10
89.087418
 20
5.000011
 11
87.312637
 21
5.000011
  0
LINE
  8
0
 10
90.200027
 20
6.499996
 11
89.400024
 21
6.499996
  0
LINE
  8
0
 62
     2
 10
90.200027
 20
6.770519
 11
89.400024
 21
6.770519
  0
LINE
  8
0
 10
91.999992
 20
16.500011
 11
91.999992
 21
15.600018
  0
LINE
  8
0
 10
94.999969
 20
15.600018
 11
91.999985
 21
15.600018
  0
LINE
  8
0
 10
94.999969
 20
9.400021
 11
91.999985
 21
9.400021
  0
LINE
  8
0
 10
91.999992
 20
9.400036
 11
91.999992
 21
8.500027
  0
LINE
  8
0
 10
93.999985
 20
5.750011
 11
92.999985
 21
5.750011
  0
LINE
  8
0
 10
92.999985
 20
9.400036
 11
92.999985
 21
5.750011
  0
LINE
  8
0
 10
30.063520
 20
23.000011
 11
30.063520
 21
17.500011
  0
LINE
  8
0
 10
33.936508
 20
23.000011
 11
33.936508
 21
17.500011
  0
LINE
  8
0
 10
33.936508
 20
7.500011
 11
33.936508
 21
2.000011
  0
LINE
  8
0
 10
30.063520
 20
7.500011
 11
30.063520
 21
2.000011
  0
LINE
  8
0
 10
-45.999973
 20
15.600018
 11
-45.999973
 21
9.400036
  0
LINE
  8
0
 10
94.999977
 20
15.600018
 11
94.999977
 21
9.400036
  0
LINE
  8
0
 10
-45.000004
 20
9.400036
 11
-45.000004
 21
2.500027
  0
LINE
  8
0
 10
93.999977
 20
9.400036
 11
93.999977
 21
2.500027
  0
LINE
  8
0
 10
30.063520
 20
17.500011
 11
33.936508
 21
17.500011
  0
LINE
  8
0
 10
30.063520
 20
7.500011
 11
33.936508
 21
7.500011
  0
LINE
  8
0
 62
     4
 10
-37.341675
 20
-97.309509
 11
-32.596375
 21
-97.309509
  0
LINE
  8
0
 62
     4
 10
-41.096405
 20
-99.909515
 11
-37.340607
 21
-99.909515
  0
LINE
  8
0
 62
     4
 10
-35.840576
 20
-99.909515
 11
-32.596375
 21
-99.909515
  0
LINE
  8
0
 62
     4
 10
-63.096405
 20
-96.309525
 11
-41.096405
 21
-96.309525
  0
LINE
  8
0
 62
     4
 10
-58.396393
 20
-100.909523
 11
-41.096405
 21
-100.909523
  0
LINE
  8
0
 62
     4
 10
-41.096405
 20
-96.309525
 11
-41.096405
 21
-100.909523
  0
LINE
  8
0
 62
     4
 10
-63.096405
 20
-98.109520
 11
-63.096405
 21
-96.309525
  0
LINE
  8
0
 62
     4
 10
-58.396393
 20
-99.351486
 11
-58.396393
 21
-100.909523
  0
LINE
  8
0
 62
     4
 10
-63.096405
 20
-98.109520
 11
-58.846390
 21
-98.109520
  0
LINE
  8
0
  6
CENTER
 62
     1
 10
-61.096390
 20
-95.502808
 11
-61.096390
 21
-101.741425
  0
LINE
  8
0
 62
     4
 10
-58.846390
 20
-98.109520
 11
-58.846390
 21
-99.351486
  0
LINE
  8
0
 62
     4
 10
-59.096390
 20
-98.109520
 11
-59.096390
 21
-98.909523
  0
LINE
  8
0
 62
     4
 10
-63.096405
 20
-98.109520
 11
-63.096405
 21
-98.909523
  0
LINE
  8
0
 62
     4
 10
-63.096405
 20
-98.909523
 11
-59.096390
 21
-98.909523
  0
LINE
  8
0
 62
     4
 10
-58.896393
 20
-98.109520
 11
-58.896393
 21
-100.109520
  0
LINE
  8
0
 62
     4
 10
-58.896393
 20
-100.109520
 11
-58.396393
 21
-100.109520
  0
LINE
  8
0
 62
     4
 10
-58.846390
 20
-99.351486
 11
-58.396393
 21
-99.351486
  0
LINE
  8
0
 62
     4
 10
-32.596375
 20
-97.309509
 11
-32.596375
 21
-99.909515
  0
LINE
  8
0
  6
CENTER
 62
     1
 10
-34.319275
 20
-98.159439
 11
-22.387207
 21
-98.159439
  0
LINE
  8
0
  6
CENTER
 62
     1
 10
-34.268982
 20
-99.059433
 11
-22.345337
 21
-99.059433
  0
LINE
  8
0
 62
     4
 10
-22.596375
 20
-97.909454
 11
-22.596375
 21
-98.409454
  0
LINE
  8
0
 62
     4
 10
-22.596375
 20
-98.809448
 11
-22.596375
 21
-99.309448
  0
LINE
  8
0
 62
     4
 10
-25.596375
 20
-97.709442
 11
-25.596375
 21
-99.509460
  0
LINE
  8
0
 62
     4
 10
-32.596375
 20
-99.509445
 11
-28.590820
 21
-99.509445
  0
LINE
  8
0
 62
     4
 10
-32.596375
 20
-98.609421
 11
-29.110413
 21
-98.609421
  0
LINE
  8
0
 62
     4
 10
-27.610413
 20
-98.609421
 11
-25.596375
 21
-98.609421
  0
LINE
  8
0
 62
     4
 10
-27.090820
 20
-99.509445
 11
-25.596375
 21
-99.509445
  0
LINE
  8
0
 62
     4
 10
-32.596375
 20
-97.709427
 11
-29.630066
 21
-97.709427
  0
LINE
  8
0
 62
     4
 10
-28.130066
 20
-97.709427
 11
-25.596375
 21
-97.709427
  0
LINE
  8
0
 62
     4
 10
-25.596375
 20
-97.909439
 11
-22.596375
 21
-97.909439
  0
LINE
  8
0
 62
     4
 10
-25.596375
 20
-98.409439
 11
-22.596375
 21
-98.409439
  0
LINE
  8
0
 62
     4
 10
-25.596375
 20
-98.809433
 11
-22.596375
 21
-98.809433
  0
LINE
  8
0
 62
     4
 10
-25.596375
 20
-99.309433
 11
-22.596375
 21
-99.309433
  0
LINE
  8
0
 62
     1
 10
-28.860390
 20
-96.444504
 11
-26.360388
 21
-100.774628
  0
LINE
  8
0
  6
CENTER
 62
     1
 10
-42.410767
 20
-98.609512
 11
-32.596375
 21
-98.609512
  0
LINE
  8
0
 62
     1
 10
-30.360456
 20
-96.444473
 11
-27.860455
 21
-100.774597
  0
LINE
  8
0
 62
     1
 10
-37.841129
 20
-96.444450
 11
-35.341129
 21
-100.774582
  0
LINE
  8
0
 62
     1
 10
-39.341110
 20
-96.444519
 11
-36.841114
 21
-100.774635
  0
LINE
  8
0
 62
     4
 10
-62.121399
 20
-100.309525
 11
-60.071396
 21
-100.309525
  0
LINE
  8
0
 62
     4
 10
-60.070972
 20
-100.309967
 11
-59.845989
 21
-100.084976
  0
LINE
  8
0
 62
     4
 10
-62.121357
 20
-100.309540
 11
-62.346352
 21
-100.084549
  0
LINE
  8
0
 62
     4
 10
-62.346390
 20
-98.908707
 11
-62.346390
 21
-100.084526
  0
LINE
  8
0
 62
     1
 10
-62.121399
 20
-98.908707
 11
-62.121399
 21
-100.309525
  0
LINE
  8
0
 62
     1
 10
-60.071396
 20
-98.908707
 11
-60.071396
 21
-100.309525
  0
LINE
  8
0
 62
     4
 10
-59.846390
 20
-98.908707
 11
-59.846390
 21
-100.084518
  0
LINE
  8
0
 62
     4
 10
-62.346390
 20
-100.084526
 11
-59.846390
 21
-100.084526
  0
LINE
  8
0
 62
     4
 10
-62.346390
 20
-95.809525
 11
-62.346390
 21
-96.309525
  0
LINE
  8
0
 62
     1
 10
-62.121399
 20
-95.809525
 11
-62.121399
 21
-96.309525
  0
LINE
  8
0
 62
     1
 10
-60.071396
 20
-95.809525
 11
-60.071396
 21
-96.309525
  0
LINE
  8
0
 62
     4
 10
-59.846390
 20
-95.809525
 11
-59.846390
 21
-96.309525
  0
LINE
  8
0
 62
     4
 10
-62.346390
 20
-95.809525
 11
-59.846390
 21
-95.809525
  0
LINE
  8
0
 62
     4
 10
-63.096405
 20
-97.309525
 11
-41.096405
 21
-97.309525
  0
LINE
  8
0
 62
     4
 10
-63.096405
 20
-96.759506
 11
-41.096405
 21
-96.759506
  0
LINE
  8
0
 62
     4
 10
-41.096405
 20
-97.309509
 11
-38.841705
 21
-97.309509
  0
LINE
  8
0
 62
     4
 10
-108.889130
 20
-95.809525
 11
-106.389130
 21
-95.809525
  0
LINE
  8
0
  6
CENTER
 62
     1
 10
-107.639130
 20
-94.256554
 11
-107.639130
 21
-102.969315
  0
LINE
  8
0
 62
     4
 10
-109.689117
 20
-97.309525
 11
-109.689117
 21
-98.859520
  0
LINE
  8
0
 62
     4
 10
-109.689186
 20
-97.309502
 11
-109.139183
 21
-96.759491
  0
LINE
  8
0
 62
     4
 10
-109.139130
 20
-96.309525
 11
-109.139130
 21
-96.759521
  0
LINE
  8
0
 62
     4
 10
-109.139130
 20
-96.309525
 11
-106.139130
 21
-96.309525
  0
LINE
  8
0
 62
     4
 10
-106.139130
 20
-96.309525
 11
-106.139130
 21
-96.759521
  0
LINE
  8
0
 62
     4
 10
-105.589119
 20
-97.309471
 11
-106.139114
 21
-96.759460
  0
LINE
  8
0
 62
     4
 10
-105.589127
 20
-97.309525
 11
-105.589127
 21
-98.859520
  0
LINE
  8
0
 62
     4
 10
-109.689117
 20
-98.109520
 11
-105.589127
 21
-98.109520
  0
LINE
  8
0
 62
     4
 10
-109.689133
 20
-98.908707
 11
-105.589127
 21
-98.908707
  0
LINE
  8
0
 62
     4
 10
-108.664139
 20
-100.309525
 11
-106.614136
 21
-100.309525
  0
LINE
  8
0
 62
     4
 10
-106.613701
 20
-100.309998
 11
-106.388702
 21
-100.084984
  0
LINE
  8
0
 62
     4
 10
-108.664116
 20
-100.309563
 11
-108.889114
 21
-100.084564
  0
LINE
  8
0
 62
     4
 10
-108.889130
 20
-98.908707
 11
-108.889130
 21
-100.084526
  0
LINE
  8
0
 62
     1
 10
-108.664139
 20
-98.908707
 11
-108.664139
 21
-100.309525
  0
LINE
  8
0
 62
     1
 10
-106.614136
 20
-98.908707
 11
-106.614136
 21
-100.309525
  0
LINE
  8
0
 62
     4
 10
-106.389130
 20
-98.908707
 11
-106.389130
 21
-100.084518
  0
LINE
  8
0
 62
     4
 10
-108.889130
 20
-100.084526
 11
-106.389130
 21
-100.084526
  0
LINE
  8
0
 62
     4
 10
-108.889130
 20
-95.809525
 11
-108.889130
 21
-96.309525
  0
LINE
  8
0
 62
     1
 10
-108.664139
 20
-95.809525
 11
-108.664139
 21
-96.309525
  0
LINE
  8
0
 62
     1
 10
-106.614136
 20
-95.809525
 11
-106.614136
 21
-96.309525
  0
LINE
  8
0
 62
     4
 10
-106.389130
 20
-95.809525
 11
-106.389130
 21
-96.309525
  0
LINE
  8
0
  6
CENTER
 62
     1
 10
-65.896942
 20
-53.759521
 11
-35.688889
 21
-53.759521
  0
LINE
  8
0
 62
     4
 10
-63.096405
 20
-55.259521
 11
-41.096405
 21
-55.259521
  0
LINE
  8
0
 62
     4
 10
-63.096405
 20
-52.259521
 11
-41.096405
 21
-52.259521
  0
LINE
  8
0
 62
     4
 10
-63.096405
 20
-55.809525
 11
-41.096405
 21
-55.809525
  0
LINE
  8
0
 62
     4
 10
-63.096405
 20
-51.709518
 11
-41.096405
 21
-51.709518
  0
LINE
  8
0
 62
     4
 10
-63.096405
 20
-51.709518
 11
-63.096405
 21
-55.809525
  0
LINE
  8
0
 62
     4
 10
-41.096405
 20
-51.709518
 11
-41.096405
 21
-55.809525
  0
LINE
  8
0
  6
CENTER
 62
     1
 10
-61.096390
 20
-50.923019
 11
-61.096390
 21
-56.512344
  0
LINE
  8
0
 62
     4
 10
-62.141674
 20
-54.472595
 11
-60.408337
 21
-52.739258
  0
LINE
  8
0
 62
     4
 10
-61.788120
 20
-54.826176
 11
-60.154781
 21
-53.192837
  0
LINE
  8
0
 62
     1
 10
-40.007179
 20
-51.594425
 11
-37.507179
 21
-55.924553
  0
LINE
  8
0
 62
     4
 10
-41.096405
 20
-52.459518
 11
-39.507751
 21
-52.459518
  0
LINE
  8
0
 62
     4
 10
-41.096405
 20
-55.059525
 11
-38.006622
 21
-55.059525
  0
LINE
  8
0
 62
     4
 10
112.821899
 20
-85.654793
 11
112.821899
 21
-80.909485
  0
LINE
  8
0
 62
     4
 10
112.821899
 20
-89.409523
 11
112.821899
 21
-87.154778
  0
LINE
  8
0
 62
     4
 10
115.421875
 20
-84.153694
 11
115.421875
 21
-80.909485
  0
LINE
  8
0
 62
     4
 10
94.714539
 20
-96.309525
 11
110.814545
 21
-96.309525
  0
LINE
  8
0
 62
     4
 10
99.414520
 20
-100.909523
 11
116.714539
 21
-100.909523
  0
LINE
  8
0
 62
     4
 10
116.714539
 20
-89.409523
 11
116.714539
 21
-100.909523
  0
LINE
  8
0
 62
     4
 10
94.714539
 20
-98.909523
 11
94.714539
 21
-96.309525
  0
LINE
  8
0
 62
     4
 10
99.414520
 20
-99.291679
 11
99.414520
 21
-100.909523
  0
LINE
  8
0
  6
CENTER
 62
     1
 10
96.714539
 20
-95.579269
 11
96.714539
 21
-101.482193
  0
LINE
  8
0
 62
     4
 10
110.814514
 20
-89.409523
 11
110.814514
 21
-96.309525
  0
LINE
  8
0
 62
     4
 10
94.714539
 20
-98.109528
 11
98.988342
 21
-98.109528
  0
LINE
  8
0
 62
     4
 10
94.714539
 20
-98.909523
 11
98.714539
 21
-98.909523
  0
LINE
  8
0
 62
     4
 10
98.714539
 20
-98.109520
 11
98.714539
 21
-98.909523
  0
LINE
  8
0
 62
     4
 10
110.814545
 20
-89.409523
 11
116.714539
 21
-89.409523
  0
LINE
  8
0
 62
     4
 10
98.914520
 20
-100.109528
 11
99.414520
 21
-100.109528
  0
LINE
  8
0
 62
     4
 10
98.914520
 20
-98.109528
 11
98.914520
 21
-100.109528
  0
LINE
  8
0
 62
     4
 10
98.988342
 20
-99.291679
 11
99.414520
 21
-99.291679
  0
LINE
  8
0
 62
     4
 10
98.988342
 20
-98.109528
 11
98.988342
 21
-99.291679
  0
LINE
  8
0
 62
     4
 10
94.714539
 20
-97.309525
 11
116.714539
 21
-97.309525
  0
LINE
  8
0
 62
     4
 10
94.714539
 20
-96.759521
 11
116.714539
 21
-96.759521
  0
LINE
  8
0
 62
     4
 10
110.814514
 20
-95.159508
 11
116.714539
 21
-95.159508
  0
LINE
  8
0
 62
     4
 10
110.814514
 20
-95.909508
 11
116.714539
 21
-95.909508
  0
LINE
  8
0
 62
     4
 10
110.814514
 20
-90.909523
 11
116.714539
 21
-90.909523
  0
LINE
  8
0
 62
     4
 10
112.821899
 20
-80.909485
 11
115.421875
 21
-80.909485
  0
LINE
  8
0
  6
CENTER
 62
     1
 10
113.671814
 20
-82.632416
 11
113.671814
 21
-70.700333
  0
LINE
  8
0
  6
CENTER
 62
     1
 10
114.571808
 20
-82.582123
 11
114.571808
 21
-70.658478
  0
LINE
  8
0
 62
     4
 10
113.421814
 20
-70.909485
 11
113.921814
 21
-70.909485
  0
LINE
  8
0
 62
     4
 10
114.321808
 20
-70.909485
 11
114.821808
 21
-70.909485
  0
LINE
  8
0
 62
     4
 10
113.221802
 20
-73.909485
 11
115.021820
 21
-73.909485
  0
LINE
  8
0
 62
     4
 10
115.021820
 20
-80.909485
 11
115.021820
 21
-76.903938
  0
LINE
  8
0
 62
     4
 10
114.121796
 20
-80.909485
 11
114.121796
 21
-77.423553
  0
LINE
  8
0
 62
     4
 10
114.121796
 20
-75.923553
 11
114.121796
 21
-73.909485
  0
LINE
  8
0
 62
     4
 10
115.021820
 20
-75.403938
 11
115.021820
 21
-73.909485
  0
LINE
  8
0
 62
     4
 10
113.221802
 20
-80.909485
 11
113.221802
 21
-77.943176
  0
LINE
  8
0
 62
     4
 10
113.221802
 20
-76.443176
 11
113.221802
 21
-73.909485
  0
LINE
  8
0
 62
     4
 10
113.421814
 20
-73.909485
 11
113.421814
 21
-70.909485
  0
LINE
  8
0
 62
     4
 10
113.921814
 20
-73.909485
 11
113.921814
 21
-70.909485
  0
LINE
  8
0
 62
     4
 10
114.321808
 20
-73.909485
 11
114.321808
 21
-70.909485
  0
LINE
  8
0
 62
     4
 10
114.821808
 20
-73.909485
 11
114.821808
 21
-70.909485
  0
LINE
  8
0
 62
     1
 10
111.956955
 20
-77.173668
 11
116.287102
 21
-74.673645
  0
LINE
  8
0
  6
CENTER
 62
     1
 10
114.121887
 20
-90.723892
 11
114.121887
 21
-80.909485
  0
LINE
  8
0
 62
     1
 10
111.956856
 20
-78.673660
 11
116.287010
 21
-76.173645
  0
LINE
  8
0
 62
     1
 10
111.956825
 20
-86.154358
 11
116.286949
 21
-83.654350
  0
LINE
  8
0
 62
     1
 10
111.956871
 20
-87.654343
 11
116.286987
 21
-85.154350
  0
LINE
  8
0
 62
     4
 10
95.689514
 20
-100.309525
 11
97.739532
 21
-100.309525
  0
LINE
  8
0
 62
     4
 10
97.740097
 20
-100.310066
 11
97.965088
 21
-100.085068
  0
LINE
  8
0
 62
     4
 10
95.689598
 20
-100.309395
 11
95.464615
 21
-100.084412
  0
LINE
  8
0
 62
     4
 10
95.464539
 20
-98.909523
 11
95.464539
 21
-100.084526
  0
LINE
  8
0
 62
     1
 10
95.689514
 20
-98.909523
 11
95.689514
 21
-100.309525
  0
LINE
  8
0
 62
     1
 10
97.739532
 20
-98.909523
 11
97.739532
 21
-100.309525
  0
LINE
  8
0
 62
     4
 10
97.964539
 20
-98.909523
 11
97.964539
 21
-100.084518
  0
LINE
  8
0
 62
     4
 10
95.464539
 20
-100.084526
 11
97.964539
 21
-100.084526
  0
LINE
  8
0
 62
     4
 10
95.464539
 20
-95.809525
 11
95.464539
 21
-96.309525
  0
LINE
  8
0
 62
     1
 10
95.689514
 20
-95.809525
 11
95.689514
 21
-96.309525
  0
LINE
  8
0
 62
     1
 10
97.739532
 20
-95.809525
 11
97.739532
 21
-96.309525
  0
LINE
  8
0
 62
     4
 10
97.964539
 20
-95.809525
 11
97.964539
 21
-96.309525
  0
LINE
  8
0
 62
     4
 10
95.464539
 20
-95.809525
 11
97.964539
 21
-95.809525
  0
LINE
  8
0
 62
     4
 10
115.421875
 20
-89.409523
 11
115.421875
 21
-85.653687
  0
LINE
  8
0
 62
     4
 10
52.971802
 20
-85.653702
 11
52.971802
 21
-89.409523
  0
LINE
  8
0
 62
     4
 10
49.421814
 20
-90.909523
 11
53.921814
 21
-90.909523
  0
LINE
  8
0
 62
     4
 10
49.421814
 20
-89.409523
 11
49.421814
 21
-95.159523
  0
LINE
  8
0
 62
     4
 10
50.171764
 20
-95.909492
 11
49.421799
 21
-95.159531
  0
LINE
  8
0
 62
     4
 10
50.171814
 20
-96.759521
 11
50.171814
 21
-95.909523
  0
LINE
  8
0
 62
     4
 10
49.621777
 20
-97.309456
 11
50.171787
 21
-96.759445
  0
LINE
  8
0
 62
     4
 10
49.621796
 20
-97.309525
 11
49.621796
 21
-98.859520
  0
LINE
  8
0
 62
     4
 10
53.721802
 20
-97.309525
 11
53.721802
 21
-98.859520
  0
LINE
  8
0
 62
     4
 10
53.721794
 20
-97.309555
 11
53.171791
 21
-96.759552
  0
LINE
  8
0
 62
     4
 10
53.171814
 20
-96.759521
 11
53.171814
 21
-95.909523
  0
LINE
  8
0
 62
     4
 10
53.171894
 20
-95.909630
 11
53.921890
 21
-95.159630
  0
LINE
  8
0
 62
     4
 10
53.921814
 20
-89.409523
 11
53.921814
 21
-95.159523
  0
LINE
  8
0
  6
CENTER
 62
     1
 10
51.671814
 20
-83.748566
 11
51.671814
 21
-102.376190
  0
LINE
  8
0
 62
     4
 10
50.171814
 20
-96.309525
 11
53.171814
 21
-96.309525
  0
LINE
  8
0
 62
     4
 10
49.621796
 20
-98.109520
 11
53.721802
 21
-98.109520
  0
LINE
  8
0
 62
     4
 10
49.621796
 20
-98.911972
 11
53.721802
 21
-98.911972
  0
LINE
  8
0
 62
     4
 10
49.421814
 20
-89.409523
 11
53.921814
 21
-89.409523
  0
LINE
  8
0
 62
     1
 10
49.506836
 20
-87.654343
 11
53.836964
 21
-85.154350
  0
LINE
  8
0
 62
     4
 10
50.646790
 20
-100.309525
 11
52.696808
 21
-100.309525
  0
LINE
  8
0
 62
     4
 10
52.697315
 20
-100.310051
 11
52.922310
 21
-100.085052
  0
LINE
  8
0
 62
     4
 10
50.646858
 20
-100.309448
 11
50.421852
 21
-100.084442
  0
LINE
  8
0
 62
     4
 10
50.421814
 20
-98.911972
 11
50.421814
 21
-100.084526
  0
LINE
  8
0
 62
     1
 10
50.646790
 20
-98.911972
 11
50.646790
 21
-100.309525
  0
LINE
  8
0
 62
     1
 10
52.696808
 20
-98.911972
 11
52.696808
 21
-100.309525
  0
LINE
  8
0
 62
     4
 10
52.921814
 20
-98.911972
 11
52.921814
 21
-100.084518
  0
LINE
  8
0
 62
     4
 10
50.421814
 20
-100.084526
 11
52.921814
 21
-100.084526
  0
LINE
  8
0
 62
     4
 10
50.421814
 20
-95.809525
 11
50.421814
 21
-96.309525
  0
LINE
  8
0
 62
     1
 10
50.646790
 20
-95.809525
 11
50.646790
 21
-96.309525
  0
LINE
  8
0
 62
     1
 10
52.696808
 20
-95.809525
 11
52.696808
 21
-96.309525
  0
LINE
  8
0
 62
     4
 10
52.921814
 20
-95.809525
 11
52.921814
 21
-96.309525
  0
LINE
  8
0
 62
     4
 10
50.421814
 20
-95.809525
 11
52.921814
 21
-95.809525
  0
LINE
  8
0
 62
     4
 10
50.371826
 20
-87.154800
 11
50.371826
 21
-89.409523
  0
LINE
  8
0
  6
CENTER
 62
     1
 10
93.385345
 20
-48.709511
 11
118.294525
 21
-48.709511
  0
LINE
  8
0
 62
     4
 10
94.714539
 20
-50.209511
 11
111.275146
 21
-50.209511
  0
LINE
  8
0
 62
     4
 10
94.714539
 20
-47.209511
 11
111.275146
 21
-47.209511
  0
LINE
  8
0
 62
     4
 10
94.714539
 20
-50.759506
 11
111.628510
 21
-50.759506
  0
LINE
  8
0
 62
     4
 10
94.714539
 20
-46.659508
 11
111.628510
 21
-46.659508
  0
LINE
  8
0
 62
     4
 10
94.714539
 20
-46.659500
 11
94.714539
 21
-50.759506
  0
LINE
  8
0
  6
CENTER
 62
     1
 10
96.714539
 20
-45.873001
 11
96.714539
 21
-51.462326
  0
LINE
  8
0
 62
     4
 10
111.800507
 20
-46.459511
 11
116.714539
 21
-46.459511
  0
LINE
  8
0
 62
     4
 10
111.800507
 20
-50.959511
 11
116.714539
 21
-50.959511
  0
LINE
  8
0
 62
     4
 10
116.714539
 20
-46.459503
 11
116.714539
 21
-50.959503
  0
LINE
  8
0
 62
     4
 10
96.068794
 20
-49.779846
 11
97.784897
 21
-48.063740
  0
LINE
  8
0
 62
     4
 10
95.644516
 20
-49.355518
 11
97.360611
 21
-47.639423
  0
LINE
  8
0
 10
-281.250000
 20
195.500000
 11
282.099976
 21
195.500000
  0
LINE
  8
0
 10
-281.250000
 20
195.500000
 11
-281.250000
 21
-195.000000
  0
LINE
  8
0
 10
282.099976
 20
195.500000
 11
282.099976
 21
-195.000000
  0
LINE
  8
0
 10
-281.250000
 20
-195.000000
 11
282.099976
 21
-195.000000
  0
LINE
  8
0
 10
162.099976
 20
-175.000000
 11
162.099976
 21
-195.000000
  0
LINE
  8
0
 10
162.099976
 20
-175.000000
 11
282.099976
 21
-175.000000
  0
LINE
  8
0
 10
162.099976
 20
175.500000
 11
282.099976
 21
175.500000
  0
LINE
  8
0
 10
-281.250000
 20
175.500000
 11
-161.250000
 21
175.500000
  0
LINE
  8
0
 10
162.099976
 20
195.500000
 11
162.099976
 21
175.500000
  0
LINE
  8
0
 10
-161.250000
 20
195.500000
 11
-161.250000
 21
175.500000
  0
LINE
  8
0
 10
-271.250000
 20
-133.000000
 11
-271.250000
 21
-185.000000
  0
LINE
  8
0
 10
-271.250000
 20
-185.000000
 11
-6.250000
 21
-185.000000
  0
LINE
  8
0
 10
-271.250000
 20
-155.000015
 11
-6.250000
 21
-155.000015
  0
LINE
  8
0
 10
-271.250000
 20
-133.000000
 11
-6.250000
 21
-133.000000
  0
LINE
  8
0
 10
-226.250000
 20
-133.000000
 11
-226.250000
 21
-185.000000
  0
LINE
  8
0
 10
-204.250000
 20
-133.000000
 11
-204.250000
 21
-185.000000
  0
LINE
  8
0
 10
-182.250000
 20
-133.000000
 11
-182.250000
 21
-185.000000
  0
LINE
  8
0
 10
-160.250000
 20
-133.000000
 11
-160.250000
 21
-185.000000
  0
LINE
  8
0
 10
-138.250000
 20
-133.000000
 11
-138.250000
 21
-185.000000
  0
LINE
  8
0
 10
-116.250000
 20
-133.000000
 11
-116.250000
 21
-185.000000
  0
LINE
  8
0
 10
-94.250000
 20
-133.000000
 11
-94.250000
 21
-185.000000
  0
LINE
  8
0
 10
-6.250000
 20
-133.000000
 11
-6.250000
 21
-185.000000
  0
LINE
  8
0
 10
-271.250000
 20
-175.000015
 11
-6.250000
 21
-175.000015
  0
LINE
  8
0
 10
-271.250031
 20
-165.000000
 11
-6.250000
 21
-165.000000
  0
LINE
  8
0
 10
-271.250000
 20
-141.000000
 11
-234.517441
 21
-141.000000
  0
LINE
  8
0
 10
-234.517502
 20
-141.000046
 11
-226.250092
 21
-155.000061
  0
LINE
  8
0
 10
-72.250000
 20
-133.000000
 11
-72.250000
 21
-185.000000
  0
LINE
  8
0
 10
-50.250000
 20
-133.000000
 11
-50.250000
 21
-185.000000
  0
LINE
  8
0
 10
-28.250000
 20
-133.000000
 11
-28.250000
 21
-185.000000
  0
CIRCLE
  8
0
 10
98.000038
 20
72.999954
 40
1.650000
  0
CIRCLE
  8
0
 10
98.000038
 20
106.999985
 40
1.650000
  0
CIRCLE
  8
0
 10
-48.999977
 20
72.999969
 40
1.650000
  0
CIRCLE
  8
0
 10
-12.999975
 20
89.999977
 40
2.250000
  0
CIRCLE
  8
0
 10
32.000038
 20
113.499969
 40
2.250000
  0
CIRCLE
  8
0
 10
72.000038
 20
89.999977
 40
2.250000
  0
CIRCLE
  8
0
 10
32.000038
 20
66.499985
 40
2.250000
  0
CIRCLE
  8
0
 10
-12.999975
 20
89.999977
 40
4.000000
  0
CIRCLE
  8
0
 10
72.000038
 20
89.999977
 40
4.000000
  0
ARC
  8
0
 10
32.000038
 20
66.499985
 40
4.000001
 50
298.955170
 51
241.044937
  0
ARC
  8
0
 10
32.000038
 20
113.499969
 40
4.000001
 50
118.955063
 51
61.045448
  0
CIRCLE
  8
0
 62
     2
 10
-48.999977
 20
106.999985
 40
2.000000
  0
CIRCLE
  8
0
 62
     2
 10
-48.999977
 20
72.999985
 40
2.000000
  0
ARC
  8
0
 10
-28.610907
 20
93.031067
 40
1.789075
 50
145.615814
 51
214.384186
  0
ARC
  8
0
 10
-23.712576
 20
89.999977
 40
6.687390
 50
162.412079
 51
197.587921
  0
ARC
  8
0
 10
-28.610907
 20
86.968887
 40
1.789075
 50
145.615814
 51
214.384140
  0
ARC
  8
0
 10
-32.210884
 20
93.031067
 40
1.789073
 50
145.615784
 51
214.384140
  0
ARC
  8
0
 10
-27.312582
 20
89.999977
 40
6.687390
 50
162.412079
 51
197.587921
  0
ARC
  8
0
 10
-32.210884
 20
86.968887
 40
1.789077
 50
145.615860
 51
214.384140
  0
ARC
  8
0
 10
-29.789038
 20
93.031067
 40
1.789073
 50
325.615784
 51
34.384178
  0
ARC
  8
0
 10
-34.687386
 20
89.999977
 40
6.687393
 50
342.412018
 51
17.587914
  0
ARC
  8
0
 10
-29.789038
 20
86.968887
 40
1.789075
 50
325.615814
 51
34.384144
  0
CIRCLE
  8
0
 62
     2
 10
98.000031
 20
106.999969
 40
2.000000
  0
CIRCLE
  8
0
 62
     2
 10
98.000031
 20
72.999969
 40
2.000000
  0
ARC
  8
0
 10
87.610954
 20
93.031067
 40
1.789077
 50
325.615845
 51
34.384144
  0
ARC
  8
0
 10
82.712639
 20
89.999977
 40
6.687395
 50
342.412018
 51
17.587914
  0
ARC
  8
0
 10
87.610954
 20
86.968887
 40
1.789077
 50
325.615845
 51
34.384144
  0
ARC
  8
0
 10
91.210960
 20
93.031067
 40
1.789077
 50
325.615845
 51
34.384144
  0
ARC
  8
0
 10
86.312622
 20
89.999977
 40
6.687395
 50
342.412018
 51
17.587914
  0
ARC
  8
0
 10
91.210960
 20
86.968887
 40
1.789077
 50
325.615845
 51
34.384144
  0
ARC
  8
0
 10
88.789085
 20
93.031067
 40
1.789077
 50
145.615860
 51
214.384140
  0
ARC
  8
0
 10
93.687416
 20
89.999977
 40
6.687392
 50
162.412079
 51
197.587921
  0
ARC
  8
0
 10
88.789085
 20
86.968887
 40
1.789077
 50
145.615860
 51
214.384140
  0
CIRCLE
  8
0
 10
-48.999977
 20
106.999985
 40
1.650000
  0
CIRCLE
  8
0
 10
-127.500061
 20
78.000023
 40
3.899999
  0
CIRCLE
  8
0
 10
-127.500061
 20
78.000023
 40
2.980381
  0
CIRCLE
  8
0
 10
-127.500061
 20
102.000023
 40
3.899999
  0
CIRCLE
  8
0
 62
     2
 10
-127.500061
 20
113.500008
 40
2.000000
  0
CIRCLE
  8
0
 62
     2
 10
-127.500061
 20
66.500023
 40
2.000000
  0
CIRCLE
  8
0
 10
-127.500061
 20
102.000023
 40
3.500000
  0
CIRCLE
  8
0
 10
-127.500061
 20
78.000023
 40
3.500000
  0
CIRCLE
  8
0
 10
-127.500061
 20
102.000023
 40
2.980377
  0
CIRCLE
  8
0
 10
-127.500061
 20
66.500023
 40
1.650000
  0
CIRCLE
  8
0
 10
-127.500061
 20
113.500008
 40
1.650000
  0
CIRCLE
  8
0
 10
173.500076
 20
77.999985
 40
3.899999
  0
CIRCLE
  8
0
 10
173.500076
 20
101.999985
 40
3.899999
  0
CIRCLE
  8
0
 62
     2
 10
173.500076
 20
113.499969
 40
2.000000
  0
CIRCLE
  8
0
 62
     2
 10
173.500076
 20
66.499985
 40
2.000000
  0
CIRCLE
  8
0
 10
173.500076
 20
113.499969
 40
1.729499
  0
CIRCLE
  8
0
 10
173.500076
 20
66.499985
 40
1.729499
  0
CIRCLE
  8
0
 10
173.500076
 20
101.999985
 40
3.500000
  0
CIRCLE
  8
0
 10
173.500076
 20
77.999985
 40
3.500000
  0
CIRCLE
  8
0
 10
173.500076
 20
101.999985
 40
2.980377
  0
CIRCLE
  8
0
 10
173.500076
 20
77.999985
 40
2.980381
  0
ARC
  8
0
 10
87.945404
 20
6.750011
 40
5.054618
 50
339.743896
 51
20.256203
  0
ARC
  8
0
 10
84.345413
 20
6.750011
 40
5.054618
 50
339.743896
 51
20.256203
  0
ARC
  8
0
 10
92.054634
 20
6.750011
 40
5.054618
 50
159.743881
 51
200.256180
  0
CIRCLE
  8
0
 62
     2
 10
11.000013
 20
12.500011
 40
2.500000
  0
CIRCLE
  8
0
 62
     2
 10
48.000000
 20
12.500011
 40
2.500000
  0
ARC
  8
0
 10
-25.345400
 20
6.750011
 40
5.054615
 50
159.743805
 51
200.256119
  0
ARC
  8
0
 10
-28.945391
 20
6.750011
 40
5.054615
 50
159.743805
 51
200.256119
  0
ARC
  8
0
 10
-33.054630
 20
6.750011
 40
5.054614
 50
339.743805
 51
20.256126
  0
CIRCLE
  8
0
 10
11.000013
 20
12.500011
 40
2.100000
  0
CIRCLE
  8
0
 10
48.000000
 20
12.500011
 40
2.100000
  0
ARC
  8
0
 62
     4
 10
-107.639130
 20
-98.859520
 40
2.050003
 50
180.000000
 51
270.000000
  0
ARC
  8
0
 62
     4
 10
-107.639130
 20
-98.859520
 40
2.050003
 50
270.000000
 51
0.000000
  0
CIRCLE
  8
0
 62
     4
 10
-61.096390
 20
-53.759521
 40
1.250000
  0
CIRCLE
  8
0
 62
     4
 10
-61.096390
 20
-53.759521
 40
1.400000
  0
ARC
  8
0
 62
     4
 10
51.671814
 20
-98.859520
 40
2.049999
 50
180.000000
 51
270.000000
  0
ARC
  8
0
 62
     4
 10
51.671814
 20
-98.859520
 40
2.050003
 50
271.259888
 51
0.000000
  0
CIRCLE
  8
0
 62
     4
 10
114.443695
 20
-49.050514
 40
0.250000
  0
CIRCLE
  8
0
 62
     4
 10
113.831818
 20
-48.391357
 40
0.450000
  0
CIRCLE
  8
0
 62
     4
 10
113.831818
 20
-48.391357
 40
0.250000
  0
ARC
  8
0
 62
     4
 10
114.214539
 20
-48.709511
 40
3.300002
 50
137.014145
 51
222.985855
  0
CIRCLE
  8
0
 62
     4
 10
96.714539
 20
-48.709511
 40
1.250000
  0
CIRCLE
  8
0
 62
     4
 10
96.714539
 20
-48.709511
 40
1.400000
  0
CIRCLE
  8
0
 62
     4
 10
114.121887
 20
-48.709511
 40
1.300000
  0
CIRCLE
  8
0
 62
     4
 10
114.443695
 20
-49.050514
 40
0.450000
  0
TEXT
  8
0
 10
196.250259
 20
180.830002
 40
6.300000
  1
Ver. 1.0
 50
0.000000
 41
1.052632
 51
0.000000
  7
STANDARD
  0
TEXT
  8
0
 10
167.564667
 20
-192.100006
 40
9.000000
  1
KOGANEI CORP.
 50
0.000000
 41
1.052632
 51
0.000000
  7
STANDARD
  0
TEXT
  8
0
 10
-275.449738
 20
180.830002
 40
6.300000
  1
TWIN ROD CYLINDER
 50
0.000000
 41
1.052632
 51
0.000000
  7
STANDARD
  0
TEXT
  8
0
 10
-258.127045
 20
-154.550003
 40
4.500000
  1
PLACE
 50
0.000000
 41
1.052632
 51
0.000000
  7
STANDARD
  0
TEXT
  8
0
 10
-220.142654
 20
-147.050003
 40
4.500000
  1
10
 50
0.000000
 41
1.052632
 51
0.000000
  7
STANDARD
  0
TEXT
  8
0
 10
-212.642654
 20
-131.050003
 40
4.500000
  1
STRETCH LIST
 50
0.000000
 41
1.052632
 51
0.000000
  7
STANDARD
  0
TEXT
  8
0
 10
-270.049713
 20
155.830002
 40
6.300000
  1
MODEL:ATBDAD16*ST(10)
 50
0.000000
 41
1.052632
 51
0.000000
  7
STANDARD
  0
TEXT
  8
0
 10
-26.642656
 20
-132.050003
 40
4.500000
  1
(mm)
 50
0.000000
 41
1.052632
 51
0.000000
  7
STANDARD
  0
TEXT
  8
0
 10
-267.127045
 20
-140.050003
 40
4.500000
  1
STROKE
 50
0.000000
 41
1.052632
 51
0.000000
  7
STANDARD
  0
TEXT
  8
0
 10
-267.127045
 20
-148.550003
 40
4.500000
  1
STRETCH
 50
0.000000
 41
1.052632
 51
0.000000
  7
STANDARD
  0
TEXT
  8
0
 10
-251.585724
 20
-163.320007
 40
4.800000
  1
A
 50
0.000000
 41
1.052632
 51
0.000000
  7
STANDARD
  0
TEXT
  8
0
 10
-251.585724
 20
-173.320007
 40
4.800000
  1
B
 50
0.000000
 41
1.052632
 51
0.000000
  7
STANDARD
  0
TEXT
  8
0
 10
-251.585724
 20
-183.320007
 40
4.800000
  1
C
 50
0.000000
 41
1.052632
 51
0.000000
  7
STANDARD
  0
TEXT
  8
0
 10
-198.142853
 20
-147.050003
 40
4.500000
  1
20
 50
0.000000
 41
1.052632
 51
0.000000
  7
STANDARD
  0
TEXT
  8
0
 10
-176.142853
 20
-147.050003
 40
4.500000
  1
30
 50
0.000000
 41
1.052632
 51
0.000000
  7
STANDARD
  0
TEXT
  8
0
 10
-154.142853
 20
-147.050003
 40
4.500000
  1
40
 50
0.000000
 41
1.052632
 51
0.000000
  7
STANDARD
  0
TEXT
  8
0
 10
-132.142853
 20
-147.050003
 40
4.500000
  1
50
 50
0.000000
 41
1.052632
 51
0.000000
  7
STANDARD
  0
TEXT
  8
0
 10
-110.142853
 20
-147.050003
 40
4.500000
  1
60
 50
0.000000
 41
1.052632
 51
0.000000
  7
STANDARD
  0
TEXT
  8
0
 10
-217.892853
 20
-163.050003
 40
4.500000
  1
0
 50
0.000000
 41
1.052632
 51
0.000000
  7
STANDARD
  0
TEXT
  8
0
 10
-217.892853
 20
-173.049988
 40
4.500000
  1
0
 50
0.000000
 41
1.052632
 51
0.000000
  7
STANDARD
  0
TEXT
  8
0
 10
-217.892853
 20
-183.049973
 40
4.500000
  1
0
 50
0.000000
 41
1.052632
 51
0.000000
  7
STANDARD
  0
TEXT
  8
0
 10
-198.142853
 20
-183.049973
 40
4.500000
  1
10
 50
0.000000
 41
1.052632
 51
0.000000
  7
STANDARD
  0
TEXT
  8
0
 10
-176.142853
 20
-183.049973
 40
4.500000
  1
20
 50
0.000000
 41
1.052632
 51
0.000000
  7
STANDARD
  0
TEXT
  8
0
 10
-154.142853
 20
-183.049973
 40
4.500000
  1
30
 50
0.000000
 41
1.052632
 51
0.000000
  7
STANDARD
  0
TEXT
  8
0
 10
-132.142853
 20
-183.049973
 40
4.500000
  1
40
 50
0.000000
 41
1.052632
 51
0.000000
  7
STANDARD
  0
TEXT
  8
0
 10
-110.142853
 20
-183.049973
 40
4.500000
  1
50
 50
0.000000
 41
1.052632
 51
0.000000
  7
STANDARD
  0
TEXT
  8
0
 62
     3
 10
-48.862728
 20
147.753006
 40
4.500000
  1
STRETCH LINE C
 50
0.000000
 41
1.052632
 51
0.000000
  7
STANDARD
  0
TEXT
  8
0
 62
     3
 10
12.137272
 20
137.753006
 40
4.500000
  1
STRETCH LINE A
 50
0.000000
 41
1.052632
 51
0.000000
  7
STANDARD
  0
TEXT
  8
0
 62
     3
 10
27.137272
 20
127.753006
 40
4.500000
  1
STRETCH LINE B
 50
0.000000
 41
1.052632
 51
0.000000
  7
STANDARD
  0
TEXT
  8
0
 10
-88.142853
 20
-183.049973
 40
4.500000
  1
60
 50
0.000000
 41
1.052632
 51
0.000000
  7
STANDARD
  0
TEXT
  8
0
 10
-88.142853
 20
-147.050003
 40
4.500000
  1
70
 50
0.000000
 41
1.052632
 51
0.000000
  7
STANDARD
  0
TEXT
  8
0
 10
-22.142857
 20
-183.049973
 40
4.500000
  1
90
 50
0.000000
 41
1.052632
 51
0.000000
  7
STANDARD
  0
TEXT
  8
0
 10
-24.392857
 20
-147.050003
 40
4.500000
  1
100
 50
0.000000
 41
1.052632
 51
0.000000
  7
STANDARD
  0
TEXT
  8
0
 10
-195.892853
 20
-163.050003
 40
4.500000
  1
5
 50
0.000000
 41
1.052632
 51
0.000000
  7
STANDARD
  0
TEXT
  8
0
 10
-195.892853
 20
-173.049988
 40
4.500000
  1
5
 50
0.000000
 41
1.052632
 51
0.000000
  7
STANDARD
  0
TEXT
  8
0
 10
-176.142853
 20
-163.050003
 40
4.500000
  1
10
 50
0.000000
 41
1.052632
 51
0.000000
  7
STANDARD
  0
TEXT
  8
0
 10
-176.142853
 20
-173.049988
 40
4.500000
  1
10
 50
0.000000
 41
1.052632
 51
0.000000
  7
STANDARD
  0
TEXT
  8
0
 10
-154.142853
 20
-173.049988
 40
4.500000
  1
15
 50
0.000000
 41
1.052632
 51
0.000000
  7
STANDARD
  0
TEXT
  8
0
 10
-132.142853
 20
-173.049988
 40
4.500000
  1
20
 50
0.000000
 41
1.052632
 51
0.000000
  7
STANDARD
  0
TEXT
  8
0
 10
-110.142853
 20
-173.049988
 40
4.500000
  1
25
 50
0.000000
 41
1.052632
 51
0.000000
  7
STANDARD
  0
TEXT
  8
0
 10
-88.142853
 20
-173.049988
 40
4.500000
  1
30
 50
0.000000
 41
1.052632
 51
0.000000
  7
STANDARD
  0
TEXT
  8
0
 10
-22.142857
 20
-173.049988
 40
4.500000
  1
45
 50
0.000000
 41
1.052632
 51
0.000000
  7
STANDARD
  0
TEXT
  8
0
 10
-154.142853
 20
-163.050003
 40
4.500000
  1
15
 50
0.000000
 41
1.052632
 51
0.000000
  7
STANDARD
  0
TEXT
  8
0
 10
-132.142853
 20
-163.050003
 40
4.500000
  1
20
 50
0.000000
 41
1.052632
 51
0.000000
  7
STANDARD
  0
TEXT
  8
0
 10
-110.142853
 20
-163.050003
 40
4.500000
  1
25
 50
0.000000
 41
1.052632
 51
0.000000
  7
STANDARD
  0
TEXT
  8
0
 10
-88.142853
 20
-163.050003
 40
4.500000
  1
30
 50
0.000000
 41
1.052632
 51
0.000000
  7
STANDARD
  0
TEXT
  8
0
 10
-22.142857
 20
-163.050003
 40
4.500000
  1
45
 50
0.000000
 41
1.052632
 51
0.000000
  7
STANDARD
  0
TEXT
  8
0
 10
-66.142853
 20
-183.049973
 40
4.500000
  1
70
 50
0.000000
 41
1.052632
 51
0.000000
  7
STANDARD
  0
TEXT
  8
0
 10
-66.142853
 20
-173.049988
 40
4.500000
  1
35
 50
0.000000
 41
1.052632
 51
0.000000
  7
STANDARD
  0
TEXT
  8
0
 10
-66.142853
 20
-163.050003
 40
4.500000
  1
35
 50
0.000000
 41
1.052632
 51
0.000000
  7
STANDARD
  0
TEXT
  8
0
 10
-66.142853
 20
-147.050003
 40
4.500000
  1
80
 50
0.000000
 41
1.052632
 51
0.000000
  7
STANDARD
  0
TEXT
  8
0
 10
-44.142857
 20
-183.049973
 40
4.500000
  1
80
 50
0.000000
 41
1.052632
 51
0.000000
  7
STANDARD
  0
TEXT
  8
0
 10
-44.142857
 20
-173.049988
 40
4.500000
  1
40
 50
0.000000
 41
1.052632
 51
0.000000
  7
STANDARD
  0
TEXT
  8
0
 10
-44.142857
 20
-163.050003
 40
4.500000
  1
40
 50
0.000000
 41
1.052632
 51
0.000000
  7
STANDARD
  0
TEXT
  8
0
 10
-44.142857
 20
-147.050003
 40
4.500000
  1
90
 50
0.000000
 41
1.052632
 51
0.000000
  7
STANDARD
  0
ENDSEC
  0
EOF
