  0
SECTION
  2
HEADER
  9
$ACADVER
  1
AC1012
  9
$DWGCODEPAGE
  3
dos932
  9
$INSBASE
 10
0.0
 20
0.0
 30
0.0
  9
$EXTMIN
 10
-399.52490234375
 20
-276.61520833333333
 30
0.0
  9
$EXTMAX
 10
403.02503681182861
 20
276.5
 30
0.0
  9
$LIMMIN
 10
-399.52490234375
 20
-276.61520833333333
  9
$LIMMAX
 10
403.02503681182861
 20
276.5
  9
$ORTHOMODE
 70
               0
  9
$REGENMODE
 70
               1
  9
$FILLMODE
 70
               1
  9
$QTEXTMODE
 70
               0
  9
$MIRRTEXT
 70
               1
  9
$DRAGMODE
 70
               2
  9
$LTSCALE
 40
1.0
  9
$OSMODE
 70
               0
  9
$ATTMODE
 70
               1
  9
$TEXTSIZE
 40
3.2000000476837158
  9
$TRACEWID
 40
0.05
  9
$TEXTSTYLE
  7
MX_NOTE_STANDARD
  9
$CLAYER
  8
0
  9
$CELTYPE
  6
CONTINUOUS
  9
$CECOLOR
 62
             256
  9
$CELTSCALE
 40
1.0
  9
$DELOBJ
 70
               1
  9
$DISPSILH
 70
               0
  9
$DIMSCALE
 40
1.0
  9
$DIMASZ
 40
2.5
  9
$DIMEXO
 40
1.5
  9
$DIMDLI
 40
3.75
  9
$DIMRND
 40
0.0
  9
$DIMDLE
 40
0.0
  9
$DIMEXE
 40
1.5
  9
$DIMTP
 40
0.0
  9
$DIMTM
 40
0.0
  9
$DIMTXT
 40
3.2000000476837158
  9
$DIMCEN
 40
2.5
  9
$DIMTSZ
 40
0.0
  9
$DIMTOL
 70
               0
  9
$DIMLIM
 70
               0
  9
$DIMTIH
 70
               0
  9
$DIMTOH
 70
               0
  9
$DIMSE1
 70
               0
  9
$DIMSE2
 70
               0
  9
$DIMTAD
 70
               1
  9
$DIMZIN
 70
               8
  9
$DIMBLK
  1

  9
$DIMASO
 70
               1
  9
$DIMSHO
 70
               1
  9
$DIMPOST
  1

  9
$DIMAPOST
  1

  9
$DIMALT
 70
               0
  9
$DIMALTD
 70
               4
  9
$DIMALTF
 40
0.03937007874016
  9
$DIMLFAC
 40
1.0
  9
$DIMTOFL
 70
               1
  9
$DIMTVP
 40
0.0
  9
$DIMTIX
 70
               0
  9
$DIMSOXD
 70
               0
  9
$DIMSAH
 70
               0
  9
$DIMBLK1
  1

  9
$DIMBLK2
  1

  9
$DIMSTYLE
  2
MXDIMSTYLE
  9
$DIMCLRD
 70
               0
  9
$DIMCLRE
 70
               0
  9
$DIMCLRT
 70
               0
  9
$DIMTFAC
 40
1.0
  9
$DIMGAP
 40
1.0
  9
$DIMJUST
 70
               0
  9
$DIMSD1
 70
               0
  9
$DIMSD2
 70
               0
  9
$DIMTOLJ
 70
               1
  9
$DIMTZIN
 70
               0
  9
$DIMALTZ
 70
               0
  9
$DIMALTTZ
 70
               0
  9
$DIMFIT
 70
               3
  9
$DIMUPT
 70
               1
  9
$DIMUNIT
 70
               2
  9
$DIMDEC
 70
               4
  9
$DIMTDEC
 70
               4
  9
$DIMALTU
 70
               2
  9
$DIMALTTD
 70
               4
  9
$DIMTXSTY
  7
MX_NOTE_STANDARD
  9
$DIMAUNIT
 70
               0
  9
$LUNITS
 70
               2
  9
$LUPREC
 70
               4
  9
$SKETCHINC
 40
0.1
  9
$FILLETRAD
 40
0.0
  9
$AUNITS
 70
               0
  9
$AUPREC
 70
               0
  9
$MENU
  1
acad
  9
$ELEVATION
 40
0.0
  9
$PELEVATION
 40
0.0
  9
$THICKNESS
 40
0.0
  9
$LIMCHECK
 70
               0
  9
$BLIPMODE
 70
               1
  9
$CHAMFERA
 40
0.0
  9
$CHAMFERB
 40
0.0
  9
$CHAMFERC
 40
0.0
  9
$CHAMFERD
 40
0.0
  9
$SKPOLY
 70
               0
  9
$TDCREATE
 40
2453098.356770834
  9
$TDUPDATE
 40
2453098.356770834
  9
$TDINDWG
 40
0.0000000000
  9
$TDUSRTIMER
 40
0.0000000000
  9
$USRTIMER
 70
               1
  9
$ANGBASE
 50
0.0
  9
$ANGDIR
 70
               0
  9
$PDMODE
 70
               0
  9
$PDSIZE
 40
0.0
  9
$PLINEWID
 40
0.0
  9
$COORDS
 70
               1
  9
$SPLFRAME
 70
               0
  9
$SPLINETYPE
 70
               6
  9
$SPLINESEGS
 70
               8
  9
$ATTDIA
 70
               0
  9
$ATTREQ
 70
               1
  9
$HANDLING
 70
               1
  9
$HANDSEED
  5
522
  9
$SURFTAB1
 70
               6
  9
$SURFTAB2
 70
               6
  9
$SURFTYPE
 70
               6
  9
$SURFU
 70
               6
  9
$SURFV
 70
               6
  9
$UCSNAME
  2

  9
$UCSORG
 10
0.0
 20
0.0
 30
0.0
  9
$UCSXDIR
 10
1.0
 20
0.0
 30
0.0
  9
$UCSYDIR
 10
0.0
 20
1.0
 30
0.0
  9
$PUCSNAME
  2

  9
$PUCSORG
 10
0.0
 20
0.0
 30
0.0
  9
$PUCSXDIR
 10
1.0
 20
0.0
 30
0.0
  9
$PUCSYDIR
 10
0.0
 20
1.0
 30
0.0
  9
$USERI1
 70
               0
  9
$USERI2
 70
               0
  9
$USERI3
 70
               0
  9
$USERI4
 70
               0
  9
$USERI5
 70
               0
  9
$USERR1
 40
0.0
  9
$USERR2
 40
0.0
  9
$USERR3
 40
0.0
  9
$USERR4
 40
0.0
  9
$USERR5
 40
0.0
  9
$WORLDVIEW
 70
               1
  9
$SHADEDGE
 70
               3
  9
$SHADEDIF
 70
              70
  9
$TILEMODE
 70
               1
  9
$MAXACTVP
 70
              16
  9
$PINSBASE
 10
0.0
 20
0.0
 30
0.0
  9
$PLIMCHECK
 70
               0
  9
$PEXTMIN
 10
1.0000000000000000E+20
 20
1.0000000000000000E+20
 30
1.0000000000000000E+20
  9
$PEXTMAX
 10
-1.0000000000000000E+20
 20
-1.0000000000000000E+20
 30
-1.0000000000000000E+20
  9
$PLIMMIN
 10
0.0
 20
0.0
  9
$PLIMMAX
 10
12.0
 20
9.0
  9
$UNITMODE
 70
               0
  9
$VISRETAIN
 70
               0
  9
$PLINEGEN
 70
               1
  9
$PSLTSCALE
 70
               0
  9
$TREEDEPTH
 70
            3020
  9
$PICKSTYLE
 70
               1
  9
$CMLSTYLE
  2
Standard
  9
$CMLJUST
 70
               0
  9
$CMLSCALE
 40
1.0
  9
$SAVEIMAGES
 70
               0
  0
ENDSEC
  0
SECTION
  2
CLASSES
  0
CLASS
  1
LWPOLYLINE
  2
AcDbPolyline
  3
"AutoCAD"
 90
        0
280
               0
281
               1
  0
CLASS
  1
IMAGE
  2
AcDbRasterImage
  3
ISM
 90
      127
280
               0
281
               1
  0
CLASS
  1
OLE2FRAME
  2
AcDbOle2Frame
  3
""
 90
        0
280
               0
281
               1
  0
CLASS
  1
HATCH
  2
AcDbHatch
  3
"ACAD_SEDONA"
 90
        0
280
               0
281
               1
  0
CLASS
  1
DICTIONARYVAR
  2
AcDbDictionaryVar
  3
"AutoCAD"
 90
        0
280
               0
281
               0
  0
CLASS
  1
RASTERVARIABLES
  2
AcDbRasterVariables
  3
ISM
 90
        0
280
               0
281
               0
  0
CLASS
  1
IMAGEDEF
  2
AcDbRasterImageDef
  3
ISM
 90
        0
280
               0
281
               0
  0
CLASS
  1
IMAGEDEF_REACTOR
  2
AcDbRasterImageDefReactor
  3
ISM
 90
        1
280
               0
281
               0
  0
CLASS
  1
IDBUFFER
  2
AcDbIdBuffer
  3
"Acad"
 90
        0
280
               0
281
               0
  0
CLASS
  1
SPATIAL_FILTER
  2
AcDbSpatialFilter
  3
"Acad"
 90
        0
280
               0
281
               0
  0
CLASS
  1
XRECORD
  2
AcDbXrecord
  3
"<Built In>"
 90
        0
280
               0
281
               0
  0
CLASS
  1
SORTENTSTABLE
  2
AcDbSortentsTable
  3
"AutoCAD"
 90
        0
280
               0
281
               0
  0
CLASS
  1
LAYER_INDEX
  2
AcDbLayerIndex
  3
"Acad"
 90
        0
280
               0
281
               0
  0
CLASS
  1
SPATIAL_INDEX
  2
AcDbSpatialIndex
  3
"Acad"
 90
        0
280
               0
281
               0
  0
CLASS
  1
OBJECT_PTR
  2
CAseDLPNTableRecord
  3
"ASE-LPNTableRecord"
 90
        1
280
               0
281
               0
  0
CLASS
  1
LAYOUT
  2
AcDbLayout
  3
"AutoCAD 2000"
 90
        1
280
               0
281
               0
  0
CLASS
  1
PLOTSETTINGS
  2
AcDbPlotSettings
  3
"AutoCAD 2000"
 90
        1
280
               0
281
               0
  0
CLASS
  1
ACDBDICTIONARYWDFLT
  2
AcDbDictionaryWithDefault
  3
"AutoCAD 2000"
 90
        1
280
               0
281
               0
  0
CLASS
  1
ACDBPLACEHOLDER
  2
AcDbPlaceHolder
  3
"AutoCAD 2000"
 90
        1
280
               0
281
               0
  0
ENDSEC
  0
SECTION
  2
TABLES
  0
TABLE
  2
VPORT
  5
7
100
AcDbSymbolTable
 70
               1
  0
VPORT
  5
15
100
AcDbSymbolTableRecord
100
AcDbViewportTableRecord
  2
*ACTIVE
 70
               0
 10
0.0
 20
0.0
 11
1.0
 21
1.0
 12
1.7500672340393066
 22
-0.0576041666666356
 13
0.0
 23
0.0
 14
1.0
 24
1.0
 15
0.0
 25
0.0
 16
0.0
 26
0.0
 36
1.0
 17
0.0
 27
0.0
 37
0.0
 40
558.64636041666677
 41
1.7320508075688772
 42
50.0
 43
0.0
 44
0.0
 50
0.0
 51
0.0
 71
               0
 72
             100
 73
               1
 74
               1
 75
               0
 76
               0
 77
               0
 78
               0
  0
ENDTAB
  0
TABLE
  2
LTYPE
  5
4
100
AcDbSymbolTable
 70
               5
  0
LTYPE
  5
11
100
AcDbSymbolTableRecord
100
AcDbLinetypeTableRecord
  2
BYBLOCK
 70
              64
  3

 72
              65
 73
               0
 40
0.0
  0
LTYPE
  5
12
100
AcDbSymbolTableRecord
100
AcDbLinetypeTableRecord
  2
BYLAYER
 70
              64
  3

 72
              65
 73
               0
 40
0.0
  0
LTYPE
  5
13
100
AcDbSymbolTableRecord
100
AcDbLinetypeTableRecord
  2
CONTINUOUS
 70
              64
  3
Solid line
 72
              65
 73
               0
 40
0.0
  0
LTYPE
  5
10D
100
AcDbSymbolTableRecord
100
AcDbLinetypeTableRecord
  2
PHANTOM
 70
              64
  3
Phantom ______  __  __  ______  __  __  ______
 72
              65
 73
               6
 40
63.500000000000007
 49
31.75
 74
               0
 49
-6.3499999999999996
 74
               0
 49
6.3499999999999996
 74
               0
 49
-6.3499999999999996
 74
               0
 49
6.3499999999999996
 74
               0
 49
-6.3499999999999996
 74
               0
  0
LTYPE
  5
319
100
AcDbSymbolTableRecord
100
AcDbLinetypeTableRecord
  2
CENTER
 70
              64
  3
Center ____ _ ____ _ ____ _ ____ _ ____ _ ____
 72
              65
 73
               4
 40
50.800000000000004
 49
31.75
 74
               0
 49
-6.3499999999999996
 74
               0
 49
6.3499999999999996
 74
               0
 49
-6.3499999999999996
 74
               0
  0
ENDTAB
  0
TABLE
  2
LAYER
  5
2
100
AcDbSymbolTable
 70
               2
  0
LAYER
  5
14
100
AcDbSymbolTableRecord
100
AcDbLayerTableRecord
  2
0
 70
               0
 62
               7
  6
CONTINUOUS
  0
LAYER
  5
1D
100
AcDbSymbolTableRecord
100
AcDbLayerTableRecord
  2
DEFPOINTS
 70
               0
 62
               7
  6
CONTINUOUS
  0
ENDTAB
  0
TABLE
  2
STYLE
  5
3
100
AcDbSymbolTable
 70
               1
  0
STYLE
  5
17
100
AcDbSymbolTableRecord
100
AcDbTextStyleTableRecord
  2
MX_NOTE_STANDARD
 70
               0
 40
0.0
 41
1.0
 50
0.0
 71
               0
 42
3.2000000476837158
  3
txt.shx
  4
extfont.shx
  0
ENDTAB
  0
TABLE
  2
VIEW
  5
5
100
AcDbSymbolTable
 70
               0
  0
ENDTAB
  0
TABLE
  2
UCS
  5
6
100
AcDbSymbolTable
 70
               0
  0
ENDTAB
  0
TABLE
  2
APPID
  5
8
100
AcDbSymbolTable
 70
               1
  0
APPID
  5
16
100
AcDbSymbolTableRecord
100
AcDbRegAppTableRecord
  2
ACAD
 70
               0
  0
ENDTAB
  0
TABLE
  2
DIMSTYLE
  5
9
100
AcDbSymbolTable
 70
               1
  0
DIMSTYLE
105
18
100
AcDbSymbolTableRecord
100
AcDbDimStyleTableRecord
  2
MXDIMSTYLE
 70
               0
  3

  4

  5

  6

  7

 40
1.0
 41
2.5
 42
1.5
 43
3.75
 44
1.5
 45
0.0
 46
0.0
 47
0.0
 48
0.0
 71
               0
 72
               0
 73
               0
 74
               0
 75
               0
 76
               0
 77
               1
 78
               8
140
3.2000000476837158
141
2.5
142
0.0
143
0.03937007874016
144
1.0
145
0.0
146
1.0
147
1.0
170
               0
171
               4
172
               1
173
               0
174
               0
175
               0
176
               0
177
               0
178
               0
270
               2
271
               4
272
               4
273
               2
274
               4
275
               0
280
               0
281
               0
282
               0
283
               1
284
               0
285
               0
286
               0
287
               3
288
               1
340
17
  0
ENDTAB
  0
TABLE
  2
BLOCK_RECORD
  5
1
100
AcDbSymbolTable
 70
              17
  0
BLOCK_RECORD
  5
A
100
AcDbSymbolTableRecord
100
AcDbBlockTableRecord
  2
*MODEL_SPACE
  0
BLOCK_RECORD
  5
B
100
AcDbSymbolTableRecord
100
AcDbBlockTableRecord
  2
*PAPER_SPACE
  0
BLOCK_RECORD
  5
1E
100
AcDbSymbolTableRecord
100
AcDbBlockTableRecord
  2
MS_1
  0
BLOCK_RECORD
  5
1F
100
AcDbSymbolTableRecord
100
AcDbBlockTableRecord
  2
MS_2
  0
BLOCK_RECORD
  5
20
100
AcDbSymbolTableRecord
100
AcDbBlockTableRecord
  2
MS_3
  0
BLOCK_RECORD
  5
21
100
AcDbSymbolTableRecord
100
AcDbBlockTableRecord
  2
MS_4
  0
BLOCK_RECORD
  5
22
100
AcDbSymbolTableRecord
100
AcDbBlockTableRecord
  2
MS_5
  0
BLOCK_RECORD
  5
23
100
AcDbSymbolTableRecord
100
AcDbBlockTableRecord
  2
MS_6
  0
BLOCK_RECORD
  5
24
100
AcDbSymbolTableRecord
100
AcDbBlockTableRecord
  2
MS_7
  0
BLOCK_RECORD
  5
25
100
AcDbSymbolTableRecord
100
AcDbBlockTableRecord
  2
MS_8
  0
BLOCK_RECORD
  5
26
100
AcDbSymbolTableRecord
100
AcDbBlockTableRecord
  2
MS_9
  0
BLOCK_RECORD
  5
27
100
AcDbSymbolTableRecord
100
AcDbBlockTableRecord
  2
MS_10
  0
BLOCK_RECORD
  5
28
100
AcDbSymbolTableRecord
100
AcDbBlockTableRecord
  2
MS_11
  0
BLOCK_RECORD
  5
29
100
AcDbSymbolTableRecord
100
AcDbBlockTableRecord
  2
MS_12
  0
BLOCK_RECORD
  5
2A
100
AcDbSymbolTableRecord
100
AcDbBlockTableRecord
  2
MS_13
  0
BLOCK_RECORD
  5
2B
100
AcDbSymbolTableRecord
100
AcDbBlockTableRecord
  2
MS_14
  0
BLOCK_RECORD
  5
2C
100
AcDbSymbolTableRecord
100
AcDbBlockTableRecord
  2
MS_15
  0
BLOCK_RECORD
  5
2D
100
AcDbSymbolTableRecord
100
AcDbBlockTableRecord
  2
MS_16
  0
BLOCK_RECORD
  5
2E
100
AcDbSymbolTableRecord
100
AcDbBlockTableRecord
  2
MS_17
  0
ENDTAB
  0
ENDSEC
  0
SECTION
  2
BLOCKS
  0
BLOCK
  5
D
100
AcDbEntity
  8
0
100
AcDbBlockBegin
  2
*MODEL_SPACE
 70
               0
 10
0.0
 20
0.0
 30
0.0
  3
*MODEL_SPACE
  1

  0
ENDBLK
  5
E
100
AcDbEntity
  8
0
100
AcDbBlockEnd
  0
BLOCK
  5
F
100
AcDbEntity
 67
               1
  8
0
100
AcDbBlockBegin
  2
*PAPER_SPACE
 70
               0
 10
0.0
 20
0.0
 30
0.0
  3
*PAPER_SPACE
  1

  0
ENDBLK
  5
10
100
AcDbEntity
 67
               1
  8
0
100
AcDbBlockEnd
  0
BLOCK
  5
2F
100
AcDbEntity
  8
0
100
AcDbBlockBegin
  2
MS_1
 70
               0
 10
0.0
 20
0.0
 30
0.0
  3
MS_1
  1

  0
LINE
  5
30
100
AcDbEntity
  8
0
  6
CONTINUOUS
 62
               2
100
AcDbLine
 10
-19.499999988801477
 20
0.0
 30
0.0
 11
185.49999999999997
 21
0.0
 31
0.0
  0
LINE
  5
31
100
AcDbEntity
  8
0
  6
CONTINUOUS
 62
               7
100
AcDbLine
 10
7.971700772379279
 20
-19.0
 30
0.0
 11
10.000000011198523
 21
-19.0
 31
0.0
  0
LINE
  5
32
100
AcDbEntity
  8
0
  6
CONTINUOUS
 62
               7
100
AcDbLine
 10
7.971700772379279
 20
-11.5
 30
0.0
 11
10.000000011198523
 21
-11.5
 31
0.0
  0
ARC
  5
33
100
AcDbEntity
  8
0
  6
CONTINUOUS
 62
               7
100
AcDbCircle
 10
58.000000005599261
 20
-16.0
 30
0.0
 40
2.000000974649792
100
AcDbArc
 50
180.0
 51
0.0
  0
ARC
  5
34
100
AcDbEntity
  8
0
  6
CONTINUOUS
 62
               7
100
AcDbCircle
 10
58.000000005599261
 20
-14.0
 30
0.0
 40
2.000000974649792
100
AcDbArc
 50
0.0
 51
180.0
  0
CIRCLE
  5
35
100
AcDbEntity
  8
0
  6
CONTINUOUS
 62
               7
100
AcDbCircle
 10
58.000000005599261
 20
15.0
 30
0.0
 40
2.0
  0
CIRCLE
  5
36
100
AcDbEntity
  8
0
  6
CONTINUOUS
 62
               7
100
AcDbCircle
 10
20.500000011198523
 20
15.0
 30
0.0
 40
2.0999994277954102
  0
CIRCLE
  5
37
100
AcDbEntity
  8
0
  6
CONTINUOUS
 62
               2
100
AcDbCircle
 10
20.500000011198523
 20
15.0
 30
0.0
 40
2.4499998092651367
  0
LINE
  5
38
100
AcDbEntity
  8
0
  6
CONTINUOUS
 62
               7
100
AcDbLine
 10
56.000000005599261
 20
-14.0
 30
0.0
 11
56.000000005599261
 21
-16.0
 31
0.0
  0
LINE
  5
39
100
AcDbEntity
  8
0
  6
CONTINUOUS
 62
               7
100
AcDbLine
 10
106.0
 20
-23.5
 30
0.0
 11
10.0
 21
-23.5
 31
0.0
  0
LINE
  5
3A
100
AcDbEntity
  8
0
  6
CONTINUOUS
 62
               7
100
AcDbLine
 10
106.0
 20
23.5
 30
0.0
 11
10.0
 21
23.5
 31
0.0
  0
LINE
  5
3B
100
AcDbEntity
  8
0
  6
CONTINUOUS
 62
               7
100
AcDbLine
 10
0.0
 20
25.5
 30
0.0
 11
165.99999999999997
 21
25.5
 31
0.0
  0
LINE
  5
3C
100
AcDbEntity
  8
0
  6
CONTINUOUS
 62
               7
100
AcDbLine
 10
0.0
 20
-25.500000024150211
 30
0.0
 11
0.0
 21
25.499999975849789
 31
0.0
  0
LINE
  5
3D
100
AcDbEntity
  8
0
  6
CONTINUOUS
 62
               2
100
AcDbLine
 10
20.500000011198523
 20
9.0
 30
0.0
 11
20.500000011198523
 21
21.0
 31
0.0
  0
CIRCLE
  5
3E
100
AcDbEntity
  8
0
  6
CONTINUOUS
 62
               7
100
AcDbCircle
 10
20.500000011198523
 20
-15.0
 30
0.0
 40
2.0999994277954102
  0
CIRCLE
  5
3F
100
AcDbEntity
  8
0
  6
CONTINUOUS
 62
               2
100
AcDbCircle
 10
20.500000011198523
 20
-15.0
 30
0.0
 40
2.4499998092651367
  0
CIRCLE
  5
40
100
AcDbEntity
  8
0
  6
CONTINUOUS
 62
               2
100
AcDbCircle
 10
95.5
 20
-15.0
 30
0.0
 40
2.4499998092651367
  0
CIRCLE
  5
41
100
AcDbEntity
  8
0
  6
CONTINUOUS
 62
               7
100
AcDbCircle
 10
95.5
 20
-15.0
 30
0.0
 40
2.0999994277954102
  0
LINE
  5
42
100
AcDbEntity
  8
0
  6
CONTINUOUS
 62
               7
100
AcDbLine
 10
106.0
 20
-25.5
 30
0.0
 11
106.0
 21
25.5
 31
0.0
  0
LINE
  5
43
100
AcDbEntity
  8
0
  6
CONTINUOUS
 62
               7
100
AcDbLine
 10
-15.0
 20
20.899999999999949
 30
0.0
 11
-15.0
 21
18.099999999999966
 31
0.0
  0
LINE
  5
44
100
AcDbEntity
  8
0
  6
CONTINUOUS
 62
               7
100
AcDbLine
 10
-14.400000000000006
 20
17.499999999999943
 30
0.0
 11
-2.4000000000000057
 21
17.499999999999943
 31
0.0
  0
LINE
  5
45
100
AcDbEntity
  8
0
  6
CONTINUOUS
 62
               7
100
AcDbLine
 10
-14.400000000000006
 20
21.499999999999943
 30
0.0
 11
-2.4000000000000057
 21
21.499999999999943
 31
0.0
  0
LINE
  5
46
100
AcDbEntity
  8
0
  6
CONTINUOUS
 62
               2
100
AcDbLine
 10
-14.75
 20
21.149999999999935
 30
0.0
 11
-2.4000000000000057
 21
21.149999999999935
 31
0.0
  0
LINE
  5
47
100
AcDbEntity
  8
0
  6
CONTINUOUS
 62
               2
100
AcDbLine
 10
-14.750000000000028
 20
17.84999999999998
 30
0.0
 11
-2.4000000000000057
 21
17.84999999999998
 31
0.0
  0
LINE
  5
48
100
AcDbEntity
  8
0
  6
CONTINUOUS
 62
               7
100
AcDbLine
 10
-14.400000000000006
 20
21.499999999999943
 30
0.0
 11
-14.400000000000006
 21
17.499999999999943
 31
0.0
  0
LINE
  5
49
100
AcDbEntity
  8
0
  6
CONTINUOUS
 62
               7
100
AcDbLine
 10
-15.0
 20
20.899999999999949
 30
0.0
 11
-14.400000000000006
 21
21.499999999999943
 31
0.0
  0
LINE
  5
4A
100
AcDbEntity
  8
0
  6
CONTINUOUS
 62
               7
100
AcDbLine
 10
-15.0
 20
18.099999999999966
 30
0.0
 11
-14.400000000000006
 21
17.499999999999943
 31
0.0
  0
LINE
  5
4B
100
AcDbEntity
  8
0
  6
CONTINUOUS
 62
               7
100
AcDbLine
 10
-2.4000000000000057
 20
22.999999999999943
 30
0.0
 11
0.0
 21
22.999999999999943
 31
0.0
  0
LINE
  5
4C
100
AcDbEntity
  8
0
  6
CONTINUOUS
 62
               7
100
AcDbLine
 10
-2.0800000000000125
 20
19.499999999999943
 30
0.0
 11
-0.3100000000000023
 21
19.499999999999943
 31
0.0
  0
LINE
  5
4D
100
AcDbEntity
  8
0
  6
CONTINUOUS
 62
               7
100
AcDbLine
 10
-2.4000000000000057
 20
22.999999999999943
 30
0.0
 11
-2.4000000000000057
 21
15.999999999999943
 31
0.0
  0
LINE
  5
4E
100
AcDbEntity
  8
0
  6
CONTINUOUS
 62
               7
100
AcDbLine
 10
-2.4000000000000057
 20
15.999999999999943
 30
0.0
 11
0.0
 21
15.999999999999943
 31
0.0
  0
LINE
  5
4F
100
AcDbEntity
  8
0
  6
CONTINUOUS
 62
               7
100
AcDbLine
 10
9.3999999999999773
 20
17.499999680713643
 30
0.0
 11
9.3999999999999773
 21
21.499999680713643
 31
0.0
  0
LINE
  5
50
100
AcDbEntity
  8
0
  6
CONTINUOUS
 62
               7
100
AcDbLine
 10
9.3999999999999773
 20
17.499999680713643
 30
0.0
 11
7.9999999999999716
 21
17.499999680713643
 31
0.0
  0
LINE
  5
51
100
AcDbEntity
  8
0
  6
CONTINUOUS
 62
               7
100
AcDbLine
 10
9.9999999999999716
 20
18.099999680713665
 30
0.0
 11
9.3999999999999773
 21
17.499999680713643
 31
0.0
  0
LINE
  5
52
100
AcDbEntity
  8
0
  6
CONTINUOUS
 62
               7
100
AcDbLine
 10
9.9999999999999716
 20
20.899999680713648
 30
0.0
 11
9.3999999999999773
 21
21.499999680713643
 31
0.0
  0
LINE
  5
53
100
AcDbEntity
  8
0
  6
CONTINUOUS
 62
               7
100
AcDbLine
 10
9.3999999999999773
 20
21.499999680713643
 30
0.0
 11
7.9999999999999716
 21
21.499999680713643
 31
0.0
  0
ARC
  5
54
100
AcDbEntity
  8
0
  6
CONTINUOUS
 62
               7
100
AcDbCircle
 10
-5.0546417236328978
 20
17.749999999999943
 30
0.0
 40
5.0570866203416127
100
AcDbArc
 50
339.75415341861674
 51
20.245846581383233
  0
ARC
  5
55
100
AcDbEntity
  8
0
  6
CONTINUOUS
 62
               7
100
AcDbCircle
 10
-5.0546417236328978
 20
21.249999999999943
 30
0.0
 40
5.0570866203416127
100
AcDbArc
 50
339.75415341861674
 51
20.245846581383233
  0
ARC
  5
56
100
AcDbEntity
  8
0
  6
CONTINUOUS
 62
               7
100
AcDbCircle
 10
2.6546173095703978
 20
17.749999999999943
 30
0.0
 40
5.0476827424159323
100
AcDbArc
 50
159.7147778109551
 51
200.2852221890449
  0
ARC
  5
57
100
AcDbEntity
  8
0
  6
CONTINUOUS
 62
               7
100
AcDbCircle
 10
2.6546173095703978
 20
21.249999999999943
 30
0.0
 40
5.0476827424159323
100
AcDbArc
 50
159.7147778109551
 51
200.2852221890449
  0
LINE
  5
58
100
AcDbEntity
  8
0
  6
CONTINUOUS
 62
               2
100
AcDbLine
 10
54.000000005599261
 20
15.0
 30
0.0
 11
62.000000005599261
 21
15.0
 31
0.0
  0
LINE
  5
59
100
AcDbEntity
  8
0
  6
CONTINUOUS
 62
               2
100
AcDbLine
 10
58.000000005599261
 20
19.0
 30
0.0
 11
58.000000005599261
 21
11.0
 31
0.0
  0
LINE
  5
5A
100
AcDbEntity
  8
0
  6
CONTINUOUS
 62
               2
100
AcDbLine
 10
14.492020274870384
 20
15.0
 30
0.0
 11
26.492020274870413
 21
15.0
 31
0.0
  0
LINE
  5
5B
100
AcDbEntity
  8
0
  6
CONTINUOUS
 62
               2
100
AcDbLine
 10
14.492020274870384
 20
-15.0
 30
0.0
 11
26.492020274870413
 21
-15.0
 31
0.0
  0
LINE
  5
5C
100
AcDbEntity
  8
0
  6
CONTINUOUS
 62
               2
100
AcDbLine
 10
62.000000005599261
 20
-15.0
 30
0.0
 11
54.000000005599261
 21
-15.0
 31
0.0
  0
LINE
  5
5D
100
AcDbEntity
  8
0
  6
CONTINUOUS
 62
               2
100
AcDbLine
 10
58.000000005599261
 20
-19.0
 30
0.0
 11
58.000000005599261
 21
-11.0
 31
0.0
  0
LINE
  5
5E
100
AcDbEntity
  8
0
  6
CONTINUOUS
 62
               2
100
AcDbLine
 10
95.5
 20
-10.102542498152275
 30
0.0
 11
95.5
 21
-21.0
 31
0.0
  0
LINE
  5
5F
100
AcDbEntity
  8
0
  6
CONTINUOUS
 62
               2
100
AcDbLine
 10
90.604562761824155
 20
-15.0
 30
0.0
 11
101.50202026367188
 21
-15.0
 31
0.0
  0
CIRCLE
  5
60
100
AcDbEntity
  8
0
  6
CONTINUOUS
 62
               7
100
AcDbCircle
 10
4.0
 20
11.999999704863853
 30
0.0
 40
3.25
  0
CIRCLE
  5
61
100
AcDbEntity
  8
0
  6
CONTINUOUS
 62
               7
100
AcDbCircle
 10
4.0
 20
11.999999704863853
 30
0.0
 40
1.7
  0
CIRCLE
  5
62
100
AcDbEntity
  8
0
  6
CONTINUOUS
 62
               7
100
AcDbCircle
 10
4.0
 20
-11.999999704863882
 30
0.0
 40
3.25
  0
CIRCLE
  5
63
100
AcDbEntity
  8
0
  6
CONTINUOUS
 62
               7
100
AcDbCircle
 10
4.0
 20
-11.999999704863882
 30
0.0
 40
1.7
  0
LINE
  5
64
100
AcDbEntity
  8
0
  6
CONTINUOUS
 62
               7
100
AcDbLine
 10
150.49999999999997
 20
-11.5
 30
0.0
 11
150.49999999999997
 21
-18.5
 31
0.0
  0
LINE
  5
65
100
AcDbEntity
  8
0
  6
CONTINUOUS
 62
               7
100
AcDbLine
 10
106.0
 20
-18.5
 30
0.0
 11
150.49999999999997
 21
-18.5
 31
0.0
  0
LINE
  5
66
100
AcDbEntity
  8
0
  6
CONTINUOUS
 62
               2
100
AcDbLine
 10
152.87957296037283
 20
-14.999984741210938
 30
0.0
 11
104.33879537926286
 21
-14.999984741210938
 31
0.0
  0
LINE
  5
67
100
AcDbEntity
  8
0
  6
CONTINUOUS
 62
               2
100
AcDbLine
 10
9.0
 20
11.999999704863853
 30
0.0
 11
-1.0
 21
11.999999704863853
 31
0.0
  0
LINE
  5
68
100
AcDbEntity
  8
0
  6
CONTINUOUS
 62
               2
100
AcDbLine
 10
9.0
 20
-11.999999704863882
 30
0.0
 11
-1.0
 21
-11.999999704863882
 31
0.0
  0
LINE
  5
69
100
AcDbEntity
  8
0
  6
CONTINUOUS
 62
               2
100
AcDbLine
 10
4.0
 20
6.9999997048638534
 30
0.0
 11
4.0
 21
16.999999704863853
 31
0.0
  0
LINE
  5
6A
100
AcDbEntity
  8
0
  6
CONTINUOUS
 62
               2
100
AcDbLine
 10
4.0
 20
-16.999999704863882
 30
0.0
 11
4.0
 21
-6.9999997048638818
 31
0.0
  0
LINE
  5
6B
100
AcDbEntity
  8
0
  6
CONTINUOUS
 62
               2
100
AcDbLine
 10
161.99999999999997
 20
-16.999999704863882
 30
0.0
 11
161.99999999999997
 21
-6.9999997048638818
 31
0.0
  0
LINE
  5
6C
100
AcDbEntity
  8
0
  6
CONTINUOUS
 62
               2
100
AcDbLine
 10
161.99999999999997
 20
6.9999997048638534
 30
0.0
 11
161.99999999999997
 21
16.999999704863853
 31
0.0
  0
LINE
  5
6D
100
AcDbEntity
  8
0
  6
CONTINUOUS
 62
               2
100
AcDbLine
 10
156.99999999999997
 20
-11.999999704863882
 30
0.0
 11
166.99999999999997
 21
-11.999999704863882
 31
0.0
  0
LINE
  5
6E
100
AcDbEntity
  8
0
  6
CONTINUOUS
 62
               2
100
AcDbLine
 10
156.99999999999997
 20
11.999999704863853
 30
0.0
 11
166.99999999999997
 21
11.999999704863853
 31
0.0
  0
CIRCLE
  5
6F
100
AcDbEntity
  8
0
  6
CONTINUOUS
 62
               7
100
AcDbCircle
 10
161.99999999999997
 20
-11.999999704863882
 30
0.0
 40
1.7
  0
CIRCLE
  5
70
100
AcDbEntity
  8
0
  6
CONTINUOUS
 62
               7
100
AcDbCircle
 10
161.99999999999997
 20
-11.999999704863882
 30
0.0
 40
3.25
  0
CIRCLE
  5
71
100
AcDbEntity
  8
0
  6
CONTINUOUS
 62
               7
100
AcDbCircle
 10
161.99999999999997
 20
11.999999704863853
 30
0.0
 40
1.7
  0
CIRCLE
  5
72
100
AcDbEntity
  8
0
  6
CONTINUOUS
 62
               7
100
AcDbCircle
 10
161.99999999999997
 20
11.999999704863853
 30
0.0
 40
3.25
  0
ARC
  5
73
100
AcDbEntity
  8
0
  6
CONTINUOUS
 62
               7
100
AcDbCircle
 10
163.34655497697224
 20
21.249999680713643
 30
0.0
 40
5.0476827424159323
100
AcDbArc
 50
339.71477781095513
 51
20.285222189044891
  0
ARC
  5
74
100
AcDbEntity
  8
0
  6
CONTINUOUS
 62
               7
100
AcDbCircle
 10
163.34655497697224
 20
17.749999680713643
 30
0.0
 40
5.0476827424159323
100
AcDbArc
 50
339.71477781095513
 51
20.285222189044891
  0
ARC
  5
75
100
AcDbEntity
  8
0
  6
CONTINUOUS
 62
               7
100
AcDbCircle
 10
171.05581401017554
 20
21.249999680713643
 30
0.0
 40
5.0570866203416127
100
AcDbArc
 50
159.75415341861677
 51
200.24584658138323
  0
ARC
  5
76
100
AcDbEntity
  8
0
  6
CONTINUOUS
 62
               7
100
AcDbCircle
 10
171.05581401017554
 20
17.749999680713643
 30
0.0
 40
5.0570866203416127
100
AcDbArc
 50
159.75415341861677
 51
200.24584658138323
  0
LINE
  5
77
100
AcDbEntity
  8
0
  6
CONTINUOUS
 62
               7
100
AcDbLine
 10
156.60117231515289
 20
21.499999680713643
 30
0.0
 11
158.00117228654267
 21
21.499999680713643
 31
0.0
  0
LINE
  5
78
100
AcDbEntity
  8
0
  6
CONTINUOUS
 62
               7
100
AcDbLine
 10
156.00117231515287
 20
20.899999680713648
 30
0.0
 11
156.60117231515289
 21
21.499999680713643
 31
0.0
  0
LINE
  5
79
100
AcDbEntity
  8
0
  6
CONTINUOUS
 62
               7
100
AcDbLine
 10
156.00117231515287
 20
18.099999680713665
 30
0.0
 11
156.00117231515287
 21
20.899999680713648
 31
0.0
  0
LINE
  5
7A
100
AcDbEntity
  8
0
  6
CONTINUOUS
 62
               7
100
AcDbLine
 10
156.00117231515287
 20
18.099999680713665
 30
0.0
 11
156.60117231515289
 21
17.499999680713643
 31
0.0
  0
LINE
  5
7B
100
AcDbEntity
  8
0
  6
CONTINUOUS
 62
               7
100
AcDbLine
 10
156.60117231515289
 20
17.499999680713643
 30
0.0
 11
158.00117228654267
 21
17.499999680713643
 31
0.0
  0
LINE
  5
7C
100
AcDbEntity
  8
0
  6
CONTINUOUS
 62
               7
100
AcDbLine
 10
156.60117231515289
 20
17.499999680713643
 30
0.0
 11
156.60117231515289
 21
21.499999680713643
 31
0.0
  0
LINE
  5
7D
100
AcDbEntity
  8
0
  6
CONTINUOUS
 62
               7
100
AcDbLine
 10
168.40117228654265
 20
15.999999680713643
 30
0.0
 11
165.99999999999997
 21
15.999999680713643
 31
0.0
  0
LINE
  5
7E
100
AcDbEntity
  8
0
  6
CONTINUOUS
 62
               7
100
AcDbLine
 10
168.40117228654265
 20
22.999999680713643
 30
0.0
 11
168.40117228654265
 21
15.999999680713643
 31
0.0
  0
LINE
  5
7F
100
AcDbEntity
  8
0
  6
CONTINUOUS
 62
               7
100
AcDbLine
 10
168.08117228654265
 20
19.499999680713643
 30
0.0
 11
166.31117228654267
 21
19.499999680713643
 31
0.0
  0
LINE
  5
80
100
AcDbEntity
  8
0
  6
CONTINUOUS
 62
               7
100
AcDbLine
 10
168.40117228654265
 20
22.999999680713643
 30
0.0
 11
165.99999999999997
 21
22.999999680713643
 31
0.0
  0
LINE
  5
81
100
AcDbEntity
  8
0
  6
CONTINUOUS
 62
               7
100
AcDbLine
 10
181.00117228654267
 20
18.099999680713665
 30
0.0
 11
180.40117228654265
 21
17.499999680713643
 31
0.0
  0
LINE
  5
82
100
AcDbEntity
  8
0
  6
CONTINUOUS
 62
               7
100
AcDbLine
 10
181.00117228654267
 20
20.899999680713648
 30
0.0
 11
180.40117228654265
 21
21.499999680713643
 31
0.0
  0
LINE
  5
83
100
AcDbEntity
  8
0
  6
CONTINUOUS
 62
               7
100
AcDbLine
 10
180.40117228654265
 20
21.499999680713643
 30
0.0
 11
180.40117228654265
 21
17.499999680713643
 31
0.0
  0
LINE
  5
84
100
AcDbEntity
  8
0
  6
CONTINUOUS
 62
               2
100
AcDbLine
 10
180.75117228654267
 20
17.849999680713665
 30
0.0
 11
168.40117228654265
 21
17.849999680713665
 31
0.0
  0
LINE
  5
85
100
AcDbEntity
  8
0
  6
CONTINUOUS
 62
               7
100
AcDbLine
 10
180.40117228654265
 20
21.499999680713643
 30
0.0
 11
168.40117228654265
 21
21.499999680713643
 31
0.0
  0
LINE
  5
86
100
AcDbEntity
  8
0
  6
CONTINUOUS
 62
               7
100
AcDbLine
 10
180.40117228654265
 20
17.499999680713643
 30
0.0
 11
168.40117228654265
 21
17.499999680713643
 31
0.0
  0
LINE
  5
87
100
AcDbEntity
  8
0
  6
CONTINUOUS
 62
               7
100
AcDbLine
 10
181.00117228654267
 20
20.899999680713648
 30
0.0
 11
181.00117228654267
 21
18.099999680713665
 31
0.0
  0
LINE
  5
88
100
AcDbEntity
  8
0
  6
CONTINUOUS
 62
               7
100
AcDbLine
 10
0.0
 20
-25.5
 30
0.0
 11
165.99999999999997
 21
-25.5
 31
0.0
  0
LINE
  5
89
100
AcDbEntity
  8
0
  6
CONTINUOUS
 62
               7
100
AcDbLine
 10
7.971700772379279
 20
5.0
 30
0.0
 11
10.000000011198523
 21
5.0
 31
0.0
  0
LINE
  5
8A
100
AcDbEntity
  8
0
  6
CONTINUOUS
 62
               7
100
AcDbLine
 10
7.971700772379279
 20
-5.0
 30
0.0
 11
10.000000011198523
 21
-5.0
 31
0.0
  0
CIRCLE
  5
8B
100
AcDbEntity
  8
0
  6
CONTINUOUS
 62
               7
100
AcDbCircle
 10
19.499999999999972
 20
-7.75
 30
0.0
 40
3.25
  0
CIRCLE
  5
8C
100
AcDbEntity
  8
0
  6
CONTINUOUS
 62
               7
100
AcDbCircle
 10
19.499999999999972
 20
-7.7499998807907104
 30
0.0
 40
2.4035892486572266
  0
CIRCLE
  5
8D
100
AcDbEntity
  8
0
  6
CONTINUOUS
 62
               7
100
AcDbCircle
 10
19.499999999999972
 20
-7.75
 30
0.0
 40
2.75
  0
LINE
  5
8E
100
AcDbEntity
  8
0
  6
CONTINUOUS
 62
               7
100
AcDbLine
 10
20.749999920265253
 20
-7.0283120440430764
 30
0.0
 11
19.499999930723078
 21
-6.3066243363432761
 31
0.0
  0
LINE
  5
8F
100
AcDbEntity
  8
0
  6
CONTINUOUS
 62
               7
100
AcDbLine
 10
20.749999999999972
 20
-7.0283119678497314
 30
0.0
 11
20.749999999999972
 21
-8.4716880321502686
 31
0.0
  0
LINE
  5
90
100
AcDbEntity
  8
0
  6
CONTINUOUS
 62
               7
100
AcDbLine
 10
19.500000546113966
 20
-6.3066251622495031
 30
0.0
 11
18.250000556571791
 21
-7.0283128699493034
 31
0.0
  0
LINE
  5
91
100
AcDbEntity
  8
0
  6
CONTINUOUS
 62
               7
100
AcDbLine
 10
19.500000546113966
 20
-9.1933748377504969
 30
0.0
 11
18.250000556571791
 21
-8.4716871300506966
 31
0.0
  0
LINE
  5
92
100
AcDbEntity
  8
0
  6
CONTINUOUS
 62
               7
100
AcDbLine
 10
20.749999920265253
 20
-8.4716879559569236
 30
0.0
 11
19.499999930723078
 21
-9.1933756636567239
 31
0.0
  0
LINE
  5
93
100
AcDbEntity
  8
0
  6
CONTINUOUS
 62
               7
100
AcDbLine
 10
18.249999999999972
 20
-7.028312087059021
 30
0.0
 11
18.249999999999972
 21
-8.471687912940979
 31
0.0
  0
LINE
  5
94
100
AcDbEntity
  8
0
  6
CONTINUOUS
 62
               2
100
AcDbLine
 10
19.499999999999972
 20
1.75
 30
0.0
 11
19.499999999999972
 21
13.75
 31
0.0
  0
LINE
  5
95
100
AcDbEntity
  8
0
  6
CONTINUOUS
 62
               2
100
AcDbLine
 10
19.499999999999972
 20
-13.75
 30
0.0
 11
19.499999999999972
 21
-1.75
 31
0.0
  0
LINE
  5
96
100
AcDbEntity
  8
0
  6
CONTINUOUS
 62
               2
100
AcDbLine
 10
13.499999999999972
 20
7.75
 30
0.0
 11
25.499999999999972
 21
7.75
 31
0.0
  0
LINE
  5
97
100
AcDbEntity
  8
0
  6
CONTINUOUS
 62
               2
100
AcDbLine
 10
13.499999999999972
 20
-7.75
 30
0.0
 11
25.499999999999972
 21
-7.75
 31
0.0
  0
LINE
  5
98
100
AcDbEntity
  8
0
  6
CONTINUOUS
 62
               7
100
AcDbLine
 10
157.99999999999997
 20
-25.500000024150211
 30
0.0
 11
157.99999999999997
 21
25.499999975849789
 31
0.0
  0
LINE
  5
99
100
AcDbEntity
  8
0
  6
CONTINUOUS
 62
               7
100
AcDbLine
 10
10.000000011198523
 20
-25.500000024150211
 30
0.0
 11
10.000000011198523
 21
25.499999975849789
 31
0.0
  0
LINE
  5
9A
100
AcDbEntity
  8
0
  6
CONTINUOUS
 62
               2
100
AcDbLine
 10
20.500000011198523
 20
-21.007979736328167
 30
0.0
 11
20.500000011198523
 21
-9.0079797363281386
 31
0.0
  0
LINE
  5
9B
100
AcDbEntity
  8
0
  6
CONTINUOUS
 62
               7
100
AcDbLine
 10
7.971700772379279
 20
11.5
 30
0.0
 11
10.000000011198523
 21
11.5
 31
0.0
  0
LINE
  5
9C
100
AcDbEntity
  8
0
  6
CONTINUOUS
 62
               7
100
AcDbLine
 10
150.49999999999997
 20
11.5
 30
0.0
 11
150.49999999999997
 21
18.5
 31
0.0
  0
LINE
  5
9D
100
AcDbEntity
  8
0
  6
CONTINUOUS
 62
               2
100
AcDbLine
 10
152.87957296037283
 20
14.999984741210938
 30
0.0
 11
104.33879537926286
 21
14.999984741210938
 31
0.0
  0
LINE
  5
9E
100
AcDbEntity
  8
0
  6
CONTINUOUS
 62
               7
100
AcDbLine
 10
106.0
 20
18.5
 30
0.0
 11
150.49999999999997
 21
18.5
 31
0.0
  0
LINE
  5
9F
100
AcDbEntity
  8
0
  6
CONTINUOUS
 62
               7
100
AcDbLine
 10
60.000000980249055
 20
-14.0
 30
0.0
 11
60.000000980249055
 21
-16.0
 31
0.0
  0
CIRCLE
  5
A0
100
AcDbEntity
  8
0
  6
CONTINUOUS
 62
               2
100
AcDbCircle
 10
132.99999999999997
 20
0.0
 30
0.0
 40
2.5
  0
CIRCLE
  5
A1
100
AcDbEntity
  8
0
  6
CONTINUOUS
 62
               7
100
AcDbCircle
 10
132.99999999999997
 20
0.0
 30
0.0
 40
2.0
  0
LINE
  5
A2
100
AcDbEntity
  8
0
  6
CONTINUOUS
 62
               2
100
AcDbLine
 10
132.99999999999997
 20
-3.75
 30
0.0
 11
132.99999999999997
 21
3.75
 31
0.0
  0
CIRCLE
  5
A3
100
AcDbEntity
  8
0
  6
CONTINUOUS
 62
               7
100
AcDbCircle
 10
19.499999999999972
 20
7.75
 30
0.0
 40
3.25
  0
CIRCLE
  5
A4
100
AcDbEntity
  8
0
  6
CONTINUOUS
 62
               7
100
AcDbCircle
 10
19.499999999999972
 20
7.7500001192092896
 30
0.0
 40
2.4035892486572266
  0
CIRCLE
  5
A5
100
AcDbEntity
  8
0
  6
CONTINUOUS
 62
               7
100
AcDbCircle
 10
19.499999999999972
 20
7.75
 30
0.0
 40
2.75
  0
LINE
  5
A6
100
AcDbEntity
  8
0
  6
CONTINUOUS
 62
               7
100
AcDbLine
 10
18.249999999999972
 20
8.471687912940979
 30
0.0
 11
18.249999999999972
 21
7.028312087059021
 31
0.0
  0
LINE
  5
A7
100
AcDbEntity
  8
0
  6
CONTINUOUS
 62
               7
100
AcDbLine
 10
20.749999920265253
 20
7.0283120440430764
 30
0.0
 11
19.499999930723078
 21
6.3066243363432761
 31
0.0
  0
LINE
  5
A8
100
AcDbEntity
  8
0
  6
CONTINUOUS
 62
               7
100
AcDbLine
 10
19.500000546113966
 20
6.3066251622495031
 30
0.0
 11
18.250000556571791
 21
7.0283128699493034
 31
0.0
  0
LINE
  5
A9
100
AcDbEntity
  8
0
  6
CONTINUOUS
 62
               7
100
AcDbLine
 10
19.500000546113966
 20
9.1933748377504969
 30
0.0
 11
18.250000556571791
 21
8.4716871300506966
 31
0.0
  0
LINE
  5
AA
100
AcDbEntity
  8
0
  6
CONTINUOUS
 62
               7
100
AcDbLine
 10
20.749999999999972
 20
8.4716880321502686
 30
0.0
 11
20.749999999999972
 21
7.0283119678497314
 31
0.0
  0
LINE
  5
AB
100
AcDbEntity
  8
0
  6
CONTINUOUS
 62
               7
100
AcDbLine
 10
20.749999920265253
 20
8.4716879559569236
 30
0.0
 11
19.499999930723078
 21
9.1933756636567239
 31
0.0
  0
CIRCLE
  5
AC
100
AcDbEntity
  8
0
  6
CONTINUOUS
 62
               2
100
AcDbCircle
 10
95.5
 20
15.0
 30
0.0
 40
2.4499998092651367
  0
CIRCLE
  5
AD
100
AcDbEntity
  8
0
  6
CONTINUOUS
 62
               7
100
AcDbCircle
 10
95.5
 20
15.0
 30
0.0
 40
2.0999994277954102
  0
LINE
  5
AE
100
AcDbEntity
  8
0
  6
CONTINUOUS
 62
               2
100
AcDbLine
 10
95.5
 20
10.102542498152275
 30
0.0
 11
95.5
 21
21.0
 31
0.0
  0
LINE
  5
AF
100
AcDbEntity
  8
0
  6
CONTINUOUS
 62
               2
100
AcDbLine
 10
90.606537249128849
 20
15.0
 30
0.0
 11
101.50399475097657
 21
15.0
 31
0.0
  0
LINE
  5
B0
100
AcDbEntity
  8
0
  6
CONTINUOUS
 62
               7
100
AcDbLine
 10
106.0
 20
19.0
 30
0.0
 11
156.00117231515287
 21
19.0
 31
0.0
  0
LINE
  5
B1
100
AcDbEntity
  8
0
  6
CONTINUOUS
 62
               4
100
AcDbLine
 10
157.59999999999997
 20
3.4000000000000057
 30
0.0
 11
157.59999999999997
 21
-3.4000000000000057
 31
0.0
  0
LINE
  5
B2
100
AcDbEntity
  8
0
  6
CONTINUOUS
 62
               4
100
AcDbLine
 10
152.19999999999999
 20
1.25
 30
0.0
 11
152.19999999999999
 21
-1.25
 31
0.0
  0
LINE
  5
B3
100
AcDbEntity
  8
0
  6
CONTINUOUS
 62
               4
100
AcDbLine
 10
151.99999999999997
 20
1.0499999999999972
 30
0.0
 11
151.99999999999997
 21
-1.0499999999999972
 31
0.0
  0
LINE
  5
B4
100
AcDbEntity
  8
0
  6
CONTINUOUS
 62
               4
100
AcDbLine
 10
151.99999999999997
 20
-1.0499999999999972
 30
0.0
 11
152.19999999999999
 21
-1.25
 31
0.0
  0
LINE
  5
B5
100
AcDbEntity
  8
0
  6
CONTINUOUS
 62
               4
100
AcDbLine
 10
151.99999999999997
 20
1.0499999999999972
 30
0.0
 11
152.19999999999999
 21
1.25
 31
0.0
  0
LINE
  5
B6
100
AcDbEntity
  8
0
  6
CONTINUOUS
 62
               4
100
AcDbLine
 10
157.09999999999997
 20
3.4000000000000057
 30
0.0
 11
157.99999999999997
 21
3.4000000000000057
 31
0.0
  0
LINE
  5
B7
100
AcDbEntity
  8
0
  6
CONTINUOUS
 62
               4
100
AcDbLine
 10
157.09999999999997
 20
-3.4000000000000057
 30
0.0
 11
156.99999999999997
 21
-3.2999999999999972
 31
0.0
  0
LINE
  5
B8
100
AcDbEntity
  8
0
  6
CONTINUOUS
 62
               4
100
AcDbLine
 10
157.09999999999997
 20
-3.4000000000000057
 30
0.0
 11
157.99999999999997
 21
-3.4000000000000057
 31
0.0
  0
LINE
  5
B9
100
AcDbEntity
  8
0
  6
CONTINUOUS
 62
               4
100
AcDbLine
 10
157.09999999999997
 20
3.4000000000000057
 30
0.0
 11
156.99999999999997
 21
3.2999999999999972
 31
0.0
  0
LINE
  5
BA
100
AcDbEntity
  8
0
  6
CONTINUOUS
 62
               4
100
AcDbLine
 10
156.99999999999997
 20
3.2999999999999972
 30
0.0
 11
156.99999999999997
 21
-3.2999999999999972
 31
0.0
  0
LINE
  5
BB
100
AcDbEntity
  8
0
  6
CONTINUOUS
 62
               4
100
AcDbLine
 10
152.19999999999999
 20
-1.25
 30
0.0
 11
156.99999999999997
 21
-1.25
 31
0.0
  0
LINE
  5
BC
100
AcDbEntity
  8
0
  6
CONTINUOUS
 62
               4
100
AcDbLine
 10
152.19999999999999
 20
1.25
 30
0.0
 11
156.99999999999997
 21
1.25
 31
0.0
  0
LINE
  5
BD
100
AcDbEntity
  8
0
  6
CONTINUOUS
 62
               4
100
AcDbLine
 10
180.0
 20
-2.230000000000004
 30
0.0
 11
180.0
 21
-3.3500000000000085
 31
0.0
  0
LINE
  5
BE
100
AcDbEntity
  8
0
  6
CONTINUOUS
 62
               4
100
AcDbLine
 10
180.0
 20
3.3499999999999943
 30
0.0
 11
180.0
 21
2.230000000000004
 31
0.0
  0
LINE
  5
BF
100
AcDbEntity
  8
0
  6
CONTINUOUS
 62
               4
100
AcDbLine
 10
180.0
 20
2.230000000000004
 30
0.0
 11
182.99999999999997
 21
2.230000000000004
 31
0.0
  0
LINE
  5
C0
100
AcDbEntity
  8
0
  6
CONTINUOUS
 62
               4
100
AcDbLine
 10
180.0
 20
-2.230000000000004
 30
0.0
 11
182.99999999999997
 21
-2.230000000000004
 31
0.0
  0
LINE
  5
C1
100
AcDbEntity
  8
0
  6
CONTINUOUS
 62
               4
100
AcDbLine
 10
176.99999999999997
 20
3.3499999999999943
 30
0.0
 11
176.99999999999997
 21
-3.3500000000000085
 31
0.0
  0
LINE
  5
C2
100
AcDbEntity
  8
0
  6
CONTINUOUS
 62
               4
100
AcDbLine
 10
176.44999999999999
 20
3.8999999999999773
 30
0.0
 11
176.44999999999999
 21
-3.9000000000000199
 31
0.0
  0
LINE
  5
C3
100
AcDbEntity
  8
0
  6
CONTINUOUS
 62
               4
100
AcDbLine
 10
167.99999999999997
 20
-3.9000000000000199
 30
0.0
 11
176.44999999999999
 21
-3.9000000000000199
 31
0.0
  0
LINE
  5
C4
100
AcDbEntity
  8
0
  6
CONTINUOUS
 62
             200
100
AcDbLine
 10
167.99999999999997
 20
-3.5950000000000131
 30
0.0
 11
176.755
 21
-3.5950000000000131
 31
0.0
  0
LINE
  5
C5
100
AcDbEntity
  8
0
  6
CONTINUOUS
 62
             200
100
AcDbLine
 10
167.99999999999997
 20
3.5899999999999892
 30
0.0
 11
176.755
 21
3.5899999999999892
 31
0.0
  0
LINE
  5
C6
100
AcDbEntity
  8
0
  6
CONTINUOUS
 62
               4
100
AcDbLine
 10
167.99999999999997
 20
3.8999999999999773
 30
0.0
 11
176.44999999999999
 21
3.8999999999999773
 31
0.0
  0
LINE
  5
C7
100
AcDbEntity
  8
0
  6
CONTINUOUS
 62
               4
100
AcDbLine
 10
182.99999999999997
 20
2.230000000000004
 30
0.0
 11
182.99999999999997
 21
-2.230000000000004
 31
0.0
  0
LINE
  5
C8
100
AcDbEntity
  8
0
  6
CONTINUOUS
 62
               4
100
AcDbLine
 10
176.99999999999997
 20
-3.3500000000000085
 30
0.0
 11
180.0
 21
-3.3500000000000085
 31
0.0
  0
LINE
  5
C9
100
AcDbEntity
  8
0
  6
CONTINUOUS
 62
               4
100
AcDbLine
 10
176.99999999999997
 20
3.3499999999999943
 30
0.0
 11
180.0
 21
3.3499999999999943
 31
0.0
  0
LINE
  5
CA
100
AcDbEntity
  8
0
  6
CONTINUOUS
 62
               4
100
AcDbLine
 10
176.99999999999997
 20
-3.3500000000000085
 30
0.0
 11
176.44999999999999
 21
-3.9000000000000199
 31
0.0
  0
LINE
  5
CB
100
AcDbEntity
  8
0
  6
CONTINUOUS
 62
               4
100
AcDbLine
 10
176.44999999999999
 20
3.8999999999999773
 30
0.0
 11
176.99999999999997
 21
3.3499999999999943
 31
0.0
  0
LINE
  5
CC
100
AcDbEntity
  8
0
  6
CONTINUOUS
 62
               7
100
AcDbLine
 10
166.00234457308534
 20
0.75
 30
0.0
 11
166.01598915064994
 21
0.8012503645109916
 31
0.0
  0
LINE
  5
CD
100
AcDbEntity
  8
0
  6
CONTINUOUS
 62
               4
100
AcDbLine
 10
-0.2100000034871812
 20
-0.0000000241502249
 30
0.0
 11
-1.7899999965128188
 21
-0.0000000241502249
 31
0.0
  0
LINE
  5
CE
100
AcDbEntity
  8
0
  6
CONTINUOUS
 62
               4
100
AcDbLine
 10
-13.999999988801505
 20
-2.230000000000004
 30
0.0
 11
-13.999999988801505
 21
-3.3500000000000085
 31
0.0
  0
LINE
  5
CF
100
AcDbEntity
  8
0
  6
CONTINUOUS
 62
               4
100
AcDbLine
 10
-13.999999988801505
 20
-2.230000000000004
 30
0.0
 11
-16.999999988801477
 21
-2.230000000000004
 31
0.0
  0
LINE
  5
D0
100
AcDbEntity
  8
0
  6
CONTINUOUS
 62
               4
100
AcDbLine
 10
-10.999999988801477
 20
-3.3500000000000085
 30
0.0
 11
-13.999999988801505
 21
-3.3500000000000085
 31
0.0
  0
LINE
  5
D1
100
AcDbEntity
  8
0
  6
CONTINUOUS
 62
               4
100
AcDbLine
 10
-13.999999988801505
 20
2.230000000000004
 30
0.0
 11
-16.999999988801477
 21
2.230000000000004
 31
0.0
  0
LINE
  5
D2
100
AcDbEntity
  8
0
  6
CONTINUOUS
 62
               4
100
AcDbLine
 10
-13.999999988801505
 20
3.3499999999999943
 30
0.0
 11
-13.999999988801505
 21
2.230000000000004
 31
0.0
  0
LINE
  5
D3
100
AcDbEntity
  8
0
  6
CONTINUOUS
 62
               4
100
AcDbLine
 10
-16.999999988801477
 20
2.230000000000004
 30
0.0
 11
-16.999999988801477
 21
-2.230000000000004
 31
0.0
  0
LINE
  5
D4
100
AcDbEntity
  8
0
  6
CONTINUOUS
 62
               4
100
AcDbLine
 10
-10.999999988801477
 20
3.3499999999999943
 30
0.0
 11
-13.999999988801505
 21
3.3499999999999943
 31
0.0
  0
LINE
  5
D5
100
AcDbEntity
  8
0
  6
CONTINUOUS
 62
               4
100
AcDbLine
 10
-1.999999988801477
 20
-3.9000000241502306
 30
0.0
 11
-10.449999988801466
 21
-3.9000000241502306
 31
0.0
  0
LINE
  5
D6
100
AcDbEntity
  8
0
  6
CONTINUOUS
 62
             200
100
AcDbLine
 10
-1.999999988801477
 20
-3.5950000241502238
 30
0.0
 11
-10.754999988801472
 21
-3.5950000241502238
 31
0.0
  0
LINE
  5
D7
100
AcDbEntity
  8
0
  6
CONTINUOUS
 62
             200
100
AcDbLine
 10
-1.999999988801477
 20
3.5899999758497785
 30
0.0
 11
-10.754999988801472
 21
3.5899999758497785
 31
0.0
  0
LINE
  5
D8
100
AcDbEntity
  8
0
  6
CONTINUOUS
 62
               4
100
AcDbLine
 10
-1.999999988801477
 20
3.8999999758497665
 30
0.0
 11
-10.449999988801466
 21
3.8999999758497665
 31
0.0
  0
LINE
  5
D9
100
AcDbEntity
  8
0
  6
CONTINUOUS
 62
               4
100
AcDbLine
 10
-10.449999988801466
 20
3.8999999758497665
 30
0.0
 11
-10.999999988801477
 21
3.3499999758497836
 31
0.0
  0
LINE
  5
DA
100
AcDbEntity
  8
0
  6
CONTINUOUS
 62
               4
100
AcDbLine
 10
-10.999999988801477
 20
-3.3500000241502192
 30
0.0
 11
-10.449999988801466
 21
-3.9000000241502306
 31
0.0
  0
LINE
  5
DB
100
AcDbEntity
  8
0
  6
CONTINUOUS
 62
               4
100
AcDbLine
 10
-10.449999988801466
 20
3.8999999758497665
 30
0.0
 11
-10.449999988801466
 21
-3.9000000241502306
 31
0.0
  0
LINE
  5
DC
100
AcDbEntity
  8
0
  6
CONTINUOUS
 62
               4
100
AcDbLine
 10
-10.999999988801477
 20
3.3499999758497836
 30
0.0
 11
-10.999999988801477
 21
-3.3500000241502192
 31
0.0
  0
LINE
  5
DD
100
AcDbEntity
  8
0
  6
CONTINUOUS
 62
               4
100
AcDbLine
 10
10.000000011198523
 20
1.0499999758497864
 30
0.0
 11
9.8000000111985344
 21
1.2499999758497893
 31
0.0
  0
LINE
  5
DE
100
AcDbEntity
  8
0
  6
CONTINUOUS
 62
               4
100
AcDbLine
 10
10.000000011198523
 20
-1.0500000241502079
 30
0.0
 11
9.8000000111985344
 21
-1.2500000241502107
 31
0.0
  0
LINE
  5
DF
100
AcDbEntity
  8
0
  6
CONTINUOUS
 62
               4
100
AcDbLine
 10
9.8000000111985344
 20
1.2499999758497893
 30
0.0
 11
9.8000000111985344
 21
-1.2500000241502107
 31
0.0
  0
LINE
  5
E0
100
AcDbEntity
  8
0
  6
CONTINUOUS
 62
               4
100
AcDbLine
 10
9.000000011198523
 20
3.2999999758497864
 30
0.0
 11
9.000000011198523
 21
-3.3000000241502079
 31
0.0
  0
LINE
  5
E1
100
AcDbEntity
  8
0
  6
CONTINUOUS
 62
               4
100
AcDbLine
 10
8.9000000111985287
 20
3.399999975849795
 30
0.0
 11
9.000000011198523
 21
3.2999999758497864
 31
0.0
  0
LINE
  5
E2
100
AcDbEntity
  8
0
  6
CONTINUOUS
 62
               4
100
AcDbLine
 10
8.9000000111985287
 20
-3.4000000241502164
 30
0.0
 11
8.000000011198523
 21
-3.4000000241502164
 31
0.0
  0
LINE
  5
E3
100
AcDbEntity
  8
0
  6
CONTINUOUS
 62
               4
100
AcDbLine
 10
8.9000000111985287
 20
-3.4000000241502164
 30
0.0
 11
9.000000011198523
 21
-3.3000000241502079
 31
0.0
  0
LINE
  5
E4
100
AcDbEntity
  8
0
  6
CONTINUOUS
 62
               4
100
AcDbLine
 10
8.9000000111985287
 20
3.399999975849795
 30
0.0
 11
8.000000011198523
 21
3.399999975849795
 31
0.0
  0
LINE
  5
E5
100
AcDbEntity
  8
0
  6
CONTINUOUS
 62
               4
100
AcDbLine
 10
8.4000000111985287
 20
3.399999975849795
 30
0.0
 11
8.4000000111985287
 21
-3.4000000241502164
 31
0.0
  0
LINE
  5
E6
100
AcDbEntity
  8
0
  6
CONTINUOUS
 62
               4
100
AcDbLine
 10
9.8000000111985344
 20
1.2499999758497893
 30
0.0
 11
9.000000011198523
 21
1.2499999758497893
 31
0.0
  0
LINE
  5
E7
100
AcDbEntity
  8
0
  6
CONTINUOUS
 62
               4
100
AcDbLine
 10
9.8000000111985344
 20
-1.2500000241502107
 30
0.0
 11
9.000000011198523
 21
-1.2500000241502107
 31
0.0
  0
LINE
  5
E8
100
AcDbEntity
  8
0
  6
CONTINUOUS
 62
               7
100
AcDbLine
 10
7.971700772379279
 20
8.0
 30
0.0
 11
10.000000011198523
 21
8.0
 31
0.0
  0
LINE
  5
E9
100
AcDbEntity
  8
0
  6
CONTINUOUS
 62
               7
100
AcDbLine
 10
7.971700772379279
 20
-8.0
 30
0.0
 11
10.000000011198523
 21
-8.0
 31
0.0
  0
LINE
  5
EA
100
AcDbEntity
  8
0
  6
CONTINUOUS
 62
               7
100
AcDbLine
 10
106.0
 20
11.5
 30
0.0
 11
157.99999999999997
 21
11.5
 31
0.0
  0
LINE
  5
EB
100
AcDbEntity
  8
0
  6
CONTINUOUS
 62
               7
100
AcDbLine
 10
106.0
 20
5.0
 30
0.0
 11
157.99999999999997
 21
5.0
 31
0.0
  0
LINE
  5
EC
100
AcDbEntity
  8
0
  6
CONTINUOUS
 62
               7
100
AcDbLine
 10
106.0
 20
8.0
 30
0.0
 11
157.99999999999997
 21
8.0
 31
0.0
  0
LINE
  5
ED
100
AcDbEntity
  8
0
  6
CONTINUOUS
 62
               7
100
AcDbLine
 10
106.0
 20
-5.0
 30
0.0
 11
157.99999999999997
 21
-5.0
 31
0.0
  0
LINE
  5
EE
100
AcDbEntity
  8
0
  6
CONTINUOUS
 62
               7
100
AcDbLine
 10
106.0
 20
-8.0
 30
0.0
 11
157.99999999999997
 21
-8.0
 31
0.0
  0
LINE
  5
EF
100
AcDbEntity
  8
0
  6
CONTINUOUS
 62
               7
100
AcDbLine
 10
106.0
 20
-11.5
 30
0.0
 11
157.99999999999997
 21
-11.5
 31
0.0
  0
LINE
  5
F0
100
AcDbEntity
  8
0
  6
CONTINUOUS
 62
               7
100
AcDbLine
 10
106.0
 20
-19.0
 30
0.0
 11
157.99999999999997
 21
-19.0
 31
0.0
  0
LINE
  5
F1
100
AcDbEntity
  8
0
  6
CONTINUOUS
 62
               7
100
AcDbLine
 10
7.9999999999999716
 20
-25.500000008962985
 30
0.0
 11
7.9999999999999716
 21
25.499999991037015
 31
0.0
  0
LINE
  5
F2
100
AcDbEntity
  8
0
  6
CONTINUOUS
 62
               7
100
AcDbLine
 10
165.99999999999997
 20
-25.500000008962985
 30
0.0
 11
165.99999999999997
 21
25.5
 31
0.0
  0
LINE
  5
F3
100
AcDbEntity
  8
0
  6
CONTINUOUS
 62
               7
100
AcDbLine
 10
0.0
 20
22.5
 30
0.0
 11
7.9999999999999716
 21
22.5
 31
0.0
  0
LINE
  5
F4
100
AcDbEntity
  8
0
  6
CONTINUOUS
 62
               7
100
AcDbLine
 10
0.0
 20
-22.5
 30
0.0
 11
7.9999999999999716
 21
-22.5
 31
0.0
  0
LINE
  5
F5
100
AcDbEntity
  8
0
  6
CONTINUOUS
 62
               7
100
AcDbLine
 10
157.99999999999997
 20
22.5
 30
0.0
 11
165.99999999999997
 21
22.5
 31
0.0
  0
LINE
  5
F6
100
AcDbEntity
  8
0
  6
CONTINUOUS
 62
               7
100
AcDbLine
 10
157.99999999999997
 20
-22.5
 30
0.0
 11
165.99999999999997
 21
-22.5
 31
0.0
  0
LINE
  5
F7
100
AcDbEntity
  8
0
  6
CONTINUOUS
 62
               2
100
AcDbLine
 10
180.75117228654267
 20
21.14999968071362
 30
0.0
 11
168.40117228654265
 21
21.14999968071362
 31
0.0
  0
LINE
  5
F8
100
AcDbEntity
  8
0
  6
CONTINUOUS
 62
               2
100
AcDbLine
 10
-17.5
 20
19.499999999999943
 30
0.0
 11
12.500000011198523
 21
19.499999999999943
 31
0.0
  0
LINE
  5
F9
100
AcDbEntity
  8
0
  6
CONTINUOUS
 62
               2
100
AcDbLine
 10
153.50117231515287
 20
19.499999680713643
 30
0.0
 11
183.50117228654267
 21
19.499999680713643
 31
0.0
  0
LINE
  5
FA
100
AcDbEntity
  8
0
  6
CONTINUOUS
 62
               2
100
AcDbLine
 10
7.9999999999999716
 20
21.149999999999935
 30
0.0
 11
9.7499996807136995
 21
21.149999999999935
 31
0.0
  0
LINE
  5
FB
100
AcDbEntity
  8
0
  6
CONTINUOUS
 62
               2
100
AcDbLine
 10
7.9999999999999716
 20
17.84999999999998
 30
0.0
 11
9.7500003192863005
 21
17.84999999999998
 31
0.0
  0
LINE
  5
FC
100
AcDbEntity
  8
0
  6
CONTINUOUS
 62
               2
100
AcDbLine
 10
157.99999999999997
 20
21.14999968071362
 30
0.0
 11
156.25117231515287
 21
21.14999968071362
 31
0.0
  0
LINE
  5
FD
100
AcDbEntity
  8
0
  6
CONTINUOUS
 62
               2
100
AcDbLine
 10
157.99999999999997
 20
17.849999680713665
 30
0.0
 11
156.25117231515287
 21
17.849999680713665
 31
0.0
  0
LINE
  5
FE
100
AcDbEntity
  8
0
  6
CONTINUOUS
 62
               2
100
AcDbLine
 10
167.78999999999996
 20
0.0
 30
0.0
 11
166.20999999999998
 21
0.0
 31
0.0
  0
ARC
  5
FF
100
AcDbEntity
  8
0
  6
CONTINUOUS
 62
               4
100
AcDbCircle
 10
147.7928877253371
 20
-2.8874999999998607
 30
0.0
 40
20.204508298285091
100
AcDbArc
 50
353.99842082676969
 51
8.2164818089855345
  0
ARC
  5
100
100
AcDbEntity
  8
0
  6
CONTINUOUS
 62
               4
100
AcDbCircle
 10
186.20711227466279
 20
-2.8875000000001307
 30
0.0
 40
20.204508298285091
100
AcDbArc
 50
171.78351819101366
 51
186.00157917322949
  0
ARC
  5
101
100
AcDbEntity
  8
0
  6
CONTINUOUS
 62
               4
100
AcDbCircle
 10
147.79288772533715
 20
2.8875000000001165
 30
0.0
 40
20.204508298285091
100
AcDbArc
 50
351.78351819101363
 51
6.0015791732294881
  0
ARC
  5
102
100
AcDbEntity
  8
0
  6
CONTINUOUS
 62
               4
100
AcDbCircle
 10
186.20711227466285
 20
2.8874999999998465
 30
0.0
 40
20.204508298285091
100
AcDbArc
 50
173.99842082676969
 51
188.21648180898552
  0
LINE
  5
103
100
AcDbEntity
  8
0
  6
CONTINUOUS
 62
               4
100
AcDbLine
 10
168.0000000131846
 20
5.0000000241501965
 30
0.0
 11
166.0000000131846
 21
5.0000000241502107
 31
0.0
  0
LINE
  5
104
100
AcDbEntity
  8
0
  6
CONTINUOUS
 62
               4
100
AcDbLine
 10
168.00000001318449
 20
-4.9999999758498035
 30
0.0
 11
166.00000001318449
 21
-4.9999999758497893
 31
0.0
  0
LINE
  5
105
100
AcDbEntity
  8
0
  6
CONTINUOUS
 62
               4
100
AcDbLine
 10
168.00000001318449
 20
-4.9999999758498035
 30
0.0
 11
168.0000000131846
 21
5.0000000241501965
 31
0.0
  0
ARC
  5
106
100
AcDbEntity
  8
0
  6
CONTINUOUS
 62
               4
100
AcDbCircle
 10
18.207112274662848
 20
2.8874999999999886
 30
0.0
 40
20.204508298285091
100
AcDbArc
 50
173.99842082677011
 51
188.21648180898595
  0
ARC
  5
107
100
AcDbEntity
  8
0
  6
CONTINUOUS
 62
               4
100
AcDbCircle
 10
-20.207112274662848
 20
2.8874999999999886
 30
0.0
 40
20.204508298285091
100
AcDbArc
 50
351.78351819101408
 51
6.0015791732298958
  0
ARC
  5
108
100
AcDbEntity
  8
0
  6
CONTINUOUS
 62
               4
100
AcDbCircle
 10
18.207112274662848
 20
-2.8874999999999886
 30
0.0
 40
20.204508298285091
100
AcDbArc
 50
171.78351819101405
 51
186.00157917322989
  0
ARC
  5
109
100
AcDbEntity
  8
0
  6
CONTINUOUS
 62
               4
100
AcDbCircle
 10
-20.207112274662848
 20
-2.8874999999999886
 30
0.0
 40
20.204508298285091
100
AcDbArc
 50
353.99842082677009
 51
8.2164818089859413
  0
LINE
  5
10A
100
AcDbEntity
  8
0
  6
CONTINUOUS
 62
               4
100
AcDbLine
 10
-2.0000000131845752
 20
-5.0000000241502107
 30
0.0
 11
-0.0000000131845752
 21
-5.0000000241502107
 31
0.0
  0
LINE
  5
10B
100
AcDbEntity
  8
0
  6
CONTINUOUS
 62
               4
100
AcDbLine
 10
-2.0000000131845752
 20
4.9999999758497893
 30
0.0
 11
-0.0000000131845752
 21
4.9999999758497893
 31
0.0
  0
LINE
  5
10C
100
AcDbEntity
  8
0
  6
CONTINUOUS
 62
               4
100
AcDbLine
 10
-2.0000000131845752
 20
4.9999999758497893
 30
0.0
 11
-2.0000000131845752
 21
-5.0000000241502107
 31
0.0
  0
LINE
  5
10E
100
AcDbEntity
  8
0
  6
PHANTOM
 62
               3
100
AcDbLine
 10
49.617027061179272
 20
-50.9104288765908
 30
0.0
 11
49.617027061179272
 21
35.312592199422483
 31
0.0
  0
LINE
  5
10F
100
AcDbEntity
  8
0
  6
PHANTOM
 62
               3
100
AcDbLine
 10
76.525987341819416
 20
-50.9104288765908
 30
0.0
 11
76.525987341819416
 21
45.312592199422483
 31
0.0
  0
LINE
  5
110
100
AcDbEntity
  8
0
  6
PHANTOM
 62
               3
100
AcDbLine
 10
118.24999999999999
 20
-50.9104288765908
 30
0.0
 11
118.24999999999999
 21
55.578112773210336
 31
0.0
  0
ENDBLK
  5
111
100
AcDbEntity
  8
0
100
AcDbBlockEnd
  0
BLOCK
  5
112
100
AcDbEntity
  8
0
100
AcDbBlockBegin
  2
MS_2
 70
               0
 10
0.0
 20
0.0
 30
0.0
  3
MS_2
  1

  0
CIRCLE
  5
113
100
AcDbEntity
  8
0
  6
CONTINUOUS
 62
               7
100
AcDbCircle
 10
4.0
 20
0.0
 30
0.0
 40
3.25
  0
LINE
  5
114
100
AcDbEntity
  8
0
  6
CONTINUOUS
 62
               7
100
AcDbLine
 10
13.5
 20
-15.5
 30
0.0
 11
2.5
 21
-15.5
 31
0.0
  0
LINE
  5
115
100
AcDbEntity
  8
0
  6
CONTINUOUS
 62
               7
100
AcDbLine
 10
30.5
 20
-22.5
 30
0.0
 11
27.5
 21
-25.5
 31
0.0
  0
LINE
  5
116
100
AcDbEntity
  8
0
  6
CONTINUOUS
 62
               7
100
AcDbLine
 10
27.5
 20
25.5
 30
0.0
 11
30.5
 21
22.5
 31
0.0
  0
CIRCLE
  5
117
100
AcDbEntity
  8
0
  6
CONTINUOUS
 62
               7
100
AcDbCircle
 10
11.0
 20
0.0
 30
0.0
 40
3.25
  0
LINE
  5
118
100
AcDbEntity
  8
0
  6
CONTINUOUS
 62
               7
100
AcDbLine
 10
30.5
 20
22.5
 30
0.0
 11
30.5
 21
0.4766031195840697
 31
0.0
  0
LINE
  5
119
100
AcDbEntity
  8
0
  6
CONTINUOUS
 62
               7
100
AcDbLine
 10
0.0
 20
-25.5
 30
0.0
 11
2.5
 21
-25.5
 31
0.0
  0
CIRCLE
  5
11A
100
AcDbEntity
  8
0
  6
CONTINUOUS
 62
               7
100
AcDbCircle
 10
12.5
 20
21.5
 30
0.0
 40
3.25
  0
CIRCLE
  5
11B
100
AcDbEntity
  8
0
  6
CONTINUOUS
 62
               7
100
AcDbCircle
 10
4.0
 20
21.5
 30
0.0
 40
3.25
  0
LINE
  5
11C
100
AcDbEntity
  8
0
  6
CONTINUOUS
 62
               7
100
AcDbLine
 10
28.999999975849732
 20
25.5
 30
0.0
 11
0.0
 21
25.5
 31
0.0
  0
LINE
  5
11D
100
AcDbEntity
  8
0
  6
CONTINUOUS
 62
               7
100
AcDbLine
 10
29.000000024150154
 20
-25.5
 30
0.0
 11
13.5
 21
-25.5
 31
0.0
  0
LINE
  5
11E
100
AcDbEntity
  8
0
  6
CONTINUOUS
 62
               7
100
AcDbLine
 10
0.0
 20
25.5
 30
0.0
 11
0.0
 21
-25.5
 31
0.0
  0
LINE
  5
11F
100
AcDbEntity
  8
0
  6
CONTINUOUS
 62
               7
100
AcDbLine
 10
2.5
 20
-15.5
 30
0.0
 11
2.5
 21
-25.5
 31
0.0
  0
LINE
  5
120
100
AcDbEntity
  8
0
  6
CONTINUOUS
 62
               7
100
AcDbLine
 10
13.5
 20
-15.5
 30
0.0
 11
13.5
 21
-25.5
 31
0.0
  0
LINE
  5
121
100
AcDbEntity
  8
0
  6
CONTINUOUS
 62
               2
100
AcDbLine
 10
-0.1848620349840076
 20
21.5
 30
0.0
 11
16.710112642639444
 21
21.5
 31
0.0
  0
LINE
  5
122
100
AcDbEntity
  8
0
  6
CONTINUOUS
 62
               2
100
AcDbLine
 10
11.0
 20
-4.3043158861340771
 30
0.0
 11
11.0
 21
4.881757008275315
 31
0.0
  0
CIRCLE
  5
123
100
AcDbEntity
  8
0
  6
CONTINUOUS
 62
               7
100
AcDbCircle
 10
11.000000000000057
 20
0.0000001192092896
 30
0.0
 40
2.4035892486572266
  0
CIRCLE
  5
124
100
AcDbEntity
  8
0
  6
CONTINUOUS
 62
               7
100
AcDbCircle
 10
11.000000000000057
 20
0.0
 30
0.0
 40
2.75
  0
LINE
  5
125
100
AcDbEntity
  8
0
  6
CONTINUOUS
 62
               7
100
AcDbLine
 10
11.000000546113995
 20
1.4433748377504969
 30
0.0
 11
9.7500005565718197
 21
0.7216871300506966
 31
0.0
  0
LINE
  5
126
100
AcDbEntity
  8
0
  6
CONTINUOUS
 62
               7
100
AcDbLine
 10
12.249999920265338
 20
0.7216879559569236
 30
0.0
 11
10.999999930723163
 21
1.4433756636567239
 31
0.0
  0
LINE
  5
127
100
AcDbEntity
  8
0
  6
CONTINUOUS
 62
               7
100
AcDbLine
 10
12.250000000000057
 20
0.7216880321502686
 30
0.0
 11
12.250000000000057
 21
-0.7216880321502686
 31
0.0
  0
LINE
  5
128
100
AcDbEntity
  8
0
  6
CONTINUOUS
 62
               7
100
AcDbLine
 10
12.249999920265338
 20
-0.7216879559569236
 30
0.0
 11
10.999999930723163
 21
-1.4433756636567239
 31
0.0
  0
LINE
  5
129
100
AcDbEntity
  8
0
  6
CONTINUOUS
 62
               7
100
AcDbLine
 10
11.000000546113995
 20
-1.4433748377504969
 30
0.0
 11
9.7500005565718197
 21
-0.7216871300506966
 31
0.0
  0
LINE
  5
12A
100
AcDbEntity
  8
0
  6
CONTINUOUS
 62
               7
100
AcDbLine
 10
9.7500000000000568
 20
0.721687912940979
 30
0.0
 11
9.7500000000000568
 21
-0.721687912940979
 31
0.0
  0
CIRCLE
  5
12B
100
AcDbEntity
  8
0
  6
CONTINUOUS
 62
               7
100
AcDbCircle
 10
4.0000000000000568
 20
0.0000001192092896
 30
0.0
 40
2.4035892486572266
  0
CIRCLE
  5
12C
100
AcDbEntity
  8
0
  6
CONTINUOUS
 62
               7
100
AcDbCircle
 10
4.0000000000000568
 20
0.0
 30
0.0
 40
2.75
  0
LINE
  5
12D
100
AcDbEntity
  8
0
  6
CONTINUOUS
 62
               7
100
AcDbLine
 10
4.0000005461139949
 20
1.4433748377504969
 30
0.0
 11
2.7500005565718197
 21
0.7216871300506966
 31
0.0
  0
LINE
  5
12E
100
AcDbEntity
  8
0
  6
CONTINUOUS
 62
               7
100
AcDbLine
 10
5.2499999202653385
 20
0.7216879559569236
 30
0.0
 11
3.9999999307231633
 21
1.4433756636567239
 31
0.0
  0
LINE
  5
12F
100
AcDbEntity
  8
0
  6
CONTINUOUS
 62
               2
100
AcDbLine
 10
4.0
 20
4.472084481175358
 30
0.0
 11
4.0
 21
-4.3707682889501314
 31
0.0
  0
LINE
  5
130
100
AcDbEntity
  8
0
  6
CONTINUOUS
 62
               7
100
AcDbLine
 10
5.2500000000000568
 20
0.7216880321502686
 30
0.0
 11
5.2500000000000568
 21
-0.7216880321502686
 31
0.0
  0
LINE
  5
131
100
AcDbEntity
  8
0
  6
CONTINUOUS
 62
               7
100
AcDbLine
 10
5.2499999202653385
 20
-0.7216879559569236
 30
0.0
 11
3.9999999307231633
 21
-1.4433756636567239
 31
0.0
  0
LINE
  5
132
100
AcDbEntity
  8
0
  6
CONTINUOUS
 62
               7
100
AcDbLine
 10
4.0000005461139949
 20
-1.4433748377504969
 30
0.0
 11
2.7500005565718197
 21
-0.7216871300506966
 31
0.0
  0
LINE
  5
133
100
AcDbEntity
  8
0
  6
CONTINUOUS
 62
               7
100
AcDbLine
 10
2.7500000000000568
 20
0.721687912940979
 30
0.0
 11
2.7500000000000568
 21
-0.721687912940979
 31
0.0
  0
CIRCLE
  5
134
100
AcDbEntity
  8
0
  6
CONTINUOUS
 62
               7
100
AcDbCircle
 10
12.500000000000057
 20
21.50000011920929
 30
0.0
 40
2.4035892486572266
  0
CIRCLE
  5
135
100
AcDbEntity
  8
0
  6
CONTINUOUS
 62
               7
100
AcDbCircle
 10
12.500000000000057
 20
21.5
 30
0.0
 40
2.75
  0
LINE
  5
136
100
AcDbEntity
  8
0
  6
CONTINUOUS
 62
               7
100
AcDbLine
 10
13.750000000000057
 20
22.221688032150269
 30
0.0
 11
13.750000000000057
 21
20.778311967849731
 31
0.0
  0
LINE
  5
137
100
AcDbEntity
  8
0
  6
CONTINUOUS
 62
               7
100
AcDbLine
 10
13.749999920265338
 20
20.778312044043076
 30
0.0
 11
12.499999930723163
 21
20.056624336343276
 31
0.0
  0
LINE
  5
138
100
AcDbEntity
  8
0
  6
CONTINUOUS
 62
               7
100
AcDbLine
 10
12.500000546113995
 20
20.056625162249503
 30
0.0
 11
11.25000055657182
 21
20.778312869949303
 31
0.0
  0
LINE
  5
139
100
AcDbEntity
  8
0
  6
CONTINUOUS
 62
               7
100
AcDbLine
 10
11.250000000000057
 20
22.221687912940979
 30
0.0
 11
11.250000000000057
 21
20.778312087059021
 31
0.0
  0
LINE
  5
13A
100
AcDbEntity
  8
0
  6
CONTINUOUS
 62
               7
100
AcDbLine
 10
12.500000546113995
 20
22.943374837750497
 30
0.0
 11
11.25000055657182
 21
22.221687130050697
 31
0.0
  0
LINE
  5
13B
100
AcDbEntity
  8
0
  6
CONTINUOUS
 62
               7
100
AcDbLine
 10
13.749999920265338
 20
22.221687955956924
 30
0.0
 11
12.499999930723163
 21
22.943375663656724
 31
0.0
  0
CIRCLE
  5
13C
100
AcDbEntity
  8
0
  6
CONTINUOUS
 62
               7
100
AcDbCircle
 10
4.0000000000000568
 20
21.50000011920929
 30
0.0
 40
2.4035892486572266
  0
CIRCLE
  5
13D
100
AcDbEntity
  8
0
  6
CONTINUOUS
 62
               7
100
AcDbCircle
 10
4.0000000000000568
 20
21.5
 30
0.0
 40
2.75
  0
LINE
  5
13E
100
AcDbEntity
  8
0
  6
CONTINUOUS
 62
               7
100
AcDbLine
 10
5.2500000000000568
 20
22.221688032150269
 30
0.0
 11
5.2500000000000568
 21
20.778311967849731
 31
0.0
  0
LINE
  5
13F
100
AcDbEntity
  8
0
  6
CONTINUOUS
 62
               7
100
AcDbLine
 10
5.2499999202653385
 20
20.778312044043076
 30
0.0
 11
3.9999999307231633
 21
20.056624336343276
 31
0.0
  0
LINE
  5
140
100
AcDbEntity
  8
0
  6
CONTINUOUS
 62
               7
100
AcDbLine
 10
4.0000005461139949
 20
20.056625162249503
 30
0.0
 11
2.7500005565718197
 21
20.778312869949303
 31
0.0
  0
LINE
  5
141
100
AcDbEntity
  8
0
  6
CONTINUOUS
 62
               7
100
AcDbLine
 10
2.7500000000000568
 20
22.221687912940979
 30
0.0
 11
2.7500000000000568
 21
20.778312087059021
 31
0.0
  0
LINE
  5
142
100
AcDbEntity
  8
0
  6
CONTINUOUS
 62
               7
100
AcDbLine
 10
4.0000005461139949
 20
22.943374837750497
 30
0.0
 11
2.7500005565718197
 21
22.221687130050697
 31
0.0
  0
LINE
  5
143
100
AcDbEntity
  8
0
  6
CONTINUOUS
 62
               7
100
AcDbLine
 10
5.2499999202653385
 20
22.221687955956924
 30
0.0
 11
3.9999999307231633
 21
22.943375663656724
 31
0.0
  0
LINE
  5
144
100
AcDbEntity
  8
0
  6
CONTINUOUS
 62
               2
100
AcDbLine
 10
12.5
 20
17.195684113865923
 30
0.0
 11
12.5
 21
26.381757008275315
 31
0.0
  0
LINE
  5
145
100
AcDbEntity
  8
0
  6
CONTINUOUS
 62
               2
100
AcDbLine
 10
4.0
 20
17.195684113865923
 30
0.0
 11
4.0
 21
26.381757008275315
 31
0.0
  0
ARC
  5
146
100
AcDbEntity
  8
0
  6
CONTINUOUS
 62
               7
100
AcDbCircle
 10
10.995000000000005
 20
-17.97000002415021
 30
0.0
 40
2.0750060021563712
100
AcDbArc
 50
0.0
 51
180.0
  0
ARC
  5
147
100
AcDbEntity
  8
0
  6
CONTINUOUS
 62
               7
100
AcDbCircle
 10
4.9950000000000045
 20
-17.97000002415021
 30
0.0
 40
2.0750060021563712
100
AcDbArc
 50
0.0
 51
180.0
  0
LINE
  5
148
100
AcDbEntity
  8
0
  6
CONTINUOUS
 62
               7
100
AcDbLine
 10
12.600000000000023
 20
-20.070000024150204
 30
0.0
 11
13.069999999999993
 21
-19.600000024150205
 31
0.0
  0
LINE
  5
149
100
AcDbEntity
  8
0
  6
CONTINUOUS
 62
               7
100
AcDbLine
 10
3.4000000000000341
 20
-20.070000024150204
 30
0.0
 11
2.9200000000000159
 21
-19.600000024150205
 31
0.0
  0
LINE
  5
14A
100
AcDbEntity
  8
0
  6
CONTINUOUS
 62
               2
100
AcDbLine
 10
13.560000000000002
 20
-17.97000002415021
 30
0.0
 11
8.589999999999975
 21
-17.97000002415021
 31
0.0
  0
LINE
  5
14B
100
AcDbEntity
  8
0
  6
CONTINUOUS
 62
               2
100
AcDbLine
 10
2.4399999999999977
 20
-17.97000002415021
 30
0.0
 11
7.410000000000025
 21
-17.97000002415021
 31
0.0
  0
LINE
  5
14C
100
AcDbEntity
  8
0
  6
CONTINUOUS
 62
               7
100
AcDbLine
 10
3.4000000000000341
 20
-20.600000024150205
 30
0.0
 11
2.5
 21
-21.500000024150211
 31
0.0
  0
LINE
  5
14D
100
AcDbEntity
  8
0
  6
CONTINUOUS
 62
               7
100
AcDbLine
 10
12.600000000000023
 20
-20.600000024150205
 30
0.0
 11
13.5
 21
-21.500000024150211
 31
0.0
  0
LINE
  5
14E
100
AcDbEntity
  8
0
  6
CONTINUOUS
 62
               2
100
AcDbLine
 10
5.0
 20
-15.280000024150212
 30
0.0
 11
5.0
 21
-22.600000024150205
 31
0.0
  0
LINE
  5
14F
100
AcDbEntity
  8
0
  6
CONTINUOUS
 62
               2
100
AcDbLine
 10
11.0
 20
-15.280000024150212
 30
0.0
 11
11.0
 21
-22.600000024150205
 31
0.0
  0
LINE
  5
150
100
AcDbEntity
  8
0
  6
CONTINUOUS
 62
               2
100
AcDbLine
 10
8.0
 20
-15.280000024150212
 30
0.0
 11
8.0
 21
-22.600000024150205
 31
0.0
  0
LINE
  5
151
100
AcDbEntity
  8
0
  6
CONTINUOUS
 62
               7
100
AcDbLine
 10
6.6000000000000227
 20
-20.070000024150204
 30
0.0
 11
6.6000000000000227
 21
-20.300000024150222
 31
0.0
  0
LINE
  5
152
100
AcDbEntity
  8
0
  6
CONTINUOUS
 62
               7
100
AcDbLine
 10
9.1000000000000227
 20
-20.600000024150205
 30
0.0
 11
6.9000000000000341
 21
-20.600000024150205
 31
0.0
  0
LINE
  5
153
100
AcDbEntity
  8
0
  6
CONTINUOUS
 62
               7
100
AcDbLine
 10
12.600000000000023
 20
-20.070000024150204
 30
0.0
 11
12.600000000000023
 21
-20.600000024150205
 31
0.0
  0
LINE
  5
154
100
AcDbEntity
  8
0
  6
CONTINUOUS
 62
               7
100
AcDbLine
 10
9.4000000000000341
 20
-20.070000024150204
 30
0.0
 11
9.4000000000000341
 21
-20.300000024150222
 31
0.0
  0
LINE
  5
155
100
AcDbEntity
  8
0
  6
CONTINUOUS
 62
               7
100
AcDbLine
 10
3.4000000000000341
 20
-20.070000024150204
 30
0.0
 11
3.4000000000000341
 21
-20.600000024150205
 31
0.0
  0
LINE
  5
156
100
AcDbEntity
  8
0
  6
CONTINUOUS
 62
               7
100
AcDbLine
 10
8.9200000000000159
 20
-17.97000002415021
 30
0.0
 11
8.9200000000000159
 21
-19.600000024150205
 31
0.0
  0
LINE
  5
157
100
AcDbEntity
  8
0
  6
CONTINUOUS
 62
               7
100
AcDbLine
 10
7.0699999999999932
 20
-18.000000024150211
 30
0.0
 11
7.0699999999999932
 21
-19.600000024150205
 31
0.0
  0
LINE
  5
158
100
AcDbEntity
  8
0
  6
CONTINUOUS
 62
               7
100
AcDbLine
 10
6.6000000000000227
 20
-20.070000024150204
 30
0.0
 11
7.0699999999999932
 21
-19.600000024150205
 31
0.0
  0
LINE
  5
159
100
AcDbEntity
  8
0
  6
CONTINUOUS
 62
               7
100
AcDbLine
 10
9.4000000000000341
 20
-20.070000024150204
 30
0.0
 11
8.9200000000000159
 21
-19.600000024150205
 31
0.0
  0
ARC
  5
15A
100
AcDbEntity
  8
0
  6
CONTINUOUS
 62
               7
100
AcDbCircle
 10
6.9019227427065744
 20
-20.298077281443653
 30
0.0
 40
0.3019288649715005
100
AcDbArc
 50
180.36487331810557
 51
269.63512668189446
  0
ARC
  5
15B
100
AcDbEntity
  8
0
  6
CONTINUOUS
 62
               7
100
AcDbCircle
 10
9.1019347576608993
 20
-20.301934781811127
 30
0.0
 40
0.2980715215814411
100
AcDbArc
 50
269.62809520953715
 51
0.3719047904683177
  0
LINE
  5
15C
100
AcDbEntity
  8
0
  6
CONTINUOUS
 62
               7
100
AcDbLine
 10
13.069999999999993
 20
-17.97000002415021
 30
0.0
 11
13.069999999999993
 21
-19.600000024150205
 31
0.0
  0
LINE
  5
15D
100
AcDbEntity
  8
0
  6
CONTINUOUS
 62
               7
100
AcDbLine
 10
2.9200000000000159
 20
-18.000000024150211
 30
0.0
 11
2.9200000000000159
 21
-19.600000024150205
 31
0.0
  0
LINE
  5
15E
100
AcDbEntity
  8
0
  6
CONTINUOUS
 62
               7
100
AcDbLine
 10
31.0
 20
-23.500000024150154
 30
0.0
 11
29.0
 21
-25.500000024150154
 31
0.0
  0
LINE
  5
15F
100
AcDbEntity
  8
0
  6
CONTINUOUS
 62
               7
100
AcDbLine
 10
31.0
 20
23.499999975849732
 30
0.0
 11
31.0
 21
-23.500000024150154
 31
0.0
  0
LINE
  5
160
100
AcDbEntity
  8
0
  6
CONTINUOUS
 62
               7
100
AcDbLine
 10
31.0
 20
23.499999975849732
 30
0.0
 11
29.0
 21
25.499999975849732
 31
0.0
  0
LINE
  5
161
100
AcDbEntity
  8
0
  6
CONTINUOUS
 62
               2
100
AcDbLine
 10
30.263711884725296
 20
19.499999999999943
 30
0.0
 11
21.582616310486173
 21
19.499999999999943
 31
0.0
  0
LINE
  5
162
100
AcDbEntity
  8
0
  6
CONTINUOUS
 62
               2
100
AcDbLine
 10
26.499999999999943
 20
24.152483126900478
 30
0.0
 11
26.499999999999943
 21
14.972832137824298
 31
0.0
  0
LINE
  5
163
100
AcDbEntity
  8
0
  6
CONTINUOUS
 62
               7
100
AcDbLine
 10
24.479273437218296
 20
16.000000718800891
 30
0.0
 11
22.458548427863377
 21
19.499999698431509
 31
0.0
  0
LINE
  5
164
100
AcDbEntity
  8
0
  6
CONTINUOUS
 62
               7
100
AcDbLine
 10
22.45854877693256
 20
19.499998998825049
 30
0.0
 11
24.479274263124523
 21
22.999998804361894
 31
0.0
  0
LINE
  5
165
100
AcDbEntity
  8
0
  6
CONTINUOUS
 62
               7
100
AcDbLine
 10
28.520726085944546
 20
15.999999892894664
 30
0.0
 11
30.541451572136509
 21
19.499999698431509
 31
0.0
  0
CIRCLE
  5
166
100
AcDbEntity
  8
0
  6
CONTINUOUS
 62
               7
100
AcDbCircle
 10
26.499999999999943
 20
19.499999999999943
 30
0.0
 40
3.5
  0
CIRCLE
  5
167
100
AcDbEntity
  8
0
  6
CONTINUOUS
 62
               7
100
AcDbCircle
 10
26.499999999999943
 20
19.499999999999943
 30
0.0
 40
1.6209993362426758
  0
LINE
  5
168
100
AcDbEntity
  8
0
  6
CONTINUOUS
 62
               7
100
AcDbLine
 10
30.541450746230282
 20
19.499999824731276
 30
0.0
 11
28.520725260038319
 21
22.999999630268121
 31
0.0
  0
LINE
  5
169
100
AcDbEntity
  8
0
  6
CONTINUOUS
 62
               7
100
AcDbLine
 10
24.479273796081486
 20
22.999999999999943
 30
0.0
 11
28.520725250244084
 21
22.999999999999943
 31
0.0
  0
CIRCLE
  5
16A
100
AcDbEntity
  8
0
  6
CONTINUOUS
 62
               7
100
AcDbCircle
 10
26.499999999999943
 20
19.499999999999943
 30
0.0
 40
2.0
  0
LINE
  5
16B
100
AcDbEntity
  8
0
  6
CONTINUOUS
 62
               7
100
AcDbLine
 10
26.500000546113995
 20
20.94337483775044
 30
0.0
 11
25.25000055657182
 21
20.22168713005064
 31
0.0
  0
LINE
  5
16C
100
AcDbEntity
  8
0
  6
CONTINUOUS
 62
               7
100
AcDbLine
 10
27.749999920265225
 20
20.221687955956867
 30
0.0
 11
26.49999993072305
 21
20.943375663656667
 31
0.0
  0
LINE
  5
16D
100
AcDbEntity
  8
0
  6
CONTINUOUS
 62
               7
100
AcDbLine
 10
26.500000546113995
 20
18.056625162249446
 30
0.0
 11
25.25000055657182
 21
18.778312869949247
 31
0.0
  0
LINE
  5
16E
100
AcDbEntity
  8
0
  6
CONTINUOUS
 62
               7
100
AcDbLine
 10
27.749999920265225
 20
18.77831204404302
 30
0.0
 11
26.49999993072305
 21
18.056624336343219
 31
0.0
  0
LINE
  5
16F
100
AcDbEntity
  8
0
  6
CONTINUOUS
 62
               7
100
AcDbLine
 10
25.249999999999943
 20
18.778312146663609
 30
0.0
 11
25.249999999999943
 21
20.221687853336277
 31
0.0
  0
LINE
  5
170
100
AcDbEntity
  8
0
  6
CONTINUOUS
 62
               7
100
AcDbLine
 10
27.749999999999943
 20
18.77831190824503
 30
0.0
 11
27.749999999999943
 21
20.221688091754856
 31
0.0
  0
LINE
  5
171
100
AcDbEntity
  8
0
  6
CONTINUOUS
 62
               7
100
AcDbLine
 10
24.479273796081486
 20
15.999999999999943
 30
0.0
 11
28.520725250244084
 21
15.999999999999943
 31
0.0
  0
LINE
  5
172
100
AcDbEntity
  8
0
  6
CONTINUOUS
 62
               7
100
AcDbLine
 10
30.5
 20
-0.4766031195840697
 30
0.0
 11
30.5
 21
-22.5
 31
0.0
  0
LINE
  5
173
100
AcDbEntity
  8
0
  6
CONTINUOUS
 62
               4
100
AcDbLine
 10
24.257537879754125
 20
-0.7424621202458752
 30
0.0
 11
25.742462120245875
 21
0.7424621202458752
 31
0.0
  0
LINE
  5
174
100
AcDbEntity
  8
0
  6
CONTINUOUS
 62
               4
100
AcDbLine
 10
25.742462120245875
 20
-0.7424621202458752
 30
0.0
 11
24.257537879754125
 21
0.7424621202458752
 31
0.0
  0
CIRCLE
  5
175
100
AcDbEntity
  8
0
  6
CONTINUOUS
 62
               4
100
AcDbCircle
 10
25.0
 20
0.0
 30
0.0
 40
2.1500000953674316
  0
CIRCLE
  5
176
100
AcDbEntity
  8
0
  6
CONTINUOUS
 62
               4
100
AcDbCircle
 10
25.0
 20
0.0
 30
0.0
 40
2.25
  0
ARC
  5
177
100
AcDbEntity
  8
0
  6
CONTINUOUS
 62
               4
100
AcDbCircle
 10
25.0
 20
0.0
 30
0.0
 40
2.8507718253132777
100
AcDbArc
 50
298.72274128499458
 51
61.277258715005338
  0
CIRCLE
  5
178
100
AcDbEntity
  8
0
  6
CONTINUOUS
 62
             200
100
AcDbCircle
 10
25.0
 20
0.0
 30
0.0
 40
3.5939998626708984
  0
CIRCLE
  5
179
100
AcDbEntity
  8
0
  6
CONTINUOUS
 62
               4
100
AcDbCircle
 10
25.0
 20
0.0
 30
0.0
 40
3.8999996185302734
  0
ARC
  5
17A
100
AcDbEntity
  8
0
  6
CONTINUOUS
 62
               4
100
AcDbCircle
 10
25.0
 20
0.0
 30
0.0
 40
2.8483723422333669
100
AcDbArc
 50
118.63454026675232
 51
241.36545973324772
  0
CIRCLE
  5
17B
100
AcDbEntity
  8
0
  6
CONTINUOUS
 62
               4
100
AcDbCircle
 10
25.0
 20
0.0
 30
0.0
 40
3.3499984741210937
  0
CIRCLE
  5
17C
100
AcDbEntity
  8
0
  6
CONTINUOUS
 62
               4
100
AcDbCircle
 10
25.0
 20
0.0
 30
0.0
 40
5.0
  0
LINE
  5
17D
100
AcDbEntity
  8
0
  6
CONTINUOUS
 62
             200
100
AcDbLine
 10
25.0
 20
-6.5
 30
0.0
 11
25.0
 21
6.5
 31
0.0
  0
LINE
  5
17E
100
AcDbEntity
  8
0
  6
CONTINUOUS
 62
               4
100
AcDbLine
 10
22.770000000000039
 20
2.5
 30
0.0
 11
27.229999999999961
 21
2.5
 31
0.0
  0
LINE
  5
17F
100
AcDbEntity
  8
0
  6
CONTINUOUS
 62
               4
100
AcDbLine
 10
22.770000000000039
 20
-2.5
 30
0.0
 11
27.229999999999961
 21
-2.5
 31
0.0
  0
LINE
  5
180
100
AcDbEntity
  8
0
  6
CONTINUOUS
 62
               4
100
AcDbLine
 10
22.115000000000009
 20
5.0
 30
0.0
 11
27.890000000000043
 21
5.0
 31
0.0
  0
LINE
  5
181
100
AcDbEntity
  8
0
  6
CONTINUOUS
 62
               4
100
AcDbLine
 10
19.229999999999961
 20
0.0
 30
0.0
 11
22.115000000000009
 21
5.0
 31
0.0
  0
LINE
  5
182
100
AcDbEntity
  8
0
  6
CONTINUOUS
 62
               4
100
AcDbLine
 10
27.889999999999986
 20
-5.0
 30
0.0
 11
30.775000000000034
 21
0.0
 31
0.0
  0
LINE
  5
183
100
AcDbEntity
  8
0
  6
CONTINUOUS
 62
               4
100
AcDbLine
 10
30.775000000000034
 20
0.0
 30
0.0
 11
27.890000000000043
 21
5.0
 31
0.0
  0
LINE
  5
184
100
AcDbEntity
  8
0
  6
CONTINUOUS
 62
               4
100
AcDbLine
 10
22.115000000000009
 20
-5.0
 30
0.0
 11
19.229999999999961
 21
0.0
 31
0.0
  0
LINE
  5
185
100
AcDbEntity
  8
0
  6
CONTINUOUS
 62
               4
100
AcDbLine
 10
22.115000000000009
 20
-5.0
 30
0.0
 11
27.889999999999986
 21
-5.0
 31
0.0
  0
LINE
  5
186
100
AcDbEntity
  8
0
  6
CONTINUOUS
 62
               2
100
AcDbLine
 10
-3.4855734740905859
 20
0.0
 30
0.0
 11
31.5
 21
0.0
 31
0.0
  0
ENDBLK
  5
187
100
AcDbEntity
  8
0
100
AcDbBlockEnd
  0
BLOCK
  5
188
100
AcDbEntity
  8
0
100
AcDbBlockBegin
  2
MS_3
 70
               0
 10
0.0
 20
0.0
 30
0.0
  3
MS_3
  1

  0
LINE
  5
189
100
AcDbEntity
  8
0
  6
CONTINUOUS
 62
               7
100
AcDbLine
 10
-13.5
 20
-15.5
 30
0.0
 11
-2.5
 21
-15.5
 31
0.0
  0
LINE
  5
18A
100
AcDbEntity
  8
0
  6
CONTINUOUS
 62
               2
100
AcDbLine
 10
-9.0466182361258234
 20
22.699999999999989
 30
0.0
 11
-18.218181818181847
 21
22.699999999999989
 31
0.0
  0
LINE
  5
18B
100
AcDbEntity
  8
0
  6
CONTINUOUS
 62
               7
100
AcDbLine
 10
-30.5
 20
-22.5
 30
0.0
 11
-27.5
 21
-25.5
 31
0.0
  0
LINE
  5
18C
100
AcDbEntity
  8
0
  6
CONTINUOUS
 62
               7
100
AcDbLine
 10
-27.5
 20
25.5
 30
0.0
 11
-30.5
 21
22.5
 31
0.0
  0
ARC
  5
18D
100
AcDbEntity
  8
0
  6
CONTINUOUS
 62
               7
100
AcDbCircle
 10
-2.8000000000000114
 20
0.0
 30
0.0
 40
3.25
100
AcDbArc
 50
30.510237406115696
 51
329.48976259388434
  0
ARC
  5
18E
100
AcDbEntity
  8
0
  6
CONTINUOUS
 62
               7
100
AcDbCircle
 10
-13.5
 20
22.699999999999989
 30
0.0
 40
3.25
100
AcDbArc
 50
120.51023740611539
 51
59.489762593884663
  0
CIRCLE
  5
18F
100
AcDbEntity
  8
0
  6
CONTINUOUS
 62
               7
100
AcDbCircle
 10
-9.5000000000000284
 20
17.000000000000014
 30
0.0
 40
2.2000000000000002
  0
CIRCLE
  5
190
100
AcDbEntity
  8
0
  6
CONTINUOUS
 62
               7
100
AcDbCircle
 10
-9.5
 20
-7.0
 30
0.0
 40
2.2000000000000002
  0
CIRCLE
  5
191
100
AcDbEntity
  8
0
  6
CONTINUOUS
 62
               2
100
AcDbCircle
 10
-9.5
 20
-7.0
 30
0.0
 40
2.5
  0
LINE
  5
192
100
AcDbEntity
  8
0
  6
CONTINUOUS
 62
               2
100
AcDbLine
 10
-2.8000000000000114
 20
4.472084481175358
 30
0.0
 11
-2.8000000000000114
 21
-4.3707682889501314
 31
0.0
  0
CIRCLE
  5
193
100
AcDbEntity
  8
0
  6
CONTINUOUS
 62
               2
100
AcDbCircle
 10
-9.5000000000000284
 20
17.000000000000014
 30
0.0
 40
2.5
  0
CIRCLE
  5
194
100
AcDbEntity
  8
0
  6
CONTINUOUS
 62
               7
100
AcDbCircle
 10
-10.5
 20
0.0
 30
0.0
 40
3.25
  0
LINE
  5
195
100
AcDbEntity
  8
0
  6
CONTINUOUS
 62
               2
100
AcDbLine
 10
-12.753857451258739
 20
-7.0
 30
0.0
 11
-6.2538574512587388
 21
-7.0
 31
0.0
  0
LINE
  5
196
100
AcDbEntity
  8
0
  6
CONTINUOUS
 62
               7
100
AcDbLine
 10
-13.5
 20
-15.5
 30
0.0
 11
-13.5
 21
-25.5
 31
0.0
  0
LINE
  5
197
100
AcDbEntity
  8
0
  6
CONTINUOUS
 62
               7
100
AcDbLine
 10
-2.5
 20
-15.5
 30
0.0
 11
-2.5
 21
-25.5
 31
0.0
  0
LINE
  5
198
100
AcDbEntity
  8
0
  6
CONTINUOUS
 62
               7
100
AcDbLine
 10
-29.0
 20
25.5
 30
0.0
 11
0.0
 21
25.5
 31
0.0
  0
LINE
  5
199
100
AcDbEntity
  8
0
  6
CONTINUOUS
 62
               7
100
AcDbLine
 10
-2.5
 20
-25.5
 30
0.0
 11
0.0
 21
-25.5
 31
0.0
  0
LINE
  5
19A
100
AcDbEntity
  8
0
  6
CONTINUOUS
 62
               7
100
AcDbLine
 10
-30.5
 20
22.5
 30
0.0
 11
-30.5
 21
0.4679376083189055
 31
0.0
  0
LINE
  5
19B
100
AcDbEntity
  8
0
  6
CONTINUOUS
 62
               7
100
AcDbLine
 10
-29.0
 20
-25.499999999999943
 30
0.0
 11
-13.5
 21
-25.499999999999943
 31
0.0
  0
LINE
  5
19C
100
AcDbEntity
  8
0
  6
CONTINUOUS
 62
               7
100
AcDbLine
 10
-25.699999999999989
 20
-25.499999999999943
 30
0.0
 11
-26.0
 21
-25.19999999999996
 31
0.0
  0
LINE
  5
19D
100
AcDbEntity
  8
0
  6
CONTINUOUS
 62
               7
100
AcDbLine
 10
-26.299999999999983
 20
-25.499999999999943
 30
0.0
 11
-26.0
 21
-25.19999999999996
 31
0.0
  0
LINE
  5
19E
100
AcDbEntity
  8
0
  6
CONTINUOUS
 62
               7
100
AcDbLine
 10
-31.0
 20
-23.499999999999943
 30
0.0
 11
-29.0
 21
-25.499999999999943
 31
0.0
  0
LINE
  5
19F
100
AcDbEntity
  8
0
  6
CONTINUOUS
 62
               7
100
AcDbLine
 10
-31.0
 20
23.499999999999943
 30
0.0
 11
-29.0
 21
25.499999999999943
 31
0.0
  0
LINE
  5
1A0
100
AcDbEntity
  8
0
  6
CONTINUOUS
 62
               7
100
AcDbLine
 10
-31.0
 20
23.499999999999943
 30
0.0
 11
-31.0
 21
-23.499999999999943
 31
0.0
  0
LINE
  5
1A1
100
AcDbEntity
  8
0
  6
CONTINUOUS
 62
               2
100
AcDbLine
 10
-13.5
 20
26.805422647527905
 30
0.0
 11
-13.5
 21
19.781204760152121
 31
0.0
  0
LINE
  5
1A2
100
AcDbEntity
  8
0
  6
CONTINUOUS
 62
               2
100
AcDbLine
 10
-12.775533021960825
 20
17.000000000000014
 30
0.0
 11
-6.3839886253745135
 21
17.000000000000014
 31
0.0
  0
ARC
  5
1A3
100
AcDbEntity
  8
0
  6
CONTINUOUS
 62
               7
100
AcDbCircle
 10
-9.1019347576608993
 20
-20.301934757660916
 30
0.0
 40
0.2980715215814411
100
AcDbArc
 50
179.62809520953169
 51
270.37190479046285
  0
ARC
  5
1A4
100
AcDbEntity
  8
0
  6
CONTINUOUS
 62
               7
100
AcDbCircle
 10
-6.9019227427065744
 20
-20.298077257293443
 30
0.0
 40
0.3019288649715005
100
AcDbArc
 50
270.36487331810554
 51
359.63512668189441
  0
ARC
  5
1A5
100
AcDbEntity
  8
0
  6
CONTINUOUS
 62
               7
100
AcDbCircle
 10
-10.995000000000005
 20
-17.969999999999999
 30
0.0
 40
2.0750060021563712
100
AcDbArc
 50
0.0
 51
180.0
  0
ARC
  5
1A6
100
AcDbEntity
  8
0
  6
CONTINUOUS
 62
               7
100
AcDbCircle
 10
-4.9950000000000045
 20
-17.969999999999999
 30
0.0
 40
2.0750060021563712
100
AcDbArc
 50
0.0
 51
180.0
  0
LINE
  5
1A7
100
AcDbEntity
  8
0
  6
CONTINUOUS
 62
               7
100
AcDbLine
 10
-12.600000000000023
 20
-20.069999999999993
 30
0.0
 11
-13.070000000000022
 21
-19.599999999999994
 31
0.0
  0
LINE
  5
1A8
100
AcDbEntity
  8
0
  6
CONTINUOUS
 62
               7
100
AcDbLine
 10
-9.4000000000000057
 20
-20.069999999999993
 30
0.0
 11
-8.9200000000000159
 21
-19.599999999999994
 31
0.0
  0
LINE
  5
1A9
100
AcDbEntity
  8
0
  6
CONTINUOUS
 62
               7
100
AcDbLine
 10
-3.4000000000000057
 20
-20.069999999999993
 30
0.0
 11
-2.9200000000000159
 21
-19.599999999999994
 31
0.0
  0
LINE
  5
1AA
100
AcDbEntity
  8
0
  6
CONTINUOUS
 62
               7
100
AcDbLine
 10
-6.6000000000000227
 20
-20.069999999999993
 30
0.0
 11
-7.0700000000000216
 21
-19.599999999999994
 31
0.0
  0
LINE
  5
1AB
100
AcDbEntity
  8
0
  6
CONTINUOUS
 62
               2
100
AcDbLine
 10
-13.560000000000002
 20
-17.969999999999999
 30
0.0
 11
-8.5900000000000034
 21
-17.969999999999999
 31
0.0
  0
LINE
  5
1AC
100
AcDbEntity
  8
0
  6
CONTINUOUS
 62
               2
100
AcDbLine
 10
-2.4399999999999977
 20
-17.969999999999999
 30
0.0
 11
-7.410000000000025
 21
-17.969999999999999
 31
0.0
  0
LINE
  5
1AD
100
AcDbEntity
  8
0
  6
CONTINUOUS
 62
               7
100
AcDbLine
 10
-2.9200000000000159
 20
-18.0
 30
0.0
 11
-2.9200000000000159
 21
-19.599999999999994
 31
0.0
  0
LINE
  5
1AE
100
AcDbEntity
  8
0
  6
CONTINUOUS
 62
               7
100
AcDbLine
 10
-7.0700000000000216
 20
-18.0
 30
0.0
 11
-7.0700000000000216
 21
-19.599999999999994
 31
0.0
  0
LINE
  5
1AF
100
AcDbEntity
  8
0
  6
CONTINUOUS
 62
               7
100
AcDbLine
 10
-13.070000000000022
 20
-17.969999999999999
 30
0.0
 11
-13.070000000000022
 21
-19.599999999999994
 31
0.0
  0
LINE
  5
1B0
100
AcDbEntity
  8
0
  6
CONTINUOUS
 62
               7
100
AcDbLine
 10
-8.9200000000000159
 20
-17.969999999999999
 30
0.0
 11
-8.9200000000000159
 21
-19.599999999999994
 31
0.0
  0
LINE
  5
1B1
100
AcDbEntity
  8
0
  6
CONTINUOUS
 62
               7
100
AcDbLine
 10
-3.4000000000000057
 20
-20.599999999999994
 30
0.0
 11
-2.5
 21
-21.5
 31
0.0
  0
LINE
  5
1B2
100
AcDbEntity
  8
0
  6
CONTINUOUS
 62
               7
100
AcDbLine
 10
-3.4000000000000057
 20
-20.069999999999993
 30
0.0
 11
-3.4000000000000057
 21
-20.599999999999994
 31
0.0
  0
LINE
  5
1B3
100
AcDbEntity
  8
0
  6
CONTINUOUS
 62
               7
100
AcDbLine
 10
-12.600000000000023
 20
-20.599999999999994
 30
0.0
 11
-13.5
 21
-21.5
 31
0.0
  0
LINE
  5
1B4
100
AcDbEntity
  8
0
  6
CONTINUOUS
 62
               7
100
AcDbLine
 10
-9.4000000000000057
 20
-20.069999999999993
 30
0.0
 11
-9.4000000000000057
 21
-20.300000000000011
 31
0.0
  0
LINE
  5
1B5
100
AcDbEntity
  8
0
  6
CONTINUOUS
 62
               7
100
AcDbLine
 10
-12.600000000000023
 20
-20.069999999999993
 30
0.0
 11
-12.600000000000023
 21
-20.599999999999994
 31
0.0
  0
LINE
  5
1B6
100
AcDbEntity
  8
0
  6
CONTINUOUS
 62
               7
100
AcDbLine
 10
-9.1000000000000227
 20
-20.599999999999994
 30
0.0
 11
-6.9000000000000057
 21
-20.599999999999994
 31
0.0
  0
LINE
  5
1B7
100
AcDbEntity
  8
0
  6
CONTINUOUS
 62
               7
100
AcDbLine
 10
-6.6000000000000227
 20
-20.069999999999993
 30
0.0
 11
-6.6000000000000227
 21
-20.300000000000011
 31
0.0
  0
LINE
  5
1B8
100
AcDbEntity
  8
0
  6
CONTINUOUS
 62
               2
100
AcDbLine
 10
-5.0
 20
-15.280000000000001
 30
0.0
 11
-5.0
 21
-22.599999999999994
 31
0.0
  0
LINE
  5
1B9
100
AcDbEntity
  8
0
  6
CONTINUOUS
 62
               2
100
AcDbLine
 10
-11.0
 20
-15.280000000000001
 30
0.0
 11
-11.0
 21
-22.599999999999994
 31
0.0
  0
LINE
  5
1BA
100
AcDbEntity
  8
0
  6
CONTINUOUS
 62
               7
100
AcDbLine
 10
0.0
 20
-25.5
 30
0.0
 11
0.0
 21
25.5
 31
0.0
  0
LINE
  5
1BB
100
AcDbEntity
  8
0
  6
CONTINUOUS
 62
               2
100
AcDbLine
 10
-32.199999999999989
 20
19.499999704863853
 30
0.0
 11
-21.199999999999989
 21
19.499999704863853
 31
0.0
  0
CIRCLE
  5
1BC
100
AcDbEntity
  8
0
  6
CONTINUOUS
 62
               7
100
AcDbCircle
 10
-13.499999999999972
 20
22.700000119209278
 30
0.0
 40
2.4035892486572266
  0
CIRCLE
  5
1BD
100
AcDbEntity
  8
0
  6
CONTINUOUS
 62
               7
100
AcDbCircle
 10
-13.499999999999972
 20
22.699999999999989
 30
0.0
 40
2.75
  0
LINE
  5
1BE
100
AcDbEntity
  8
0
  6
CONTINUOUS
 62
               7
100
AcDbLine
 10
-12.25000007973469
 20
23.421687955956912
 30
0.0
 11
-13.500000069276865
 21
24.143375663656713
 31
0.0
  0
LINE
  5
1BF
100
AcDbEntity
  8
0
  6
CONTINUOUS
 62
               7
100
AcDbLine
 10
-12.249999999999972
 20
23.421688032150257
 30
0.0
 11
-12.249999999999972
 21
21.97831196784972
 31
0.0
  0
LINE
  5
1C0
100
AcDbEntity
  8
0
  6
CONTINUOUS
 62
               7
100
AcDbLine
 10
-12.25000007973469
 20
21.978312044043065
 30
0.0
 11
-13.500000069276865
 21
21.256624336343265
 31
0.0
  0
LINE
  5
1C1
100
AcDbEntity
  8
0
  6
CONTINUOUS
 62
               7
100
AcDbLine
 10
-14.749999999999972
 20
23.421687912940968
 30
0.0
 11
-14.749999999999972
 21
21.97831208705901
 31
0.0
  0
LINE
  5
1C2
100
AcDbEntity
  8
0
  6
CONTINUOUS
 62
               7
100
AcDbLine
 10
-13.499999453885977
 20
21.256625162249492
 30
0.0
 11
-14.749999443428152
 21
21.978312869949292
 31
0.0
  0
LINE
  5
1C3
100
AcDbEntity
  8
0
  6
CONTINUOUS
 62
               7
100
AcDbLine
 10
-13.499999453885977
 20
24.143374837750486
 30
0.0
 11
-14.749999443428152
 21
23.421687130050685
 31
0.0
  0
CIRCLE
  5
1C4
100
AcDbEntity
  8
0
  6
CONTINUOUS
 62
               7
100
AcDbCircle
 10
-10.499999999999972
 20
0.0000001192092896
 30
0.0
 40
2.4035892486572266
  0
CIRCLE
  5
1C5
100
AcDbEntity
  8
0
  6
CONTINUOUS
 62
               7
100
AcDbCircle
 10
-10.499999999999972
 20
0.0
 30
0.0
 40
2.75
  0
LINE
  5
1C6
100
AcDbEntity
  8
0
  6
CONTINUOUS
 62
               7
100
AcDbLine
 10
-11.749999999999972
 20
0.721687912940979
 30
0.0
 11
-11.749999999999972
 21
-0.721687912940979
 31
0.0
  0
LINE
  5
1C7
100
AcDbEntity
  8
0
  6
CONTINUOUS
 62
               7
100
AcDbLine
 10
-10.499999453885977
 20
1.4433748377504969
 30
0.0
 11
-11.749999443428152
 21
0.7216871300506966
 31
0.0
  0
LINE
  5
1C8
100
AcDbEntity
  8
0
  6
CONTINUOUS
 62
               7
100
AcDbLine
 10
-9.25000007973469
 20
0.7216879559569236
 30
0.0
 11
-10.500000069276865
 21
1.4433756636567239
 31
0.0
  0
LINE
  5
1C9
100
AcDbEntity
  8
0
  6
CONTINUOUS
 62
               7
100
AcDbLine
 10
-9.2499999999999716
 20
0.7216880321502686
 30
0.0
 11
-9.2499999999999716
 21
-0.7216880321502686
 31
0.0
  0
LINE
  5
1CA
100
AcDbEntity
  8
0
  6
CONTINUOUS
 62
               7
100
AcDbLine
 10
-9.25000007973469
 20
-0.7216879559569236
 30
0.0
 11
-10.500000069276865
 21
-1.4433756636567239
 31
0.0
  0
LINE
  5
1CB
100
AcDbEntity
  8
0
  6
CONTINUOUS
 62
               7
100
AcDbLine
 10
-10.499999453885977
 20
-1.4433748377504969
 30
0.0
 11
-11.749999443428152
 21
-0.7216871300506966
 31
0.0
  0
CIRCLE
  5
1CC
100
AcDbEntity
  8
0
  6
CONTINUOUS
 62
               7
100
AcDbCircle
 10
-2.7999999999999829
 20
0.0000001192092896
 30
0.0
 40
2.4035892486572266
  0
CIRCLE
  5
1CD
100
AcDbEntity
  8
0
  6
CONTINUOUS
 62
               7
100
AcDbCircle
 10
-2.7999999999999829
 20
0.0
 30
0.0
 40
2.75
  0
LINE
  5
1CE
100
AcDbEntity
  8
0
  6
CONTINUOUS
 62
               7
100
AcDbLine
 10
-4.0499999999999829
 20
0.721687912940979
 30
0.0
 11
-4.0499999999999829
 21
-0.721687912940979
 31
0.0
  0
LINE
  5
1CF
100
AcDbEntity
  8
0
  6
CONTINUOUS
 62
               7
100
AcDbLine
 10
-2.799999453885988
 20
1.4433748377504969
 30
0.0
 11
-4.0499994434281632
 21
0.7216871300506966
 31
0.0
  0
LINE
  5
1D0
100
AcDbEntity
  8
0
  6
CONTINUOUS
 62
               7
100
AcDbLine
 10
-1.5500000797347013
 20
0.7216879559569236
 30
0.0
 11
-2.8000000692768765
 21
1.4433756636567239
 31
0.0
  0
LINE
  5
1D1
100
AcDbEntity
  8
0
  6
CONTINUOUS
 62
               7
100
AcDbLine
 10
-1.5499999999999829
 20
0.7216880321502686
 30
0.0
 11
-1.5499999999999829
 21
-0.7216880321502686
 31
0.0
  0
LINE
  5
1D2
100
AcDbEntity
  8
0
  6
CONTINUOUS
 62
               7
100
AcDbLine
 10
-1.5500000797347013
 20
-0.7216879559569236
 30
0.0
 11
-2.8000000692768765
 21
-1.4433756636567239
 31
0.0
  0
LINE
  5
1D3
100
AcDbEntity
  8
0
  6
CONTINUOUS
 62
               7
100
AcDbLine
 10
-2.799999453885988
 20
-1.4433748377504969
 30
0.0
 11
-4.0499994434281632
 21
-0.7216871300506966
 31
0.0
  0
LINE
  5
1D4
100
AcDbEntity
  8
0
  6
CONTINUOUS
 62
               2
100
AcDbLine
 10
-9.5
 20
-11.053857451258736
 30
0.0
 11
-9.5000000000000284
 21
20.116011374625529
 31
0.0
  0
LINE
  5
1D5
100
AcDbEntity
  8
0
  6
CONTINUOUS
 62
               2
100
AcDbLine
 10
-10.5
 20
4.472084481175358
 30
0.0
 11
-10.5
 21
-4.3707682889501314
 31
0.0
  0
LINE
  5
1D6
100
AcDbEntity
  8
0
  6
CONTINUOUS
 62
               2
100
AcDbLine
 10
-8.0
 20
-15.280000000000001
 30
0.0
 11
-8.0
 21
-22.599999999999994
 31
0.0
  0
LINE
  5
1D7
100
AcDbEntity
  8
0
  6
CONTINUOUS
 62
               2
100
AcDbLine
 10
-26.499999999999972
 20
24.152483151050689
 30
0.0
 11
-26.499999999999972
 21
14.972832161974509
 31
0.0
  0
LINE
  5
1D8
100
AcDbEntity
  8
0
  6
CONTINUOUS
 62
               7
100
AcDbLine
 10
-24.479273437218325
 20
16.000000742951102
 30
0.0
 11
-22.458548427863406
 21
19.49999972258172
 31
0.0
  0
LINE
  5
1D9
100
AcDbEntity
  8
0
  6
CONTINUOUS
 62
               7
100
AcDbLine
 10
-22.458548776932531
 20
19.49999902297526
 30
0.0
 11
-24.479274263124552
 21
22.999998828512105
 31
0.0
  0
LINE
  5
1DA
100
AcDbEntity
  8
0
  6
CONTINUOUS
 62
               7
100
AcDbLine
 10
-28.520726085944517
 20
15.999999917044875
 30
0.0
 11
-30.541451572136538
 21
19.49999972258172
 31
0.0
  0
CIRCLE
  5
1DB
100
AcDbEntity
  8
0
  6
CONTINUOUS
 62
               7
100
AcDbCircle
 10
-26.499999999999972
 20
19.500000024150154
 30
0.0
 40
3.5
  0
LINE
  5
1DC
100
AcDbEntity
  8
0
  6
CONTINUOUS
 62
               7
100
AcDbLine
 10
-30.541450746230311
 20
19.499999848881487
 30
0.0
 11
-28.52072526003829
 21
22.999999654418332
 31
0.0
  0
LINE
  5
1DD
100
AcDbEntity
  8
0
  6
CONTINUOUS
 62
               7
100
AcDbLine
 10
-24.479273796081515
 20
16.000000024150154
 30
0.0
 11
-28.520725250244112
 21
16.000000024150154
 31
0.0
  0
LINE
  5
1DE
100
AcDbEntity
  8
0
  6
CONTINUOUS
 62
               7
100
AcDbLine
 10
-27.749999999999972
 20
18.778311932395241
 30
0.0
 11
-27.749999999999972
 21
20.221688115905067
 31
0.0
  0
LINE
  5
1DF
100
AcDbEntity
  8
0
  6
CONTINUOUS
 62
               7
100
AcDbLine
 10
-25.249999999999972
 20
18.77831217081382
 30
0.0
 11
-25.249999999999972
 21
20.221687877486488
 31
0.0
  0
LINE
  5
1E0
100
AcDbEntity
  8
0
  6
CONTINUOUS
 62
               7
100
AcDbLine
 10
-27.749999920265253
 20
18.77831206819323
 30
0.0
 11
-26.499999930723078
 21
18.05662436049343
 31
0.0
  0
LINE
  5
1E1
100
AcDbEntity
  8
0
  6
CONTINUOUS
 62
               7
100
AcDbLine
 10
-26.500000546113966
 20
18.056625186399657
 30
0.0
 11
-25.250000556571791
 21
18.778312894099457
 31
0.0
  0
LINE
  5
1E2
100
AcDbEntity
  8
0
  6
CONTINUOUS
 62
               7
100
AcDbLine
 10
-27.749999920265253
 20
20.221687980107077
 30
0.0
 11
-26.499999930723078
 21
20.943375687806878
 31
0.0
  0
LINE
  5
1E3
100
AcDbEntity
  8
0
  6
CONTINUOUS
 62
               7
100
AcDbLine
 10
-26.500000546113966
 20
20.943374861900651
 30
0.0
 11
-25.250000556571791
 21
20.221687154200851
 31
0.0
  0
CIRCLE
  5
1E4
100
AcDbEntity
  8
0
  6
CONTINUOUS
 62
               7
100
AcDbCircle
 10
-26.499999999999972
 20
19.500000024150154
 30
0.0
 40
2.0
  0
LINE
  5
1E5
100
AcDbEntity
  8
0
  6
CONTINUOUS
 62
               7
100
AcDbLine
 10
-24.479273796081515
 20
23.000000024150154
 30
0.0
 11
-28.520725250244112
 21
23.000000024150154
 31
0.0
  0
CIRCLE
  5
1E6
100
AcDbEntity
  8
0
  6
CONTINUOUS
 62
               7
100
AcDbCircle
 10
-26.499999999999972
 20
19.500000024150154
 30
0.0
 40
1.6209993362426758
  0
LINE
  5
1E7
100
AcDbEntity
  8
0
  6
CONTINUOUS
 62
               2
100
AcDbLine
 10
-14.791549423704481
 20
0.0
 30
0.0
 11
2.5689864062218248
 21
0.0
 31
0.0
  0
LINE
  5
1E8
100
AcDbEntity
  8
0
  6
CONTINUOUS
 62
               7
100
AcDbLine
 10
-30.5
 20
-0.4679376083189055
 30
0.0
 11
-30.5
 21
-22.5
 31
0.0
  0
LINE
  5
1E9
100
AcDbEntity
  8
0
  6
CONTINUOUS
 62
               4
100
AcDbLine
 10
-25.742462120245875
 20
-0.7424621202458752
 30
0.0
 11
-24.257537879754125
 21
0.7424621202458752
 31
0.0
  0
LINE
  5
1EA
100
AcDbEntity
  8
0
  6
CONTINUOUS
 62
               4
100
AcDbLine
 10
-24.257537879754125
 20
-0.7424621202458752
 30
0.0
 11
-25.742462120245875
 21
0.7424621202458752
 31
0.0
  0
CIRCLE
  5
1EB
100
AcDbEntity
  8
0
  6
CONTINUOUS
 62
               4
100
AcDbCircle
 10
-25.0
 20
0.0
 30
0.0
 40
2.1500000953674316
  0
CIRCLE
  5
1EC
100
AcDbEntity
  8
0
  6
CONTINUOUS
 62
               4
100
AcDbCircle
 10
-25.0
 20
0.0
 30
0.0
 40
2.25
  0
ARC
  5
1ED
100
AcDbEntity
  8
0
  6
CONTINUOUS
 62
               4
100
AcDbCircle
 10
-25.0
 20
0.0
 30
0.0
 40
2.8507718253132777
100
AcDbArc
 50
298.72274128499458
 51
61.277258715005338
  0
CIRCLE
  5
1EE
100
AcDbEntity
  8
0
  6
CONTINUOUS
 62
             200
100
AcDbCircle
 10
-25.0
 20
0.0
 30
0.0
 40
3.5939998626708984
  0
CIRCLE
  5
1EF
100
AcDbEntity
  8
0
  6
CONTINUOUS
 62
               4
100
AcDbCircle
 10
-25.0
 20
0.0
 30
0.0
 40
3.8999996185302734
  0
ARC
  5
1F0
100
AcDbEntity
  8
0
  6
CONTINUOUS
 62
               4
100
AcDbCircle
 10
-25.0
 20
0.0
 30
0.0
 40
2.8483723422333669
100
AcDbArc
 50
118.63454026675232
 51
241.36545973324772
  0
CIRCLE
  5
1F1
100
AcDbEntity
  8
0
  6
CONTINUOUS
 62
               4
100
AcDbCircle
 10
-25.0
 20
0.0
 30
0.0
 40
3.3499984741210937
  0
CIRCLE
  5
1F2
100
AcDbEntity
  8
0
  6
CONTINUOUS
 62
               4
100
AcDbCircle
 10
-25.0
 20
0.0
 30
0.0
 40
5.0
  0
LINE
  5
1F3
100
AcDbEntity
  8
0
  6
CONTINUOUS
 62
             200
100
AcDbLine
 10
-25.0
 20
-6.5
 30
0.0
 11
-25.0
 21
6.5
 31
0.0
  0
LINE
  5
1F4
100
AcDbEntity
  8
0
  6
CONTINUOUS
 62
             200
100
AcDbLine
 10
-31.5
 20
0.0
 30
0.0
 11
-18.5
 21
0.0
 31
0.0
  0
LINE
  5
1F5
100
AcDbEntity
  8
0
  6
CONTINUOUS
 62
               4
100
AcDbLine
 10
-27.22999999999999
 20
2.5
 30
0.0
 11
-22.77000000000001
 21
2.5
 31
0.0
  0
LINE
  5
1F6
100
AcDbEntity
  8
0
  6
CONTINUOUS
 62
               4
100
AcDbLine
 10
-27.22999999999999
 20
-2.5
 30
0.0
 11
-22.77000000000001
 21
-2.5
 31
0.0
  0
LINE
  5
1F7
100
AcDbEntity
  8
0
  6
CONTINUOUS
 62
               4
100
AcDbLine
 10
-27.884999999999991
 20
5.0
 30
0.0
 11
-22.109999999999985
 21
5.0
 31
0.0
  0
LINE
  5
1F8
100
AcDbEntity
  8
0
  6
CONTINUOUS
 62
               4
100
AcDbLine
 10
-30.77000000000001
 20
0.0
 30
0.0
 11
-27.884999999999991
 21
5.0
 31
0.0
  0
LINE
  5
1F9
100
AcDbEntity
  8
0
  6
CONTINUOUS
 62
               4
100
AcDbLine
 10
-22.110000000000014
 20
-5.0
 30
0.0
 11
-19.224999999999994
 21
0.0
 31
0.0
  0
LINE
  5
1FA
100
AcDbEntity
  8
0
  6
CONTINUOUS
 62
               4
100
AcDbLine
 10
-19.224999999999994
 20
0.0
 30
0.0
 11
-22.109999999999985
 21
5.0
 31
0.0
  0
LINE
  5
1FB
100
AcDbEntity
  8
0
  6
CONTINUOUS
 62
               4
100
AcDbLine
 10
-27.884999999999991
 20
-5.0
 30
0.0
 11
-30.77000000000001
 21
0.0
 31
0.0
  0
LINE
  5
1FC
100
AcDbEntity
  8
0
  6
CONTINUOUS
 62
               4
100
AcDbLine
 10
-27.884999999999991
 20
-5.0
 30
0.0
 11
-22.110000000000014
 21
-5.0
 31
0.0
  0
ENDBLK
  5
1FD
100
AcDbEntity
  8
0
100
AcDbBlockEnd
  0
BLOCK
  5
1FE
100
AcDbEntity
  8
0
100
AcDbBlockBegin
  2
MS_4
 70
               0
 10
0.0
 20
0.0
 30
0.0
  3
MS_4
  1

  0
LINE
  5
1FF
100
AcDbEntity
  8
0
  6
CONTINUOUS
 62
               7
100
AcDbLine
 10
166.0
 20
0.0
 30
0.0
 11
0.0
 21
0.0
 31
0.0
  0
LINE
  5
200
100
AcDbEntity
  8
0
  6
CONTINUOUS
 62
               7
100
AcDbLine
 10
10.0
 20
18.299999999999997
 30
0.0
 11
106.0
 21
18.299999999999997
 31
0.0
  0
LINE
  5
201
100
AcDbEntity
  8
0
  6
CONTINUOUS
 62
               7
100
AcDbLine
 10
106.0
 20
31.0
 30
0.0
 11
10.0
 21
31.0
 31
0.0
  0
LINE
  5
202
100
AcDbEntity
  8
0
  6
CONTINUOUS
 62
               7
100
AcDbLine
 10
8.0
 20
30.5
 30
0.0
 11
8.0
 21
0.0
 31
0.0
  0
LINE
  5
203
100
AcDbEntity
  8
0
  6
CONTINUOUS
 62
               7
100
AcDbLine
 10
0.0
 20
30.5
 30
0.0
 11
0.0
 21
0.0
 31
0.0
  0
LINE
  5
204
100
AcDbEntity
  8
0
  6
CONTINUOUS
 62
               7
100
AcDbLine
 10
158.0
 20
30.5
 30
0.0
 11
166.0
 21
30.5
 31
0.0
  0
LINE
  5
205
100
AcDbEntity
  8
0
  6
CONTINUOUS
 62
               7
100
AcDbLine
 10
106.0
 20
31.0
 30
0.0
 11
106.0
 21
18.299999999999997
 31
0.0
  0
LINE
  5
206
100
AcDbEntity
  8
0
  6
CONTINUOUS
 62
               7
100
AcDbLine
 10
10.0
 20
31.0
 30
0.0
 11
10.0
 21
18.299999999999997
 31
0.0
  0
LINE
  5
207
100
AcDbEntity
  8
0
  6
CONTINUOUS
 62
               7
100
AcDbLine
 10
158.0
 20
0.0
 30
0.0
 11
158.0
 21
30.5
 31
0.0
  0
LINE
  5
208
100
AcDbEntity
  8
0
  6
CONTINUOUS
 62
               7
100
AcDbLine
 10
150.5
 20
20.200000000000003
 30
0.0
 11
106.0
 21
20.200000000000003
 31
0.0
  0
LINE
  5
209
100
AcDbEntity
  8
0
  6
CONTINUOUS
 62
               7
100
AcDbLine
 10
37.121854912764007
 20
10.496724795459599
 30
0.0
 11
37.116453936902928
 21
10.499999971462046
 31
0.0
  0
LINE
  5
20A
100
AcDbEntity
  8
0
  6
CONTINUOUS
 62
               7
100
AcDbLine
 10
166.0
 20
30.5
 30
0.0
 11
166.0
 21
0.0
 31
0.0
  0
LINE
  5
20B
100
AcDbEntity
  8
0
  6
CONTINUOUS
 62
               7
100
AcDbLine
 10
10.0
 20
29.0
 30
0.0
 11
106.0
 21
29.0
 31
0.0
  0
LINE
  5
20C
100
AcDbEntity
  8
0
  6
CONTINUOUS
 62
               7
100
AcDbLine
 10
166.0
 20
2.5
 30
0.0
 11
158.0
 21
2.5
 31
0.0
  0
LINE
  5
20D
100
AcDbEntity
  8
0
  6
CONTINUOUS
 62
               7
100
AcDbLine
 10
166.0
 20
13.5
 30
0.0
 11
158.0
 21
13.5
 31
0.0
  0
LINE
  5
20E
100
AcDbEntity
  8
0
  6
CONTINUOUS
 62
               7
100
AcDbLine
 10
8.0
 20
2.5
 30
0.0
 11
0.0
 21
2.5
 31
0.0
  0
LINE
  5
20F
100
AcDbEntity
  8
0
  6
CONTINUOUS
 62
               7
100
AcDbLine
 10
8.0
 20
13.5
 30
0.0
 11
0.0
 21
13.5
 31
0.0
  0
LINE
  5
210
100
AcDbEntity
  8
0
  6
CONTINUOUS
 62
               7
100
AcDbLine
 10
8.0000000214199929
 20
13.500000000000004
 30
0.0
 11
158.00000002141999
 21
13.500000000000004
 31
0.0
  0
LINE
  5
211
100
AcDbEntity
  8
0
  6
CONTINUOUS
 62
               7
100
AcDbLine
 10
8.0000000214199929
 20
2.5000000000000036
 30
0.0
 11
158.00000002141999
 21
2.5000000000000036
 31
0.0
  0
LINE
  5
212
100
AcDbEntity
  8
0
  6
CONTINUOUS
 62
               7
100
AcDbLine
 10
8.0000000214199929
 20
12.600000000000026
 30
0.0
 11
158.00000002141999
 21
12.600000000000026
 31
0.0
  0
LINE
  5
213
100
AcDbEntity
  8
0
  6
CONTINUOUS
 62
               7
100
AcDbLine
 10
8.0000000214199929
 20
9.4000000000000057
 30
0.0
 11
158.00000002141999
 21
9.4000000000000057
 31
0.0
  0
LINE
  5
214
100
AcDbEntity
  8
0
  6
CONTINUOUS
 62
               7
100
AcDbLine
 10
8.0000000214199929
 20
6.6000000000000263
 30
0.0
 11
158.00000002141999
 21
6.6000000000000263
 31
0.0
  0
LINE
  5
215
100
AcDbEntity
  8
0
  6
CONTINUOUS
 62
               7
100
AcDbLine
 10
8.0000000214199929
 20
3.4000000000000377
 30
0.0
 11
158.00000002141999
 21
3.4000000000000377
 31
0.0
  0
LINE
  5
216
100
AcDbEntity
  8
0
  6
CONTINUOUS
 62
               7
100
AcDbLine
 10
8.0000000214199929
 20
15.500000000000004
 30
0.0
 11
158.00000002141999
 21
15.500000000000004
 31
0.0
  0
LINE
  5
217
100
AcDbEntity
  8
0
  6
CONTINUOUS
 62
               7
100
AcDbLine
 10
8.0000000214199929
 20
16.500000000000004
 30
0.0
 11
15.500000021419993
 21
16.500000000000004
 31
0.0
  0
LINE
  5
218
100
AcDbEntity
  8
0
  6
CONTINUOUS
 62
               7
100
AcDbLine
 10
15.5
 20
15.500000000000004
 30
0.0
 11
15.5
 21
18.299999999999997
 31
0.0
  0
LINE
  5
219
100
AcDbEntity
  8
0
  6
CONTINUOUS
 62
               7
100
AcDbLine
 10
150.5
 20
15.500000000000004
 30
0.0
 11
150.5
 21
20.200000000000003
 31
0.0
  0
LINE
  5
21A
100
AcDbEntity
  8
0
  6
CONTINUOUS
 62
               7
100
AcDbLine
 10
150.5
 20
16.500000000000004
 30
0.0
 11
158.00000002141999
 21
16.500000000000004
 31
0.0
  0
ARC
  5
21B
100
AcDbEntity
  8
0
  6
CONTINUOUS
 62
               4
100
AcDbCircle
 10
171.12950421323796
 20
20.670533803090663
 30
0.0
 40
5.130575472424411
100
AcDbArc
 50
163.70599826431086
 51
193.70480269936053
  0
ARC
  5
21C
100
AcDbEntity
  8
0
  6
CONTINUOUS
 62
               4
100
AcDbCircle
 10
162.87071288275735
 20
20.661269806922498
 30
0.0
 40
5.1281775431632557
100
AcDbArc
 50
346.39518004271054
 51
16.409702720540352
  0
LINE
  5
21D
100
AcDbEntity
  8
0
  6
CONTINUOUS
 62
               4
100
AcDbLine
 10
168.0
 20
30.0
 30
0.0
 11
168.0
 21
20.0
 31
0.0
  0
LINE
  5
21E
100
AcDbEntity
  8
0
  6
CONTINUOUS
 62
               2
100
AcDbLine
 10
149.5
 20
25.0
 30
0.0
 11
185.5
 21
25.0
 31
0.0
  0
LINE
  5
21F
100
AcDbEntity
  8
0
  6
CONTINUOUS
 62
               4
100
AcDbLine
 10
152.19999999999999
 20
26.25
 30
0.0
 11
157.0
 21
26.25
 31
0.0
  0
LINE
  5
220
100
AcDbEntity
  8
0
  6
CONTINUOUS
 62
               4
100
AcDbLine
 10
152.19999999999999
 20
23.75
 30
0.0
 11
157.0
 21
23.75
 31
0.0
  0
LINE
  5
221
100
AcDbEntity
  8
0
  6
CONTINUOUS
 62
               4
100
AcDbLine
 10
157.0
 20
28.300000000000004
 30
0.0
 11
157.0
 21
21.699999999999999
 31
0.0
  0
LINE
  5
222
100
AcDbEntity
  8
0
  6
CONTINUOUS
 62
               4
100
AcDbLine
 10
157.09999999999999
 20
28.399999999999999
 30
0.0
 11
157.0
 21
28.300000000000004
 31
0.0
  0
LINE
  5
223
100
AcDbEntity
  8
0
  6
CONTINUOUS
 62
               4
100
AcDbLine
 10
157.09999999999999
 20
21.600000000000001
 30
0.0
 11
158.0
 21
21.600000000000001
 31
0.0
  0
LINE
  5
224
100
AcDbEntity
  8
0
  6
CONTINUOUS
 62
               4
100
AcDbLine
 10
157.09999999999999
 20
21.600000000000001
 30
0.0
 11
157.0
 21
21.699999999999999
 31
0.0
  0
LINE
  5
225
100
AcDbEntity
  8
0
  6
CONTINUOUS
 62
               4
100
AcDbLine
 10
176.44999999999999
 20
28.899999999999999
 30
0.0
 11
177.0
 21
28.350000000000001
 31
0.0
  0
LINE
  5
226
100
AcDbEntity
  8
0
  6
CONTINUOUS
 62
               4
100
AcDbLine
 10
177.0
 20
21.649999999999999
 30
0.0
 11
176.44999999999999
 21
21.100000000000001
 31
0.0
  0
LINE
  5
227
100
AcDbEntity
  8
0
  6
CONTINUOUS
 62
               4
100
AcDbLine
 10
157.09999999999999
 20
28.399999999999999
 30
0.0
 11
158.0
 21
28.399999999999999
 31
0.0
  0
LINE
  5
228
100
AcDbEntity
  8
0
  6
CONTINUOUS
 62
               4
100
AcDbLine
 10
177.0
 20
28.350000000000001
 30
0.0
 11
182.5
 21
28.350000000000001
 31
0.0
  0
LINE
  5
229
100
AcDbEntity
  8
0
  6
CONTINUOUS
 62
               4
100
AcDbLine
 10
177.0
 20
21.649999999999999
 30
0.0
 11
182.5
 21
21.649999999999999
 31
0.0
  0
LINE
  5
22A
100
AcDbEntity
  8
0
  6
CONTINUOUS
 62
               4
100
AcDbLine
 10
183.0
 20
27.850000000000001
 30
0.0
 11
183.0
 21
22.149999999999999
 31
0.0
  0
LINE
  5
22B
100
AcDbEntity
  8
0
  6
CONTINUOUS
 62
               4
100
AcDbLine
 10
182.5
 20
28.350000000000001
 30
0.0
 11
183.0
 21
27.850000000000001
 31
0.0
  0
LINE
  5
22C
100
AcDbEntity
  8
0
  6
CONTINUOUS
 62
               4
100
AcDbLine
 10
152.0
 20
26.050000000000004
 30
0.0
 11
152.19999999999999
 21
26.25
 31
0.0
  0
LINE
  5
22D
100
AcDbEntity
  8
0
  6
CONTINUOUS
 62
               4
100
AcDbLine
 10
152.0
 20
23.949999999999996
 30
0.0
 11
152.19999999999999
 21
23.75
 31
0.0
  0
LINE
  5
22E
100
AcDbEntity
  8
0
  6
CONTINUOUS
 62
               4
100
AcDbLine
 10
152.0
 20
26.050000000000004
 30
0.0
 11
152.0
 21
23.949999999999996
 31
0.0
  0
LINE
  5
22F
100
AcDbEntity
  8
0
  6
CONTINUOUS
 62
               4
100
AcDbLine
 10
166.20499999999998
 20
30.770000000000003
 30
0.0
 11
167.78999999999999
 21
30.770000000000003
 31
0.0
  0
LINE
  5
230
100
AcDbEntity
  8
0
  6
CONTINUOUS
 62
               4
100
AcDbLine
 10
166.0
 20
30.0
 30
0.0
 11
166.20499999999998
 21
30.770000000000003
 31
0.0
  0
LINE
  5
231
100
AcDbEntity
  8
0
  6
CONTINUOUS
 62
               4
100
AcDbLine
 10
168.0
 20
28.899999999999999
 30
0.0
 11
176.44999999999999
 21
28.899999999999999
 31
0.0
  0
LINE
  5
232
100
AcDbEntity
  8
0
  6
CONTINUOUS
 62
             200
100
AcDbLine
 10
168.0
 20
28.589999999999996
 30
0.0
 11
176.755
 21
28.589999999999996
 31
0.0
  0
LINE
  5
233
100
AcDbEntity
  8
0
  6
CONTINUOUS
 62
             200
100
AcDbLine
 10
168.0
 20
21.405000000000001
 30
0.0
 11
176.755
 21
21.405000000000001
 31
0.0
  0
LINE
  5
234
100
AcDbEntity
  8
0
  6
CONTINUOUS
 62
               4
100
AcDbLine
 10
168.0
 20
21.100000000000001
 30
0.0
 11
176.44999999999999
 21
21.100000000000001
 31
0.0
  0
LINE
  5
235
100
AcDbEntity
  8
0
  6
CONTINUOUS
 62
               4
100
AcDbLine
 10
176.44999999999999
 20
28.899999999999999
 30
0.0
 11
176.44999999999999
 21
21.100000000000001
 31
0.0
  0
LINE
  5
236
100
AcDbEntity
  8
0
  6
CONTINUOUS
 62
               4
100
AcDbLine
 10
177.0
 20
28.350000000000001
 30
0.0
 11
177.0
 21
21.649999999999999
 31
0.0
  0
LINE
  5
237
100
AcDbEntity
  8
0
  6
CONTINUOUS
 62
               4
100
AcDbLine
 10
182.5
 20
28.350000000000001
 30
0.0
 11
182.5
 21
27.229999999999997
 31
0.0
  0
LINE
  5
238
100
AcDbEntity
  8
0
  6
CONTINUOUS
 62
               4
100
AcDbLine
 10
152.19999999999999
 20
26.25
 30
0.0
 11
152.19999999999999
 21
23.75
 31
0.0
  0
LINE
  5
239
100
AcDbEntity
  8
0
  6
CONTINUOUS
 62
               4
100
AcDbLine
 10
182.5
 20
21.649999999999999
 30
0.0
 11
183.0
 21
22.149999999999999
 31
0.0
  0
LINE
  5
23A
100
AcDbEntity
  8
0
  6
CONTINUOUS
 62
               4
100
AcDbLine
 10
168.0
 20
30.0
 30
0.0
 11
167.78999999999999
 21
30.770000000000003
 31
0.0
  0
LINE
  5
23B
100
AcDbEntity
  8
0
  6
CONTINUOUS
 62
               4
100
AcDbLine
 10
166.20499999999998
 20
27.884999999999998
 30
0.0
 11
167.78999999999999
 21
27.884999999999998
 31
0.0
  0
LINE
  5
23C
100
AcDbEntity
  8
0
  6
CONTINUOUS
 62
               4
100
AcDbLine
 10
166.20499999999998
 20
22.109999999999999
 30
0.0
 11
167.78999999999999
 21
22.109999999999999
 31
0.0
  0
LINE
  5
23D
100
AcDbEntity
  8
0
  6
CONTINUOUS
 62
               4
100
AcDbLine
 10
180.0
 20
27.229999999999997
 30
0.0
 11
180.0
 21
22.770000000000003
 31
0.0
  0
LINE
  5
23E
100
AcDbEntity
  8
0
  6
CONTINUOUS
 62
               4
100
AcDbLine
 10
180.0
 20
27.229999999999997
 30
0.0
 11
182.5
 21
27.229999999999997
 31
0.0
  0
LINE
  5
23F
100
AcDbEntity
  8
0
  6
CONTINUOUS
 62
               4
100
AcDbLine
 10
180.0
 20
22.770000000000003
 30
0.0
 11
182.5
 21
22.770000000000003
 31
0.0
  0
LINE
  5
240
100
AcDbEntity
  8
0
  6
CONTINUOUS
 62
               4
100
AcDbLine
 10
182.5
 20
22.770000000000003
 30
0.0
 11
182.5
 21
21.649999999999999
 31
0.0
  0
LINE
  5
241
100
AcDbEntity
  8
0
  6
CONTINUOUS
 62
             200
100
AcDbLine
 10
180.0
 20
27.229999999999997
 30
0.0
 11
182.5
 21
22.770000000000003
 31
0.0
  0
LINE
  5
242
100
AcDbEntity
  8
0
  6
CONTINUOUS
 62
             200
100
AcDbLine
 10
180.0
 20
22.770000000000003
 30
0.0
 11
182.5
 21
27.229999999999997
 31
0.0
  0
LINE
  5
243
100
AcDbEntity
  8
0
  6
CONTINUOUS
 62
               4
100
AcDbLine
 10
157.59999999999999
 20
28.399999999999999
 30
0.0
 11
157.59999999999999
 21
21.600000000000001
 31
0.0
  0
ARC
  5
244
100
AcDbEntity
  8
0
  6
CONTINUOUS
 62
               4
100
AcDbCircle
 10
162.87059647000791
 20
29.333733043107152
 30
0.0
 40
5.128290019206112
100
AcDbArc
 50
343.59063416494905
 51
13.604483071800141
  0
ARC
  5
245
100
AcDbEntity
  8
0
  6
CONTINUOUS
 62
               4
100
AcDbCircle
 10
147.79288772533715
 20
24.997500000000002
 30
0.0
 40
20.204508298285091
100
AcDbArc
 50
351.78351819101408
 51
8.2164818089859413
  0
ARC
  5
246
100
AcDbEntity
  8
0
  6
CONTINUOUS
 62
               4
100
AcDbCircle
 10
171.12961994710764
 20
29.32446881236401
 30
0.0
 40
5.1306872917006903
100
AcDbArc
 50
166.29553187892515
 51
196.29366715740341
  0
ARC
  5
247
100
AcDbEntity
  8
0
  6
CONTINUOUS
 62
               4
100
AcDbCircle
 10
186.20711074874725
 20
24.997500000000002
 30
0.0
 40
20.209455476463233
100
AcDbArc
 50
171.78554344349243
 51
188.21445655650757
  0
ARC
  5
248
100
AcDbEntity
  8
0
  6
CONTINUOUS
 62
               4
100
AcDbCircle
 10
179.65094272573236
 20
25.001777485039305
 30
0.0
 40
3.6191101247109922
100
AcDbArc
 50
321.92701929771766
 51
337.72594064299381
  0
ARC
  5
249
100
AcDbEntity
  8
0
  6
CONTINUOUS
 62
               4
100
AcDbCircle
 10
179.64750674251309
 20
25.004151296250349
 30
0.0
 40
3.6181653135245488
100
AcDbArc
 50
22.093285406619991
 51
37.965518116409193
  0
LINE
  5
24A
100
AcDbEntity
  8
0
  6
CONTINUOUS
 62
               4
100
AcDbLine
 10
166.20499999999998
 20
19.225000000000001
 30
0.0
 11
167.78999999999999
 21
19.225000000000001
 31
0.0
  0
LINE
  5
24B
100
AcDbEntity
  8
0
  6
CONTINUOUS
 62
               4
100
AcDbLine
 10
168.0
 20
20.0
 30
0.0
 11
167.78999999999999
 21
19.225000000000001
 31
0.0
  0
LINE
  5
24C
100
AcDbEntity
  8
0
  6
CONTINUOUS
 62
               4
100
AcDbLine
 10
166.0
 20
20.0
 30
0.0
 11
166.20499999999998
 21
19.225000000000001
 31
0.0
  0
LINE
  5
24D
100
AcDbEntity
  8
0
  6
CONTINUOUS
 62
               2
100
AcDbLine
 10
12.5
 20
25.0
 30
0.0
 11
-18.949999999999989
 21
25.0
 31
0.0
  0
LINE
  5
24E
100
AcDbEntity
  8
0
  6
CONTINUOUS
 62
               4
100
AcDbLine
 10
9.8000000000000114
 20
26.25
 30
0.0
 11
9.8000000000000114
 21
23.75
 31
0.0
  0
LINE
  5
24F
100
AcDbEntity
  8
0
  6
CONTINUOUS
 62
               4
100
AcDbLine
 10
10.0
 20
23.949999999999996
 30
0.0
 11
9.8000000000000114
 21
23.75
 31
0.0
  0
LINE
  5
250
100
AcDbEntity
  8
0
  6
CONTINUOUS
 62
               4
100
AcDbLine
 10
10.0
 20
26.050000000000004
 30
0.0
 11
9.8000000000000114
 21
26.25
 31
0.0
  0
ARC
  5
251
100
AcDbEntity
  8
0
  6
CONTINUOUS
 62
               4
100
AcDbCircle
 10
-13.097506742513104
 20
25.004151296250349
 30
0.0
 40
3.6181653135245488
100
AcDbArc
 50
142.03448188359081
 51
157.90671459338
  0
ARC
  5
252
100
AcDbEntity
  8
0
  6
CONTINUOUS
 62
               4
100
AcDbCircle
 10
-13.100942725732381
 20
25.001777485039305
 30
0.0
 40
3.6191101247109922
100
AcDbArc
 50
202.27405935700619
 51
218.07298070228234
  0
ARC
  5
253
100
AcDbEntity
  8
0
  6
CONTINUOUS
 62
               4
100
AcDbCircle
 10
-5.1295042132379649
 20
20.670533803090663
 30
0.0
 40
5.130575472424411
100
AcDbArc
 50
346.29519730063947
 51
16.29400173568914
  0
ARC
  5
254
100
AcDbEntity
  8
0
  6
CONTINUOUS
 62
               4
100
AcDbCircle
 10
-20.207110748747226
 20
24.997500000000002
 30
0.0
 40
20.209455476463233
100
AcDbArc
 50
351.78554344349243
 51
8.2144565565075656
  0
ARC
  5
255
100
AcDbEntity
  8
0
  6
CONTINUOUS
 62
               4
100
AcDbCircle
 10
-5.1296199471076136
 20
29.32446881236401
 30
0.0
 40
5.1306872917006903
100
AcDbArc
 50
343.70633284259662
 51
13.704468121074857
  0
ARC
  5
256
100
AcDbEntity
  8
0
  6
CONTINUOUS
 62
               4
100
AcDbCircle
 10
3.1292871172426544
 20
20.661269806922498
 30
0.0
 40
5.1281775431632557
100
AcDbArc
 50
163.59029727945963
 51
193.60481995728946
  0
ARC
  5
257
100
AcDbEntity
  8
0
  6
CONTINUOUS
 62
               4
100
AcDbCircle
 10
18.207112274662848
 20
24.997500000000002
 30
0.0
 40
20.204508298285091
100
AcDbArc
 50
171.78351819101405
 51
188.21648180898595
  0
ARC
  5
258
100
AcDbEntity
  8
0
  6
CONTINUOUS
 62
               4
100
AcDbCircle
 10
3.1294035299920893
 20
29.333733043107152
 30
0.0
 40
5.128290019206112
100
AcDbArc
 50
166.39551692819987
 51
196.40936583505092
  0
LINE
  5
259
100
AcDbEntity
  8
0
  6
CONTINUOUS
 62
               4
100
AcDbLine
 10
8.4000000000000057
 20
28.399999999999999
 30
0.0
 11
8.4000000000000057
 21
21.600000000000001
 31
0.0
  0
LINE
  5
25A
100
AcDbEntity
  8
0
  6
CONTINUOUS
 62
             200
100
AcDbLine
 10
-13.449999999999989
 20
22.770000000000003
 30
0.0
 11
-15.949999999999989
 21
27.229999999999997
 31
0.0
  0
LINE
  5
25B
100
AcDbEntity
  8
0
  6
CONTINUOUS
 62
             200
100
AcDbLine
 10
-13.449999999999989
 20
27.229999999999997
 30
0.0
 11
-15.949999999999989
 21
22.770000000000003
 31
0.0
  0
LINE
  5
25C
100
AcDbEntity
  8
0
  6
CONTINUOUS
 62
               4
100
AcDbLine
 10
-15.949999999999989
 20
22.770000000000003
 30
0.0
 11
-15.949999999999989
 21
21.649999999999999
 31
0.0
  0
LINE
  5
25D
100
AcDbEntity
  8
0
  6
CONTINUOUS
 62
               4
100
AcDbLine
 10
-13.449999999999989
 20
22.770000000000003
 30
0.0
 11
-15.949999999999989
 21
22.770000000000003
 31
0.0
  0
LINE
  5
25E
100
AcDbEntity
  8
0
  6
CONTINUOUS
 62
               4
100
AcDbLine
 10
-13.449999999999989
 20
27.229999999999997
 30
0.0
 11
-15.949999999999989
 21
27.229999999999997
 31
0.0
  0
LINE
  5
25F
100
AcDbEntity
  8
0
  6
CONTINUOUS
 62
               4
100
AcDbLine
 10
-13.449999999999989
 20
27.229999999999997
 30
0.0
 11
-13.449999999999989
 21
22.770000000000003
 31
0.0
  0
LINE
  5
260
100
AcDbEntity
  8
0
  6
CONTINUOUS
 62
               4
100
AcDbLine
 10
-0.2050000000000125
 20
22.109999999999999
 30
0.0
 11
-1.789999999999992
 21
22.109999999999999
 31
0.0
  0
LINE
  5
261
100
AcDbEntity
  8
0
  6
CONTINUOUS
 62
               4
100
AcDbLine
 10
-0.2050000000000125
 20
27.884999999999998
 30
0.0
 11
-1.789999999999992
 21
27.884999999999998
 31
0.0
  0
LINE
  5
262
100
AcDbEntity
  8
0
  6
CONTINUOUS
 62
               4
100
AcDbLine
 10
-15.949999999999989
 20
21.649999999999999
 30
0.0
 11
-16.449999999999989
 21
22.149999999999999
 31
0.0
  0
LINE
  5
263
100
AcDbEntity
  8
0
  6
CONTINUOUS
 62
               4
100
AcDbLine
 10
-15.949999999999989
 20
28.350000000000001
 30
0.0
 11
-15.949999999999989
 21
27.229999999999997
 31
0.0
  0
LINE
  5
264
100
AcDbEntity
  8
0
  6
CONTINUOUS
 62
               4
100
AcDbLine
 10
-10.449999999999989
 20
28.350000000000001
 30
0.0
 11
-10.449999999999989
 21
21.649999999999999
 31
0.0
  0
LINE
  5
265
100
AcDbEntity
  8
0
  6
CONTINUOUS
 62
               4
100
AcDbLine
 10
-9.9000000000000057
 20
28.899999999999999
 30
0.0
 11
-9.9000000000000057
 21
21.100000000000001
 31
0.0
  0
LINE
  5
266
100
AcDbEntity
  8
0
  6
CONTINUOUS
 62
               4
100
AcDbLine
 10
-2.0
 20
21.100000000000001
 30
0.0
 11
-9.9000000000000057
 21
21.100000000000001
 31
0.0
  0
LINE
  5
267
100
AcDbEntity
  8
0
  6
CONTINUOUS
 62
             200
100
AcDbLine
 10
-2.0
 20
21.405000000000001
 30
0.0
 11
-10.204999999999984
 21
21.405000000000001
 31
0.0
  0
LINE
  5
268
100
AcDbEntity
  8
0
  6
CONTINUOUS
 62
             200
100
AcDbLine
 10
-2.0
 20
28.589999999999996
 30
0.0
 11
-10.204999999999984
 21
28.589999999999996
 31
0.0
  0
LINE
  5
269
100
AcDbEntity
  8
0
  6
CONTINUOUS
 62
               4
100
AcDbLine
 10
-2.0
 20
28.899999999999999
 30
0.0
 11
-9.9000000000000057
 21
28.899999999999999
 31
0.0
  0
LINE
  5
26A
100
AcDbEntity
  8
0
  6
CONTINUOUS
 62
               4
100
AcDbLine
 10
-1.789999999999992
 20
19.225000000000001
 30
0.0
 11
-2.0
 21
20.0
 31
0.0
  0
LINE
  5
26B
100
AcDbEntity
  8
0
  6
CONTINUOUS
 62
               4
100
AcDbLine
 10
0.0
 20
20.0
 30
0.0
 11
-0.2050000000000125
 21
19.225000000000001
 31
0.0
  0
LINE
  5
26C
100
AcDbEntity
  8
0
  6
CONTINUOUS
 62
               4
100
AcDbLine
 10
-0.2050000000000125
 20
19.225000000000001
 30
0.0
 11
-1.789999999999992
 21
19.225000000000001
 31
0.0
  0
LINE
  5
26D
100
AcDbEntity
  8
0
  6
CONTINUOUS
 62
               4
100
AcDbLine
 10
-1.789999999999992
 20
30.770000000000003
 30
0.0
 11
-2.0
 21
30.0
 31
0.0
  0
LINE
  5
26E
100
AcDbEntity
  8
0
  6
CONTINUOUS
 62
               4
100
AcDbLine
 10
0.0
 20
30.0
 30
0.0
 11
-0.2050000000000125
 21
30.770000000000003
 31
0.0
  0
LINE
  5
26F
100
AcDbEntity
  8
0
  6
CONTINUOUS
 62
               4
100
AcDbLine
 10
-2.0
 20
30.0
 30
0.0
 11
-2.0
 21
20.0
 31
0.0
  0
LINE
  5
270
100
AcDbEntity
  8
0
  6
CONTINUOUS
 62
               4
100
AcDbLine
 10
-0.2050000000000125
 20
30.770000000000003
 30
0.0
 11
-1.789999999999992
 21
30.770000000000003
 31
0.0
  0
LINE
  5
271
100
AcDbEntity
  8
0
  6
CONTINUOUS
 62
               4
100
AcDbLine
 10
-15.949999999999989
 20
28.350000000000001
 30
0.0
 11
-16.449999999999989
 21
27.850000000000001
 31
0.0
  0
LINE
  5
272
100
AcDbEntity
  8
0
  6
CONTINUOUS
 62
               4
100
AcDbLine
 10
-16.449999999999989
 20
27.850000000000001
 30
0.0
 11
-16.449999999999989
 21
22.149999999999999
 31
0.0
  0
LINE
  5
273
100
AcDbEntity
  8
0
  6
CONTINUOUS
 62
               4
100
AcDbLine
 10
-10.449999999999989
 20
21.649999999999999
 30
0.0
 11
-15.949999999999989
 21
21.649999999999999
 31
0.0
  0
LINE
  5
274
100
AcDbEntity
  8
0
  6
CONTINUOUS
 62
               4
100
AcDbLine
 10
-10.449999999999989
 20
28.350000000000001
 30
0.0
 11
-15.949999999999989
 21
28.350000000000001
 31
0.0
  0
LINE
  5
275
100
AcDbEntity
  8
0
  6
CONTINUOUS
 62
               4
100
AcDbLine
 10
8.9000000000000057
 20
28.399999999999999
 30
0.0
 11
8.0
 21
28.399999999999999
 31
0.0
  0
LINE
  5
276
100
AcDbEntity
  8
0
  6
CONTINUOUS
 62
               4
100
AcDbLine
 10
-10.449999999999989
 20
21.649999999999999
 30
0.0
 11
-9.9000000000000057
 21
21.100000000000001
 31
0.0
  0
LINE
  5
277
100
AcDbEntity
  8
0
  6
CONTINUOUS
 62
               4
100
AcDbLine
 10
-9.9000000000000057
 20
28.899999999999999
 30
0.0
 11
-10.449999999999989
 21
28.350000000000001
 31
0.0
  0
LINE
  5
278
100
AcDbEntity
  8
0
  6
CONTINUOUS
 62
               4
100
AcDbLine
 10
8.9000000000000057
 20
21.600000000000001
 30
0.0
 11
9.0
 21
21.699999999999999
 31
0.0
  0
LINE
  5
279
100
AcDbEntity
  8
0
  6
CONTINUOUS
 62
               4
100
AcDbLine
 10
8.9000000000000057
 20
21.600000000000001
 30
0.0
 11
8.0
 21
21.600000000000001
 31
0.0
  0
LINE
  5
27A
100
AcDbEntity
  8
0
  6
CONTINUOUS
 62
               4
100
AcDbLine
 10
8.9000000000000057
 20
28.399999999999999
 30
0.0
 11
9.0
 21
28.300000000000004
 31
0.0
  0
LINE
  5
27B
100
AcDbEntity
  8
0
  6
CONTINUOUS
 62
               4
100
AcDbLine
 10
9.0
 20
28.300000000000004
 30
0.0
 11
9.0
 21
21.699999999999999
 31
0.0
  0
LINE
  5
27C
100
AcDbEntity
  8
0
  6
CONTINUOUS
 62
               4
100
AcDbLine
 10
9.8000000000000114
 20
26.25
 30
0.0
 11
9.0
 21
26.25
 31
0.0
  0
LINE
  5
27D
100
AcDbEntity
  8
0
  6
CONTINUOUS
 62
               4
100
AcDbLine
 10
9.8000000000000114
 20
23.75
 30
0.0
 11
9.0
 21
23.75
 31
0.0
  0
LINE
  5
27E
100
AcDbEntity
  8
0
  6
CONTINUOUS
 62
               7
100
AcDbLine
 10
8.0
 20
30.5
 30
0.0
 11
0.0
 21
30.5
 31
0.0
  0
LINE
  5
27F
100
AcDbEntity
  8
0
  6
CONTINUOUS
 62
               7
100
AcDbLine
 10
158.0
 20
27.5
 30
0.0
 11
166.0
 21
27.5
 31
0.0
  0
LINE
  5
280
100
AcDbEntity
  8
0
  6
CONTINUOUS
 62
               7
100
AcDbLine
 10
8.0
 20
27.5
 30
0.0
 11
0.0
 21
27.5
 31
0.0
  0
LINE
  5
281
100
AcDbEntity
  8
0
  6
PHANTOM
 62
               3
100
AcDbLine
 10
49.6170270611793
 20
-25.216176506678202
 30
0.0
 11
49.6170270611793
 21
51.394818721339682
 31
0.0
  0
LINE
  5
282
100
AcDbEntity
  8
0
  6
PHANTOM
 62
               3
100
AcDbLine
 10
76.525987341819445
 20
-25.216176506678202
 30
0.0
 11
76.525987341819445
 21
51.394818721339682
 31
0.0
  0
LINE
  5
283
100
AcDbEntity
  8
0
  6
PHANTOM
 62
               3
100
AcDbLine
 10
118.25000000000001
 20
-25.216176506678202
 30
0.0
 11
118.25000000000001
 21
51.394818721339682
 31
0.0
  0
ENDBLK
  5
284
100
AcDbEntity
  8
0
100
AcDbBlockEnd
  0
BLOCK
  5
285
100
AcDbEntity
  8
0
100
AcDbBlockBegin
  2
MS_5
 70
               0
 10
0.0
 20
0.0
 30
0.0
  3
MS_5
  1

  0
LINE
  5
286
100
AcDbEntity
  8
0
  6
CONTINUOUS
 62
               7
100
AcDbLine
 10
180.99999999999994
 20
-20.899999704863873
 30
0.0
 11
180.99999999999994
 21
-18.09999970486389
 31
0.0
  0
LINE
  5
287
100
AcDbEntity
  8
0
  6
CONTINUOUS
 62
               7
100
AcDbLine
 10
180.39999999999998
 20
-21.499999704863868
 30
0.0
 11
180.39999999999998
 21
-17.499999704863868
 31
0.0
  0
LINE
  5
288
100
AcDbEntity
  8
0
  6
CONTINUOUS
 62
               7
100
AcDbLine
 10
180.99999999999994
 20
-20.899999704863873
 30
0.0
 11
180.39999999999998
 21
-21.499999704863868
 31
0.0
  0
LINE
  5
289
100
AcDbEntity
  8
0
  6
CONTINUOUS
 62
               7
100
AcDbLine
 10
180.99999999999994
 20
-18.09999970486389
 30
0.0
 11
180.39999999999998
 21
-17.499999704863868
 31
0.0
  0
LINE
  5
28A
100
AcDbEntity
  8
0
  6
CONTINUOUS
 62
               4
100
AcDbLine
 10
182.99999999999994
 20
2.2300000000000182
 30
0.0
 11
182.99999999999994
 21
-2.2299999999999898
 31
0.0
  0
LINE
  5
28B
100
AcDbEntity
  8
0
  6
CONTINUOUS
 62
               7
100
AcDbLine
 10
-14.999999999999972
 20
-18.09999970486389
 30
0.0
 11
-14.400000000000006
 21
-17.499999704863868
 31
0.0
  0
LINE
  5
28C
100
AcDbEntity
  8
0
  6
CONTINUOUS
 62
               7
100
AcDbLine
 10
-14.999999999999972
 20
-20.899999704863873
 30
0.0
 11
-14.400000000000006
 21
-21.499999704863868
 31
0.0
  0
LINE
  5
28D
100
AcDbEntity
  8
0
  6
CONTINUOUS
 62
               7
100
AcDbLine
 10
-14.400000000000006
 20
-21.499999704863868
 30
0.0
 11
-14.400000000000006
 21
-17.499999704863868
 31
0.0
  0
LINE
  5
28E
100
AcDbEntity
  8
0
  6
CONTINUOUS
 62
               7
100
AcDbLine
 10
-14.999999999999972
 20
-20.899999704863873
 30
0.0
 11
-14.999999999999972
 21
-18.09999970486389
 31
0.0
  0
LINE
  5
28F
100
AcDbEntity
  8
0
  6
CONTINUOUS
 62
               4
100
AcDbLine
 10
-17.000000000000028
 20
2.2300000000000182
 30
0.0
 11
-17.000000000000028
 21
-2.2299999999999898
 31
0.0
  0
LINE
  5
290
100
AcDbEntity
  8
0
  6
CONTINUOUS
 62
               4
100
AcDbLine
 10
-14.000000000000028
 20
3.3500000000000085
 30
0.0
 11
-14.000000000000028
 21
2.2300000000000182
 31
0.0
  0
LINE
  5
291
100
AcDbEntity
  8
0
  6
CONTINUOUS
 62
               4
100
AcDbLine
 10
-14.000000000000028
 20
2.2300000000000182
 30
0.0
 11
-17.000000000000028
 21
2.2300000000000182
 31
0.0
  0
LINE
  5
292
100
AcDbEntity
  8
0
  6
CONTINUOUS
 62
               4
100
AcDbLine
 10
-14.000000000000028
 20
-2.2299999999999898
 30
0.0
 11
-17.000000000000028
 21
-2.2299999999999898
 31
0.0
  0
LINE
  5
293
100
AcDbEntity
  8
0
  6
CONTINUOUS
 62
               4
100
AcDbLine
 10
-14.000000000000028
 20
-2.2299999999999898
 30
0.0
 11
-14.000000000000028
 21
-3.3499999999999943
 31
0.0
  0
LINE
  5
294
100
AcDbEntity
  8
0
  6
CONTINUOUS
 62
               4
100
AcDbLine
 10
-11.000000000000028
 20
-3.3499999999999943
 30
0.0
 11
-14.000000000000028
 21
-3.3499999999999943
 31
0.0
  0
LINE
  5
295
100
AcDbEntity
  8
0
  6
CONTINUOUS
 62
               4
100
AcDbLine
 10
-11.000000000000028
 20
3.3500000000000085
 30
0.0
 11
-14.000000000000028
 21
3.3500000000000085
 31
0.0
  0
LINE
  5
296
100
AcDbEntity
  8
0
  6
CONTINUOUS
 62
               4
100
AcDbLine
 10
-11.000000000000028
 20
3.3500000000000085
 30
0.0
 11
-11.000000000000028
 21
-3.3499999999999943
 31
0.0
  0
LINE
  5
297
100
AcDbEntity
  8
0
  6
CONTINUOUS
 62
               4
100
AcDbLine
 10
-10.450000000000017
 20
3.8999999999999915
 30
0.0
 11
-10.450000000000017
 21
-3.9000000000000057
 31
0.0
  0
LINE
  5
298
100
AcDbEntity
  8
0
  6
CONTINUOUS
 62
               4
100
AcDbLine
 10
-11.000000000000028
 20
-3.3499999999999943
 30
0.0
 11
-10.450000000000017
 21
-3.9000000000000057
 31
0.0
  0
LINE
  5
299
100
AcDbEntity
  8
0
  6
CONTINUOUS
 62
               4
100
AcDbLine
 10
-10.450000000000017
 20
3.8999999999999915
 30
0.0
 11
-11.000000000000028
 21
3.3500000000000085
 31
0.0
  0
LINE
  5
29A
100
AcDbEntity
  8
0
  6
CONTINUOUS
 62
               7
100
AcDbLine
 10
157.99999999999994
 20
25.5
 30
0.0
 11
157.99999999999994
 21
-25.499999999999986
 31
0.0
  0
LINE
  5
29B
100
AcDbEntity
  8
0
  6
CONTINUOUS
 62
               7
100
AcDbLine
 10
157.99999999999994
 20
13.200000000000003
 30
0.0
 11
7.9999999999999716
 21
13.200000000000003
 31
0.0
  0
LINE
  5
29C
100
AcDbEntity
  8
0
  6
CONTINUOUS
 62
               7
100
AcDbLine
 10
157.99999999999994
 20
4.8000000000000256
 30
0.0
 11
7.9999999999999716
 21
4.8000000000000256
 31
0.0
  0
LINE
  5
29D
100
AcDbEntity
  8
0
  6
CONTINUOUS
 62
               7
100
AcDbLine
 10
157.99999999999994
 20
-4.7999999999999972
 30
0.0
 11
7.9999999999999432
 21
-4.7999999999999972
 31
0.0
  0
LINE
  5
29E
100
AcDbEntity
  8
0
  6
CONTINUOUS
 62
               7
100
AcDbLine
 10
157.99999999999994
 20
-13.199999999999974
 30
0.0
 11
7.9999999999999432
 21
-13.199999999999974
 31
0.0
  0
LINE
  5
29F
100
AcDbEntity
  8
0
  6
CONTINUOUS
 62
               7
100
AcDbLine
 10
165.99999999999994
 20
-25.499999999999986
 30
0.0
 11
0.0
 21
-25.499999999999986
 31
0.0
  0
LINE
  5
2A0
100
AcDbEntity
  8
0
  6
CONTINUOUS
 62
               7
100
AcDbLine
 10
7.9999999999999716
 20
25.5
 30
0.0
 11
7.9999999999999716
 21
-25.499999999999986
 31
0.0
  0
LINE
  5
2A1
100
AcDbEntity
  8
0
  6
CONTINUOUS
 62
               7
100
AcDbLine
 10
157.99999999999994
 20
13.500000000000014
 30
0.0
 11
7.9999999999999716
 21
13.500000000000014
 31
0.0
  0
LINE
  5
2A2
100
AcDbEntity
  8
0
  6
CONTINUOUS
 62
               7
100
AcDbLine
 10
157.99999999999994
 20
-13.499999999999986
 30
0.0
 11
7.9999999999999432
 21
-13.499999999999986
 31
0.0
  0
LINE
  5
2A3
100
AcDbEntity
  8
0
  6
CONTINUOUS
 62
               7
100
AcDbLine
 10
157.99999999999994
 20
4.5000000000000142
 30
0.0
 11
7.9999999999999716
 21
4.5000000000000142
 31
0.0
  0
LINE
  5
2A4
100
AcDbEntity
  8
0
  6
CONTINUOUS
 62
               7
100
AcDbLine
 10
157.99999999999994
 20
-4.4999999999999858
 30
0.0
 11
7.9999999999999432
 21
-4.4999999999999858
 31
0.0
  0
LINE
  5
2A5
100
AcDbEntity
  8
0
  6
CONTINUOUS
 62
               7
100
AcDbLine
 10
165.99999999999994
 20
25.500000000000014
 30
0.0
 11
165.99999999999994
 21
-25.499999999999986
 31
0.0
  0
LINE
  5
2A6
100
AcDbEntity
  8
0
  6
CONTINUOUS
 62
               7
100
AcDbLine
 10
168.39999999999998
 20
-22.999999704863868
 30
0.0
 11
165.99999999999994
 21
-22.999999704863868
 31
0.0
  0
LINE
  5
2A7
100
AcDbEntity
  8
0
  6
CONTINUOUS
 62
               7
100
AcDbLine
 10
168.07999999999998
 20
-19.499999704863868
 30
0.0
 11
166.30999999999995
 21
-19.499999704863868
 31
0.0
  0
LINE
  5
2A8
100
AcDbEntity
  8
0
  6
CONTINUOUS
 62
               7
100
AcDbLine
 10
168.39999999999998
 20
-22.999999704863868
 30
0.0
 11
168.39999999999998
 21
-15.999999704863868
 31
0.0
  0
LINE
  5
2A9
100
AcDbEntity
  8
0
  6
CONTINUOUS
 62
               7
100
AcDbLine
 10
168.39999999999998
 20
-15.999999704863868
 30
0.0
 11
165.99999999999994
 21
-15.999999704863868
 31
0.0
  0
ARC
  5
2AA
100
AcDbEntity
  8
0
  6
CONTINUOUS
 62
               7
100
AcDbCircle
 10
171.05464172363287
 20
-17.749999704863868
 30
0.0
 40
5.0570866203416127
100
AcDbArc
 50
159.75415341861677
 51
200.24584658138323
  0
ARC
  5
2AB
100
AcDbEntity
  8
0
  6
CONTINUOUS
 62
               7
100
AcDbCircle
 10
171.05464172363287
 20
-21.249999704863868
 30
0.0
 40
5.0570866203416127
100
AcDbArc
 50
159.75415341861677
 51
200.24584658138323
  0
ARC
  5
2AC
100
AcDbEntity
  8
0
  6
CONTINUOUS
 62
               7
100
AcDbCircle
 10
163.34538269042957
 20
-17.749999704863868
 30
0.0
 40
5.0476827424159323
100
AcDbArc
 50
339.71477781095513
 51
20.285222189044891
  0
ARC
  5
2AD
100
AcDbEntity
  8
0
  6
CONTINUOUS
 62
               7
100
AcDbCircle
 10
163.34538269042957
 20
-21.249999704863868
 30
0.0
 40
5.0476827424159323
100
AcDbArc
 50
339.71477781095513
 51
20.285222189044891
  0
CIRCLE
  5
2AE
100
AcDbEntity
  8
0
  6
CONTINUOUS
 62
               7
100
AcDbCircle
 10
4.0
 20
11.999999704863868
 30
0.0
 40
1.7
  0
LINE
  5
2AF
100
AcDbEntity
  8
0
  6
CONTINUOUS
 62
               7
100
AcDbLine
 10
0.0
 20
25.500000000000014
 30
0.0
 11
0.0
 21
-25.499999999999986
 31
0.0
  0
LINE
  5
2B0
100
AcDbEntity
  8
0
  6
CONTINUOUS
 62
               2
100
AcDbLine
 10
4.0
 20
15.19999970486387
 30
0.0
 11
4.0
 21
8.7999997048638647
 31
0.0
  0
LINE
  5
2B1
100
AcDbEntity
  8
0
  6
CONTINUOUS
 62
               2
100
AcDbLine
 10
122.99999999999996
 20
4.2599999999999909
 30
0.0
 11
122.99999999999996
 21
-4.289999999999992
 31
0.0
  0
LINE
  5
2B2
100
AcDbEntity
  8
0
  6
CONTINUOUS
 62
               2
100
AcDbLine
 10
42.999999999999972
 20
4.2599999999999909
 30
0.0
 11
42.999999999999972
 21
-4.289999999999992
 31
0.0
  0
LINE
  5
2B3
100
AcDbEntity
  8
0
  6
CONTINUOUS
 62
               2
100
AcDbLine
 10
32.999999999999972
 20
3.0
 30
0.0
 11
32.999999999999972
 21
-3.0
 31
0.0
  0
LINE
  5
2B4
100
AcDbEntity
  8
0
  6
CONTINUOUS
 62
               2
100
AcDbLine
 10
132.99999999999994
 20
3.0
 30
0.0
 11
132.99999999999994
 21
-3.0
 31
0.0
  0
ARC
  5
2B5
100
AcDbEntity
  8
0
  6
CONTINUOUS
 62
               7
100
AcDbCircle
 10
43.999999999999972
 20
0.0
 30
0.0
 40
2.0000009447543512
100
AcDbArc
 50
270.0
 51
90.0
  0
ARC
  5
2B6
100
AcDbEntity
  8
0
  6
CONTINUOUS
 62
               7
100
AcDbCircle
 10
41.999999999999972
 20
0.0
 30
0.0
 40
2.0000009299812538
100
AcDbArc
 50
90.0
 51
270.0
  0
CIRCLE
  5
2B7
100
AcDbEntity
  8
0
  6
CONTINUOUS
 62
               7
100
AcDbCircle
 10
122.99192871093744
 20
0.0
 30
0.0
 40
2.0
  0
LINE
  5
2B8
100
AcDbEntity
  8
0
  6
CONTINUOUS
 62
               7
100
AcDbLine
 10
41.999999999999972
 20
2.0
 30
0.0
 11
43.999999999999972
 21
2.0
 31
0.0
  0
LINE
  5
2B9
100
AcDbEntity
  8
0
  6
CONTINUOUS
 62
               7
100
AcDbLine
 10
41.999999999999972
 20
-2.0000009299812405
 30
0.0
 11
43.999999999999972
 21
-2.0000009299812405
 31
0.0
  0
CIRCLE
  5
2BA
100
AcDbEntity
  8
0
  6
CONTINUOUS
 62
               7
100
AcDbCircle
 10
132.99999999999994
 20
0.0
 30
0.0
 40
2.0
  0
CIRCLE
  5
2BB
100
AcDbEntity
  8
0
  6
CONTINUOUS
 62
               2
100
AcDbCircle
 10
132.99999999999994
 20
0.0
 30
0.0
 40
2.5
  0
CIRCLE
  5
2BC
100
AcDbEntity
  8
0
  6
CONTINUOUS
 62
               2
100
AcDbCircle
 10
32.999999999999972
 20
0.0
 30
0.0
 40
2.5
  0
CIRCLE
  5
2BD
100
AcDbEntity
  8
0
  6
CONTINUOUS
 62
               7
100
AcDbCircle
 10
32.999999999999972
 20
0.0
 30
0.0
 40
2.0
  0
LINE
  5
2BE
100
AcDbEntity
  8
0
  6
CONTINUOUS
 62
               2
100
AcDbLine
 10
7.1999999999999886
 20
11.999999704863868
 30
0.0
 11
0.8000000000000114
 21
11.999999704863868
 31
0.0
  0
LINE
  5
2BF
100
AcDbEntity
  8
0
  6
CONTINUOUS
 62
               4
100
AcDbLine
 10
179.99999999999997
 20
-2.2299999999999898
 30
0.0
 11
179.99999999999997
 21
-3.3499999999999943
 31
0.0
  0
LINE
  5
2C0
100
AcDbEntity
  8
0
  6
CONTINUOUS
 62
               4
100
AcDbLine
 10
176.99999999999994
 20
-3.3499999999999943
 30
0.0
 11
179.99999999999997
 21
-3.3499999999999943
 31
0.0
  0
LINE
  5
2C1
100
AcDbEntity
  8
0
  6
CONTINUOUS
 62
               4
100
AcDbLine
 10
179.99999999999997
 20
3.3500000000000085
 30
0.0
 11
179.99999999999997
 21
2.2300000000000182
 31
0.0
  0
LINE
  5
2C2
100
AcDbEntity
  8
0
  6
CONTINUOUS
 62
               4
100
AcDbLine
 10
176.99999999999994
 20
3.3500000000000085
 30
0.0
 11
179.99999999999997
 21
3.3500000000000085
 31
0.0
  0
LINE
  5
2C3
100
AcDbEntity
  8
0
  6
CONTINUOUS
 62
               4
100
AcDbLine
 10
176.44999999999996
 20
3.8999999999999915
 30
0.0
 11
176.99999999999997
 21
3.3500000000000085
 31
0.0
  0
LINE
  5
2C4
100
AcDbEntity
  8
0
  6
CONTINUOUS
 62
               4
100
AcDbLine
 10
176.99999999999997
 20
-3.3499999999999943
 30
0.0
 11
176.44999999999996
 21
-3.9000000000000057
 31
0.0
  0
LINE
  5
2C5
100
AcDbEntity
  8
0
  6
CONTINUOUS
 62
               4
100
AcDbLine
 10
167.99999999999994
 20
3.8999999999999915
 30
0.0
 11
176.44999999999996
 21
3.8999999999999915
 31
0.0
  0
LINE
  5
2C6
100
AcDbEntity
  8
0
  6
CONTINUOUS
 62
             200
100
AcDbLine
 10
167.99999999999994
 20
3.5900000000000034
 30
0.0
 11
176.75499999999997
 21
3.5900000000000034
 31
0.0
  0
LINE
  5
2C7
100
AcDbEntity
  8
0
  6
CONTINUOUS
 62
             200
100
AcDbLine
 10
167.99999999999994
 20
-3.5949999999999989
 30
0.0
 11
176.75499999999997
 21
-3.5949999999999989
 31
0.0
  0
LINE
  5
2C8
100
AcDbEntity
  8
0
  6
CONTINUOUS
 62
               4
100
AcDbLine
 10
167.99999999999994
 20
-3.9000000000000057
 30
0.0
 11
176.44999999999996
 21
-3.9000000000000057
 31
0.0
  0
LINE
  5
2C9
100
AcDbEntity
  8
0
  6
CONTINUOUS
 62
               4
100
AcDbLine
 10
176.44999999999996
 20
3.8999999999999915
 30
0.0
 11
176.44999999999996
 21
-3.9000000000000057
 31
0.0
  0
LINE
  5
2CA
100
AcDbEntity
  8
0
  6
CONTINUOUS
 62
               4
100
AcDbLine
 10
176.99999999999997
 20
3.3500000000000085
 30
0.0
 11
176.99999999999997
 21
-3.3499999999999943
 31
0.0
  0
LINE
  5
2CB
100
AcDbEntity
  8
0
  6
CONTINUOUS
 62
               4
100
AcDbLine
 10
-0.2100000000000364
 20
0.0
 30
0.0
 11
-1.7900000000000205
 21
0.0
 31
0.0
  0
LINE
  5
2CC
100
AcDbEntity
  8
0
  6
CONTINUOUS
 62
               7
100
AcDbLine
 10
0.0
 20
25.500000000000014
 30
0.0
 11
165.99999999999994
 21
25.500000000000014
 31
0.0
  0
CIRCLE
  5
2CD
100
AcDbEntity
  8
0
  6
CONTINUOUS
 62
               7
100
AcDbCircle
 10
4.0
 20
-11.999999704863868
 30
0.0
 40
1.7
  0
LINE
  5
2CE
100
AcDbEntity
  8
0
  6
CONTINUOUS
 62
               2
100
AcDbLine
 10
7.1999999999999886
 20
-11.999999704863868
 30
0.0
 11
0.8000000000000114
 21
-11.999999704863868
 31
0.0
  0
LINE
  5
2CF
100
AcDbEntity
  8
0
  6
CONTINUOUS
 62
               2
100
AcDbLine
 10
4.0
 20
-15.19999970486387
 30
0.0
 11
4.0
 21
-8.7999997048638647
 31
0.0
  0
CIRCLE
  5
2D0
100
AcDbEntity
  8
0
  6
CONTINUOUS
 62
               7
100
AcDbCircle
 10
161.99999999999997
 20
-11.999999704863868
 30
0.0
 40
1.7
  0
LINE
  5
2D1
100
AcDbEntity
  8
0
  6
CONTINUOUS
 62
               2
100
AcDbLine
 10
158.79999999999995
 20
-11.999999704863868
 30
0.0
 11
165.19999999999999
 21
-11.999999704863868
 31
0.0
  0
LINE
  5
2D2
100
AcDbEntity
  8
0
  6
CONTINUOUS
 62
               2
100
AcDbLine
 10
161.99999999999997
 20
-15.19999970486387
 30
0.0
 11
161.99999999999997
 21
-8.7999997048638647
 31
0.0
  0
CIRCLE
  5
2D3
100
AcDbEntity
  8
0
  6
CONTINUOUS
 62
               7
100
AcDbCircle
 10
161.99999999999997
 20
11.999999704863868
 30
0.0
 40
1.7
  0
LINE
  5
2D4
100
AcDbEntity
  8
0
  6
CONTINUOUS
 62
               2
100
AcDbLine
 10
158.79999999999995
 20
11.999999704863868
 30
0.0
 11
165.19999999999999
 21
11.999999704863868
 31
0.0
  0
LINE
  5
2D5
100
AcDbEntity
  8
0
  6
CONTINUOUS
 62
               2
100
AcDbLine
 10
161.99999999999997
 20
15.19999970486387
 30
0.0
 11
161.99999999999997
 21
8.7999997048638647
 31
0.0
  0
LINE
  5
2D6
100
AcDbEntity
  8
0
  6
CONTINUOUS
 62
               7
100
AcDbLine
 10
-2.3999999999999773
 20
-22.999999704863868
 30
0.0
 11
0.0
 21
-22.999999704863868
 31
0.0
  0
LINE
  5
2D7
100
AcDbEntity
  8
0
  6
CONTINUOUS
 62
               7
100
AcDbLine
 10
-2.3999999999999773
 20
-15.999999704863868
 30
0.0
 11
0.0
 21
-15.999999704863868
 31
0.0
  0
ARC
  5
2D8
100
AcDbEntity
  8
0
  6
CONTINUOUS
 62
               7
100
AcDbCircle
 10
-5.0546417236328693
 20
-17.749999704863868
 30
0.0
 40
5.0570866203416127
100
AcDbArc
 50
339.75415341861674
 51
20.245846581383233
  0
ARC
  5
2D9
100
AcDbEntity
  8
0
  6
CONTINUOUS
 62
               7
100
AcDbCircle
 10
-5.0546417236328693
 20
-21.249999704863868
 30
0.0
 40
5.0570866203416127
100
AcDbArc
 50
339.75415341861674
 51
20.245846581383233
  0
ARC
  5
2DA
100
AcDbEntity
  8
0
  6
CONTINUOUS
 62
               7
100
AcDbCircle
 10
2.6546173095704262
 20
-21.249999704863868
 30
0.0
 40
5.0476827424159323
100
AcDbArc
 50
159.7147778109551
 51
200.2852221890449
  0
ARC
  5
2DB
100
AcDbEntity
  8
0
  6
CONTINUOUS
 62
               7
100
AcDbCircle
 10
2.6546173095704262
 20
-17.749999704863868
 30
0.0
 40
5.0476827424159323
100
AcDbArc
 50
159.7147778109551
 51
200.2852221890449
  0
LINE
  5
2DC
100
AcDbEntity
  8
0
  6
CONTINUOUS
 62
               7
100
AcDbLine
 10
-2.3999999999999773
 20
-22.999999704863868
 30
0.0
 11
-2.3999999999999773
 21
-15.999999704863868
 31
0.0
  0
LINE
  5
2DD
100
AcDbEntity
  8
0
  6
CONTINUOUS
 62
               7
100
AcDbLine
 10
-2.0799999999999841
 20
-19.499999704863868
 30
0.0
 11
-0.3100000000000023
 21
-19.499999704863868
 31
0.0
  0
LINE
  5
2DE
100
AcDbEntity
  8
0
  6
CONTINUOUS
 62
               4
100
AcDbLine
 10
166.21000001318453
 20
-0.0000000000000142
 30
0.0
 11
167.79000001318454
 21
0.0
 31
0.0
  0
ARC
  5
2DF
100
AcDbEntity
  8
0
  6
CONTINUOUS
 62
               4
100
AcDbCircle
 10
186.20711228784737
 20
2.8874999999999886
 30
0.0
 40
20.204508298285091
100
AcDbArc
 50
173.99842082677011
 51
188.21648180898595
  0
ARC
  5
2E0
100
AcDbEntity
  8
0
  6
CONTINUOUS
 62
               4
100
AcDbCircle
 10
147.7928877385217
 20
2.8874999999999886
 30
0.0
 40
20.204508298285091
100
AcDbArc
 50
351.78351819101408
 51
6.0015791732298958
  0
ARC
  5
2E1
100
AcDbEntity
  8
0
  6
CONTINUOUS
 62
               4
100
AcDbCircle
 10
186.20711228784737
 20
-2.8874999999999886
 30
0.0
 40
20.204508298285091
100
AcDbArc
 50
171.78351819101405
 51
186.00157917322989
  0
ARC
  5
2E2
100
AcDbEntity
  8
0
  6
CONTINUOUS
 62
               4
100
AcDbCircle
 10
147.7928877385217
 20
-2.8874999999999886
 30
0.0
 40
20.204508298285091
100
AcDbArc
 50
353.99842082677009
 51
8.2164818089859413
  0
LINE
  5
2E3
100
AcDbEntity
  8
0
  6
CONTINUOUS
 62
               4
100
AcDbLine
 10
165.99999999999994
 20
-5.0000000241502107
 30
0.0
 11
167.99999999999994
 21
-5.0000000241502107
 31
0.0
  0
LINE
  5
2E4
100
AcDbEntity
  8
0
  6
CONTINUOUS
 62
               4
100
AcDbLine
 10
165.99999999999994
 20
4.9999999758497893
 30
0.0
 11
167.99999999999994
 21
4.9999999758497893
 31
0.0
  0
LINE
  5
2E5
100
AcDbEntity
  8
0
  6
CONTINUOUS
 62
               4
100
AcDbLine
 10
168.00000001318455
 20
4.9999999999999858
 30
0.0
 11
168.00000001318455
 21
-5.0000000000000142
 31
0.0
  0
ARC
  5
2E6
100
AcDbEntity
  8
0
  6
CONTINUOUS
 62
               4
100
AcDbCircle
 10
18.207112274662791
 20
2.8874999999999886
 30
0.0
 40
20.204508298285091
100
AcDbArc
 50
173.99842082677011
 51
188.21648180898595
  0
ARC
  5
2E7
100
AcDbEntity
  8
0
  6
CONTINUOUS
 62
               4
100
AcDbCircle
 10
-20.207112274662848
 20
2.8874999999999886
 30
0.0
 40
20.204508298285091
100
AcDbArc
 50
351.78351819101408
 51
6.0015791732298958
  0
ARC
  5
2E8
100
AcDbEntity
  8
0
  6
CONTINUOUS
 62
               4
100
AcDbCircle
 10
18.207112274662791
 20
-2.8874999999999886
 30
0.0
 40
20.204508298285091
100
AcDbArc
 50
171.78351819101405
 51
186.00157917322989
  0
ARC
  5
2E9
100
AcDbEntity
  8
0
  6
CONTINUOUS
 62
               4
100
AcDbCircle
 10
-20.207112274662848
 20
-2.8874999999999886
 30
0.0
 40
20.204508298285091
100
AcDbArc
 50
353.99842082677009
 51
8.2164818089859413
  0
LINE
  5
2EA
100
AcDbEntity
  8
0
  6
CONTINUOUS
 62
               4
100
AcDbLine
 10
-2.0000000131846036
 20
-5.0000000241502107
 30
0.0
 11
-0.0000000131846036
 21
-5.0000000241502107
 31
0.0
  0
LINE
  5
2EB
100
AcDbEntity
  8
0
  6
CONTINUOUS
 62
               4
100
AcDbLine
 10
-2.0000000131846036
 20
4.9999999758497893
 30
0.0
 11
-0.0000000131846036
 21
4.9999999758497893
 31
0.0
  0
LINE
  5
2EC
100
AcDbEntity
  8
0
  6
CONTINUOUS
 62
               4
100
AcDbLine
 10
-2.0000000131846036
 20
4.9999999758497893
 30
0.0
 11
-2.0000000131846036
 21
-5.0000000241502107
 31
0.0
  0
LINE
  5
2ED
100
AcDbEntity
  8
0
  6
CONTINUOUS
 62
               7
100
AcDbLine
 10
-14.400000000000006
 20
-17.499999704863868
 30
0.0
 11
-2.3999999999999773
 21
-17.499999704863868
 31
0.0
  0
LINE
  5
2EE
100
AcDbEntity
  8
0
  6
CONTINUOUS
 62
               7
100
AcDbLine
 10
-14.400000000000006
 20
-21.499999704863868
 30
0.0
 11
-2.3999999999999773
 21
-21.499999704863868
 31
0.0
  0
LINE
  5
2EF
100
AcDbEntity
  8
0
  6
CONTINUOUS
 62
               2
100
AcDbLine
 10
-14.75
 20
-21.149999704863873
 30
0.0
 11
-2.3999999999999773
 21
-21.149999704863873
 31
0.0
  0
LINE
  5
2F0
100
AcDbEntity
  8
0
  6
CONTINUOUS
 62
               2
100
AcDbLine
 10
-14.75
 20
-17.849999704863905
 30
0.0
 11
-2.3999999999999773
 21
-17.849999704863905
 31
0.0
  0
LINE
  5
2F1
100
AcDbEntity
  8
0
  6
CONTINUOUS
 62
               2
100
AcDbLine
 10
2.5000000000000284
 20
-19.499999704863882
 30
0.0
 11
-17.499999999999972
 21
-19.499999704863882
 31
0.0
  0
LINE
  5
2F2
100
AcDbEntity
  8
0
  6
CONTINUOUS
 62
               2
100
AcDbLine
 10
163.49999999999994
 20
-19.499999704863882
 30
0.0
 11
183.49999999999994
 21
-19.499999704863882
 31
0.0
  0
LINE
  5
2F3
100
AcDbEntity
  8
0
  6
CONTINUOUS
 62
               4
100
AcDbLine
 10
-2.0000000000000284
 20
-3.9000000000000057
 30
0.0
 11
-10.450000000000017
 21
-3.9000000000000057
 31
0.0
  0
LINE
  5
2F4
100
AcDbEntity
  8
0
  6
CONTINUOUS
 62
             200
100
AcDbLine
 10
-2.0000000000000284
 20
-3.5949999999999989
 30
0.0
 11
-10.755000000000024
 21
-3.5949999999999989
 31
0.0
  0
LINE
  5
2F5
100
AcDbEntity
  8
0
  6
CONTINUOUS
 62
             200
100
AcDbLine
 10
-2.0000000000000284
 20
3.5900000000000034
 30
0.0
 11
-10.755000000000024
 21
3.5900000000000034
 31
0.0
  0
LINE
  5
2F6
100
AcDbEntity
  8
0
  6
CONTINUOUS
 62
               4
100
AcDbLine
 10
-2.0000000000000284
 20
3.8999999999999915
 30
0.0
 11
-10.450000000000017
 21
3.8999999999999915
 31
0.0
  0
LINE
  5
2F7
100
AcDbEntity
  8
0
  6
CONTINUOUS
 62
               4
100
AcDbLine
 10
179.99999999999997
 20
2.2300000000000182
 30
0.0
 11
182.99999999999994
 21
2.2300000000000182
 31
0.0
  0
LINE
  5
2F8
100
AcDbEntity
  8
0
  6
CONTINUOUS
 62
               4
100
AcDbLine
 10
179.99999999999997
 20
-2.2299999999999898
 30
0.0
 11
182.99999999999994
 21
-2.2299999999999898
 31
0.0
  0
LINE
  5
2F9
100
AcDbEntity
  8
0
  6
CONTINUOUS
 62
               2
100
AcDbLine
 10
185.49999999999994
 20
0.0
 30
0.0
 11
-19.500000000000057
 21
0.0
 31
0.0
  0
LINE
  5
2FA
100
AcDbEntity
  8
0
  6
CONTINUOUS
 62
               2
100
AcDbLine
 10
180.75
 20
-17.849999704863905
 30
0.0
 11
168.39999999999998
 21
-17.849999704863905
 31
0.0
  0
LINE
  5
2FB
100
AcDbEntity
  8
0
  6
CONTINUOUS
 62
               2
100
AcDbLine
 10
180.74999999999994
 20
-21.149999704863873
 30
0.0
 11
168.39999999999998
 21
-21.149999704863873
 31
0.0
  0
LINE
  5
2FC
100
AcDbEntity
  8
0
  6
CONTINUOUS
 62
               7
100
AcDbLine
 10
180.39999999999998
 20
-21.499999704863868
 30
0.0
 11
168.39999999999998
 21
-21.499999704863868
 31
0.0
  0
LINE
  5
2FD
100
AcDbEntity
  8
0
  6
CONTINUOUS
 62
               7
100
AcDbLine
 10
180.39999999999998
 20
-17.499999704863868
 30
0.0
 11
168.39999999999998
 21
-17.499999704863868
 31
0.0
  0
LINE
  5
2FE
100
AcDbEntity
  8
0
  6
PHANTOM
 62
               3
100
AcDbLine
 10
49.617027061179272
 20
-38.133620648261541
 30
0.0
 11
49.617027061179272
 21
50.46866078935912
 31
0.0
  0
LINE
  5
2FF
100
AcDbEntity
  8
0
  6
PHANTOM
 62
               3
100
AcDbLine
 10
76.525987341819416
 20
-38.133620648261541
 30
0.0
 11
76.525987341819416
 21
50.46866078935912
 31
0.0
  0
LINE
  5
300
100
AcDbEntity
  8
0
  6
PHANTOM
 62
               3
100
AcDbLine
 10
118.24999999999999
 20
-38.133620648261541
 30
0.0
 11
118.24999999999999
 21
50.46866078935912
 31
0.0
  0
ENDBLK
  5
301
100
AcDbEntity
  8
0
100
AcDbBlockEnd
  0
BLOCK
  5
302
100
AcDbEntity
  8
0
100
AcDbBlockBegin
  2
MS_6
 70
               0
 10
0.0
 20
0.0
 30
0.0
  3
MS_6
  1

  0
LINE
  5
303
100
AcDbEntity
  8
0
  6
CONTINUOUS
 62
               4
100
AcDbLine
 10
27.25
 20
-3.5999999999999943
 30
0.0
 11
30.5
 21
-3.5999999999999943
 31
0.0
  0
LINE
  5
304
100
AcDbEntity
  8
0
  6
CONTINUOUS
 62
               4
100
AcDbLine
 10
25.75
 20
-1.0
 30
0.0
 11
30.5
 21
-1.0
 31
0.0
  0
LINE
  5
305
100
AcDbEntity
  8
0
  6
CONTINUOUS
 62
               4
100
AcDbLine
 10
22.0
 20
-3.5999999999999943
 30
0.0
 11
25.75
 21
-3.5999999999999943
 31
0.0
  0
LINE
  5
306
100
AcDbEntity
  8
0
  6
CONTINUOUS
 62
               4
100
AcDbLine
 10
22.0
 20
-1.0
 30
0.0
 11
24.25
 21
-1.0
 31
0.0
  0
LINE
  5
307
100
AcDbEntity
  8
0
  6
CONTINUOUS
 62
               4
100
AcDbLine
 10
0.0
 20
-0.4500000000000028
 30
0.0
 11
22.0
 21
-0.4500000000000028
 31
0.0
  0
LINE
  5
308
100
AcDbEntity
  8
0
  6
CONTINUOUS
 62
               4
100
AcDbLine
 10
0.0
 20
-1.0
 30
0.0
 11
22.0
 21
-1.0
 31
0.0
  0
LINE
  5
309
100
AcDbEntity
  8
0
  6
CONTINUOUS
 62
               4
100
AcDbLine
 10
0.75
 20
0.5
 30
0.0
 11
3.25
 21
0.5
 31
0.0
  0
LINE
  5
30A
100
AcDbEntity
  8
0
  6
CONTINUOUS
 62
               4
100
AcDbLine
 10
3.25
 20
0.5
 30
0.0
 11
3.25
 21
0.0
 31
0.0
  0
LINE
  5
30B
100
AcDbEntity
  8
0
  6
CONTINUOUS
 62
             200
100
AcDbLine
 10
3.0200000000000102
 20
0.5
 30
0.0
 11
3.0200000000000102
 21
0.0
 31
0.0
  0
LINE
  5
30C
100
AcDbEntity
  8
0
  6
CONTINUOUS
 62
             200
100
AcDbLine
 10
0.9699999999999989
 20
0.5
 30
0.0
 11
0.9699999999999989
 21
0.0
 31
0.0
  0
LINE
  5
30D
100
AcDbEntity
  8
0
  6
CONTINUOUS
 62
               4
100
AcDbLine
 10
0.75
 20
0.5
 30
0.0
 11
0.75
 21
0.0
 31
0.0
  0
LINE
  5
30E
100
AcDbEntity
  8
0
  6
CONTINUOUS
 62
               4
100
AcDbLine
 10
0.75
 20
-3.769999999999996
 30
0.0
 11
3.25
 21
-3.769999999999996
 31
0.0
  0
LINE
  5
30F
100
AcDbEntity
  8
0
  6
CONTINUOUS
 62
               4
100
AcDbLine
 10
3.25
 20
-2.5900000000000034
 30
0.0
 11
3.25
 21
-3.769999999999996
 31
0.0
  0
LINE
  5
310
100
AcDbEntity
  8
0
  6
CONTINUOUS
 62
             200
100
AcDbLine
 10
3.0200000000000102
 20
-2.5900000000000034
 30
0.0
 11
3.0200000000000102
 21
-4.0
 31
0.0
  0
LINE
  5
311
100
AcDbEntity
  8
0
  6
CONTINUOUS
 62
             200
100
AcDbLine
 10
0.9699999999999989
 20
-2.5900000000000034
 30
0.0
 11
0.9699999999999989
 21
-4.0
 31
0.0
  0
LINE
  5
312
100
AcDbEntity
  8
0
  6
CONTINUOUS
 62
               4
100
AcDbLine
 10
0.75
 20
-2.5900000000000034
 30
0.0
 11
0.75
 21
-3.769999999999996
 31
0.0
  0
LINE
  5
313
100
AcDbEntity
  8
0
  6
CONTINUOUS
 62
               4
100
AcDbLine
 10
0.9699999999999989
 20
-4.0
 30
0.0
 11
0.75
 21
-3.769999999999996
 31
0.0
  0
LINE
  5
314
100
AcDbEntity
  8
0
  6
CONTINUOUS
 62
               4
100
AcDbLine
 10
3.0200000000000102
 20
-4.0
 30
0.0
 11
3.25
 21
-3.769999999999996
 31
0.0
  0
LINE
  5
315
100
AcDbEntity
  8
0
  6
CONTINUOUS
 62
               4
100
AcDbLine
 10
0.9699999999999989
 20
-4.0
 30
0.0
 11
3.0200000000000102
 21
-4.0
 31
0.0
  0
LINE
  5
316
100
AcDbEntity
  8
0
  6
CONTINUOUS
 62
             200
100
AcDbLine
 10
23.75
 20
-0.1299999999999955
 30
0.0
 11
26.25
 21
-4.4599999999999937
 31
0.0
  0
LINE
  5
317
100
AcDbEntity
  8
0
  6
CONTINUOUS
 62
             200
100
AcDbLine
 10
25.25
 20
-0.1299999999999955
 30
0.0
 11
27.75
 21
-4.4599999999999937
 31
0.0
  0
LINE
  5
318
100
AcDbEntity
  8
0
  6
CONTINUOUS
 62
             200
100
AcDbLine
 10
32.72999999999999
 20
-0.1299999999999955
 30
0.0
 11
35.22999999999999
 21
-4.4599999999999937
 31
0.0
  0
LINE
  5
31A
100
AcDbEntity
  8
0
  6
CENTER
 62
             200
100
AcDbLine
 10
20.680000000000007
 20
-2.2999999999999972
 30
0.0
 11
30.5
 21
-2.2999999999999972
 31
0.0
  0
LINE
  5
31B
100
AcDbEntity
  8
0
  6
CONTINUOUS
 62
             200
100
AcDbLine
 10
34.22999999999999
 20
-0.1299999999999955
 30
0.0
 11
36.72999999999999
 21
-4.4599999999999937
 31
0.0
  0
LINE
  5
31C
100
AcDbEntity
  8
0
  6
CONTINUOUS
 62
               4
100
AcDbLine
 10
37.5
 20
-3.0
 30
0.0
 11
40.5
 21
-3.0
 31
0.0
  0
LINE
  5
31D
100
AcDbEntity
  8
0
  6
CONTINUOUS
 62
               4
100
AcDbLine
 10
37.5
 20
-2.5
 30
0.0
 11
40.5
 21
-2.5
 31
0.0
  0
LINE
  5
31E
100
AcDbEntity
  8
0
  6
CONTINUOUS
 62
               4
100
AcDbLine
 10
37.5
 20
-2.0999999999999943
 30
0.0
 11
40.5
 21
-2.0999999999999943
 31
0.0
  0
LINE
  5
31F
100
AcDbEntity
  8
0
  6
CONTINUOUS
 62
               4
100
AcDbLine
 10
37.5
 20
-1.5999999999999943
 30
0.0
 11
40.5
 21
-1.5999999999999943
 31
0.0
  0
LINE
  5
320
100
AcDbEntity
  8
0
  6
CONTINUOUS
 62
               4
100
AcDbLine
 10
34.960000000000008
 20
-1.4000000000000057
 30
0.0
 11
37.5
 21
-1.4000000000000057
 31
0.0
  0
LINE
  5
321
100
AcDbEntity
  8
0
  6
CONTINUOUS
 62
               4
100
AcDbLine
 10
30.5
 20
-1.4000000000000057
 30
0.0
 11
33.460000000000008
 21
-1.4000000000000057
 31
0.0
  0
LINE
  5
322
100
AcDbEntity
  8
0
  6
CONTINUOUS
 62
               4
100
AcDbLine
 10
36.0
 20
-3.2000000000000028
 30
0.0
 11
37.5
 21
-3.2000000000000028
 31
0.0
  0
LINE
  5
323
100
AcDbEntity
  8
0
  6
CONTINUOUS
 62
               4
100
AcDbLine
 10
35.47999999999999
 20
-2.2999999999999972
 30
0.0
 11
37.5
 21
-2.2999999999999972
 31
0.0
  0
LINE
  5
324
100
AcDbEntity
  8
0
  6
CONTINUOUS
 62
               4
100
AcDbLine
 10
30.5
 20
-2.2999999999999972
 30
0.0
 11
33.97999999999999
 21
-2.2999999999999972
 31
0.0
  0
LINE
  5
325
100
AcDbEntity
  8
0
  6
CONTINUOUS
 62
               4
100
AcDbLine
 10
30.5
 20
-3.2000000000000028
 30
0.0
 11
34.5
 21
-3.2000000000000028
 31
0.0
  0
LINE
  5
326
100
AcDbEntity
  8
0
  6
CONTINUOUS
 62
               4
100
AcDbLine
 10
37.5
 20
-1.4000000000000057
 30
0.0
 11
37.5
 21
-3.2000000000000028
 31
0.0
  0
LINE
  5
327
100
AcDbEntity
  8
0
  6
CONTINUOUS
 62
               4
100
AcDbLine
 10
40.5
 20
-2.5
 30
0.0
 11
40.5
 21
-3.0
 31
0.0
  0
LINE
  5
328
100
AcDbEntity
  8
0
  6
CONTINUOUS
 62
               4
100
AcDbLine
 10
40.5
 20
-1.5999999999999943
 30
0.0
 11
40.5
 21
-2.0999999999999943
 31
0.0
  0
LINE
  5
329
100
AcDbEntity
  8
0
  6
CENTER
 62
             200
100
AcDbLine
 10
28.819999999999993
 20
-2.75
 30
0.0
 11
40.75
 21
-2.75
 31
0.0
  0
LINE
  5
32A
100
AcDbEntity
  8
0
  6
CENTER
 62
             200
100
AcDbLine
 10
28.77000000000001
 20
-1.8499999999999943
 30
0.0
 11
40.699999999999989
 21
-1.8499999999999943
 31
0.0
  0
LINE
  5
32B
100
AcDbEntity
  8
0
  6
CONTINUOUS
 62
               4
100
AcDbLine
 10
30.5
 20
-1.0
 30
0.0
 11
30.5
 21
-3.5999999999999943
 31
0.0
  0
LINE
  5
32C
100
AcDbEntity
  8
0
  6
CONTINUOUS
 62
               4
100
AcDbLine
 10
4.25
 20
-3.0400000000000063
 30
0.0
 11
4.6999999999999886
 21
-3.0400000000000063
 31
0.0
  0
LINE
  5
32D
100
AcDbEntity
  8
0
  6
CONTINUOUS
 62
               4
100
AcDbLine
 10
4.1999999999999886
 20
-3.7999999999999972
 30
0.0
 11
4.6999999999999886
 21
-3.7999999999999972
 31
0.0
  0
LINE
  5
32E
100
AcDbEntity
  8
0
  6
CONTINUOUS
 62
               4
100
AcDbLine
 10
4.1999999999999886
 20
-1.7999999999999972
 30
0.0
 11
4.1999999999999886
 21
-3.7999999999999972
 31
0.0
  0
LINE
  5
32F
100
AcDbEntity
  8
0
  6
CONTINUOUS
 62
               4
100
AcDbLine
 10
0.0
 20
-2.5999999999999943
 30
0.0
 11
4.0
 21
-2.5999999999999943
 31
0.0
  0
LINE
  5
330
100
AcDbEntity
  8
0
  6
CONTINUOUS
 62
               4
100
AcDbLine
 10
0.0
 20
-1.7999999999999972
 30
0.0
 11
0.0
 21
-2.5999999999999943
 31
0.0
  0
LINE
  5
331
100
AcDbEntity
  8
0
  6
CONTINUOUS
 62
               4
100
AcDbLine
 10
4.0
 20
-1.7999999999999972
 30
0.0
 11
4.0
 21
-2.5999999999999943
 31
0.0
  0
LINE
  5
332
100
AcDbEntity
  8
0
  6
CONTINUOUS
 62
               4
100
AcDbLine
 10
4.25
 20
-1.7999999999999972
 30
0.0
 11
4.25
 21
-3.0400000000000063
 31
0.0
  0
LINE
  5
333
100
AcDbEntity
  8
0
  6
CENTER
 62
             200
100
AcDbLine
 10
2.0
 20
0.7999999999999972
 30
0.0
 11
2.0
 21
-5.4299999999999926
 31
0.0
  0
LINE
  5
334
100
AcDbEntity
  8
0
  6
CONTINUOUS
 62
               4
100
AcDbLine
 10
0.0
 20
-1.7999999999999972
 30
0.0
 11
4.25
 21
-1.7999999999999972
 31
0.0
  0
LINE
  5
335
100
AcDbEntity
  8
0
  6
CONTINUOUS
 62
               4
100
AcDbLine
 10
4.6999999999999886
 20
-3.0400000000000063
 30
0.0
 11
4.6999999999999886
 21
-4.5999999999999943
 31
0.0
  0
LINE
  5
336
100
AcDbEntity
  8
0
  6
CONTINUOUS
 62
               4
100
AcDbLine
 10
0.0
 20
-1.7999999999999972
 30
0.0
 11
0.0
 21
0.0
 31
0.0
  0
LINE
  5
337
100
AcDbEntity
  8
0
  6
CONTINUOUS
 62
               4
100
AcDbLine
 10
22.0
 20
0.0
 30
0.0
 11
22.0
 21
-4.5999999999999943
 31
0.0
  0
LINE
  5
338
100
AcDbEntity
  8
0
  6
CONTINUOUS
 62
               4
100
AcDbLine
 10
4.6999999999999886
 20
-4.5999999999999943
 30
0.0
 11
22.0
 21
-4.5999999999999943
 31
0.0
  0
LINE
  5
339
100
AcDbEntity
  8
0
  6
CONTINUOUS
 62
               4
100
AcDbLine
 10
0.0
 20
0.0
 30
0.0
 11
22.0
 21
0.0
 31
0.0
  0
ENDBLK
  5
33A
100
AcDbEntity
  8
0
100
AcDbBlockEnd
  0
BLOCK
  5
33B
100
AcDbEntity
  8
0
100
AcDbBlockBegin
  2
MS_7
 70
               0
 10
0.0
 20
0.0
 30
0.0
  3
MS_7
  1

  0
ARC
  5
33C
100
AcDbEntity
  8
0
  6
CONTINUOUS
 62
               4
100
AcDbCircle
 10
-0.000002288819644
 20
-2.5499977111803673
 30
0.0
 40
2.0500022888209148
100
AcDbArc
 50
270.00006397051652
 51
359.99993602948348
  0
ARC
  5
33D
100
AcDbEntity
  8
0
  6
CONTINUOUS
 62
               4
100
AcDbCircle
 10
0.000002288819644
 20
-2.5499977111803673
 30
0.0
 40
2.0500022888209148
100
AcDbArc
 50
180.00006397051652
 51
269.99993602948348
  0
LINE
  5
33E
100
AcDbEntity
  8
0
  6
CONTINUOUS
 62
               4
100
AcDbLine
 10
-1.25
 20
0.5
 30
0.0
 11
1.25
 21
0.5
 31
0.0
  0
LINE
  5
33F
100
AcDbEntity
  8
0
  6
CONTINUOUS
 62
               4
100
AcDbLine
 10
1.25
 20
0.5
 30
0.0
 11
1.25
 21
0.0
 31
0.0
  0
LINE
  5
340
100
AcDbEntity
  8
0
  6
CONTINUOUS
 62
             200
100
AcDbLine
 10
1.019999999999996
 20
0.5
 30
0.0
 11
1.019999999999996
 21
0.0
 31
0.0
  0
LINE
  5
341
100
AcDbEntity
  8
0
  6
CONTINUOUS
 62
             200
100
AcDbLine
 10
-1.019999999999996
 20
0.5
 30
0.0
 11
-1.019999999999996
 21
0.0
 31
0.0
  0
LINE
  5
342
100
AcDbEntity
  8
0
  6
CONTINUOUS
 62
               4
100
AcDbLine
 10
-1.25
 20
0.5
 30
0.0
 11
-1.25
 21
0.0
 31
0.0
  0
LINE
  5
343
100
AcDbEntity
  8
0
  6
CONTINUOUS
 62
               4
100
AcDbLine
 10
-1.25
 20
-3.769999999999996
 30
0.0
 11
1.25
 21
-3.769999999999996
 31
0.0
  0
LINE
  5
344
100
AcDbEntity
  8
0
  6
CONTINUOUS
 62
               4
100
AcDbLine
 10
1.25
 20
-2.5900000000000034
 30
0.0
 11
1.25
 21
-3.769999999999996
 31
0.0
  0
LINE
  5
345
100
AcDbEntity
  8
0
  6
CONTINUOUS
 62
             200
100
AcDbLine
 10
1.019999999999996
 20
-2.5900000000000034
 30
0.0
 11
1.019999999999996
 21
-4.0
 31
0.0
  0
LINE
  5
346
100
AcDbEntity
  8
0
  6
CONTINUOUS
 62
             200
100
AcDbLine
 10
-1.019999999999996
 20
-2.5900000000000034
 30
0.0
 11
-1.019999999999996
 21
-4.0
 31
0.0
  0
LINE
  5
347
100
AcDbEntity
  8
0
  6
CONTINUOUS
 62
               4
100
AcDbLine
 10
-1.25
 20
-2.5900000000000034
 30
0.0
 11
-1.25
 21
-3.769999999999996
 31
0.0
  0
LINE
  5
348
100
AcDbEntity
  8
0
  6
CONTINUOUS
 62
               4
100
AcDbLine
 10
-1.019999999999996
 20
-4.0
 30
0.0
 11
-1.25
 21
-3.769999999999996
 31
0.0
  0
LINE
  5
349
100
AcDbEntity
  8
0
  6
CONTINUOUS
 62
               4
100
AcDbLine
 10
1.019999999999996
 20
-4.0
 30
0.0
 11
1.25
 21
-3.769999999999996
 31
0.0
  0
LINE
  5
34A
100
AcDbEntity
  8
0
  6
CONTINUOUS
 62
               4
100
AcDbLine
 10
-1.019999999999996
 20
-4.0
 30
0.0
 11
1.019999999999996
 21
-4.0
 31
0.0
  0
LINE
  5
34B
100
AcDbEntity
  8
0
  6
CONTINUOUS
 62
               4
100
AcDbLine
 10
-2.0499999999999972
 20
-2.5900000000000034
 30
0.0
 11
2.0499999999999972
 21
-2.5900000000000034
 31
0.0
  0
LINE
  5
34C
100
AcDbEntity
  8
0
  6
CONTINUOUS
 62
               4
100
AcDbLine
 10
-2.0499999999999972
 20
-1.7999999999999972
 30
0.0
 11
2.0499999999999972
 21
-1.7999999999999972
 31
0.0
  0
LINE
  5
34D
100
AcDbEntity
  8
0
  6
CONTINUOUS
 62
               4
100
AcDbLine
 10
2.0499999999999972
 20
-1.0
 30
0.0
 11
2.0499999999999972
 21
-2.5499999999999972
 31
0.0
  0
LINE
  5
34E
100
AcDbEntity
  8
0
  6
CONTINUOUS
 62
               4
100
AcDbLine
 10
2.0499999999999972
 20
-1.0
 30
0.0
 11
1.5
 21
-0.4500000000000028
 31
0.0
  0
LINE
  5
34F
100
AcDbEntity
  8
0
  6
CONTINUOUS
 62
               4
100
AcDbLine
 10
1.5
 20
0.0
 30
0.0
 11
1.5
 21
-0.4500000000000028
 31
0.0
  0
LINE
  5
350
100
AcDbEntity
  8
0
  6
CONTINUOUS
 62
               4
100
AcDbLine
 10
-1.5
 20
0.0
 30
0.0
 11
1.5
 21
0.0
 31
0.0
  0
LINE
  5
351
100
AcDbEntity
  8
0
  6
CONTINUOUS
 62
               4
100
AcDbLine
 10
-1.5
 20
0.0
 30
0.0
 11
-1.5
 21
-0.4500000000000028
 31
0.0
  0
LINE
  5
352
100
AcDbEntity
  8
0
  6
CONTINUOUS
 62
               4
100
AcDbLine
 10
-2.0499999999999972
 20
-1.0
 30
0.0
 11
-1.5
 21
-0.4500000000000028
 31
0.0
  0
LINE
  5
353
100
AcDbEntity
  8
0
  6
CONTINUOUS
 62
               4
100
AcDbLine
 10
-2.0499999999999972
 20
-1.0
 30
0.0
 11
-2.0499999999999972
 21
-2.5499999999999972
 31
0.0
  0
LINE
  5
354
100
AcDbEntity
  8
0
  6
CONTINUOUS
 62
             200
100
AcDbLine
 10
0.0
 20
2.0499999999999972
 30
0.0
 11
0.0
 21
-6.6599999999999966
 31
0.0
  0
ENDBLK
  5
355
100
AcDbEntity
  8
0
100
AcDbBlockEnd
  0
BLOCK
  5
356
100
AcDbEntity
  8
0
100
AcDbBlockBegin
  2
MS_8
 70
               0
 10
0.0
 20
0.0
 30
0.0
  3
MS_8
  1

  0
CIRCLE
  5
357
100
AcDbEntity
  8
0
  6
CONTINUOUS
 62
               4
100
AcDbCircle
 10
2.0000152587890625
 20
0.0
 30
0.0
 40
1.3999996185302734
  0
CIRCLE
  5
358
100
AcDbEntity
  8
0
  6
CONTINUOUS
 62
               4
100
AcDbCircle
 10
2.0000152587890625
 20
0.0
 30
0.0
 40
1.25
  0
LINE
  5
359
100
AcDbEntity
  8
0
  6
CONTINUOUS
 62
               4
100
AcDbLine
 10
22.0
 20
-1.2999999999999972
 30
0.0
 11
25.090000000000003
 21
-1.2999999999999972
 31
0.0
  0
LINE
  5
35A
100
AcDbEntity
  8
0
  6
CONTINUOUS
 62
               4
100
AcDbLine
 10
22.0
 20
1.2999999999999972
 30
0.0
 11
23.579999999999984
 21
1.2999999999999972
 31
0.0
  0
LINE
  5
35B
100
AcDbEntity
  8
0
  6
CONTINUOUS
 62
             200
100
AcDbLine
 10
23.079999999999984
 20
2.1600000000000001
 30
0.0
 11
25.579999999999984
 21
-2.1599999999999966
 31
0.0
  0
LINE
  5
35C
100
AcDbEntity
  8
0
  6
CONTINUOUS
 62
               4
100
AcDbLine
 10
1.3000000000000114
 20
-1.0600000000000023
 30
0.0
 11
2.9399999999999977
 21
0.5600000000000023
 31
0.0
  0
LINE
  5
35D
100
AcDbEntity
  8
0
  6
CONTINUOUS
 62
               4
100
AcDbLine
 10
0.9499999999999886
 20
-0.7100000000000009
 30
0.0
 11
2.6800000000000068
 21
1.0200000000000031
 31
0.0
  0
LINE
  5
35E
100
AcDbEntity
  8
0
  6
CONTINUOUS
 62
             200
100
AcDbLine
 10
2.0
 20
2.8299999999999983
 30
0.0
 11
2.0
 21
-2.75
 31
0.0
  0
LINE
  5
35F
100
AcDbEntity
  8
0
  6
CONTINUOUS
 62
               4
100
AcDbLine
 10
22.0
 20
2.0499999999999972
 30
0.0
 11
22.0
 21
-2.0499999999999972
 31
0.0
  0
LINE
  5
360
100
AcDbEntity
  8
0
  6
CONTINUOUS
 62
               4
100
AcDbLine
 10
0.0
 20
2.0499999999999972
 30
0.0
 11
0.0
 21
-2.0499999999999972
 31
0.0
  0
LINE
  5
361
100
AcDbEntity
  8
0
  6
CONTINUOUS
 62
               4
100
AcDbLine
 10
0.0
 20
2.0499999999999972
 30
0.0
 11
22.0
 21
2.0499999999999972
 31
0.0
  0
LINE
  5
362
100
AcDbEntity
  8
0
  6
CONTINUOUS
 62
               4
100
AcDbLine
 10
0.0
 20
-2.0499999999999972
 30
0.0
 11
22.0
 21
-2.0499999999999972
 31
0.0
  0
LINE
  5
363
100
AcDbEntity
  8
0
  6
CONTINUOUS
 62
               4
100
AcDbLine
 10
0.0
 20
1.5
 30
0.0
 11
22.0
 21
1.5
 31
0.0
  0
LINE
  5
364
100
AcDbEntity
  8
0
  6
CONTINUOUS
 62
               4
100
AcDbLine
 10
0.0
 20
-1.5
 30
0.0
 11
22.0
 21
-1.5
 31
0.0
  0
LINE
  5
365
100
AcDbEntity
  8
0
  6
CONTINUOUS
 62
             200
100
AcDbLine
 10
-2.8000000000000114
 20
0.0
 30
0.0
 11
27.400000000000006
 21
0.0
 31
0.0
  0
ENDBLK
  5
366
100
AcDbEntity
  8
0
100
AcDbBlockEnd
  0
BLOCK
  5
367
100
AcDbEntity
  8
0
100
AcDbBlockBegin
  2
MS_9
 70
               0
 10
0.0
 20
0.0
 30
0.0
  3
MS_9
  1

  0
LINE
  5
368
100
AcDbEntity
  8
0
  6
CONTINUOUS
 62
               4
100
AcDbLine
 10
20.699999999999989
 20
12.149999999999991
 30
0.0
 11
20.699999999999989
 21
15.399999999999999
 31
0.0
  0
LINE
  5
369
100
AcDbEntity
  8
0
  6
CONTINUOUS
 62
               4
100
AcDbLine
 10
18.099999999999966
 20
10.649999999999991
 30
0.0
 11
18.099999999999966
 21
15.399999999999999
 31
0.0
  0
LINE
  5
36A
100
AcDbEntity
  8
0
  6
CONTINUOUS
 62
               4
100
AcDbLine
 10
18.099999999999966
 20
6.8999999999999915
 30
0.0
 11
18.099999999999966
 21
9.1499999999999915
 31
0.0
  0
LINE
  5
36B
100
AcDbEntity
  8
0
  6
CONTINUOUS
 62
               4
100
AcDbLine
 10
20.699999999999989
 20
6.8999999999999915
 30
0.0
 11
20.699999999999989
 21
10.649999999999991
 31
0.0
  0
LINE
  5
36C
100
AcDbEntity
  8
0
  6
CONTINUOUS
 62
               4
100
AcDbLine
 10
0.75
 20
0.5
 30
0.0
 11
3.25
 21
0.5
 31
0.0
  0
LINE
  5
36D
100
AcDbEntity
  8
0
  6
CONTINUOUS
 62
               4
100
AcDbLine
 10
3.25
 20
0.5
 30
0.0
 11
3.25
 21
0.0
 31
0.0
  0
LINE
  5
36E
100
AcDbEntity
  8
0
  6
CONTINUOUS
 62
             200
100
AcDbLine
 10
3.0200000000000387
 20
0.5
 30
0.0
 11
3.0200000000000387
 21
0.0
 31
0.0
  0
LINE
  5
36F
100
AcDbEntity
  8
0
  6
CONTINUOUS
 62
             200
100
AcDbLine
 10
0.9699999999999704
 20
0.5
 30
0.0
 11
0.9699999999999704
 21
0.0
 31
0.0
  0
LINE
  5
370
100
AcDbEntity
  8
0
  6
CONTINUOUS
 62
               4
100
AcDbLine
 10
0.75
 20
0.5
 30
0.0
 11
0.75
 21
0.0
 31
0.0
  0
LINE
  5
371
100
AcDbEntity
  8
0
  6
CONTINUOUS
 62
               4
100
AcDbLine
 10
0.75
 20
-3.769999999999996
 30
0.0
 11
3.25
 21
-3.769999999999996
 31
0.0
  0
LINE
  5
372
100
AcDbEntity
  8
0
  6
CONTINUOUS
 62
               4
100
AcDbLine
 10
3.25
 20
-2.6000000000000085
 30
0.0
 11
3.25
 21
-3.769999999999996
 31
0.0
  0
LINE
  5
373
100
AcDbEntity
  8
0
  6
CONTINUOUS
 62
             200
100
AcDbLine
 10
3.0200000000000387
 20
-2.6000000000000085
 30
0.0
 11
3.0200000000000387
 21
-4.0
 31
0.0
  0
LINE
  5
374
100
AcDbEntity
  8
0
  6
CONTINUOUS
 62
             200
100
AcDbLine
 10
0.9699999999999704
 20
-2.6000000000000085
 30
0.0
 11
0.9699999999999704
 21
-4.0
 31
0.0
  0
LINE
  5
375
100
AcDbEntity
  8
0
  6
CONTINUOUS
 62
               4
100
AcDbLine
 10
0.75
 20
-2.6000000000000085
 30
0.0
 11
0.75
 21
-3.769999999999996
 31
0.0
  0
LINE
  5
376
100
AcDbEntity
  8
0
  6
CONTINUOUS
 62
               4
100
AcDbLine
 10
0.9699999999999704
 20
-4.0
 30
0.0
 11
0.75
 21
-3.769999999999996
 31
0.0
  0
LINE
  5
377
100
AcDbEntity
  8
0
  6
CONTINUOUS
 62
               4
100
AcDbLine
 10
3.0200000000000387
 20
-4.0
 30
0.0
 11
3.25
 21
-3.769999999999996
 31
0.0
  0
LINE
  5
378
100
AcDbEntity
  8
0
  6
CONTINUOUS
 62
               4
100
AcDbLine
 10
0.9699999999999704
 20
-4.0
 30
0.0
 11
3.0200000000000387
 21
-4.0
 31
0.0
  0
LINE
  5
379
100
AcDbEntity
  8
0
  6
CONTINUOUS
 62
             200
100
AcDbLine
 10
17.240000000000009
 20
8.6499999999999915
 30
0.0
 11
21.569999999999993
 21
11.149999999999991
 31
0.0
  0
LINE
  5
37A
100
AcDbEntity
  8
0
  6
CONTINUOUS
 62
             200
100
AcDbLine
 10
17.240000000000009
 20
10.149999999999991
 30
0.0
 11
21.569999999999993
 21
12.649999999999999
 31
0.0
  0
LINE
  5
37B
100
AcDbEntity
  8
0
  6
CONTINUOUS
 62
             200
100
AcDbLine
 10
17.240000000000009
 20
17.629999999999995
 30
0.0
 11
21.569999999999993
 21
20.129999999999995
 31
0.0
  0
LINE
  5
37C
100
AcDbEntity
  8
0
  6
CONTINUOUS
 62
             200
100
AcDbLine
 10
19.400000000000034
 20
5.5799999999999983
 30
0.0
 11
19.400000000000034
 21
15.399999999999999
 31
0.0
  0
LINE
  5
37D
100
AcDbEntity
  8
0
  6
CONTINUOUS
 62
             200
100
AcDbLine
 10
17.240000000000009
 20
19.129999999999995
 30
0.0
 11
21.569999999999993
 21
21.629999999999995
 31
0.0
  0
LINE
  5
37E
100
AcDbEntity
  8
0
  6
CONTINUOUS
 62
               4
100
AcDbLine
 10
20.099999999999966
 20
22.399999999999999
 30
0.0
 11
20.099999999999966
 21
25.399999999999999
 31
0.0
  0
LINE
  5
37F
100
AcDbEntity
  8
0
  6
CONTINUOUS
 62
               4
100
AcDbLine
 10
19.599999999999966
 20
22.399999999999999
 30
0.0
 11
19.599999999999966
 21
25.399999999999999
 31
0.0
  0
LINE
  5
380
100
AcDbEntity
  8
0
  6
CONTINUOUS
 62
               4
100
AcDbLine
 10
19.199999999999989
 20
22.399999999999999
 30
0.0
 11
19.199999999999989
 21
25.399999999999999
 31
0.0
  0
LINE
  5
381
100
AcDbEntity
  8
0
  6
CONTINUOUS
 62
               4
100
AcDbLine
 10
18.699999999999989
 20
22.399999999999999
 30
0.0
 11
18.699999999999989
 21
25.399999999999999
 31
0.0
  0
LINE
  5
382
100
AcDbEntity
  8
0
  6
CONTINUOUS
 62
               4
100
AcDbLine
 10
18.5
 20
19.859999999999999
 30
0.0
 11
18.5
 21
22.399999999999999
 31
0.0
  0
LINE
  5
383
100
AcDbEntity
  8
0
  6
CONTINUOUS
 62
               4
100
AcDbLine
 10
18.5
 20
15.399999999999999
 30
0.0
 11
18.5
 21
18.359999999999999
 31
0.0
  0
LINE
  5
384
100
AcDbEntity
  8
0
  6
CONTINUOUS
 62
               4
100
AcDbLine
 10
20.300000000000011
 20
20.899999999999999
 30
0.0
 11
20.300000000000011
 21
22.399999999999999
 31
0.0
  0
LINE
  5
385
100
AcDbEntity
  8
0
  6
CONTINUOUS
 62
               4
100
AcDbLine
 10
19.400000000000034
 20
20.379999999999995
 30
0.0
 11
19.400000000000034
 21
22.399999999999999
 31
0.0
  0
LINE
  5
386
100
AcDbEntity
  8
0
  6
CONTINUOUS
 62
               4
100
AcDbLine
 10
19.400000000000034
 20
15.399999999999999
 30
0.0
 11
19.400000000000034
 21
18.879999999999995
 31
0.0
  0
LINE
  5
387
100
AcDbEntity
  8
0
  6
CONTINUOUS
 62
               4
100
AcDbLine
 10
20.300000000000011
 20
15.399999999999999
 30
0.0
 11
20.300000000000011
 21
19.399999999999999
 31
0.0
  0
LINE
  5
388
100
AcDbEntity
  8
0
  6
CONTINUOUS
 62
               4
100
AcDbLine
 10
18.5
 20
22.399999999999999
 30
0.0
 11
20.300000000000011
 21
22.399999999999999
 31
0.0
  0
LINE
  5
389
100
AcDbEntity
  8
0
  6
CONTINUOUS
 62
               4
100
AcDbLine
 10
19.599999999999966
 20
25.399999999999999
 30
0.0
 11
20.099999999999966
 21
25.399999999999999
 31
0.0
  0
LINE
  5
38A
100
AcDbEntity
  8
0
  6
CONTINUOUS
 62
               4
100
AcDbLine
 10
18.699999999999989
 20
25.399999999999999
 30
0.0
 11
19.199999999999989
 21
25.399999999999999
 31
0.0
  0
LINE
  5
38B
100
AcDbEntity
  8
0
  6
CONTINUOUS
 62
             200
100
AcDbLine
 10
19.849999999999966
 20
13.719999999999999
 30
0.0
 11
19.849999999999966
 21
25.649999999999999
 31
0.0
  0
LINE
  5
38C
100
AcDbEntity
  8
0
  6
CONTINUOUS
 62
             200
100
AcDbLine
 10
18.949999999999989
 20
13.670000000000002
 30
0.0
 11
18.949999999999989
 21
25.600000000000001
 31
0.0
  0
LINE
  5
38D
100
AcDbEntity
  8
0
  6
CONTINUOUS
 62
               4
100
AcDbLine
 10
18.099999999999966
 20
15.399999999999999
 30
0.0
 11
20.699999999999989
 21
15.399999999999999
 31
0.0
  0
LINE
  5
38E
100
AcDbEntity
  8
0
  6
CONTINUOUS
 62
               4
100
AcDbLine
 10
16.099999999999966
 20
5.3999999999999915
 30
0.0
 11
22.0
 21
5.3999999999999915
 31
0.0
  0
LINE
  5
38F
100
AcDbEntity
  8
0
  6
CONTINUOUS
 62
               4
100
AcDbLine
 10
16.099999999999966
 20
0.3999999999999915
 30
0.0
 11
22.0
 21
0.3999999999999915
 31
0.0
  0
LINE
  5
390
100
AcDbEntity
  8
0
  6
CONTINUOUS
 62
               4
100
AcDbLine
 10
16.099999999999966
 20
1.1499999999999915
 30
0.0
 11
22.0
 21
1.1499999999999915
 31
0.0
  0
LINE
  5
391
100
AcDbEntity
  8
0
  6
CONTINUOUS
 62
               4
100
AcDbLine
 10
0.0
 20
-0.4500000000000028
 30
0.0
 11
22.0
 21
-0.4500000000000028
 31
0.0
  0
LINE
  5
392
100
AcDbEntity
  8
0
  6
CONTINUOUS
 62
               4
100
AcDbLine
 10
0.0
 20
-1.0
 30
0.0
 11
22.0
 21
-1.0
 31
0.0
  0
LINE
  5
393
100
AcDbEntity
  8
0
  6
CONTINUOUS
 62
               4
100
AcDbLine
 10
4.2700000000000387
 20
-1.7999999999999972
 30
0.0
 11
4.2700000000000387
 21
-2.980000000000004
 31
0.0
  0
LINE
  5
394
100
AcDbEntity
  8
0
  6
CONTINUOUS
 62
               4
100
AcDbLine
 10
4.2700000000000387
 20
-2.980000000000004
 30
0.0
 11
4.6999999999999886
 21
-2.980000000000004
 31
0.0
  0
LINE
  5
395
100
AcDbEntity
  8
0
  6
CONTINUOUS
 62
               4
100
AcDbLine
 10
4.1999999999999886
 20
-1.7999999999999972
 30
0.0
 11
4.1999999999999886
 21
-3.7999999999999972
 31
0.0
  0
LINE
  5
396
100
AcDbEntity
  8
0
  6
CONTINUOUS
 62
               4
100
AcDbLine
 10
4.1999999999999886
 20
-3.7999999999999972
 30
0.0
 11
4.6999999999999886
 21
-3.7999999999999972
 31
0.0
  0
LINE
  5
397
100
AcDbEntity
  8
0
  6
CONTINUOUS
 62
               4
100
AcDbLine
 10
16.099999999999966
 20
6.8999999999999915
 30
0.0
 11
22.0
 21
6.8999999999999915
 31
0.0
  0
LINE
  5
398
100
AcDbEntity
  8
0
  6
CONTINUOUS
 62
               4
100
AcDbLine
 10
4.0
 20
-1.7999999999999972
 30
0.0
 11
4.0
 21
-2.6000000000000085
 31
0.0
  0
LINE
  5
399
100
AcDbEntity
  8
0
  6
CONTINUOUS
 62
               4
100
AcDbLine
 10
0.0
 20
-2.6000000000000085
 30
0.0
 11
4.0
 21
-2.6000000000000085
 31
0.0
  0
LINE
  5
39A
100
AcDbEntity
  8
0
  6
CONTINUOUS
 62
               4
100
AcDbLine
 10
0.0
 20
-1.7999999999999972
 30
0.0
 11
4.2700000000000387
 21
-1.7999999999999972
 31
0.0
  0
LINE
  5
39B
100
AcDbEntity
  8
0
  6
CONTINUOUS
 62
               4
100
AcDbLine
 10
16.099999999999966
 20
6.8999999999999915
 30
0.0
 11
16.099999999999966
 21
0.0
 31
0.0
  0
LINE
  5
39C
100
AcDbEntity
  8
0
  6
CENTER
 62
             200
100
AcDbLine
 10
2.0
 20
0.730000000000004
 30
0.0
 11
2.0
 21
-5.1700000000000017
 31
0.0
  0
LINE
  5
39D
100
AcDbEntity
  8
0
  6
CONTINUOUS
 62
               4
100
AcDbLine
 10
4.6999999999999886
 20
-2.980000000000004
 30
0.0
 11
4.6999999999999886
 21
-4.6000000000000085
 31
0.0
  0
LINE
  5
39E
100
AcDbEntity
  8
0
  6
CONTINUOUS
 62
               4
100
AcDbLine
 10
0.0
 20
-2.6000000000000085
 30
0.0
 11
0.0
 21
0.0
 31
0.0
  0
LINE
  5
39F
100
AcDbEntity
  8
0
  6
CONTINUOUS
 62
               4
100
AcDbLine
 10
22.0
 20
6.8999999999999915
 30
0.0
 11
22.0
 21
-4.6000000000000085
 31
0.0
  0
LINE
  5
3A0
100
AcDbEntity
  8
0
  6
CONTINUOUS
 62
               4
100
AcDbLine
 10
4.6999999999999886
 20
-4.6000000000000085
 30
0.0
 11
22.0
 21
-4.6000000000000085
 31
0.0
  0
LINE
  5
3A1
100
AcDbEntity
  8
0
  6
CONTINUOUS
 62
               4
100
AcDbLine
 10
0.0
 20
0.0
 30
0.0
 11
16.099999999999966
 21
0.0
 31
0.0
  0
ENDBLK
  5
3A2
100
AcDbEntity
  8
0
100
AcDbBlockEnd
  0
BLOCK
  5
3A3
100
AcDbEntity
  8
0
100
AcDbBlockBegin
  2
MS_10
 70
               0
 10
0.0
 20
0.0
 30
0.0
  3
MS_10
  1

  0
ARC
  5
3A4
100
AcDbEntity
  8
0
  6
CONTINUOUS
 62
               4
100
AcDbCircle
 10
0.0
 20
-2.5499999999999972
 30
0.0
 40
2.0499999999999994
100
AcDbArc
 50
180.0
 51
0.0
  0
LINE
  5
3A5
100
AcDbEntity
  8
0
  6
CONTINUOUS
 62
               4
100
AcDbLine
 10
1.3000000000000114
 20
10.652314814814815
 30
0.0
 11
1.3000000000000114
 21
6.8999999999999915
 31
0.0
  0
LINE
  5
3A6
100
AcDbEntity
  8
0
  6
CONTINUOUS
 62
               4
100
AcDbLine
 10
-1.3000000000000114
 20
9.1476851851851819
 30
0.0
 11
-1.3000000000000114
 21
6.8999999999999915
 31
0.0
  0
LINE
  5
3A7
100
AcDbEntity
  8
0
  6
CONTINUOUS
 62
               4
100
AcDbLine
 10
-1.25
 20
0.5
 30
0.0
 11
1.25
 21
0.5
 31
0.0
  0
LINE
  5
3A8
100
AcDbEntity
  8
0
  6
CONTINUOUS
 62
               4
100
AcDbLine
 10
1.25
 20
0.5
 30
0.0
 11
1.25
 21
0.0
 31
0.0
  0
LINE
  5
3A9
100
AcDbEntity
  8
0
  6
CONTINUOUS
 62
             200
100
AcDbLine
 10
1.0200000000000387
 20
0.5
 30
0.0
 11
1.0200000000000387
 21
0.0
 31
0.0
  0
LINE
  5
3AA
100
AcDbEntity
  8
0
  6
CONTINUOUS
 62
             200
100
AcDbLine
 10
-1.0200000000000387
 20
0.5
 30
0.0
 11
-1.0200000000000387
 21
0.0
 31
0.0
  0
LINE
  5
3AB
100
AcDbEntity
  8
0
  6
CONTINUOUS
 62
               4
100
AcDbLine
 10
-1.25
 20
0.5
 30
0.0
 11
-1.25
 21
0.0
 31
0.0
  0
LINE
  5
3AC
100
AcDbEntity
  8
0
  6
CONTINUOUS
 62
               4
100
AcDbLine
 10
-1.25
 20
-3.769999999999996
 30
0.0
 11
1.25
 21
-3.769999999999996
 31
0.0
  0
LINE
  5
3AD
100
AcDbEntity
  8
0
  6
CONTINUOUS
 62
               4
100
AcDbLine
 10
1.25
 20
-2.6000000000000085
 30
0.0
 11
1.25
 21
-3.769999999999996
 31
0.0
  0
LINE
  5
3AE
100
AcDbEntity
  8
0
  6
CONTINUOUS
 62
             200
100
AcDbLine
 10
1.0200000000000387
 20
-2.6000000000000085
 30
0.0
 11
1.0200000000000387
 21
-4.0
 31
0.0
  0
LINE
  5
3AF
100
AcDbEntity
  8
0
  6
CONTINUOUS
 62
             200
100
AcDbLine
 10
-1.0200000000000387
 20
-2.6000000000000085
 30
0.0
 11
-1.0200000000000387
 21
-4.0
 31
0.0
  0
LINE
  5
3B0
100
AcDbEntity
  8
0
  6
CONTINUOUS
 62
               4
100
AcDbLine
 10
-1.25
 20
-2.6000000000000085
 30
0.0
 11
-1.25
 21
-3.769999999999996
 31
0.0
  0
LINE
  5
3B1
100
AcDbEntity
  8
0
  6
CONTINUOUS
 62
               4
100
AcDbLine
 10
-1.0200000000000387
 20
-4.0
 30
0.0
 11
-1.25
 21
-3.769999999999996
 31
0.0
  0
LINE
  5
3B2
100
AcDbEntity
  8
0
  6
CONTINUOUS
 62
               4
100
AcDbLine
 10
1.0200000000000387
 20
-4.0
 30
0.0
 11
1.25
 21
-3.769999999999996
 31
0.0
  0
LINE
  5
3B3
100
AcDbEntity
  8
0
  6
CONTINUOUS
 62
               4
100
AcDbLine
 10
-1.0200000000000387
 20
-4.0
 30
0.0
 11
1.0200000000000387
 21
-4.0
 31
0.0
  0
LINE
  5
3B4
100
AcDbEntity
  8
0
  6
CONTINUOUS
 62
             200
100
AcDbLine
 10
-2.160000000000025
 20
8.6499999999999915
 30
0.0
 11
2.160000000000025
 21
11.149999999999991
 31
0.0
  0
LINE
  5
3B5
100
AcDbEntity
  8
0
  6
CONTINUOUS
 62
               4
100
AcDbLine
 10
-2.25
 20
6.8999999999999915
 30
0.0
 11
2.25
 21
6.8999999999999915
 31
0.0
  0
LINE
  5
3B6
100
AcDbEntity
  8
0
  6
CONTINUOUS
 62
               4
100
AcDbLine
 10
-2.0493901531919505
 20
-2.6000000000000085
 30
0.0
 11
2.0493901531919505
 21
-2.6000000000000085
 31
0.0
  0
LINE
  5
3B7
100
AcDbEntity
  8
0
  6
CONTINUOUS
 62
               4
100
AcDbLine
 10
-2.0500000000000114
 20
-1.7999999999999972
 30
0.0
 11
2.0500000000000114
 21
-1.7999999999999972
 31
0.0
  0
LINE
  5
3B8
100
AcDbEntity
  8
0
  6
CONTINUOUS
 62
               4
100
AcDbLine
 10
-1.5
 20
0.0
 30
0.0
 11
1.5
 21
0.0
 31
0.0
  0
LINE
  5
3B9
100
AcDbEntity
  8
0
  6
CONTINUOUS
 62
             200
100
AcDbLine
 10
0.0
 20
12.560000000000002
 30
0.0
 11
0.0
 21
-6.0600000000000023
 31
0.0
  0
LINE
  5
3BA
100
AcDbEntity
  8
0
  6
CONTINUOUS
 62
               4
100
AcDbLine
 10
2.25
 20
6.8999999999999915
 30
0.0
 11
2.25
 21
1.1499999999999915
 31
0.0
  0
LINE
  5
3BB
100
AcDbEntity
  8
0
  6
CONTINUOUS
 62
               4
100
AcDbLine
 10
1.5
 20
0.3999999999999915
 30
0.0
 11
2.25
 21
1.1499999999999915
 31
0.0
  0
LINE
  5
3BC
100
AcDbEntity
  8
0
  6
CONTINUOUS
 62
               4
100
AcDbLine
 10
1.5
 20
-0.4500000000000028
 30
0.0
 11
1.5
 21
0.3999999999999915
 31
0.0
  0
LINE
  5
3BD
100
AcDbEntity
  8
0
  6
CONTINUOUS
 62
               4
100
AcDbLine
 10
2.0500000000000114
 20
-1.0
 30
0.0
 11
1.5
 21
-0.4500000000000028
 31
0.0
  0
LINE
  5
3BE
100
AcDbEntity
  8
0
  6
CONTINUOUS
 62
               4
100
AcDbLine
 10
2.0500000000000114
 20
-1.0
 30
0.0
 11
2.0500000000000114
 21
-2.5499999999999972
 31
0.0
  0
LINE
  5
3BF
100
AcDbEntity
  8
0
  6
CONTINUOUS
 62
               4
100
AcDbLine
 10
-2.0500000000000114
 20
-1.0
 30
0.0
 11
-2.0500000000000114
 21
-2.5499999999999972
 31
0.0
  0
LINE
  5
3C0
100
AcDbEntity
  8
0
  6
CONTINUOUS
 62
               4
100
AcDbLine
 10
-2.0500000000000114
 20
-1.0
 30
0.0
 11
-1.5
 21
-0.4500000000000028
 31
0.0
  0
LINE
  5
3C1
100
AcDbEntity
  8
0
  6
CONTINUOUS
 62
               4
100
AcDbLine
 10
-1.5
 20
-0.4500000000000028
 30
0.0
 11
-1.5
 21
0.3999999999999915
 31
0.0
  0
LINE
  5
3C2
100
AcDbEntity
  8
0
  6
CONTINUOUS
 62
               4
100
AcDbLine
 10
-1.5
 20
0.3999999999999915
 30
0.0
 11
-2.25
 21
1.1499999999999915
 31
0.0
  0
LINE
  5
3C3
100
AcDbEntity
  8
0
  6
CONTINUOUS
 62
               4
100
AcDbLine
 10
-2.25
 20
6.8999999999999915
 30
0.0
 11
-2.25
 21
1.1499999999999915
 31
0.0
  0
LINE
  5
3C4
100
AcDbEntity
  8
0
  6
CONTINUOUS
 62
               4
100
AcDbLine
 10
-2.25
 20
5.3999999999999915
 30
0.0
 11
2.25
 21
5.3999999999999915
 31
0.0
  0
ENDBLK
  5
3C5
100
AcDbEntity
  8
0
100
AcDbBlockEnd
  0
BLOCK
  5
3C6
100
AcDbEntity
  8
0
100
AcDbBlockBegin
  2
MS_11
 70
               0
 10
0.0
 20
0.0
 30
0.0
  3
MS_11
  1

  0
CIRCLE
  5
3C7
100
AcDbEntity
  8
0
  6
CONTINUOUS
 62
               4
100
AcDbCircle
 10
19.117279052734375
 20
0.3181533813476563
 30
0.0
 40
0.25
  0
CIRCLE
  5
3C8
100
AcDbEntity
  8
0
  6
CONTINUOUS
 62
               4
100
AcDbCircle
 10
19.729156494140625
 20
-0.34100341796875
 30
0.0
 40
0.25
  0
CIRCLE
  5
3C9
100
AcDbEntity
  8
0
  6
CONTINUOUS
 62
               4
100
AcDbCircle
 10
19.117279052734375
 20
0.3181533813476563
 30
0.0
 40
0.449999988079071
  0
CIRCLE
  5
3CA
100
AcDbEntity
  8
0
  6
CONTINUOUS
 62
               4
100
AcDbCircle
 10
19.729156494140625
 20
-0.34100341796875
 30
0.0
 40
0.449999988079071
  0
CIRCLE
  5
3CB
100
AcDbEntity
  8
0
  6
CONTINUOUS
 62
               4
100
AcDbCircle
 10
19.4073486328125
 20
0.0
 30
0.0
 40
1.2999992370605469
  0
CIRCLE
  5
3CC
100
AcDbEntity
  8
0
  6
CONTINUOUS
 62
               4
100
AcDbCircle
 10
2.0
 20
0.0
 30
0.0
 40
1.3999996185302734
  0
CIRCLE
  5
3CD
100
AcDbEntity
  8
0
  6
CONTINUOUS
 62
               4
100
AcDbCircle
 10
2.0
 20
0.0
 30
0.0
 40
1.25
  0
ARC
  5
3CE
100
AcDbEntity
  8
0
  6
CONTINUOUS
 62
               4
100
AcDbCircle
 10
19.5
 20
0.0
 30
0.0
 40
3.3043758866085451
100
AcDbArc
 50
137.08479304051025
 51
222.91520695948975
  0
LINE
  5
3CF
100
AcDbEntity
  8
0
  6
CONTINUOUS
 62
               4
100
AcDbLine
 10
0.9300000000000068
 20
-0.6400000000000006
 30
0.0
 11
2.6399999999999864
 21
1.0700000000000003
 31
0.0
  0
LINE
  5
3D0
100
AcDbEntity
  8
0
  6
CONTINUOUS
 62
               4
100
AcDbLine
 10
1.3499999999999659
 20
-1.0700000000000003
 30
0.0
 11
3.0699999999999932
 21
0.6400000000000006
 31
0.0
  0
LINE
  5
3D1
100
AcDbEntity
  8
0
  6
CONTINUOUS
 62
               4
100
AcDbLine
 10
22.0
 20
2.25
 30
0.0
 11
22.0
 21
-2.25
 31
0.0
  0
LINE
  5
3D2
100
AcDbEntity
  8
0
  6
CONTINUOUS
 62
               4
100
AcDbLine
 10
17.079999999999984
 20
-2.25
 30
0.0
 11
22.0
 21
-2.25
 31
0.0
  0
LINE
  5
3D3
100
AcDbEntity
  8
0
  6
CONTINUOUS
 62
               4
100
AcDbLine
 10
17.079999999999984
 20
2.25
 30
0.0
 11
22.0
 21
2.25
 31
0.0
  0
LINE
  5
3D4
100
AcDbEntity
  8
0
  6
CONTINUOUS
 62
             200
100
AcDbLine
 10
2.0
 20
2.8299999999999983
 30
0.0
 11
2.0
 21
-2.75
 31
0.0
  0
LINE
  5
3D5
100
AcDbEntity
  8
0
  6
CONTINUOUS
 62
               4
100
AcDbLine
 10
0.0
 20
2.0500000000000007
 30
0.0
 11
0.0
 21
-2.0500000000000007
 31
0.0
  0
LINE
  5
3D6
100
AcDbEntity
  8
0
  6
CONTINUOUS
 62
               4
100
AcDbLine
 10
0.0
 20
2.0500000000000007
 30
0.0
 11
16.910000000000025
 21
2.0500000000000007
 31
0.0
  0
LINE
  5
3D7
100
AcDbEntity
  8
0
  6
CONTINUOUS
 62
               4
100
AcDbLine
 10
0.0
 20
-2.0500000000000007
 30
0.0
 11
16.910000000000025
 21
-2.0500000000000007
 31
0.0
  0
LINE
  5
3D8
100
AcDbEntity
  8
0
  6
CONTINUOUS
 62
               4
100
AcDbLine
 10
0.0
 20
-1.5
 30
0.0
 11
16.560000000000002
 21
-1.5
 31
0.0
  0
LINE
  5
3D9
100
AcDbEntity
  8
0
  6
CONTINUOUS
 62
             200
100
AcDbLine
 10
-1.3199999999999932
 20
0.0
 30
0.0
 11
23.579999999999984
 21
0.0
 31
0.0
  0
ENDBLK
  5
3DA
100
AcDbEntity
  8
0
100
AcDbBlockEnd
  0
BLOCK
  5
3DB
100
AcDbEntity
  8
0
100
AcDbBlockBegin
  2
MS_12
 70
               0
 10
0.0
 20
0.0
 30
0.0
  3
MS_12
  1

  0
LINE
  5
3DC
100
AcDbEntity
  8
0
  6
CONTINUOUS
 62
             200
100
AcDbLine
 10
27.729999999999933
 20
-0.3299995223464407
 30
0.0
 11
30.229999999999933
 21
-4.6599995223464532
 31
0.0
  0
LINE
  5
3DD
100
AcDbEntity
  8
0
  6
CONTINUOUS
 62
             200
100
AcDbLine
 10
26.229999999999933
 20
-0.3299995223464407
 30
0.0
 11
28.729999999999933
 21
-4.6599995223464532
 31
0.0
  0
LINE
  5
3DE
100
AcDbEntity
  8
0
  6
CONTINUOUS
 62
             200
100
AcDbLine
 10
18.749999999999972
 20
-0.3299995223464407
 30
0.0
 11
21.249999999999972
 21
-4.6599995223464532
 31
0.0
  0
LINE
  5
3DF
100
AcDbEntity
  8
0
  6
CONTINUOUS
 62
             200
100
AcDbLine
 10
17.249999999999972
 20
-0.3299995223464407
 30
0.0
 11
19.749999999999972
 21
-4.6599995223464532
 31
0.0
  0
LINE
  5
3E0
100
AcDbEntity
  8
0
  6
CONTINUOUS
 62
             200
100
AcDbLine
 10
22.269999995231586
 20
-1.8499995223464509
 30
0.0
 11
34.199999995231593
 21
-1.8499995223464509
 31
0.0
  0
LINE
  5
3E1
100
AcDbEntity
  8
0
  6
CONTINUOUS
 62
             200
100
AcDbLine
 10
22.319999995231598
 20
-3.1499995223464339
 30
0.0
 11
34.199999995231593
 21
-3.1499995223464339
 31
0.0
  0
LINE
  5
3E2
100
AcDbEntity
  8
0
  6
CONTINUOUS
 62
               4
100
AcDbLine
 10
33.999999995231605
 20
-1.5599995146298227
 30
0.0
 11
33.999999995231605
 21
-2.1399995234853577
 31
0.0
  0
LINE
  5
3E3
100
AcDbEntity
  8
0
  6
CONTINUOUS
 62
               4
100
AcDbLine
 10
30.999999995231605
 20
-1.5599995223464589
 30
0.0
 11
34.000000000212509
 21
-1.5599995223464589
 31
0.0
  0
LINE
  5
3E4
100
AcDbEntity
  8
0
  6
CONTINUOUS
 62
               4
100
AcDbLine
 10
30.999999995231605
 20
-2.139999522346443
 30
0.0
 11
34.000000000212509
 21
-2.139999522346443
 31
0.0
  0
LINE
  5
3E5
100
AcDbEntity
  8
0
  6
CONTINUOUS
 62
               4
100
AcDbLine
 10
30.999999995231605
 20
-2.3499995223464509
 30
0.0
 11
30.999999995231605
 21
-1.3499995223464509
 31
0.0
  0
LINE
  5
3E6
100
AcDbEntity
  8
0
  6
CONTINUOUS
 62
               4
100
AcDbLine
 10
28.89628175519627
 20
-2.3499995223464509
 30
0.0
 11
30.999999995231605
 21
-2.3499995223464509
 31
0.0
  0
LINE
  5
3E7
100
AcDbEntity
  8
0
  6
CONTINUOUS
 62
               4
100
AcDbLine
 10
28.318914549653556
 20
-1.3499995223464509
 30
0.0
 11
30.999999995231605
 21
-1.3499995223464509
 31
0.0
  0
LINE
  5
3E8
100
AcDbEntity
  8
0
  6
CONTINUOUS
 62
               4
100
AcDbLine
 10
23.999999995231605
 20
-2.3499995223464509
 30
0.0
 11
27.39628175519627
 21
-2.3499995223464509
 31
0.0
  0
LINE
  5
3E9
100
AcDbEntity
  8
0
  6
CONTINUOUS
 62
               4
100
AcDbLine
 10
23.999999995231605
 20
-1.3499995223464509
 30
0.0
 11
26.818914549653556
 21
-1.3499995223464509
 31
0.0
  0
LINE
  5
3EA
100
AcDbEntity
  8
0
  6
CONTINUOUS
 62
               4
100
AcDbLine
 10
30.999999995231605
 20
-3.4399995223464543
 30
0.0
 11
34.000000000212509
 21
-3.4399995223464543
 31
0.0
  0
LINE
  5
3EB
100
AcDbEntity
  8
0
  6
CONTINUOUS
 62
               4
100
AcDbLine
 10
30.999999995231605
 20
-2.8599995223464703
 30
0.0
 11
34.000000000212509
 21
-2.8599995223464703
 31
0.0
  0
LINE
  5
3EC
100
AcDbEntity
  8
0
  6
CONTINUOUS
 62
               4
100
AcDbLine
 10
33.999999995231605
 20
-3.4399995300630621
 30
0.0
 11
33.999999995231605
 21
-2.8599995212075271
 31
0.0
  0
LINE
  5
3ED
100
AcDbEntity
  8
0
  6
CONTINUOUS
 62
               4
100
AcDbLine
 10
29.06949191685905
 20
-2.6499995223464339
 30
0.0
 11
30.999999995231605
 21
-2.6499995223464339
 31
0.0
  0
LINE
  5
3EE
100
AcDbEntity
  8
0
  6
CONTINUOUS
 62
               4
100
AcDbLine
 10
29.646859122401821
 20
-3.6499995223464339
 30
0.0
 11
30.999999995231605
 21
-3.6499995223464339
 31
0.0
  0
LINE
  5
3EF
100
AcDbEntity
  8
0
  6
CONTINUOUS
 62
               4
100
AcDbLine
 10
30.999999995231605
 20
-2.6499995223464339
 30
0.0
 11
30.999999995231605
 21
-3.6499995223464339
 31
0.0
  0
LINE
  5
3F0
100
AcDbEntity
  8
0
  6
CONTINUOUS
 62
               4
100
AcDbLine
 10
23.999999995231605
 20
-2.6499995223464339
 30
0.0
 11
27.56949191685905
 21
-2.6499995223464339
 31
0.0
  0
LINE
  5
3F1
100
AcDbEntity
  8
0
  6
CONTINUOUS
 62
               4
100
AcDbLine
 10
23.999999995231605
 20
-3.6499995223464339
 30
0.0
 11
28.146859122401764
 21
-3.6499995223464339
 31
0.0
  0
LINE
  5
3F2
100
AcDbEntity
  8
0
  6
CONTINUOUS
 62
             200
100
AcDbLine
 10
0.9499999999999602
 20
0.6001359972752312
 30
0.0
 11
0.9499999999999602
 21
0.0
 31
0.0
  0
LINE
  5
3F3
100
AcDbEntity
  8
0
  6
CONTINUOUS
 62
             200
100
AcDbLine
 10
3.0499999999999829
 20
0.6001359972752312
 30
0.0
 11
3.0499999999999829
 21
0.0
 31
0.0
  0
LINE
  5
3F4
100
AcDbEntity
  8
0
  6
CONTINUOUS
 62
               4
100
AcDbLine
 10
0.7514285714285336
 20
0.4001359972752141
 30
0.0
 11
3.2514285714285336
 21
0.4001359972752141
 31
0.0
  0
LINE
  5
3F5
100
AcDbEntity
  8
0
  6
CONTINUOUS
 62
               4
100
AcDbLine
 10
3.051428571428545
 20
0.6001359972752312
 30
0.0
 11
3.2514285714285336
 21
0.4001359972752141
 31
0.0
  0
LINE
  5
3F6
100
AcDbEntity
  8
0
  6
CONTINUOUS
 62
               4
100
AcDbLine
 10
0.7514285714285336
 20
0.4001359972752141
 30
0.0
 11
0.9514285714285506
 21
0.6001359972752312
 31
0.0
  0
LINE
  5
3F7
100
AcDbEntity
  8
0
  6
CONTINUOUS
 62
               4
100
AcDbLine
 10
3.2514285714285336
 20
0.4001359972752141
 30
0.0
 11
3.2514285714285336
 21
0.0
 31
0.0
  0
LINE
  5
3F8
100
AcDbEntity
  8
0
  6
CONTINUOUS
 62
               4
100
AcDbLine
 10
0.7514285714285336
 20
0.0
 30
0.0
 11
0.7514285714285336
 21
0.4001359972752141
 31
0.0
  0
LINE
  5
3F9
100
AcDbEntity
  8
0
  6
CONTINUOUS
 62
             200
100
AcDbLine
 10
0.9499999999999602
 20
-2.5998640027247859
 30
0.0
 11
0.9499999999999602
 21
-4.0984354312961955
 31
0.0
  0
LINE
  5
3FA
100
AcDbEntity
  8
0
  6
CONTINUOUS
 62
             200
100
AcDbLine
 10
3.0499999999999829
 20
-2.5998640027247859
 30
0.0
 11
3.0499999999999829
 21
-4.1012925741533479
 31
0.0
  0
LINE
  5
3FB
100
AcDbEntity
  8
0
  6
CONTINUOUS
 62
               4
100
AcDbLine
 10
0.9514285714285506
 20
0.6001359972752312
 30
0.0
 11
3.051428571428545
 21
0.6001359972752312
 31
0.0
  0
LINE
  5
3FC
100
AcDbEntity
  8
0
  6
CONTINUOUS
 62
             200
100
AcDbLine
 10
5.9999999999999716
 20
-6.0904161991769001
 30
0.0
 11
5.9999999999999716
 21
-3.6810090657418471
 31
0.0
  0
LINE
  5
3FD
100
AcDbEntity
  8
0
  6
CONTINUOUS
 62
               4
100
AcDbLine
 10
-0.0000000000000284
 20
-1.7998640027247745
 30
0.0
 11
-0.0000000000000284
 21
0.0
 31
0.0
  0
LINE
  5
3FE
100
AcDbEntity
  8
0
  6
CONTINUOUS
 62
             200
100
AcDbLine
 10
1.9999999999999716
 20
1.2864823084401849
 30
0.0
 11
1.9999999999999716
 21
-5.0670362493540893
 31
0.0
  0
LINE
  5
3FF
100
AcDbEntity
  8
0
  6
CONTINUOUS
 62
               4
100
AcDbLine
 10
3.9999999999999716
 20
-1.8000000027247722
 30
0.0
 11
3.9999999999999716
 21
-2.6000000027247836
 31
0.0
  0
LINE
  5
400
100
AcDbEntity
  8
0
  6
CONTINUOUS
 62
               4
100
AcDbLine
 10
-0.0000000000000284
 20
-1.7998640027247745
 30
0.0
 11
-0.0000000000000284
 21
-2.6000000027247836
 31
0.0
  0
LINE
  5
401
100
AcDbEntity
  8
0
  6
CONTINUOUS
 62
               4
100
AcDbLine
 10
0.7514285714285336
 20
-2.5998640027247859
 30
0.0
 11
0.7514285714285336
 21
-3.8998640027247689
 31
0.0
  0
LINE
  5
402
100
AcDbEntity
  8
0
  6
CONTINUOUS
 62
             200
100
AcDbLine
 10
0.7514285714285336
 20
-3.8998640027247689
 30
0.0
 11
3.2514285714285336
 21
-3.8998640027247689
 31
0.0
  0
LINE
  5
403
100
AcDbEntity
  8
0
  6
CONTINUOUS
 62
               4
100
AcDbLine
 10
1.2514285714285336
 20
-4.3998640027247689
 30
0.0
 11
0.7514285714285336
 21
-3.8998640027247689
 31
0.0
  0
LINE
  5
404
100
AcDbEntity
  8
0
  6
CONTINUOUS
 62
               4
100
AcDbLine
 10
1.2514285714285336
 20
-4.3998640027247689
 30
0.0
 11
2.7514285714285336
 21
-4.3998640027247689
 31
0.0
  0
LINE
  5
405
100
AcDbEntity
  8
0
  6
CONTINUOUS
 62
               4
100
AcDbLine
 10
3.2514285714285336
 20
-3.8998640027247689
 30
0.0
 11
2.7514285714285336
 21
-4.3998640027247689
 31
0.0
  0
LINE
  5
406
100
AcDbEntity
  8
0
  6
CONTINUOUS
 62
               4
100
AcDbLine
 10
3.2514285714285336
 20
-2.5998640027247859
 30
0.0
 11
3.2514285714285336
 21
-3.8998640027247689
 31
0.0
  0
LINE
  5
407
100
AcDbEntity
  8
0
  6
CONTINUOUS
 62
               4
100
AcDbLine
 10
4.2999999999999829
 20
-1.8000000027247722
 30
0.0
 11
4.2999999999999829
 21
-4.5999995223464509
 31
0.0
  0
LINE
  5
408
100
AcDbEntity
  8
0
  6
CONTINUOUS
 62
               4
100
AcDbLine
 10
15.499999999999972
 20
-4.5999995223464509
 30
0.0
 11
15.499999999999972
 21
0.0
 31
0.0
  0
LINE
  5
409
100
AcDbEntity
  8
0
  6
CONTINUOUS
 62
               4
100
AcDbLine
 10
23.999999995231605
 20
-1.1999995223464452
 30
0.0
 11
23.999999995231605
 21
-3.799999522346468
 31
0.0
  0
LINE
  5
40A
100
AcDbEntity
  8
0
  6
CONTINUOUS
 62
               4
100
AcDbLine
 10
4.2999999986375599
 20
-4.5999995223464509
 30
0.0
 11
15.499999995231605
 21
-4.5999995223464509
 31
0.0
  0
LINE
  5
40B
100
AcDbEntity
  8
0
  6
CONTINUOUS
 62
               4
100
AcDbLine
 10
-0.0000000047683955
 20
-1.8000000027247722
 30
0.0
 11
4.2999999986375599
 21
-1.8000000027247722
 31
0.0
  0
LINE
  5
40C
100
AcDbEntity
  8
0
  6
CONTINUOUS
 62
               4
100
AcDbLine
 10
-0.0000000047683955
 20
-2.6000000027247836
 30
0.0
 11
3.9999999952316045
 21
-2.6000000027247836
 31
0.0
  0
LINE
  5
40D
100
AcDbEntity
  8
0
  6
CONTINUOUS
 62
               4
100
AcDbLine
 10
-0.0000000047683955
 20
-1.1000000027247836
 30
0.0
 11
15.499999999999972
 21
-1.1000000027247836
 31
0.0
  0
LINE
  5
40E
100
AcDbEntity
  8
0
  6
CONTINUOUS
 62
               4
100
AcDbLine
 10
-0.0000000047683955
 20
-0.5499999965940106
 30
0.0
 11
15.499999999999972
 21
-0.5499999965940106
 31
0.0
  0
LINE
  5
40F
100
AcDbEntity
  8
0
  6
CONTINUOUS
 62
               4
100
AcDbLine
 10
-0.0000000047683955
 20
0.0
 30
0.0
 11
15.499999999999972
 21
0.0
 31
0.0
  0
LINE
  5
410
100
AcDbEntity
  8
0
  6
CONTINUOUS
 62
               4
100
AcDbLine
 10
15.499999999999972
 20
-1.1999995223464452
 30
0.0
 11
17.752309468822119
 21
-1.1999995223464452
 31
0.0
  0
LINE
  5
411
100
AcDbEntity
  8
0
  6
CONTINUOUS
 62
               4
100
AcDbLine
 10
15.499999999999972
 20
-3.799999522346468
 30
0.0
 11
19.253464203233221
 21
-3.799999522346468
 31
0.0
  0
LINE
  5
412
100
AcDbEntity
  8
0
  6
CONTINUOUS
 62
               4
100
AcDbLine
 10
19.252309468822119
 20
-1.1999995223464452
 30
0.0
 11
23.999999995231605
 21
-1.1999995223464452
 31
0.0
  0
LINE
  5
413
100
AcDbEntity
  8
0
  6
CONTINUOUS
 62
               4
100
AcDbLine
 10
20.753464203233221
 20
-3.799999522346468
 30
0.0
 11
23.999999995231605
 21
-3.799999522346468
 31
0.0
  0
LINE
  5
414
100
AcDbEntity
  8
0
  6
CONTINUOUS
 62
             200
100
AcDbLine
 10
14.651603608812565
 20
-2.4999995223464566
 30
0.0
 11
33.252631006551127
 21
-2.4999995223464566
 31
0.0
  0
ENDBLK
  5
415
100
AcDbEntity
  8
0
100
AcDbBlockEnd
  0
BLOCK
  5
416
100
AcDbEntity
  8
0
100
AcDbBlockBegin
  2
MS_13
 70
               0
 10
0.0
 20
0.0
 30
0.0
  3
MS_13
  1

  0
LINE
  5
417
100
AcDbEntity
  8
0
  6
CONTINUOUS
 62
             200
100
AcDbLine
 10
1.0500000000000114
 20
-0.0000000019072957
 30
0.0
 11
1.0500000010901687
 21
0.6001359980927248
 31
0.0
  0
LINE
  5
418
100
AcDbEntity
  8
0
  6
CONTINUOUS
 62
             200
100
AcDbLine
 10
-1.0499999999999829
 20
0.0000000019074093
 30
0.0
 11
-1.0499999989098256
 21
0.6001360019074298
 31
0.0
  0
LINE
  5
419
100
AcDbEntity
  8
0
  6
CONTINUOUS
 62
             200
100
AcDbLine
 10
1.0499999925576873
 20
-4.0970068590501398
 30
0.0
 11
1.049999995277048
 21
-2.6000000019073184
 31
0.0
  0
LINE
  5
41A
100
AcDbEntity
  8
0
  6
CONTINUOUS
 62
             200
100
AcDbLine
 10
-1.050000007442307
 20
-4.0970068552354348
 30
0.0
 11
-1.0500000047229463
 21
-2.5999999980926134
 31
0.0
  0
LINE
  5
41B
100
AcDbEntity
  8
0
  6
CONTINUOUS
 62
               4
100
AcDbLine
 10
-1.2499999992731432
 20
0.400136002270699
 30
0.0
 11
-1.0499999989098256
 21
0.6001360019074298
 31
0.0
  0
LINE
  5
41C
100
AcDbEntity
  8
0
  6
CONTINUOUS
 62
               4
100
AcDbLine
 10
-1.25
 20
0.0000000022707241
 30
0.0
 11
-1.2499999992731432
 21
0.400136002270699
 31
0.0
  0
LINE
  5
41D
100
AcDbEntity
  8
0
  6
CONTINUOUS
 62
               4
100
AcDbLine
 10
-2.0500000019981712
 20
-1.0999999962760967
 30
0.0
 11
-2.0500000046292968
 21
-2.5484354248475256
 31
0.0
  0
LINE
  5
41E
100
AcDbEntity
  8
0
  6
CONTINUOUS
 62
               4
100
AcDbLine
 10
-2.0500000019981712
 20
-1.0999999962760967
 30
0.0
 11
-1.5014285724250556
 21
-0.5485714258440169
 31
0.0
  0
LINE
  5
41F
100
AcDbEntity
  8
0
  6
CONTINUOUS
 62
               4
100
AcDbLine
 10
-1.2500000047229634
 20
-2.5999999977292987
 30
0.0
 11
-1.2500000070790236
 21
-3.8970068548721315
 31
0.0
  0
LINE
  5
420
100
AcDbEntity
  8
0
  6
CONTINUOUS
 62
               4
100
AcDbLine
 10
-0.7471428651353165
 20
-4.3998639986427577
 30
0.0
 11
-1.2500000070790236
 21
-3.8970068548721315
 31
0.0
  0
LINE
  5
421
100
AcDbEntity
  8
0
  6
CONTINUOUS
 62
               4
100
AcDbLine
 10
-0.7471428651353165
 20
-4.3998639986427577
 30
0.0
 11
0.7471428491504071
 21
-4.3998640013571446
 31
0.0
  0
LINE
  5
422
100
AcDbEntity
  8
0
  6
CONTINUOUS
 62
             200
100
AcDbLine
 10
-0.0000000092044132
 20
-5.0670362466292431
 30
0.0
 11
0.0000000023369324
 21
1.2864823111650026
 31
0.0
  0
LINE
  5
423
100
AcDbEntity
  8
0
  6
CONTINUOUS
 62
               4
100
AcDbLine
 10
-1.500000000993893
 20
-0.5471354139418168
 30
0.0
 11
-1.5
 21
0.0000000054496354
 31
0.0
  0
LINE
  5
424
100
AcDbEntity
  8
0
  6
CONTINUOUS
 62
               4
100
AcDbLine
 10
1.0500000010901687
 20
0.6001359980927248
 30
0.0
 11
1.2500000007268568
 21
0.4001359977293646
 31
0.0
  0
LINE
  5
425
100
AcDbEntity
  8
0
  6
CONTINUOUS
 62
               4
100
AcDbLine
 10
1.2500000007268568
 20
0.4001359977293646
 30
0.0
 11
1.25
 21
-0.0000000022706104
 31
0.0
  0
LINE
  5
426
100
AcDbEntity
  8
0
  6
CONTINUOUS
 62
               4
100
AcDbLine
 10
2.0499999980018373
 20
-1.1000000037238351
 30
0.0
 11
2.0499999953707118
 21
-2.548435432295264
 31
0.0
  0
LINE
  5
427
100
AcDbEntity
  8
0
  6
CONTINUOUS
 62
               4
100
AcDbLine
 10
1.2499999952772782
 20
-2.5998640022706354
 30
0.0
 11
1.2499999929209764
 21
-3.8970068594134659
 31
0.0
  0
LINE
  5
428
100
AcDbEntity
  8
0
  6
CONTINUOUS
 62
               4
100
AcDbLine
 10
1.4999999990009059
 20
-0.5500000027247438
 30
0.0
 11
1.5
 21
0.0000000000000568
 31
0.0
  0
LINE
  5
429
100
AcDbEntity
  8
0
  6
CONTINUOUS
 62
               4
100
AcDbLine
 10
1.4999999928701584
 20
-0.5499999965939537
 30
0.0
 11
2.0499999980018373
 21
-1.1000000037238351
 31
0.0
  0
LINE
  5
42A
100
AcDbEntity
  8
0
  6
CONTINUOUS
 62
               4
100
AcDbLine
 10
-2.0500000047229605
 20
-2.5999999962760967
 30
0.0
 11
2.049390718603064
 21
-2.6000000037227267
 31
0.0
  0
LINE
  5
42B
100
AcDbEntity
  8
0
  6
CONTINUOUS
 62
               4
100
AcDbLine
 10
-2.0500000032697443
 20
-1.7999999962760853
 30
0.0
 11
2.0499999967302642
 21
-1.8000000037238237
 31
0.0
  0
ARC
  5
42C
100
AcDbEntity
  8
0
  6
CONTINUOUS
 62
               4
100
AcDbCircle
 10
-0.0000000046321418
 20
-2.5499989233982774
 30
0.0
 40
2.050000596223347
100
AcDbArc
 50
179.95630153623421
 51
359.99999989592067
  0
LINE
  5
42D
100
AcDbEntity
  8
0
  6
CONTINUOUS
 62
               4
100
AcDbLine
 10
1.2499999929209764
 20
-3.8970068594134659
 30
0.0
 11
0.7471428491504071
 21
-4.3998640013571446
 31
0.0
  0
LINE
  5
42E
100
AcDbEntity
  8
0
  6
CONTINUOUS
 62
               4
100
AcDbLine
 10
-1.2500000070790236
 20
-3.8970068548721315
 30
0.0
 11
1.2499999929209764
 21
-3.8970068594134659
 31
0.0
  0
LINE
  5
42F
100
AcDbEntity
  8
0
  6
CONTINUOUS
 62
               4
100
AcDbLine
 10
-1.501428571428562
 20
0.0000000027274325
 30
0.0
 11
1.5
 21
-0.0000000027247324
 31
0.0
  0
LINE
  5
430
100
AcDbEntity
  8
0
  6
CONTINUOUS
 62
               4
100
AcDbLine
 10
-1.2499999992731432
 20
0.400136002270699
 30
0.0
 11
1.2500000007268568
 21
0.4001359977293646
 31
0.0
  0
LINE
  5
431
100
AcDbEntity
  8
0
  6
CONTINUOUS
 62
               4
100
AcDbLine
 10
-1.0499999989098256
 20
0.6001360019074298
 30
0.0
 11
1.0500000010901687
 21
0.6001359980927248
 31
0.0
  0
ENDBLK
  5
432
100
AcDbEntity
  8
0
100
AcDbBlockEnd
  0
BLOCK
  5
433
100
AcDbEntity
  8
0
100
AcDbBlockBegin
  2
MS_14
 70
               0
 10
0.0
 20
0.0
 30
0.0
  3
MS_14
  1

  0
LINE
  5
434
100
AcDbEntity
  8
0
  6
CONTINUOUS
 62
             200
100
AcDbLine
 10
-1.4104017530168846
 20
0.0
 30
0.0
 11
21.502886840796066
 21
0.0
 31
0.0
  0
LINE
  5
435
100
AcDbEntity
  8
0
  6
CONTINUOUS
 62
             200
100
AcDbLine
 10
17.250000004768367
 20
2.1700000000000159
 30
0.0
 11
19.750000004768367
 21
-2.1599999999999966
 31
0.0
  0
LINE
  5
436
100
AcDbEntity
  8
0
  6
CONTINUOUS
 62
               4
100
AcDbLine
 10
15.500000004768367
 20
-1.2999999999999829
 30
0.0
 11
19.253464208001617
 21
-1.2999999999999829
 31
0.0
  0
LINE
  5
437
100
AcDbEntity
  8
0
  6
CONTINUOUS
 62
               4
100
AcDbLine
 10
15.500000004768367
 20
1.3000000000000114
 30
0.0
 11
17.752309473590515
 21
1.3000000000000114
 31
0.0
  0
LINE
  5
438
100
AcDbEntity
  8
0
  6
CONTINUOUS
 62
             200
100
AcDbLine
 10
2.000000004768367
 20
2.9428571428571502
 30
0.0
 11
2.000000004768367
 21
-3.2999846734234666
 31
0.0
  0
LINE
  5
439
100
AcDbEntity
  8
0
  6
CONTINUOUS
 62
               4
100
AcDbLine
 10
3.9000000047683443
 20
-1.5
 30
0.0
 11
3.9000000047683443
 21
1.5
 31
0.0
  0
LINE
  5
43A
100
AcDbEntity
  8
0
  6
CONTINUOUS
 62
               4
100
AcDbLine
 10
10.400000004768344
 20
-1.5
 30
0.0
 11
10.400000004768344
 21
1.5
 31
0.0
  0
LINE
  5
43B
100
AcDbEntity
  8
0
  6
CONTINUOUS
 62
               4
100
AcDbLine
 10
8.000000004768367
 20
-0.5999999999999943
 30
0.0
 11
8.000000004768367
 21
0.9000000000000057
 31
0.0
  0
LINE
  5
43C
100
AcDbEntity
  8
0
  6
CONTINUOUS
 62
               4
100
AcDbLine
 10
9.6000000047683898
 20
-0.5999999999999943
 30
0.0
 11
9.6000000047683898
 21
0.9000000000000057
 31
0.0
  0
LINE
  5
43D
100
AcDbEntity
  8
0
  6
CONTINUOUS
 62
               4
100
AcDbLine
 10
0.0
 20
-2.0499999999999829
 30
0.0
 11
0.0
 21
2.0500000000000114
 31
0.0
  0
LINE
  5
43E
100
AcDbEntity
  8
0
  6
CONTINUOUS
 62
               4
100
AcDbLine
 10
15.500000004768367
 20
-2.0499999999999829
 30
0.0
 11
15.500000004768367
 21
2.0500000000000114
 31
0.0
  0
LINE
  5
43F
100
AcDbEntity
  8
0
  6
CONTINUOUS
 62
               4
100
AcDbLine
 10
0.0
 20
1.5
 30
0.0
 11
15.500000004768367
 21
1.5
 31
0.0
  0
LINE
  5
440
100
AcDbEntity
  8
0
  6
CONTINUOUS
 62
               4
100
AcDbLine
 10
0.0
 20
-1.5
 30
0.0
 11
15.500000004768367
 21
-1.5
 31
0.0
  0
CIRCLE
  5
441
100
AcDbEntity
  8
0
  6
CONTINUOUS
 62
               4
100
AcDbCircle
 10
2.000000004768367
 20
0.0
 30
0.0
 40
1.3999999999999997
  0
CIRCLE
  5
442
100
AcDbEntity
  8
0
  6
CONTINUOUS
 62
               4
100
AcDbCircle
 10
2.000000004768367
 20
0.0
 30
0.0
 40
1.25
  0
CIRCLE
  5
443
100
AcDbEntity
  8
0
  6
CONTINUOUS
 62
             200
100
AcDbCircle
 10
2.000000004768367
 20
0.0
 30
0.0
 40
1.05
  0
LINE
  5
444
100
AcDbEntity
  8
0
  6
CONTINUOUS
 62
               4
100
AcDbLine
 10
0.9571978986753322
 20
-0.6892486978790089
 30
0.0
 11
2.6892487026473759
 21
1.0428021060930348
 31
0.0
  0
LINE
  5
445
100
AcDbEntity
  8
0
  6
CONTINUOUS
 62
               4
100
AcDbLine
 10
1.3107513189315796
 20
-1.0428020722525559
 30
0.0
 11
3.0428021124430984
 21
0.6892487212589913
 31
0.0
  0
LINE
  5
446
100
AcDbEntity
  8
0
  6
CONTINUOUS
 62
               4
100
AcDbLine
 10
8.000000004768367
 20
0.9000000000000057
 30
0.0
 11
9.6000000047683898
 21
0.9000000000000057
 31
0.0
  0
LINE
  5
447
100
AcDbEntity
  8
0
  6
CONTINUOUS
 62
               4
100
AcDbLine
 10
8.000000004768367
 20
-0.5999999999999943
 30
0.0
 11
9.6000000047683898
 21
-0.5999999999999943
 31
0.0
  0
LINE
  5
448
100
AcDbEntity
  8
0
  6
CONTINUOUS
 62
               4
100
AcDbLine
 10
0.0
 20
2.0500000000000114
 30
0.0
 11
15.500000004768367
 21
2.0500000000000114
 31
0.0
  0
LINE
  5
449
100
AcDbEntity
  8
0
  6
CONTINUOUS
 62
               4
100
AcDbLine
 10
0.0
 20
-2.0499999999999829
 30
0.0
 11
15.500000004768367
 21
-2.0499999999999829
 31
0.0
  0
ENDBLK
  5
44A
100
AcDbEntity
  8
0
100
AcDbBlockEnd
  0
BLOCK
  5
44B
100
AcDbEntity
  8
0
100
AcDbBlockBegin
  2
MS_15
 70
               0
 10
0.0
 20
0.0
 30
0.0
  3
MS_15
  1

  0
LINE
  5
44C
100
AcDbEntity
  8
0
  6
CONTINUOUS
 62
               4
100
AcDbLine
 10
-3.7999999904632773
 20
9.6445121044688449
 30
0.0
 11
-3.7999999904632773
 21
14.397976307702123
 31
0.0
  0
LINE
  5
44D
100
AcDbEntity
  8
0
  6
CONTINUOUS
 62
               4
100
AcDbLine
 10
-1.1999999904632546
 20
11.145666838879947
 30
0.0
 11
-1.1999999904632546
 21
14.397976307702123
 31
0.0
  0
LINE
  5
44E
100
AcDbEntity
  8
0
  6
CONTINUOUS
 62
             200
100
AcDbLine
 10
-4.6599999904632341
 20
16.627976307702113
 30
0.0
 11
-0.3299999904633069
 21
19.127976307702113
 31
0.0
  0
LINE
  5
44F
100
AcDbEntity
  8
0
  6
CONTINUOUS
 62
             200
100
AcDbLine
 10
-4.6599999904632341
 20
18.127976307702113
 30
0.0
 11
-0.3299999904633069
 21
20.627976307702113
 31
0.0
  0
LINE
  5
450
100
AcDbEntity
  8
0
  6
CONTINUOUS
 62
             200
100
AcDbLine
 10
-4.6599999904632341
 20
7.6479763077021232
 30
0.0
 11
-0.3299999904633069
 21
10.147976307702123
 31
0.0
  0
LINE
  5
451
100
AcDbEntity
  8
0
  6
CONTINUOUS
 62
             200
100
AcDbLine
 10
-4.6599999904632341
 20
9.1479763077021232
 30
0.0
 11
-0.3299999904633069
 21
11.647976307702123
 31
0.0
  0
LINE
  5
452
100
AcDbEntity
  8
0
  6
CONTINUOUS
 62
               4
100
AcDbLine
 10
-4.5999999850137101
 20
0.9479762266398097
 30
0.0
 11
-2.9490443271679396
 21
1.4979762214070718
 31
0.0
  0
LINE
  5
453
100
AcDbEntity
  8
0
  6
CONTINUOUS
 62
               4
100
AcDbLine
 10
-2.9490443271679396
 20
1.4979762214070718
 30
0.0
 11
-2.9490443271679396
 21
5.8979763077021232
 31
0.0
  0
LINE
  5
454
100
AcDbEntity
  8
0
  6
CONTINUOUS
 62
               4
100
AcDbLine
 10
-2.0509556537585922
 20
4.8979763036149393
 30
0.0
 11
-2.0509556537585922
 21
5.8979763036149393
 31
0.0
  0
LINE
  5
455
100
AcDbEntity
  8
0
  6
CONTINUOUS
 62
               4
100
AcDbLine
 10
-2.0509556537585922
 20
4.8979763077021232
 30
0.0
 11
0.0000000095367341
 21
4.8979763077021232
 31
0.0
  0
LINE
  5
456
100
AcDbEntity
  8
0
  6
CONTINUOUS
 62
               4
100
AcDbLine
 10
-0.3999999904632432
 20
4.8979763077021232
 30
0.0
 11
-0.3999999904632432
 21
5.8979763077021232
 31
0.0
  0
LINE
  5
457
100
AcDbEntity
  8
0
  6
CONTINUOUS
 62
               4
100
AcDbLine
 10
-4.5999999904632887
 20
-0.0020236922978825
 30
0.0
 11
-4.5999999904632887
 21
5.8979763077021232
 31
0.0
  0
LINE
  5
458
100
AcDbEntity
  8
0
  6
CONTINUOUS
 62
               4
100
AcDbLine
 10
-4.5999999904632887
 20
5.8979763077021232
 30
0.0
 11
-0.3999999904632432
 21
5.8979763077021232
 31
0.0
  0
LINE
  5
459
100
AcDbEntity
  8
0
  6
CONTINUOUS
 62
               4
100
AcDbLine
 10
0.0000000095367341
 20
3.8979763077021232
 30
0.0
 11
-4.5999999904632887
 21
3.8979763077021232
 31
0.0
  0
LINE
  5
45A
100
AcDbEntity
  8
0
  6
CONTINUOUS
 62
             200
100
AcDbLine
 10
-2.4999999904632659
 20
5.3933951921156904
 30
0.0
 11
-2.4999999904632659
 21
17.18646552646851
 31
0.0
  0
LINE
  5
45B
100
AcDbEntity
  8
0
  6
CONTINUOUS
 62
             200
100
AcDbLine
 10
-14.049999990463277
 20
0.5979763077021403
 30
0.0
 11
-14.049999990463277
 21
-0.0020236922978825
 31
0.0
  0
LINE
  5
45C
100
AcDbEntity
  8
0
  6
CONTINUOUS
 62
             200
100
AcDbLine
 10
-11.949999990463255
 20
0.5979763077021403
 30
0.0
 11
-11.949999990463255
 21
-0.0020236922978825
 31
0.0
  0
LINE
  5
45D
100
AcDbEntity
  8
0
  6
CONTINUOUS
 62
               4
100
AcDbLine
 10
-14.248571419034704
 20
0.3979763077021232
 30
0.0
 11
-11.748571419034704
 21
0.3979763077021232
 31
0.0
  0
LINE
  5
45E
100
AcDbEntity
  8
0
  6
CONTINUOUS
 62
               4
100
AcDbLine
 10
-11.948571419034693
 20
0.5979763077021403
 30
0.0
 11
-11.748571419034704
 21
0.3979763077021232
 31
0.0
  0
LINE
  5
45F
100
AcDbEntity
  8
0
  6
CONTINUOUS
 62
               4
100
AcDbLine
 10
-14.248571419034704
 20
0.3979763077021232
 30
0.0
 11
-14.048571419034715
 21
0.5979763077021403
 31
0.0
  0
LINE
  5
460
100
AcDbEntity
  8
0
  6
CONTINUOUS
 62
               4
100
AcDbLine
 10
-11.748571419034704
 20
0.3979763077021232
 30
0.0
 11
-11.748571419034704
 21
-0.0020236922978825
 31
0.0
  0
LINE
  5
461
100
AcDbEntity
  8
0
  6
CONTINUOUS
 62
               4
100
AcDbLine
 10
-14.248571419034704
 20
-0.0020236922978825
 30
0.0
 11
-14.248571419034704
 21
0.3979763077021232
 31
0.0
  0
LINE
  5
462
100
AcDbEntity
  8
0
  6
CONTINUOUS
 62
             200
100
AcDbLine
 10
-14.049999990463277
 20
-2.6020236922978768
 30
0.0
 11
-14.049999990463277
 21
-4.1005951208692863
 31
0.0
  0
LINE
  5
463
100
AcDbEntity
  8
0
  6
CONTINUOUS
 62
             200
100
AcDbLine
 10
-11.949999990463255
 20
-2.6020236922978768
 30
0.0
 11
-11.949999990463255
 21
-4.1034522637264388
 31
0.0
  0
LINE
  5
464
100
AcDbEntity
  8
0
  6
CONTINUOUS
 62
               4
100
AcDbLine
 10
-14.048571419034715
 20
0.5979763077021403
 30
0.0
 11
-11.948571419034693
 21
0.5979763077021403
 31
0.0
  0
LINE
  5
465
100
AcDbEntity
  8
0
  6
CONTINUOUS
 62
             200
100
AcDbLine
 10
-8.9999999904632659
 20
-6.092575888749991
 30
0.0
 11
-8.9999999904632659
 21
-3.6831687553149379
 31
0.0
  0
LINE
  5
466
100
AcDbEntity
  8
0
  6
CONTINUOUS
 62
               4
100
AcDbLine
 10
-14.999999990463266
 20
-1.8020236922978938
 30
0.0
 11
-14.999999990463266
 21
-0.0000000082591214
 31
0.0
  0
LINE
  5
467
100
AcDbEntity
  8
0
  6
CONTINUOUS
 62
             200
100
AcDbLine
 10
-12.999999990463266
 20
1.284322618867094
 30
0.0
 11
-12.999999990463266
 21
-5.0691959389271801
 31
0.0
  0
LINE
  5
468
100
AcDbEntity
  8
0
  6
CONTINUOUS
 62
               4
100
AcDbLine
 10
-10.999999990463266
 20
-1.8020236922978938
 30
0.0
 11
-10.999999990463266
 21
-2.6020236922978768
 31
0.0
  0
LINE
  5
469
100
AcDbEntity
  8
0
  6
CONTINUOUS
 62
               4
100
AcDbLine
 10
-14.999999990463266
 20
-1.8020236922978938
 30
0.0
 11
-14.999999990463266
 21
-2.6020236922978768
 31
0.0
  0
LINE
  5
46A
100
AcDbEntity
  8
0
  6
CONTINUOUS
 62
               4
100
AcDbLine
 10
-14.248571419034704
 20
-2.6020236922978768
 30
0.0
 11
-14.248571419034704
 21
-3.9020236922978597
 31
0.0
  0
LINE
  5
46B
100
AcDbEntity
  8
0
  6
CONTINUOUS
 62
             200
100
AcDbLine
 10
-14.248571419034704
 20
-3.9020236922978597
 30
0.0
 11
-11.748571419034704
 21
-3.9020236922978597
 31
0.0
  0
LINE
  5
46C
100
AcDbEntity
  8
0
  6
CONTINUOUS
 62
               4
100
AcDbLine
 10
-13.748571419034704
 20
-4.4020236922978597
 30
0.0
 11
-14.248571419034704
 21
-3.9020236922978597
 31
0.0
  0
LINE
  5
46D
100
AcDbEntity
  8
0
  6
CONTINUOUS
 62
               4
100
AcDbLine
 10
-13.748571419034704
 20
-4.4020236922978597
 30
0.0
 11
-12.248571419034704
 21
-4.4020236922978597
 31
0.0
  0
LINE
  5
46E
100
AcDbEntity
  8
0
  6
CONTINUOUS
 62
               4
100
AcDbLine
 10
-11.748571419034704
 20
-3.9020236922978597
 30
0.0
 11
-12.248571419034704
 21
-4.4020236922978597
 31
0.0
  0
LINE
  5
46F
100
AcDbEntity
  8
0
  6
CONTINUOUS
 62
               4
100
AcDbLine
 10
-11.748571419034704
 20
-2.6020236922978768
 30
0.0
 11
-11.748571419034704
 21
-3.9020236922978597
 31
0.0
  0
LINE
  5
470
100
AcDbEntity
  8
0
  6
CONTINUOUS
 62
               4
100
AcDbLine
 10
-10.699999990463255
 20
-1.8000000082591328
 30
0.0
 11
-10.699999990463255
 21
-4.6000000082591441
 31
0.0
  0
LINE
  5
471
100
AcDbEntity
  8
0
  6
CONTINUOUS
 62
               4
100
AcDbLine
 10
0.0000000095367341
 20
-4.6000000082591441
 30
0.0
 11
0.0000000095367341
 21
4.8979763077021232
 31
0.0
  0
LINE
  5
472
100
AcDbEntity
  8
0
  6
CONTINUOUS
 62
               4
100
AcDbLine
 10
-3.7999999904632773
 20
14.397976307702123
 30
0.0
 11
-1.1999999904632546
 21
14.397976307702123
 31
0.0
  0
LINE
  5
473
100
AcDbEntity
  8
0
  6
CONTINUOUS
 62
               4
100
AcDbLine
 10
-3.7999999904632773
 20
5.8979763077021232
 30
0.0
 11
-3.7999999904632773
 21
8.1445121044688449
 31
0.0
  0
LINE
  5
474
100
AcDbEntity
  8
0
  6
CONTINUOUS
 62
               4
100
AcDbLine
 10
-1.1999999904632546
 20
5.8979763077021232
 30
0.0
 11
-1.1999999904632546
 21
9.6456668388799471
 31
0.0
  0
LINE
  5
475
100
AcDbEntity
  8
0
  6
CONTINUOUS
 62
               4
100
AcDbLine
 10
-10.699999991825621
 20
-4.6000000082591441
 30
0.0
 11
0.000000004768367
 21
-4.6000000082591441
 31
0.0
  0
LINE
  5
476
100
AcDbEntity
  8
0
  6
CONTINUOUS
 62
               4
100
AcDbLine
 10
-14.999999995231633
 20
-0.0000000082591214
 30
0.0
 11
0.000000004768367
 21
-0.0000000082591214
 31
0.0
  0
LINE
  5
477
100
AcDbEntity
  8
0
  6
CONTINUOUS
 62
               4
100
AcDbLine
 10
-14.999999990463266
 20
-1.8000000082591328
 30
0.0
 11
-10.699999990463255
 21
-1.8000000082591328
 31
0.0
  0
LINE
  5
478
100
AcDbEntity
  8
0
  6
CONTINUOUS
 62
               4
100
AcDbLine
 10
-14.999999995231633
 20
-2.6000000082591441
 30
0.0
 11
-10.999999995231633
 21
-2.6000000082591441
 31
0.0
  0
LINE
  5
479
100
AcDbEntity
  8
0
  6
CONTINUOUS
 62
               4
100
AcDbLine
 10
-14.999999995231633
 20
-1.100000016515537
 30
0.0
 11
0.000000004768367
 21
-1.100000016515537
 31
0.0
  0
LINE
  5
47A
100
AcDbEntity
  8
0
  6
CONTINUOUS
 62
               4
100
AcDbLine
 10
-14.999999995231633
 20
-0.5500000082591328
 30
0.0
 11
0.0000000095367341
 21
-0.5500000082591328
 31
0.0
  0
LINE
  5
47B
100
AcDbEntity
  8
0
  6
CONTINUOUS
 62
               4
100
AcDbLine
 10
-4.6000000020436005
 20
0.9479762218714427
 30
0.0
 11
0.000000004768367
 21
0.9479762218714427
 31
0.0
  0
LINE
  5
47C
100
AcDbEntity
  8
0
  6
CONTINUOUS
 62
               4
100
AcDbLine
 10
-4.5999999850137101
 20
1.497976225277398
 30
0.0
 11
0.0000000095367341
 21
1.497976225277398
 31
0.0
  0
LINE
  5
47D
100
AcDbEntity
  8
0
  6
CONTINUOUS
 62
               4
100
AcDbLine
 10
-2.6499999904632432
 20
14.397976307702123
 30
0.0
 11
-2.6499999904632432
 21
17.788484390842996
 31
0.0
  0
LINE
  5
47E
100
AcDbEntity
  8
0
  6
CONTINUOUS
 62
               4
100
AcDbLine
 10
-2.3499999904632887
 20
14.397976307702123
 30
0.0
 11
-2.3499999904632887
 21
17.961694552505833
 31
0.0
  0
LINE
  5
47F
100
AcDbEntity
  8
0
  6
CONTINUOUS
 62
               4
100
AcDbLine
 10
-1.3499999904632887
 20
14.397976307702123
 30
0.0
 11
-1.3499999904632887
 21
18.539061758048547
 31
0.0
  0
LINE
  5
480
100
AcDbEntity
  8
0
  6
CONTINUOUS
 62
               4
100
AcDbLine
 10
-3.6499999904632432
 20
14.397976307702123
 30
0.0
 11
-3.6499999904632432
 21
17.211117185300282
 31
0.0
  0
LINE
  5
481
100
AcDbEntity
  8
0
  6
CONTINUOUS
 62
               4
100
AcDbLine
 10
-3.6499999884196654
 20
21.397976307702123
 30
0.0
 11
-2.6499999904632432
 21
21.397976307702123
 31
0.0
  0
LINE
  5
482
100
AcDbEntity
  8
0
  6
CONTINUOUS
 62
               4
100
AcDbLine
 10
-2.3499999904632887
 20
21.397976307702123
 30
0.0
 11
-1.3499999850137101
 21
21.397976307702123
 31
0.0
  0
LINE
  5
483
100
AcDbEntity
  8
0
  6
CONTINUOUS
 62
               4
100
AcDbLine
 10
-2.3499999904632887
 20
19.461694552505833
 30
0.0
 11
-2.3499999904632887
 21
21.397976307702123
 31
0.0
  0
LINE
  5
484
100
AcDbEntity
  8
0
  6
CONTINUOUS
 62
               4
100
AcDbLine
 10
-1.3499999904632887
 20
20.039061758048547
 30
0.0
 11
-1.3499999904632887
 21
21.397976307702123
 31
0.0
  0
LINE
  5
485
100
AcDbEntity
  8
0
  6
CONTINUOUS
 62
               4
100
AcDbLine
 10
-3.6499999904632432
 20
18.711117185300282
 30
0.0
 11
-3.6499999904632432
 21
21.397976307702123
 31
0.0
  0
LINE
  5
486
100
AcDbEntity
  8
0
  6
CONTINUOUS
 62
               4
100
AcDbLine
 10
-2.6499999904632432
 20
19.288484390842996
 30
0.0
 11
-2.6499999904632432
 21
21.397976307702123
 31
0.0
  0
LINE
  5
487
100
AcDbEntity
  8
0
  6
CONTINUOUS
 62
             200
100
AcDbLine
 10
-3.1499999931880325
 20
12.667976307702133
 30
0.0
 11
-3.1499999931880325
 21
24.597976307702112
 31
0.0
  0
LINE
  5
488
100
AcDbEntity
  8
0
  6
CONTINUOUS
 62
             200
100
AcDbLine
 10
-1.8499999877384425
 20
12.667976307702133
 30
0.0
 11
-1.8499999877384425
 21
24.647976307702123
 31
0.0
  0
LINE
  5
489
100
AcDbEntity
  8
0
  6
CONTINUOUS
 62
               4
100
AcDbLine
 10
-2.139999987738463
 20
21.397976307702123
 30
0.0
 11
-2.139999987738463
 21
24.397976307702123
 31
0.0
  0
LINE
  5
48A
100
AcDbEntity
  8
0
  6
CONTINUOUS
 62
               4
100
AcDbLine
 10
-1.5599999877384789
 20
21.397976307702123
 30
0.0
 11
-1.5599999877384789
 21
24.397976307702123
 31
0.0
  0
LINE
  5
48B
100
AcDbEntity
  8
0
  6
CONTINUOUS
 62
               4
100
AcDbLine
 10
-2.1399999809265182
 20
24.397976307702123
 30
0.0
 11
-1.559999989100902
 21
24.397976307702123
 31
0.0
  0
LINE
  5
48C
100
AcDbEntity
  8
0
  6
CONTINUOUS
 62
               4
100
AcDbLine
 10
-2.8600000000000136
 20
24.397976307702123
 30
0.0
 11
-3.4399999918256299
 21
24.397976307702123
 31
0.0
  0
LINE
  5
48D
100
AcDbEntity
  8
0
  6
CONTINUOUS
 62
               4
100
AcDbLine
 10
-2.8599999931880689
 20
21.397976307702123
 30
0.0
 11
-2.8599999931880689
 21
24.397976307702123
 31
0.0
  0
LINE
  5
48E
100
AcDbEntity
  8
0
  6
CONTINUOUS
 62
               4
100
AcDbLine
 10
-3.4399999931880529
 20
21.397976307702123
 30
0.0
 11
-3.4399999931880529
 21
24.397976307702123
 31
0.0
  0
ENDBLK
  5
48F
100
AcDbEntity
  8
0
100
AcDbBlockEnd
  0
BLOCK
  5
490
100
AcDbEntity
  8
0
100
AcDbBlockBegin
  2
MS_16
 70
               0
 10
0.0
 20
0.0
 30
0.0
  3
MS_16
  1

  0
LINE
  5
491
100
AcDbEntity
  8
0
  6
CONTINUOUS
 62
             200
100
AcDbLine
 10
-3.660000000000025
 20
7.6479762330636003
 30
0.0
 11
0.6700000000000159
 21
10.1479762330636
 31
0.0
  0
LINE
  5
492
100
AcDbEntity
  8
0
  6
CONTINUOUS
 62
               4
100
AcDbLine
 10
-3.5500000000000114
 20
5.8979762330636003
 30
0.0
 11
0.5500000000000114
 21
5.8979762330636003
 31
0.0
  0
LINE
  5
493
100
AcDbEntity
  8
0
  6
CONTINUOUS
 62
               4
100
AcDbLine
 10
-3.5500000000000114
 20
3.8979762330636003
 30
0.0
 11
0.5500000000000114
 21
3.8979762330636003
 31
0.0
  0
LINE
  5
494
100
AcDbEntity
  8
0
  6
CONTINUOUS
 62
               4
100
AcDbLine
 10
-2.5500000000000114
 20
0.5979763193586631
 30
0.0
 11
-0.4499999999999886
 21
0.5979763193586631
 31
0.0
  0
LINE
  5
495
100
AcDbEntity
  8
0
  6
CONTINUOUS
 62
               4
100
AcDbLine
 10
-2.75
 20
0.3979763193586461
 30
0.0
 11
-2.5500000000000114
 21
0.5979763193586631
 31
0.0
  0
LINE
  5
496
100
AcDbEntity
  8
0
  6
CONTINUOUS
 62
               4
100
AcDbLine
 10
-0.4499999999999886
 20
0.5979763193586631
 30
0.0
 11
-0.25
 21
0.3979763193586461
 31
0.0
  0
LINE
  5
497
100
AcDbEntity
  8
0
  6
CONTINUOUS
 62
               4
100
AcDbLine
 10
-2.75
 20
0.3979763193586461
 30
0.0
 11
-0.25
 21
0.3979763193586461
 31
0.0
  0
LINE
  5
498
100
AcDbEntity
  8
0
  6
CONTINUOUS
 62
               4
100
AcDbLine
 10
-0.25
 20
0.3979763193586461
 30
0.0
 11
-0.25
 21
0.0000000033974015
 31
0.0
  0
LINE
  5
499
100
AcDbEntity
  8
0
  6
CONTINUOUS
 62
               4
100
AcDbLine
 10
-2.75
 20
0.0000000033974015
 30
0.0
 11
-2.75
 21
0.3979763193586461
 31
0.0
  0
LINE
  5
49A
100
AcDbEntity
  8
0
  6
CONTINUOUS
 62
               4
100
AcDbLine
 10
-3.5479763159612503
 20
-1.1020236806413539
 30
0.0
 11
-3.0
 21
-0.5511933213677924
 31
0.0
  0
LINE
  5
49B
100
AcDbEntity
  8
0
  6
CONTINUOUS
 62
               4
100
AcDbLine
 10
0.5500000000000114
 20
-1.0999999966026213
 30
0.0
 11
0.0
 21
-0.5499999966026099
 31
0.0
  0
LINE
  5
49C
100
AcDbEntity
  8
0
  6
CONTINUOUS
 62
               4
100
AcDbLine
 10
-0.25
 20
-2.5999999966026213
 30
0.0
 11
-0.25
 21
-3.8991665377842128
 31
0.0
  0
LINE
  5
49D
100
AcDbEntity
  8
0
  6
CONTINUOUS
 62
               4
100
AcDbLine
 10
-2.75
 20
-2.5999999966026213
 30
0.0
 11
-2.75
 21
-3.8991665377842128
 31
0.0
  0
LINE
  5
49E
100
AcDbEntity
  8
0
  6
CONTINUOUS
 62
               4
100
AcDbLine
 10
-2.75
 20
-3.8991665377842128
 30
0.0
 11
-0.25
 21
-3.8991665377842128
 31
0.0
  0
LINE
  5
49F
100
AcDbEntity
  8
0
  6
CONTINUOUS
 62
               4
100
AcDbLine
 10
-0.25
 20
-3.8991665377842128
 30
0.0
 11
-0.7528571428571809
 21
-4.4020236806413369
 31
0.0
  0
LINE
  5
4A0
100
AcDbEntity
  8
0
  6
CONTINUOUS
 62
               4
100
AcDbLine
 10
-2.2471428571428191
 20
-4.4020236806413369
 30
0.0
 11
-2.75
 21
-3.8991665377842128
 31
0.0
  0
LINE
  5
4A1
100
AcDbEntity
  8
0
  6
CONTINUOUS
 62
               4
100
AcDbLine
 10
0.5005951126101422
 20
-1.7999999966026099
 30
0.0
 11
0.5005951126101422
 21
-2.6020236806413539
 31
0.0
  0
LINE
  5
4A2
100
AcDbEntity
  8
0
  6
CONTINUOUS
 62
               4
100
AcDbLine
 10
-3.4994048873898578
 20
-1.7999999966026099
 30
0.0
 11
-3.4994048873898578
 21
-2.6020236806413539
 31
0.0
  0
LINE
  5
4A3
100
AcDbEntity
  8
0
  6
CONTINUOUS
 62
               4
100
AcDbLine
 10
-2.2471428571428191
 20
-4.4020236806413369
 30
0.0
 11
-0.7528571428571809
 21
-4.4020236806413369
 31
0.0
  0
LINE
  5
4A4
100
AcDbEntity
  8
0
  6
CONTINUOUS
 62
               4
100
AcDbLine
 10
-3.5500000000000114
 20
-2.5505951092127805
 30
0.0
 11
-3.5500000000000114
 21
-1.1020236806413539
 31
0.0
  0
LINE
  5
4A5
100
AcDbEntity
  8
0
  6
CONTINUOUS
 62
               4
100
AcDbLine
 10
0.5500000000000114
 20
-2.641112853549588
 30
0.0
 11
0.5500000000000114
 21
-1.1000000048590142
 31
0.0
  0
ARC
  5
4A6
100
AcDbEntity
  8
0
  6
CONTINUOUS
 62
               4
100
AcDbCircle
 10
-1.5
 20
-2.5499999966026099
 30
0.0
 40
2.0499999999999994
100
AcDbArc
 50
180.0
 51
0.0
  0
LINE
  5
4A7
100
AcDbEntity
  8
0
  6
CONTINUOUS
 62
               4
100
AcDbLine
 10
-3.5500000000000114
 20
1.4979762315664242
 30
0.0
 11
-3.5500000000000114
 21
5.8979762330636003
 31
0.0
  0
LINE
  5
4A8
100
AcDbEntity
  8
0
  6
CONTINUOUS
 62
               4
100
AcDbLine
 10
0.5500000000000114
 20
1.4979762354894728
 30
0.0
 11
0.5500000000000114
 21
5.8979762330636003
 31
0.0
  0
LINE
  5
4A9
100
AcDbEntity
  8
0
  6
CONTINUOUS
 62
               4
100
AcDbLine
 10
0.0
 20
0.9479762354894898
 30
0.0
 11
0.5500000014444595
 21
1.4979762369339209
 31
0.0
  0
LINE
  5
4AA
100
AcDbEntity
  8
0
  6
CONTINUOUS
 62
               4
100
AcDbLine
 10
-3.550000005367508
 20
1.4979762369339209
 30
0.0
 11
-3.0
 21
0.9479762315664129
 31
0.0
  0
LINE
  5
4AB
100
AcDbEntity
  8
0
  6
CONTINUOUS
 62
               4
100
AcDbLine
 10
-3.0
 20
-0.5511933205012429
 30
0.0
 11
-3.0
 21
0.9479762335279656
 31
0.0
  0
LINE
  5
4AC
100
AcDbEntity
  8
0
  6
CONTINUOUS
 62
               4
100
AcDbLine
 10
0.0
 20
-0.5500000014530304
 30
0.0
 11
0.0
 21
0.9479762335279656
 31
0.0
  0
LINE
  5
4AD
100
AcDbEntity
  8
0
  6
CONTINUOUS
 62
               4
100
AcDbLine
 10
-3.0000000019614959
 20
0.0000000033974015
 30
0.0
 11
-0.0000000019614959
 21
0.0000000033974015
 31
0.0
  0
LINE
  5
4AE
100
AcDbEntity
  8
0
  6
CONTINUOUS
 62
               4
100
AcDbLine
 10
-3.5500000000000114
 20
-1.7999999966026099
 30
0.0
 11
0.5500000000000114
 21
-1.7999999966026099
 31
0.0
  0
LINE
  5
4AF
100
AcDbEntity
  8
0
  6
CONTINUOUS
 62
               4
100
AcDbLine
 10
-3.4994048873898578
 20
-2.5999999966026213
 30
0.0
 11
0.5005951126101422
 21
-2.5999999966026213
 31
0.0
  0
LINE
  5
4B0
100
AcDbEntity
  8
0
  6
CONTINUOUS
 62
               4
100
AcDbLine
 10
-2.8000000000000114
 20
5.8979762330636003
 30
0.0
 11
-2.8000000000000114
 21
8.144512029830322
 31
0.0
  0
LINE
  5
4B1
100
AcDbEntity
  8
0
  6
CONTINUOUS
 62
               4
100
AcDbLine
 10
-0.1999999999999886
 20
5.8979762330636003
 30
0.0
 11
-0.1999999999999886
 21
9.6456667642413958
 31
0.0
  0
LINE
  5
4B2
100
AcDbEntity
  8
0
  6
CONTINUOUS
 62
             200
100
AcDbLine
 10
-1.5
 20
-5.5464060457318443
 30
0.0
 11
-1.5
 21
9.6693480204629463
 31
0.0
  0
LINE
  5
4B3
100
AcDbEntity
  8
0
  6
CONTINUOUS
 62
             200
100
AcDbLine
 10
-2.5250000000000341
 20
-4.1241665377842072
 30
0.0
 11
-2.5250000000000341
 21
-2.5999999966026213
 31
0.0
  0
LINE
  5
4B4
100
AcDbEntity
  8
0
  6
CONTINUOUS
 62
             200
100
AcDbLine
 10
-0.4749999999999659
 20
-4.1241665377842072
 30
0.0
 11
-0.4749999999999659
 21
-2.5999999966026213
 31
0.0
  0
LINE
  5
4B5
100
AcDbEntity
  8
0
  6
CONTINUOUS
 62
             200
100
AcDbLine
 10
-0.4749999999999659
 20
0.0000000019529534
 30
0.0
 11
-0.4749999999999659
 21
0.5979763193586631
 31
0.0
  0
LINE
  5
4B6
100
AcDbEntity
  8
0
  6
CONTINUOUS
 62
             200
100
AcDbLine
 10
-2.5250000000000341
 20
0.0000000019529534
 30
0.0
 11
-2.5250000000000341
 21
0.5979763193586631
 31
0.0
  0
ENDBLK
  5
4B7
100
AcDbEntity
  8
0
100
AcDbBlockEnd
  0
BLOCK
  5
4B8
100
AcDbEntity
  8
0
100
AcDbBlockBegin
  2
MS_17
 70
               0
 10
0.0
 20
0.0
 30
0.0
  3
MS_17
  1

  0
CIRCLE
  5
4B9
100
AcDbEntity
  8
0
  6
CONTINUOUS
 62
               4
100
AcDbCircle
 10
-2.5
 20
0.0
 30
0.0
 40
1.3
  0
LINE
  5
4BA
100
AcDbEntity
  8
0
  6
CONTINUOUS
 62
             200
100
AcDbLine
 10
-2.5
 20
-2.4429562044143438
 30
0.0
 11
-2.5
 21
2.4456261784689843
 31
0.0
  0
ARC
  5
4BB
100
AcDbEntity
  8
0
  6
CONTINUOUS
 62
               4
100
AcDbCircle
 10
-2.5
 20
0.0
 30
0.0
 40
2.1000000000000001
100
AcDbArc
 50
282.34693236741282
 51
77.293658161570477
  0
ARC
  5
4BC
100
AcDbEntity
  8
0
  6
CONTINUOUS
 62
               4
100
AcDbCircle
 10
-2.5
 20
0.0
 30
0.0
 40
2.1000000000000001
100
AcDbArc
 50
102.70634183842952
 51
257.65306763258718
  0
LINE
  5
4BD
100
AcDbEntity
  8
0
  6
CONTINUOUS
 62
             200
100
AcDbLine
 10
-16.324720577365497
 20
0.0
 30
0.0
 11
1.2376191148501903
 21
0.0
 31
0.0
  0
LINE
  5
4BE
100
AcDbEntity
  8
0
  6
CONTINUOUS
 62
               4
100
AcDbLine
 10
-15.0
 20
1.5
 30
0.0
 11
-3.9696938456698945
 21
1.5
 31
0.0
  0
LINE
  5
4BF
100
AcDbEntity
  8
0
  6
CONTINUOUS
 62
               4
100
AcDbLine
 10
-15.0
 20
2.0499999999999829
 30
0.0
 11
-15.0
 21
-2.0499999999999829
 31
0.0
  0
LINE
  5
4C0
100
AcDbEntity
  8
0
  6
CONTINUOUS
 62
               4
100
AcDbLine
 10
0.0
 20
2.0499999999999829
 30
0.0
 11
0.0
 21
-2.0499999999999829
 31
0.0
  0
LINE
  5
4C1
100
AcDbEntity
  8
0
  6
CONTINUOUS
 62
               4
100
AcDbLine
 10
-14.042857142857144
 20
-0.714285714285694
 30
0.0
 11
-12.311428571428564
 21
1.0200000000000102
 31
0.0
  0
LINE
  5
4C2
100
AcDbEntity
  8
0
  6
CONTINUOUS
 62
               4
100
AcDbLine
 10
-13.69142857142856
 20
-1.0685714285714027
 30
0.0
 11
-11.948006963028547
 21
0.67485017982861
 31
0.0
  0
LINE
  5
4C3
100
AcDbEntity
  8
0
  6
CONTINUOUS
 62
               4
100
AcDbLine
 10
-11.100000000000023
 20
-1.5028571503503088
 30
0.0
 11
-11.100000000000023
 21
1.5000000068119732
 31
0.0
  0
LINE
  5
4C4
100
AcDbEntity
  8
0
  6
CONTINUOUS
 62
               4
100
AcDbLine
 10
-4.6000000000000227
 20
-1.5028571503503088
 30
0.0
 11
-4.6000000000000227
 21
1.5000000068119732
 31
0.0
  0
LINE
  5
4C5
100
AcDbEntity
  8
0
  6
CONTINUOUS
 62
               4
100
AcDbLine
 10
-7.0
 20
-0.7000000068119618
 30
0.0
 11
-7.0
 21
0.9000000000000057
 31
0.0
  0
LINE
  5
4C6
100
AcDbEntity
  8
0
  6
CONTINUOUS
 62
               4
100
AcDbLine
 10
-5.3999999999999773
 20
-0.7000000068119618
 30
0.0
 11
-5.3999999999999773
 21
0.9000000000000057
 31
0.0
  0
LINE
  5
4C7
100
AcDbEntity
  8
0
  6
CONTINUOUS
 62
               4
100
AcDbLine
 10
-7.0
 20
0.9000000000000057
 30
0.0
 11
-5.3999999999999773
 21
0.9000000000000057
 31
0.0
  0
LINE
  5
4C8
100
AcDbEntity
  8
0
  6
CONTINUOUS
 62
               4
100
AcDbLine
 10
-7.0
 20
-0.7000000000000171
 30
0.0
 11
-5.3999999999999773
 21
-0.7000000000000171
 31
0.0
  0
LINE
  5
4C9
100
AcDbEntity
  8
0
  6
CONTINUOUS
 62
               4
100
AcDbLine
 10
-15.0
 20
2.0499999999999829
 30
0.0
 11
0.0
 21
2.0499999999999829
 31
0.0
  0
LINE
  5
4CA
100
AcDbEntity
  8
0
  6
CONTINUOUS
 62
               4
100
AcDbLine
 10
-15.0
 20
-2.0499999999999829
 30
0.0
 11
0.0
 21
-2.0499999999999829
 31
0.0
  0
LINE
  5
4CB
100
AcDbEntity
  8
0
  6
CONTINUOUS
 62
               4
100
AcDbLine
 10
-15.0
 20
-1.5
 30
0.0
 11
-3.9696938456698945
 21
-1.5
 31
0.0
  0
CIRCLE
  5
4CC
100
AcDbEntity
  8
0
  6
CONTINUOUS
 62
               4
100
AcDbCircle
 10
-13.0
 20
0.0
 30
0.0
 40
1.3999999999999997
  0
CIRCLE
  5
4CD
100
AcDbEntity
  8
0
  6
CONTINUOUS
 62
             200
100
AcDbCircle
 10
-13.0
 20
0.0
 30
0.0
 40
1.05
  0
CIRCLE
  5
4CE
100
AcDbEntity
  8
0
  6
CONTINUOUS
 62
               4
100
AcDbCircle
 10
-13.0
 20
0.0
 30
0.0
 40
1.25
  0
LINE
  5
4CF
100
AcDbEntity
  8
0
  6
CONTINUOUS
 62
             200
100
AcDbLine
 10
-3.1500000027247665
 20
-0.8054622970305729
 30
0.0
 11
-3.1500000027247665
 21
0.8557856223879981
 31
0.0
  0
LINE
  5
4D0
100
AcDbEntity
  8
0
  6
CONTINUOUS
 62
             200
100
AcDbLine
 10
-1.8499999972751766
 20
-0.8054622970305729
 30
0.0
 11
-1.8499999972751766
 21
0.8557856223879981
 31
0.0
  0
CIRCLE
  5
4D1
100
AcDbEntity
  8
0
  6
CONTINUOUS
 62
               4
100
AcDbCircle
 10
-1.8499999972751766
 20
0.0
 30
0.0
 40
0.5
  0
CIRCLE
  5
4D2
100
AcDbEntity
  8
0
  6
CONTINUOUS
 62
               4
100
AcDbCircle
 10
-3.1500000027247665
 20
0.0
 30
0.0
 40
0.5
  0
CIRCLE
  5
4D3
100
AcDbEntity
  8
0
  6
CONTINUOUS
 62
               4
100
AcDbCircle
 10
-1.8499999972751766
 20
0.0
 30
0.0
 40
0.29
  0
CIRCLE
  5
4D4
100
AcDbEntity
  8
0
  6
CONTINUOUS
 62
               4
100
AcDbCircle
 10
-3.1500000027247665
 20
0.0
 30
0.0
 40
0.29
  0
LINE
  5
4D5
100
AcDbEntity
  8
0
  6
CONTINUOUS
 62
             200
100
AcDbLine
 10
-13.0
 20
2.8342857142856985
 30
0.0
 11
-13.0
 21
-3.3514132448520115
 31
0.0
  0
ENDBLK
  5
4D6
100
AcDbEntity
  8
0
100
AcDbBlockEnd
  0
ENDSEC
  0
SECTION
  2
ENTITIES
  0
LINE
  5
4D7
100
AcDbEntity
  8
0
  6
CONTINUOUS
 62
               7
100
AcDbLine
 10
199.762451171875
 20
-138.25
 30
0.0
 11
199.762451171875
 21
-275.80875000000009
 31
0.0
  0
LINE
  5
4D8
100
AcDbEntity
  8
0
  6
CONTINUOUS
 62
               7
100
AcDbLine
 10
0.0
 20
-138.25
 30
0.0
 11
0.0
 21
-275.80875000000009
 31
0.0
  0
LINE
  5
4D9
100
AcDbEntity
  8
0
  6
CONTINUOUS
 62
               7
100
AcDbLine
 10
-199.762451171875
 20
-138.25
 30
0.0
 11
-199.762451171875
 21
-276.61520833333333
 31
0.0
  0
LINE
  5
4DA
100
AcDbEntity
  8
0
  6
CONTINUOUS
 62
               7
100
AcDbLine
 10
-399.52490234375
 20
-138.25
 30
0.0
 11
399.52490234375
 21
-138.25
 31
0.0
  0
MTEXT
  5
4DB
100
AcDbEntity
  8
0
  6
CONTINUOUS
 62
               7
100
AcDbMText
 10
-343.97667387423013
 20
-62.983838490693586
 30
0.0
 40
6.3000001907348633
 41
0.0
 71
               4
 72
               1
  1
\W1.065;\A1;STRETCH LIST
  0
MTEXT
  5
4DC
100
AcDbEntity
  8
0
  6
CONTINUOUS
 62
               7
100
AcDbMText
 10
-268.47490256779628
 20
-83.25
 30
0.0
 40
6.3000001907348633
 41
0.0
 71
               4
 72
               1
  1
\W1.286;\A1;100
  0
MTEXT
  5
4DD
100
AcDbEntity
  8
0
  6
CONTINUOUS
 62
               7
100
AcDbMText
 10
-297.12490249300669
 20
-83.25
 30
0.0
 40
6.3000001907348633
 41
0.0
 71
               4
 72
               1
  1
\A1;75
  0
MTEXT
  5
4DE
100
AcDbEntity
  8
0
  6
CONTINUOUS
 62
               7
100
AcDbMText
 10
-328.52944793224867
 20
-83.25
 30
0.0
 40
6.3000001907348633
 41
0.0
 71
               4
 72
               1
  1
\W1.091;\A1;50
  0
LINE
  5
4DF
100
AcDbEntity
  8
0
  6
CONTINUOUS
 62
               7
100
AcDbLine
 10
-389.52490234375
 20
-128.25
 30
0.0
 11
-389.52490234375
 21
-68.25
 31
0.0
  0
MTEXT
  5
4E0
100
AcDbEntity
  8
0
  6
CONTINUOUS
 62
               7
100
AcDbMText
 10
-387.19326853666661
 20
-88.741504360465115
 30
0.0
 40
6.1424996886849339
 41
0.0
 71
               4
 72
               1
  1
\T0.975;\W1.052;\A1;STRETCH\P  PLACE
  0
LINE
  5
4E1
100
AcDbEntity
  8
0
  6
CONTINUOUS
 62
               7
100
AcDbLine
 10
-339.12490233406095
 20
-98.25
 30
0.0
 11
-344.4838861762409
 21
-78.25
 31
0.0
  0
LINE
  5
4E2
100
AcDbEntity
  8
0
  6
CONTINUOUS
 62
               7
100
AcDbLine
 10
-389.52490234375
 20
-78.25
 30
0.0
 11
-344.4838861762409
 21
-78.25
 31
0.0
  0
LINE
  5
4E3
100
AcDbEntity
  8
0
  6
CONTINUOUS
 62
               7
100
AcDbLine
 10
-389.52490234375
 20
-98.25
 30
0.0
 11
-244.62490233406095
 21
-98.25
 31
0.0
  0
LINE
  5
4E4
100
AcDbEntity
  8
0
  6
CONTINUOUS
 62
               7
100
AcDbLine
 10
-389.52490234375
 20
-128.25
 30
0.0
 11
-244.62490233406095
 21
-128.25
 31
0.0
  0
LINE
  5
4E5
100
AcDbEntity
  8
0
  6
CONTINUOUS
 62
               7
100
AcDbLine
 10
-389.52490234375
 20
-118.25
 30
0.0
 11
-244.62490233406095
 21
-118.25
 31
0.0
  0
MTEXT
  5
4E6
100
AcDbEntity
  8
0
  6
CONTINUOUS
 62
               7
100
AcDbMText
 10
-366.42490240248378
 20
-113.25
 30
0.0
 40
6.3000001907348633
 41
0.0
 71
               4
 72
               1
  1
\A1;B
  0
MTEXT
  5
4E7
100
AcDbEntity
  8
0
  6
CONTINUOUS
 62
               7
100
AcDbMText
 10
-366.42490240248378
 20
-103.25
 30
0.0
 40
6.3000001907348633
 41
0.0
 71
               4
 72
               1
  1
\A1;A
  0
MTEXT
  5
4E8
100
AcDbEntity
  8
0
  6
CONTINUOUS
 62
               7
100
AcDbMText
 10
-381.40714488513487
 20
-73.699095203488383
 30
0.0
 40
6.3000001907348633
 41
0.0
 71
               4
 72
               1
  1
\A1;STROKE
  0
LINE
  5
4E9
100
AcDbEntity
  8
0
  6
CONTINUOUS
 62
               7
100
AcDbLine
 10
-339.12490233406095
 20
-68.25
 30
0.0
 11
-339.12490233406095
 21
-128.25
 31
0.0
  0
LINE
  5
4EA
100
AcDbEntity
  8
0
  6
CONTINUOUS
 62
               7
100
AcDbLine
 10
-389.52490234375
 20
-108.25
 30
0.0
 11
-244.62490233406095
 21
-108.25
 31
0.0
  0
MTEXT
  5
4EB
100
AcDbEntity
  8
0
  6
CONTINUOUS
 62
               7
100
AcDbMText
 10
-366.42490240248378
 20
-123.25
 30
0.0
 40
6.3000001907348633
 41
0.0
 71
               4
 72
               1
  1
\A1;C
  0
MTEXT
  5
4EC
100
AcDbEntity
  8
0
  6
CONTINUOUS
 62
               7
100
AcDbMText
 10
-263.58184997126546
 20
-64.598803315770354
 30
0.0
 40
6.3000001907348633
 41
0.0
 71
               4
 72
               1
  1
\W0.833;\A1;（ｍｍ）
  0
LINE
  5
4ED
100
AcDbEntity
  8
0
  6
CONTINUOUS
 62
               7
100
AcDbLine
 10
-307.62490233406095
 20
-68.25
 30
0.0
 11
-307.62490233406095
 21
-128.25
 31
0.0
  0
LINE
  5
4EE
100
AcDbEntity
  8
0
  6
CONTINUOUS
 62
               7
100
AcDbLine
 10
-276.12490233406095
 20
-68.25
 30
0.0
 11
-276.12490233406095
 21
-128.25
 31
0.0
  0
LINE
  5
4EF
100
AcDbEntity
  8
0
  6
CONTINUOUS
 62
               7
100
AcDbLine
 10
-244.62490233406095
 20
-68.25
 30
0.0
 11
-244.62490233406095
 21
-128.25
 31
0.0
  0
MTEXT
  5
4F0
100
AcDbEntity
  8
0
  6
CONTINUOUS
 62
               7
100
AcDbMText
 10
-325.26490236124067
 20
-103.25
 30
0.0
 40
6.3000001907348633
 41
0.0
 71
               4
 72
               1
  1
\W1.200;\A1;0
  0
MTEXT
  5
4F1
100
AcDbEntity
  8
0
  6
CONTINUOUS
 62
               7
100
AcDbMText
 10
-325.26490236124067
 20
-113.25
 30
0.0
 40
6.3000001907348633
 41
0.0
 71
               4
 72
               1
  1
\W1.200;\A1;0
  0
MTEXT
  5
4F2
100
AcDbEntity
  8
0
  6
CONTINUOUS
 62
               7
100
AcDbMText
 10
-325.26490236124067
 20
-123.25
 30
0.0
 40
6.3000001907348633
 41
0.0
 71
               4
 72
               1
  1
\W1.200;\A1;0
  0
MTEXT
  5
4F3
100
AcDbEntity
  8
0
  6
CONTINUOUS
 62
               7
100
AcDbMText
 10
-297.12490249300669
 20
-123.25
 30
0.0
 40
6.3000001907348633
 41
0.0
 71
               4
 72
               1
  1
\A1;25
  0
MTEXT
  5
4F4
100
AcDbEntity
  8
0
  6
CONTINUOUS
 62
               7
100
AcDbMText
 10
-303.04904255602617
 20
-103.37234655627439
 30
0.0
 40
6.3000001907348633
 41
0.0
 71
               4
 72
               1
  1
\W1.333;\A1;12.5
  0
MTEXT
  5
4F5
100
AcDbEntity
  8
0
  6
CONTINUOUS
 62
               7
100
AcDbMText
 10
-303.04904255602617
 20
-113.37234655627439
 30
0.0
 40
6.3000001907348633
 41
0.0
 71
               4
 72
               1
  1
\W1.333;\A1;12.5
  0
MTEXT
  5
4F6
100
AcDbEntity
  8
0
  6
CONTINUOUS
 62
               7
100
AcDbMText
 10
-265.52944793224867
 20
-123.25
 30
0.0
 40
6.3000001907348633
 41
0.0
 71
               4
 72
               1
  1
\W1.091;\A1;50
  0
MTEXT
  5
4F7
100
AcDbEntity
  8
0
  6
CONTINUOUS
 62
               7
100
AcDbMText
 10
-265.62490249300669
 20
-113.25
 30
0.0
 40
6.3000001907348633
 41
0.0
 71
               4
 72
               1
  1
\A1;25
  0
MTEXT
  5
4F8
100
AcDbEntity
  8
0
  6
CONTINUOUS
 62
               7
100
AcDbMText
 10
-265.62490249300669
 20
-103.25
 30
0.0
 40
6.3000001907348633
 41
0.0
 71
               4
 72
               1
  1
\A1;25
  0
LINE
  5
4F9
100
AcDbEntity
  8
0
  6
CONTINUOUS
 62
               7
100
AcDbLine
 10
-389.52490234375
 20
-68.25
 30
0.0
 11
-244.62490233406095
 21
-68.25
 31
0.0
  0
INSERT
  5
4FA
100
AcDbEntity
  8
0
  6
ByBlock
100
AcDbBlockReference
  2
MS_17
 10
352.25068975625635
 20
-176.64599754142796
 30
0.0
  0
INSERT
  5
4FB
100
AcDbEntity
  8
0
  6
ByBlock
100
AcDbBlockReference
  2
MS_16
 10
247.88781264364616
 20
-232.43117590713007
 30
0.0
  0
INSERT
  5
4FC
100
AcDbEntity
  8
0
  6
ByBlock
100
AcDbBlockReference
  2
MS_15
 10
352.25068975625635
 20
-232.43117590373265
 30
0.0
  0
INSERT
  5
4FD
100
AcDbEntity
  8
0
  6
ByBlock
100
AcDbBlockReference
  2
MS_14
 10
131.11170107455581
 20
-176.83116902277365
 30
0.0
  0
INSERT
  5
4FE
100
AcDbEntity
  8
0
  6
ByBlock
100
AcDbBlockReference
  2
MS_13
 10
47.667761929846961
 20
-232.43117560585861
 30
0.0
 50
359.99999999999778
  0
INSERT
  5
4FF
100
AcDbEntity
  8
0
  6
ByBlock
100
AcDbBlockReference
  2
MS_12
 10
127.11169226966513
 20
-232.43117560394282
 30
0.0
 50
359.9999999388682
  0
INSERT
  5
500
100
AcDbEntity
  8
0
  6
ByBlock
100
AcDbBlockReference
  2
MS_11
 10
-76.094364675892052
 20
-180.20470313017898
 30
0.0
  0
INSERT
  5
501
100
AcDbEntity
  8
0
  6
ByBlock
100
AcDbBlockReference
  2
MS_10
 10
-153.13708928526705
 20
-232.80472449248367
 30
0.0
  0
INSERT
  5
502
100
AcDbEntity
  8
0
  6
ByBlock
100
AcDbBlockReference
  2
MS_9
 10
-76.094364675892052
 20
-232.80472449248367
 30
0.0
  0
INSERT
  5
503
100
AcDbEntity
  8
0
  6
ByBlock
100
AcDbBlockReference
  2
MS_8
 10
-276.56332505022323
 20
-180.20470350674773
 30
0.0
  0
INSERT
  5
504
100
AcDbEntity
  8
0
  6
ByBlock
100
AcDbBlockReference
  2
MS_7
 10
-352.85714041390304
 20
-232.10459061026336
 30
0.0
  0
INSERT
  5
505
100
AcDbEntity
  8
0
  6
ByBlock
100
AcDbBlockReference
  2
MS_6
 10
-276.31441580452804
 20
-232.10459061026336
 30
0.0
  0
INSERT
  5
506
100
AcDbEntity
  8
0
  6
ByBlock
100
AcDbBlockReference
  2
MS_5
 10
-90.64369750498463
 20
-19.126287736638659
 30
0.0
  0
INSERT
  5
507
100
AcDbEntity
  8
0
  6
ByBlock
100
AcDbBlockReference
  2
MS_4
 10
-90.64369750498463
 20
56.558549559398671
 30
0.0
  0
INSERT
  5
508
100
AcDbEntity
  8
0
  6
ByBlock
100
AcDbBlockReference
  2
MS_3
 10
214.05198578695283
 20
158.86379713317893
 30
0.0
  0
INSERT
  5
509
100
AcDbEntity
  8
0
  6
ByBlock
100
AcDbBlockReference
  2
MS_2
 10
-232.7294168523041
 20
158.86379715732915
 30
0.0
  0
INSERT
  5
50A
100
AcDbEntity
  8
0
  6
ByBlock
100
AcDbBlockReference
  2
MS_1
 10
-90.64369750498463
 20
158.86379715732915
 30
0.0
  0
MTEXT
  5
50B
100
AcDbEntity
  8
0
  6
CONTINUOUS
 62
               3
100
AcDbMText
 10
-19.633960302688187
 20
225.43443194184263
 30
0.0
 40
6.3000001907348633
 41
0.0
 71
               4
 72
               1
  1
\W1.088;\A1;STRETCH LINE C
  0
MTEXT
  5
50C
100
AcDbEntity
  8
0
  6
CONTINUOUS
 62
               3
100
AcDbMText
 10
-67.760261486717482
 20
213.28004942757912
 30
0.0
 40
6.3000001907348633
 41
0.0
 71
               4
 72
               1
  1
\W1.088;\A1;STRETCH LINE B
  0
MTEXT
  5
50D
100
AcDbEntity
  8
0
  6
CONTINUOUS
 62
               3
100
AcDbMText
 10
-106.52592234325785
 20
201.38675536417068
 30
0.0
 40
6.3000001907348633
 41
0.0
 71
               4
 72
               1
  1
\W1.088;\A1;STRETCH LINE A
  0
MTEXT
  5
50E
100
AcDbEntity
  8
0
  6
CONTINUOUS
 62
               7
100
AcDbMText
 10
203.8775539295348
 20
-143.54924192857084
 30
0.0
 40
6.3000001907348633
 41
0.0
 71
               4
 72
               1
  1
\W1.084;\A1;MODEL:ZE235,255
  0
MTEXT
  5
50F
100
AcDbEntity
  8
0
  6
CONTINUOUS
 62
               7
100
AcDbMText
 10
-195.58970009597164
 20
-143.54924192857081
 30
0.0
 40
6.3000001907348633
 41
0.0
 71
               4
 72
               1
  1
\W1.139;\A1;MODEL:ZE201,202
  0
MTEXT
  5
510
100
AcDbEntity
  8
0
  6
CONTINUOUS
 62
               7
100
AcDbMText
 10
4.1727510704882365
 20
-143.54924192857084
 30
0.0
 40
6.3000001907348633
 41
0.0
 71
               4
 72
               1
  1
\W1.139;\A1;MODEL:ZE135,155
  0
MTEXT
  5
511
100
AcDbEntity
  8
0
  6
CONTINUOUS
 62
               7
100
AcDbMText
 10
-395.28835380146728
 20
-143.54924192857081
 30
0.0
 40
6.3000001907348633
 41
0.0
 71
               4
 72
               1
  1
\W1.200;\A1;MODEL:ZE101,102
  0
LINE
  5
512
100
AcDbEntity
  8
0
  6
CONTINUOUS
 62
               7
100
AcDbLine
 10
279.5250244140625
 20
-256.5
 30
0.0
 11
399.52490234375
 21
-256.5
 31
0.0
  0
LINE
  5
513
100
AcDbEntity
  8
0
  6
CONTINUOUS
 62
               7
100
AcDbLine
 10
279.5250244140625
 20
-256.5
 30
0.0
 11
279.5250244140625
 21
-276.5
 31
0.0
  0
MTEXT
  5
514
100
AcDbEntity
  8
0
  6
CONTINUOUS
 62
               7
100
AcDbMText
 10
287.7060468509938
 20
-266.5
 30
0.0
 40
9.0
 41
0.0
 71
               4
 72
               1
  1
\W1.121;\A1;KOGANEI CORP.
  0
MTEXT
  5
515
100
AcDbEntity
  8
0
  6
CONTINUOUS
 62
               7
100
AcDbMText
 10
318.73502062892914
 20
266.5
 30
0.0
 40
6.3000001907348633
 41
0.0
 71
               4
 72
               1
  1
\W1.200;\A1;Ver.2.0
  0
LINE
  5
516
100
AcDbEntity
  8
0
  6
CONTINUOUS
 62
               7
100
AcDbLine
 10
279.5250244140625
 20
256.5
 30
0.0
 11
399.52490234375
 21
256.5
 31
0.0
  0
LINE
  5
517
100
AcDbEntity
  8
0
  6
CONTINUOUS
 62
               7
100
AcDbLine
 10
279.5250244140625
 20
276.5
 30
0.0
 11
279.5250244140625
 21
256.5
 31
0.0
  0
MTEXT
  5
518
100
AcDbEntity
  8
0
  6
CONTINUOUS
 62
               7
100
AcDbMText
 10
-386.54413348237085
 20
241.5
 30
0.0
 40
6.3000001907348633
 41
0.0
 71
               4
 72
               1
  1
\W1.077;\A1;MODEL:AWS10*50
  0
LINE
  5
519
100
AcDbEntity
  8
0
  6
CONTINUOUS
 62
               7
100
AcDbLine
 10
-399.52490234375
 20
256.5
 30
0.0
 11
-279.52490234375
 21
256.5
 31
0.0
  0
LINE
  5
51A
100
AcDbEntity
  8
0
  6
CONTINUOUS
 62
               7
100
AcDbLine
 10
-279.52490234375
 20
276.5
 30
0.0
 11
-279.52490234375
 21
256.5
 31
0.0
  0
MTEXT
  5
51B
100
AcDbEntity
  8
0
  6
CONTINUOUS
 62
               7
100
AcDbMText
 10
-382.51127379371195
 20
266.5
 30
0.0
 40
6.3000001907348633
 41
0.0
 71
               4
 72
               1
  1
\W1.061;\A1;WS SLIDE TABLE
  0
LINE
  5
51C
100
AcDbEntity
  8
0
  6
CONTINUOUS
 62
               7
100
AcDbLine
 10
-399.52490234375
 20
-276.5
 30
0.0
 11
399.52490234375
 21
-276.5
 31
0.0
  0
LINE
  5
51D
100
AcDbEntity
  8
0
  6
CONTINUOUS
 62
               7
100
AcDbLine
 10
-399.52490234375
 20
276.5
 30
0.0
 11
399.52490234375
 21
276.5
 31
0.0
  0
LINE
  5
51E
100
AcDbEntity
  8
0
  6
CONTINUOUS
 62
               7
100
AcDbLine
 10
-399.52490234375
 20
276.5
 30
0.0
 11
-399.52490234375
 21
-276.5
 31
0.0
  0
LINE
  5
51F
100
AcDbEntity
  8
0
  6
CONTINUOUS
 62
               7
100
AcDbLine
 10
399.52490234375
 20
276.5
 30
0.0
 11
399.52490234375
 21
-276.5
 31
0.0
  0
ENDSEC
  0
SECTION
  2
OBJECTS
  0
DICTIONARY
  5
19
100
AcDbDictionary
  3
ACAD_GROUP
350
1A
  3
ACAD_MLINESTYLE
350
1B
  0
DICTIONARY
  5
1A
102
{ACAD_REACTORS
330
19
102
}
100
AcDbDictionary
  0
DICTIONARY
  5
1B
102
{ACAD_REACTORS
330
19
102
}
100
AcDbDictionary
  3
STANDARD
350
1C
  0
MLINESTYLE
  5
1C
102
{ACAD_REACTORS
330
1B
102
}
100
AcDbMlineStyle
  2
Standard
 70
               0
  3

 62
               0
 51
90.0
 52
90.0
 71
               2
 49
0.5
 62
             256
  6
ByLayer
 49
-0.5
 62
             256
  6
ByLayer
  0
ENDSEC
  0
EOF
