  0
SECTION
  2
HEADER
  9
$ACADVER
  1
AC1012
  9
$DWGCODEPAGE
  3
dos932
  9
$INSBASE
 10
0.0
 20
0.0
 30
0.0
  9
$EXTMIN
 10
-399.52490234375
 20
-276.61520833333333
 30
0.0
  9
$EXTMAX
 10
403.02503681182861
 20
276.5
 30
0.0
  9
$LIMMIN
 10
-399.52490234375
 20
-276.61520833333333
  9
$LIMMAX
 10
403.02503681182861
 20
276.5
  9
$ORTHOMODE
 70
               0
  9
$REGENMODE
 70
               1
  9
$FILLMODE
 70
               1
  9
$QTEXTMODE
 70
               0
  9
$MIRRTEXT
 70
               1
  9
$DRAGMODE
 70
               2
  9
$LTSCALE
 40
1.0
  9
$OSMODE
 70
               0
  9
$ATTMODE
 70
               1
  9
$TEXTSIZE
 40
3.2000000476837158
  9
$TRACEWID
 40
0.05
  9
$TEXTSTYLE
  7
MX_NOTE_STANDARD
  9
$CLAYER
  8
0
  9
$CELTYPE
  6
CONTINUOUS
  9
$CECOLOR
 62
             256
  9
$CELTSCALE
 40
1.0
  9
$DELOBJ
 70
               1
  9
$DISPSILH
 70
               0
  9
$DIMSCALE
 40
1.0
  9
$DIMASZ
 40
2.5
  9
$DIMEXO
 40
1.5
  9
$DIMDLI
 40
3.75
  9
$DIMRND
 40
0.0
  9
$DIMDLE
 40
0.0
  9
$DIMEXE
 40
1.5
  9
$DIMTP
 40
0.0
  9
$DIMTM
 40
0.0
  9
$DIMTXT
 40
3.2000000476837158
  9
$DIMCEN
 40
2.5
  9
$DIMTSZ
 40
0.0
  9
$DIMTOL
 70
               0
  9
$DIMLIM
 70
               0
  9
$DIMTIH
 70
               0
  9
$DIMTOH
 70
               0
  9
$DIMSE1
 70
               0
  9
$DIMSE2
 70
               0
  9
$DIMTAD
 70
               1
  9
$DIMZIN
 70
               8
  9
$DIMBLK
  1

  9
$DIMASO
 70
               1
  9
$DIMSHO
 70
               1
  9
$DIMPOST
  1

  9
$DIMAPOST
  1

  9
$DIMALT
 70
               0
  9
$DIMALTD
 70
               4
  9
$DIMALTF
 40
0.03937007874016
  9
$DIMLFAC
 40
1.0
  9
$DIMTOFL
 70
               1
  9
$DIMTVP
 40
0.0
  9
$DIMTIX
 70
               0
  9
$DIMSOXD
 70
               0
  9
$DIMSAH
 70
               0
  9
$DIMBLK1
  1

  9
$DIMBLK2
  1

  9
$DIMSTYLE
  2
MXDIMSTYLE
  9
$DIMCLRD
 70
               0
  9
$DIMCLRE
 70
               0
  9
$DIMCLRT
 70
               0
  9
$DIMTFAC
 40
1.0
  9
$DIMGAP
 40
1.0
  9
$DIMJUST
 70
               0
  9
$DIMSD1
 70
               0
  9
$DIMSD2
 70
               0
  9
$DIMTOLJ
 70
               1
  9
$DIMTZIN
 70
               0
  9
$DIMALTZ
 70
               0
  9
$DIMALTTZ
 70
               0
  9
$DIMFIT
 70
               3
  9
$DIMUPT
 70
               1
  9
$DIMUNIT
 70
               2
  9
$DIMDEC
 70
               4
  9
$DIMTDEC
 70
               4
  9
$DIMALTU
 70
               2
  9
$DIMALTTD
 70
               4
  9
$DIMTXSTY
  7
MX_NOTE_STANDARD
  9
$DIMAUNIT
 70
               0
  9
$LUNITS
 70
               2
  9
$LUPREC
 70
               4
  9
$SKETCHINC
 40
0.1
  9
$FILLETRAD
 40
0.0
  9
$AUNITS
 70
               0
  9
$AUPREC
 70
               0
  9
$MENU
  1
acad
  9
$ELEVATION
 40
0.0
  9
$PELEVATION
 40
0.0
  9
$THICKNESS
 40
0.0
  9
$LIMCHECK
 70
               0
  9
$BLIPMODE
 70
               1
  9
$CHAMFERA
 40
0.0
  9
$CHAMFERB
 40
0.0
  9
$CHAMFERC
 40
0.0
  9
$CHAMFERD
 40
0.0
  9
$SKPOLY
 70
               0
  9
$TDCREATE
 40
2453098.356759260
  9
$TDUPDATE
 40
2453098.356759260
  9
$TDINDWG
 40
0.0000000000
  9
$TDUSRTIMER
 40
0.0000000000
  9
$USRTIMER
 70
               1
  9
$ANGBASE
 50
0.0
  9
$ANGDIR
 70
               0
  9
$PDMODE
 70
               0
  9
$PDSIZE
 40
0.0
  9
$PLINEWID
 40
0.0
  9
$COORDS
 70
               1
  9
$SPLFRAME
 70
               0
  9
$SPLINETYPE
 70
               6
  9
$SPLINESEGS
 70
               8
  9
$ATTDIA
 70
               0
  9
$ATTREQ
 70
               1
  9
$HANDLING
 70
               1
  9
$HANDSEED
  5
5BE
  9
$SURFTAB1
 70
               6
  9
$SURFTAB2
 70
               6
  9
$SURFTYPE
 70
               6
  9
$SURFU
 70
               6
  9
$SURFV
 70
               6
  9
$UCSNAME
  2

  9
$UCSORG
 10
0.0
 20
0.0
 30
0.0
  9
$UCSXDIR
 10
1.0
 20
0.0
 30
0.0
  9
$UCSYDIR
 10
0.0
 20
1.0
 30
0.0
  9
$PUCSNAME
  2

  9
$PUCSORG
 10
0.0
 20
0.0
 30
0.0
  9
$PUCSXDIR
 10
1.0
 20
0.0
 30
0.0
  9
$PUCSYDIR
 10
0.0
 20
1.0
 30
0.0
  9
$USERI1
 70
               0
  9
$USERI2
 70
               0
  9
$USERI3
 70
               0
  9
$USERI4
 70
               0
  9
$USERI5
 70
               0
  9
$USERR1
 40
0.0
  9
$USERR2
 40
0.0
  9
$USERR3
 40
0.0
  9
$USERR4
 40
0.0
  9
$USERR5
 40
0.0
  9
$WORLDVIEW
 70
               1
  9
$SHADEDGE
 70
               3
  9
$SHADEDIF
 70
              70
  9
$TILEMODE
 70
               1
  9
$MAXACTVP
 70
              16
  9
$PINSBASE
 10
0.0
 20
0.0
 30
0.0
  9
$PLIMCHECK
 70
               0
  9
$PEXTMIN
 10
1.0000000000000000E+20
 20
1.0000000000000000E+20
 30
1.0000000000000000E+20
  9
$PEXTMAX
 10
-1.0000000000000000E+20
 20
-1.0000000000000000E+20
 30
-1.0000000000000000E+20
  9
$PLIMMIN
 10
0.0
 20
0.0
  9
$PLIMMAX
 10
12.0
 20
9.0
  9
$UNITMODE
 70
               0
  9
$VISRETAIN
 70
               0
  9
$PLINEGEN
 70
               1
  9
$PSLTSCALE
 70
               0
  9
$TREEDEPTH
 70
            3020
  9
$PICKSTYLE
 70
               1
  9
$CMLSTYLE
  2
Standard
  9
$CMLJUST
 70
               0
  9
$CMLSCALE
 40
1.0
  9
$SAVEIMAGES
 70
               0
  0
ENDSEC
  0
SECTION
  2
CLASSES
  0
CLASS
  1
LWPOLYLINE
  2
AcDbPolyline
  3
"AutoCAD"
 90
        0
280
               0
281
               1
  0
CLASS
  1
IMAGE
  2
AcDbRasterImage
  3
ISM
 90
      127
280
               0
281
               1
  0
CLASS
  1
OLE2FRAME
  2
AcDbOle2Frame
  3
""
 90
        0
280
               0
281
               1
  0
CLASS
  1
HATCH
  2
AcDbHatch
  3
"ACAD_SEDONA"
 90
        0
280
               0
281
               1
  0
CLASS
  1
DICTIONARYVAR
  2
AcDbDictionaryVar
  3
"AutoCAD"
 90
        0
280
               0
281
               0
  0
CLASS
  1
RASTERVARIABLES
  2
AcDbRasterVariables
  3
ISM
 90
        0
280
               0
281
               0
  0
CLASS
  1
IMAGEDEF
  2
AcDbRasterImageDef
  3
ISM
 90
        0
280
               0
281
               0
  0
CLASS
  1
IMAGEDEF_REACTOR
  2
AcDbRasterImageDefReactor
  3
ISM
 90
        1
280
               0
281
               0
  0
CLASS
  1
IDBUFFER
  2
AcDbIdBuffer
  3
"Acad"
 90
        0
280
               0
281
               0
  0
CLASS
  1
SPATIAL_FILTER
  2
AcDbSpatialFilter
  3
"Acad"
 90
        0
280
               0
281
               0
  0
CLASS
  1
XRECORD
  2
AcDbXrecord
  3
"<Built In>"
 90
        0
280
               0
281
               0
  0
CLASS
  1
SORTENTSTABLE
  2
AcDbSortentsTable
  3
"AutoCAD"
 90
        0
280
               0
281
               0
  0
CLASS
  1
LAYER_INDEX
  2
AcDbLayerIndex
  3
"Acad"
 90
        0
280
               0
281
               0
  0
CLASS
  1
SPATIAL_INDEX
  2
AcDbSpatialIndex
  3
"Acad"
 90
        0
280
               0
281
               0
  0
CLASS
  1
OBJECT_PTR
  2
CAseDLPNTableRecord
  3
"ASE-LPNTableRecord"
 90
        1
280
               0
281
               0
  0
CLASS
  1
LAYOUT
  2
AcDbLayout
  3
"AutoCAD 2000"
 90
        1
280
               0
281
               0
  0
CLASS
  1
PLOTSETTINGS
  2
AcDbPlotSettings
  3
"AutoCAD 2000"
 90
        1
280
               0
281
               0
  0
CLASS
  1
ACDBDICTIONARYWDFLT
  2
AcDbDictionaryWithDefault
  3
"AutoCAD 2000"
 90
        1
280
               0
281
               0
  0
CLASS
  1
ACDBPLACEHOLDER
  2
AcDbPlaceHolder
  3
"AutoCAD 2000"
 90
        1
280
               0
281
               0
  0
ENDSEC
  0
SECTION
  2
TABLES
  0
TABLE
  2
VPORT
  5
7
100
AcDbSymbolTable
 70
               1
  0
VPORT
  5
15
100
AcDbSymbolTableRecord
100
AcDbViewportTableRecord
  2
*ACTIVE
 70
               0
 10
0.0
 20
0.0
 11
1.0
 21
1.0
 12
1.7500672340393066
 22
-0.0576041666666356
 13
0.0
 23
0.0
 14
1.0
 24
1.0
 15
0.0
 25
0.0
 16
0.0
 26
0.0
 36
1.0
 17
0.0
 27
0.0
 37
0.0
 40
558.64636041666677
 41
1.7320508075688772
 42
50.0
 43
0.0
 44
0.0
 50
0.0
 51
0.0
 71
               0
 72
             100
 73
               1
 74
               1
 75
               0
 76
               0
 77
               0
 78
               0
  0
ENDTAB
  0
TABLE
  2
LTYPE
  5
4
100
AcDbSymbolTable
 70
               5
  0
LTYPE
  5
11
100
AcDbSymbolTableRecord
100
AcDbLinetypeTableRecord
  2
BYBLOCK
 70
              64
  3

 72
              65
 73
               0
 40
0.0
  0
LTYPE
  5
12
100
AcDbSymbolTableRecord
100
AcDbLinetypeTableRecord
  2
BYLAYER
 70
              64
  3

 72
              65
 73
               0
 40
0.0
  0
LTYPE
  5
13
100
AcDbSymbolTableRecord
100
AcDbLinetypeTableRecord
  2
CONTINUOUS
 70
              64
  3
Solid line
 72
              65
 73
               0
 40
0.0
  0
LTYPE
  5
34
100
AcDbSymbolTableRecord
100
AcDbLinetypeTableRecord
  2
PHANTOM
 70
              64
  3
Phantom ______  __  __  ______  __  __  ______
 72
              65
 73
               6
 40
63.500000000000007
 49
31.75
 74
               0
 49
-6.3499999999999996
 74
               0
 49
6.3499999999999996
 74
               0
 49
-6.3499999999999996
 74
               0
 49
6.3499999999999996
 74
               0
 49
-6.3499999999999996
 74
               0
  0
LTYPE
  5
3BA
100
AcDbSymbolTableRecord
100
AcDbLinetypeTableRecord
  2
CENTER
 70
              64
  3
Center ____ _ ____ _ ____ _ ____ _ ____ _ ____
 72
              65
 73
               4
 40
50.800000000000004
 49
31.75
 74
               0
 49
-6.3499999999999996
 74
               0
 49
6.3499999999999996
 74
               0
 49
-6.3499999999999996
 74
               0
  0
ENDTAB
  0
TABLE
  2
LAYER
  5
2
100
AcDbSymbolTable
 70
               2
  0
LAYER
  5
14
100
AcDbSymbolTableRecord
100
AcDbLayerTableRecord
  2
0
 70
               0
 62
               7
  6
CONTINUOUS
  0
LAYER
  5
1D
100
AcDbSymbolTableRecord
100
AcDbLayerTableRecord
  2
DEFPOINTS
 70
               0
 62
               7
  6
CONTINUOUS
  0
ENDTAB
  0
TABLE
  2
STYLE
  5
3
100
AcDbSymbolTable
 70
               1
  0
STYLE
  5
17
100
AcDbSymbolTableRecord
100
AcDbTextStyleTableRecord
  2
MX_NOTE_STANDARD
 70
               0
 40
0.0
 41
1.0
 50
0.0
 71
               0
 42
3.2000000476837158
  3
txt.shx
  4
extfont.shx
  0
ENDTAB
  0
TABLE
  2
VIEW
  5
5
100
AcDbSymbolTable
 70
               0
  0
ENDTAB
  0
TABLE
  2
UCS
  5
6
100
AcDbSymbolTable
 70
               0
  0
ENDTAB
  0
TABLE
  2
APPID
  5
8
100
AcDbSymbolTable
 70
               1
  0
APPID
  5
16
100
AcDbSymbolTableRecord
100
AcDbRegAppTableRecord
  2
ACAD
 70
               0
  0
ENDTAB
  0
TABLE
  2
DIMSTYLE
  5
9
100
AcDbSymbolTable
 70
               1
  0
DIMSTYLE
105
18
100
AcDbSymbolTableRecord
100
AcDbDimStyleTableRecord
  2
MXDIMSTYLE
 70
               0
  3

  4

  5

  6

  7

 40
1.0
 41
2.5
 42
1.5
 43
3.75
 44
1.5
 45
0.0
 46
0.0
 47
0.0
 48
0.0
 71
               0
 72
               0
 73
               0
 74
               0
 75
               0
 76
               0
 77
               1
 78
               8
140
3.2000000476837158
141
2.5
142
0.0
143
0.03937007874016
144
1.0
145
0.0
146
1.0
147
1.0
170
               0
171
               4
172
               1
173
               0
174
               0
175
               0
176
               0
177
               0
178
               0
270
               2
271
               4
272
               4
273
               2
274
               4
275
               0
280
               0
281
               0
282
               0
283
               1
284
               0
285
               0
286
               0
287
               3
288
               1
340
17
  0
ENDTAB
  0
TABLE
  2
BLOCK_RECORD
  5
1
100
AcDbSymbolTable
 70
              17
  0
BLOCK_RECORD
  5
A
100
AcDbSymbolTableRecord
100
AcDbBlockTableRecord
  2
*MODEL_SPACE
  0
BLOCK_RECORD
  5
B
100
AcDbSymbolTableRecord
100
AcDbBlockTableRecord
  2
*PAPER_SPACE
  0
BLOCK_RECORD
  5
1E
100
AcDbSymbolTableRecord
100
AcDbBlockTableRecord
  2
MS_1
  0
BLOCK_RECORD
  5
1F
100
AcDbSymbolTableRecord
100
AcDbBlockTableRecord
  2
MS_2
  0
BLOCK_RECORD
  5
20
100
AcDbSymbolTableRecord
100
AcDbBlockTableRecord
  2
MS_3
  0
BLOCK_RECORD
  5
21
100
AcDbSymbolTableRecord
100
AcDbBlockTableRecord
  2
MS_4
  0
BLOCK_RECORD
  5
22
100
AcDbSymbolTableRecord
100
AcDbBlockTableRecord
  2
MS_5
  0
BLOCK_RECORD
  5
23
100
AcDbSymbolTableRecord
100
AcDbBlockTableRecord
  2
MS_6
  0
BLOCK_RECORD
  5
24
100
AcDbSymbolTableRecord
100
AcDbBlockTableRecord
  2
MS_7
  0
BLOCK_RECORD
  5
25
100
AcDbSymbolTableRecord
100
AcDbBlockTableRecord
  2
MS_8
  0
BLOCK_RECORD
  5
26
100
AcDbSymbolTableRecord
100
AcDbBlockTableRecord
  2
MS_9
  0
BLOCK_RECORD
  5
27
100
AcDbSymbolTableRecord
100
AcDbBlockTableRecord
  2
MS_10
  0
BLOCK_RECORD
  5
28
100
AcDbSymbolTableRecord
100
AcDbBlockTableRecord
  2
MS_11
  0
BLOCK_RECORD
  5
29
100
AcDbSymbolTableRecord
100
AcDbBlockTableRecord
  2
MS_12
  0
BLOCK_RECORD
  5
2A
100
AcDbSymbolTableRecord
100
AcDbBlockTableRecord
  2
MS_13
  0
BLOCK_RECORD
  5
2B
100
AcDbSymbolTableRecord
100
AcDbBlockTableRecord
  2
MS_14
  0
BLOCK_RECORD
  5
2C
100
AcDbSymbolTableRecord
100
AcDbBlockTableRecord
  2
MS_15
  0
BLOCK_RECORD
  5
2D
100
AcDbSymbolTableRecord
100
AcDbBlockTableRecord
  2
MS_16
  0
BLOCK_RECORD
  5
2E
100
AcDbSymbolTableRecord
100
AcDbBlockTableRecord
  2
MS_17
  0
ENDTAB
  0
ENDSEC
  0
SECTION
  2
BLOCKS
  0
BLOCK
  5
D
100
AcDbEntity
  8
0
100
AcDbBlockBegin
  2
*MODEL_SPACE
 70
               0
 10
0.0
 20
0.0
 30
0.0
  3
*MODEL_SPACE
  1

  0
ENDBLK
  5
E
100
AcDbEntity
  8
0
100
AcDbBlockEnd
  0
BLOCK
  5
F
100
AcDbEntity
 67
               1
  8
0
100
AcDbBlockBegin
  2
*PAPER_SPACE
 70
               0
 10
0.0
 20
0.0
 30
0.0
  3
*PAPER_SPACE
  1

  0
ENDBLK
  5
10
100
AcDbEntity
 67
               1
  8
0
100
AcDbBlockEnd
  0
BLOCK
  5
2F
100
AcDbEntity
  8
0
100
AcDbBlockBegin
  2
MS_1
 70
               0
 10
0.0
 20
0.0
 30
0.0
  3
MS_1
  1

  0
LINE
  5
30
100
AcDbEntity
  8
0
  6
CONTINUOUS
 62
               7
100
AcDbLine
 10
-17.0
 20
-14.620999336242676
 30
0.0
 11
-16.621000289916992
 21
-15.0
 31
0.0
  0
LINE
  5
31
100
AcDbEntity
  8
0
  6
CONTINUOUS
 62
               7
100
AcDbLine
 10
-16.621000289916992
 20
-11.0
 30
0.0
 11
-17.0
 21
-11.379000663757324
 31
0.0
  0
LINE
  5
32
100
AcDbEntity
  8
0
  6
CONTINUOUS
 62
               7
100
AcDbLine
 10
-17.0
 20
-11.379000663757324
 30
0.0
 11
-17.0
 21
-14.620999336242676
 31
0.0
  0
LINE
  5
33
100
AcDbEntity
  8
0
  6
CONTINUOUS
 62
               7
100
AcDbLine
 10
-16.621000289916992
 20
-11.0
 30
0.0
 11
-16.621000289916992
 21
-15.0
 31
0.0
  0
LINE
  5
35
100
AcDbEntity
  8
0
  6
PHANTOM
 62
               3
100
AcDbLine
 10
25.344605436953401
 20
-29.710280107597448
 30
0.0
 11
62.750000003012502
 21
-29.710280109855205
 31
0.0
  0
LINE
  5
36
100
AcDbEntity
  8
0
  6
CONTINUOUS
 62
               7
100
AcDbLine
 10
100.00000000000001
 20
3.5
 30
0.0
 11
149.0
 21
3.5
 31
0.0
  0
LINE
  5
37
100
AcDbEntity
  8
0
  6
CONTINUOUS
 62
               7
100
AcDbLine
 10
100.00000000000001
 20
-3.5
 30
0.0
 11
152.0
 21
-3.5
 31
0.0
  0
LINE
  5
38
100
AcDbEntity
  8
0
  6
CONTINUOUS
 62
               2
100
AcDbLine
 10
-7.3816437685139817
 20
0.0
 30
0.0
 11
160.30826700482447
 21
0.0
 31
0.0
  0
LINE
  5
39
100
AcDbEntity
  8
0
  6
CONTINUOUS
 62
               7
100
AcDbLine
 10
0.0
 20
18.0
 30
0.0
 11
33.0
 21
18.0
 31
0.0
  0
LINE
  5
3A
100
AcDbEntity
  8
0
  6
CONTINUOUS
 62
               7
100
AcDbLine
 10
0.0
 20
-18.0
 30
0.0
 11
158.0
 21
-18.0
 31
0.0
  0
LINE
  5
3B
100
AcDbEntity
  8
0
  6
CONTINUOUS
 62
               7
100
AcDbLine
 10
100.00000000000001
 20
4.0
 30
0.0
 11
152.0
 21
4.0
 31
0.0
  0
LINE
  5
3C
100
AcDbEntity
  8
0
  6
CONTINUOUS
 62
               7
100
AcDbLine
 10
149.0
 20
3.5
 30
0.0
 11
149.0
 21
-3.5
 31
0.0
  0
LINE
  5
3D
100
AcDbEntity
  8
0
  6
CONTINUOUS
 62
               7
100
AcDbLine
 10
8.0
 20
-16.5
 30
0.0
 11
100.00000000000001
 21
-16.5
 31
0.0
  0
LINE
  5
3E
100
AcDbEntity
  8
0
  6
CONTINUOUS
 62
               7
100
AcDbLine
 10
8.0
 20
16.5
 30
0.0
 11
100.00000000000001
 21
16.5
 31
0.0
  0
LINE
  5
3F
100
AcDbEntity
  8
0
  6
CONTINUOUS
 62
               7
100
AcDbLine
 10
8.0
 20
9.0
 30
0.0
 11
12.35435607626107
 21
9.0
 31
0.0
  0
LINE
  5
40
100
AcDbEntity
  8
0
  6
CONTINUOUS
 62
               7
100
AcDbLine
 10
8.0
 20
-9.0
 30
0.0
 11
12.35435607626107
 21
-9.0
 31
0.0
  0
LINE
  5
41
100
AcDbEntity
  8
0
  6
CONTINUOUS
 62
               7
100
AcDbLine
 10
8.0
 20
-9.2999999999999972
 30
0.0
 11
100.00000000000001
 21
-9.2999999999999972
 31
0.0
  0
LINE
  5
42
100
AcDbEntity
  8
0
  6
CONTINUOUS
 62
               7
100
AcDbLine
 10
8.0
 20
9.3000000000000114
 30
0.0
 11
100.00000000000001
 21
9.3000000000000114
 31
0.0
  0
LINE
  5
43
100
AcDbEntity
  8
0
  6
CONTINUOUS
 62
               7
100
AcDbLine
 10
100.00000000000001
 20
9.5
 30
0.0
 11
152.0
 21
9.5
 31
0.0
  0
LINE
  5
44
100
AcDbEntity
  8
0
  6
CONTINUOUS
 62
               7
100
AcDbLine
 10
100.00000000000001
 20
-10.0
 30
0.0
 11
152.0
 21
-10.0
 31
0.0
  0
LINE
  5
45
100
AcDbEntity
  8
0
  6
CONTINUOUS
 62
               2
100
AcDbLine
 10
16.5
 20
16.230000000000004
 30
0.0
 11
16.5
 21
9.7700000000000102
 31
0.0
  0
CIRCLE
  5
46
100
AcDbEntity
  8
0
  6
CONTINUOUS
 62
               2
100
AcDbCircle
 10
16.5
 20
13.0
 30
0.0
 40
1.5
  0
CIRCLE
  5
47
100
AcDbEntity
  8
0
  6
CONTINUOUS
 62
               7
100
AcDbCircle
 10
16.5
 20
13.0
 30
0.0
 40
1.25
  0
LINE
  5
48
100
AcDbEntity
  8
0
  6
CONTINUOUS
 62
               2
100
AcDbLine
 10
13.410000000000025
 20
13.0
 30
0.0
 11
19.610000000000014
 21
13.0
 31
0.0
  0
LINE
  5
49
100
AcDbEntity
  8
0
  6
CONTINUOUS
 62
               7
100
AcDbLine
 10
158.0
 20
18.0
 30
0.0
 11
158.0
 21
-18.0
 31
0.0
  0
LINE
  5
4A
100
AcDbEntity
  8
0
  6
CONTINUOUS
 62
               7
100
AcDbLine
 10
152.0
 20
18.0
 30
0.0
 11
152.0
 21
-18.0
 31
0.0
  0
LINE
  5
4B
100
AcDbEntity
  8
0
  6
CONTINUOUS
 62
               7
100
AcDbLine
 10
0.0
 20
18.0
 30
0.0
 11
0.0
 21
-18.0
 31
0.0
  0
LINE
  5
4C
100
AcDbEntity
  8
0
  6
CONTINUOUS
 62
               7
100
AcDbLine
 10
6.0
 20
18.0
 30
0.0
 11
6.0
 21
-18.0
 31
0.0
  0
LINE
  5
4D
100
AcDbEntity
  8
0
  6
CONTINUOUS
 62
               7
100
AcDbLine
 10
8.0
 20
-3.5
 30
0.0
 11
6.0
 21
-3.5
 31
0.0
  0
LINE
  5
4E
100
AcDbEntity
  8
0
  6
CONTINUOUS
 62
               7
100
AcDbLine
 10
8.0
 20
4.0
 30
0.0
 11
6.0
 21
4.0
 31
0.0
  0
LINE
  5
4F
100
AcDbEntity
  8
0
  6
CONTINUOUS
 62
               2
100
AcDbLine
 10
16.5
 20
-16.230000000000004
 30
0.0
 11
16.5
 21
-9.7700000000000102
 31
0.0
  0
LINE
  5
50
100
AcDbEntity
  8
0
  6
CONTINUOUS
 62
               2
100
AcDbLine
 10
13.410000000000025
 20
-13.0
 30
0.0
 11
19.610000000000014
 21
-13.0
 31
0.0
  0
LINE
  5
51
100
AcDbEntity
  8
0
  6
CONTINUOUS
 62
               2
100
AcDbLine
 10
91.500000000000014
 20
-16.230000000000004
 30
0.0
 11
91.500000000000014
 21
-9.7700000000000102
 31
0.0
  0
CIRCLE
  5
52
100
AcDbEntity
  8
0
  6
CONTINUOUS
 62
               2
100
AcDbCircle
 10
91.500000000000014
 20
-13.0
 30
0.0
 40
1.5
  0
CIRCLE
  5
53
100
AcDbEntity
  8
0
  6
CONTINUOUS
 62
               7
100
AcDbCircle
 10
91.500000000000014
 20
-13.0
 30
0.0
 40
1.25
  0
LINE
  5
54
100
AcDbEntity
  8
0
  6
CONTINUOUS
 62
               2
100
AcDbLine
 10
88.410000000000025
 20
-13.0
 30
0.0
 11
94.610000000000014
 21
-13.0
 31
0.0
  0
CIRCLE
  5
55
100
AcDbEntity
  8
0
  6
CONTINUOUS
 62
               7
100
AcDbCircle
 10
16.5
 20
-13.0
 30
0.0
 40
1.25
  0
CIRCLE
  5
56
100
AcDbEntity
  8
0
  6
CONTINUOUS
 62
               2
100
AcDbCircle
 10
16.5
 20
-13.0
 30
0.0
 40
1.5
  0
LINE
  5
57
100
AcDbEntity
  8
0
  6
CONTINUOUS
 62
               2
100
AcDbLine
 10
175.68052288066457
 20
-13.0
 30
0.0
 11
149.13546148059464
 21
-13.0
 31
0.0
  0
LINE
  5
58
100
AcDbEntity
  8
0
  6
CONTINUOUS
 62
               2
100
AcDbLine
 10
13.5
 20
-10.314534311294551
 30
0.0
 11
13.5
 21
-2.9611690291114314
 31
0.0
  0
LINE
  5
59
100
AcDbEntity
  8
0
  6
CONTINUOUS
 62
               2
100
AcDbLine
 10
10.236021530901724
 20
6.5
 30
0.0
 11
16.732908214739297
 21
6.5
 31
0.0
  0
LINE
  5
5A
100
AcDbEntity
  8
0
  6
CONTINUOUS
 62
               2
100
AcDbLine
 10
10.236021530901724
 20
-6.5
 30
0.0
 11
16.793626781877947
 21
-6.5
 31
0.0
  0
CIRCLE
  5
5B
100
AcDbEntity
  8
0
  6
CONTINUOUS
 62
               7
100
AcDbCircle
 10
13.5
 20
6.5
 30
0.0
 40
2.25
  0
CIRCLE
  5
5C
100
AcDbEntity
  8
0
  6
CONTINUOUS
 62
               7
100
AcDbCircle
 10
13.5
 20
6.5
 30
0.0
 40
1.1499999999999999
  0
LINE
  5
5D
100
AcDbEntity
  8
0
  6
CONTINUOUS
 62
               7
100
AcDbLine
 10
12.932109165420002
 20
7.5
 30
0.0
 11
14.067890834580055
 21
7.5
 31
0.0
  0
LINE
  5
5E
100
AcDbEntity
  8
0
  6
CONTINUOUS
 62
               7
100
AcDbLine
 10
12.932109165420002
 20
5.5
 30
0.0
 11
14.067890834580055
 21
5.5
 31
0.0
  0
LINE
  5
5F
100
AcDbEntity
  8
0
  6
CONTINUOUS
 62
               7
100
AcDbLine
 10
14.067890834580055
 20
7.5
 30
0.0
 11
14.650000000000006
 21
6.5
 31
0.0
  0
LINE
  5
60
100
AcDbEntity
  8
0
  6
CONTINUOUS
 62
               7
100
AcDbLine
 10
14.650000000000006
 20
6.5
 30
0.0
 11
14.067890834580055
 21
5.5
 31
0.0
  0
LINE
  5
61
100
AcDbEntity
  8
0
  6
CONTINUOUS
 62
               7
100
AcDbLine
 10
12.932109165420002
 20
5.5
 30
0.0
 11
12.350000000000023
 21
6.5
 31
0.0
  0
LINE
  5
62
100
AcDbEntity
  8
0
  6
CONTINUOUS
 62
               7
100
AcDbLine
 10
12.350000000000023
 20
6.5
 30
0.0
 11
12.932109165420002
 21
7.5
 31
0.0
  0
CIRCLE
  5
63
100
AcDbEntity
  8
0
  6
CONTINUOUS
 62
               7
100
AcDbCircle
 10
13.5
 20
-6.5
 30
0.0
 40
2.25
  0
LINE
  5
64
100
AcDbEntity
  8
0
  6
CONTINUOUS
 62
               7
100
AcDbLine
 10
12.350000000000023
 20
-6.5
 30
0.0
 11
12.932109165420002
 21
-5.5
 31
0.0
  0
LINE
  5
65
100
AcDbEntity
  8
0
  6
CONTINUOUS
 62
               7
100
AcDbLine
 10
12.932109165420002
 20
-7.5
 30
0.0
 11
12.350000000000023
 21
-6.5
 31
0.0
  0
LINE
  5
66
100
AcDbEntity
  8
0
  6
CONTINUOUS
 62
               7
100
AcDbLine
 10
14.650000000000006
 20
-6.5
 30
0.0
 11
14.067890834580055
 21
-7.5
 31
0.0
  0
LINE
  5
67
100
AcDbEntity
  8
0
  6
CONTINUOUS
 62
               7
100
AcDbLine
 10
14.067890834580055
 20
-5.5
 30
0.0
 11
14.650000000000006
 21
-6.5
 31
0.0
  0
LINE
  5
68
100
AcDbEntity
  8
0
  6
CONTINUOUS
 62
               7
100
AcDbLine
 10
12.932109165420002
 20
-7.5
 30
0.0
 11
14.067890834580055
 21
-7.5
 31
0.0
  0
LINE
  5
69
100
AcDbEntity
  8
0
  6
CONTINUOUS
 62
               7
100
AcDbLine
 10
12.932109165420002
 20
-5.5
 30
0.0
 11
14.067890834580055
 21
-5.5
 31
0.0
  0
CIRCLE
  5
6A
100
AcDbEntity
  8
0
  6
CONTINUOUS
 62
               7
100
AcDbCircle
 10
13.5
 20
-6.5
 30
0.0
 40
1.1499999999999999
  0
LINE
  5
6B
100
AcDbEntity
  8
0
  6
CONTINUOUS
 62
               7
100
AcDbLine
 10
100.00000000000001
 20
18.0
 30
0.0
 11
100.00000000000001
 21
-18.0
 31
0.0
  0
LINE
  5
6C
100
AcDbEntity
  8
0
  6
CONTINUOUS
 62
               7
100
AcDbLine
 10
8.0
 20
18.0
 30
0.0
 11
8.0
 21
-18.0
 31
0.0
  0
LINE
  5
6D
100
AcDbEntity
  8
0
  6
CONTINUOUS
 62
               7
100
AcDbLine
 10
6.0
 20
9.5
 30
0.0
 11
8.0
 21
9.5
 31
0.0
  0
CIRCLE
  5
6E
100
AcDbEntity
  8
0
  6
CONTINUOUS
 62
               7
100
AcDbCircle
 10
155.0
 20
5.0
 30
0.0
 40
1.7
  0
ARC
  5
6F
100
AcDbEntity
  8
0
  6
CONTINUOUS
 62
               7
100
AcDbCircle
 10
155.0
 20
5.0
 30
0.0
 40
3.25
100
AcDbArc
 50
22.61986494804043
 51
157.38013505195957
  0
ARC
  5
70
100
AcDbEntity
  8
0
  6
CONTINUOUS
 62
               7
100
AcDbCircle
 10
155.0
 20
5.0
 30
0.0
 40
3.25
100
AcDbArc
 50
202.61986494804043
 51
337.38013505195954
  0
LINE
  5
71
100
AcDbEntity
  8
0
  6
CONTINUOUS
 62
               2
100
AcDbLine
 10
151.14537082910539
 20
5.0
 30
0.0
 11
159.15064840316774
 21
5.0
 31
0.0
  0
LINE
  5
72
100
AcDbEntity
  8
0
  6
CONTINUOUS
 62
               2
100
AcDbLine
 10
155.0
 20
0.7137884034047204
 30
0.0
 11
155.0
 21
9.3469309163093612
 31
0.0
  0
CIRCLE
  5
73
100
AcDbEntity
  8
0
  6
CONTINUOUS
 62
               7
100
AcDbCircle
 10
155.0
 20
-5.0
 30
0.0
 40
1.7
  0
ARC
  5
74
100
AcDbEntity
  8
0
  6
CONTINUOUS
 62
               7
100
AcDbCircle
 10
155.0
 20
-5.0
 30
0.0
 40
3.25
100
AcDbArc
 50
22.61986494804043
 51
157.38013505195957
  0
ARC
  5
75
100
AcDbEntity
  8
0
  6
CONTINUOUS
 62
               7
100
AcDbCircle
 10
155.0
 20
-5.0
 30
0.0
 40
3.25
100
AcDbArc
 50
202.61986494804043
 51
337.38013505195954
  0
LINE
  5
76
100
AcDbEntity
  8
0
  6
CONTINUOUS
 62
               2
100
AcDbLine
 10
151.14537082910539
 20
-5.0
 30
0.0
 11
159.15064840316774
 21
-5.0
 31
0.0
  0
LINE
  5
77
100
AcDbEntity
  8
0
  6
CONTINUOUS
 62
               2
100
AcDbLine
 10
155.0
 20
-9.2862115965952796
 30
0.0
 11
155.0
 21
-0.6530690836906388
 31
0.0
  0
CIRCLE
  5
78
100
AcDbEntity
  8
0
  6
CONTINUOUS
 62
               7
100
AcDbCircle
 10
3.0
 20
5.0
 30
0.0
 40
1.7
  0
ARC
  5
79
100
AcDbEntity
  8
0
  6
CONTINUOUS
 62
               7
100
AcDbCircle
 10
3.0
 20
5.0
 30
0.0
 40
3.25
100
AcDbArc
 50
22.619864948040441
 51
157.38013505195957
  0
ARC
  5
7A
100
AcDbEntity
  8
0
  6
CONTINUOUS
 62
               7
100
AcDbCircle
 10
3.0
 20
5.0
 30
0.0
 40
3.25
100
AcDbArc
 50
202.61986494804043
 51
337.38013505195954
  0
LINE
  5
7B
100
AcDbEntity
  8
0
  6
CONTINUOUS
 62
               2
100
AcDbLine
 10
6.8546291708946399
 20
5.0
 30
0.0
 11
-1.1506484031677076
 21
5.0
 31
0.0
  0
LINE
  5
7C
100
AcDbEntity
  8
0
  6
CONTINUOUS
 62
               2
100
AcDbLine
 10
3.0
 20
0.7137884034047204
 30
0.0
 11
3.0
 21
9.3469309163093612
 31
0.0
  0
CIRCLE
  5
7D
100
AcDbEntity
  8
0
  6
CONTINUOUS
 62
               7
100
AcDbCircle
 10
3.0
 20
-5.0
 30
0.0
 40
1.7
  0
ARC
  5
7E
100
AcDbEntity
  8
0
  6
CONTINUOUS
 62
               7
100
AcDbCircle
 10
3.0
 20
-5.0
 30
0.0
 40
3.25
100
AcDbArc
 50
22.619864948040441
 51
157.38013505195957
  0
ARC
  5
7F
100
AcDbEntity
  8
0
  6
CONTINUOUS
 62
               7
100
AcDbCircle
 10
3.0
 20
-5.0
 30
0.0
 40
3.25
100
AcDbArc
 50
202.61986494804043
 51
337.38013505195954
  0
LINE
  5
80
100
AcDbEntity
  8
0
  6
CONTINUOUS
 62
               2
100
AcDbLine
 10
6.8546291708946399
 20
-5.0
 30
0.0
 11
-1.1506484031677076
 21
-5.0
 31
0.0
  0
LINE
  5
81
100
AcDbEntity
  8
0
  6
CONTINUOUS
 62
               2
100
AcDbLine
 10
3.0
 20
-9.2862115965952796
 30
0.0
 11
3.0
 21
-0.6530690836906388
 31
0.0
  0
LINE
  5
82
100
AcDbEntity
  8
0
  6
CONTINUOUS
 62
               4
100
AcDbLine
 10
50.000000000000014
 20
27.0
 30
0.0
 11
50.000000000000014
 21
17.0
 31
0.0
  0
LINE
  5
83
100
AcDbEntity
  8
0
  6
CONTINUOUS
 62
               4
100
AcDbLine
 10
127.00000000000001
 20
28.0
 30
0.0
 11
127.00000000000001
 21
19.0
 31
0.0
  0
LINE
  5
84
100
AcDbEntity
  8
0
  6
CONTINUOUS
 62
               4
100
AcDbLine
 10
33.0
 20
27.0
 30
0.0
 11
33.0
 21
17.0
 31
0.0
  0
LINE
  5
85
100
AcDbEntity
  8
0
  6
CONTINUOUS
 62
               4
100
AcDbLine
 10
127.00000000000001
 20
19.0
 30
0.0
 11
135.0
 21
19.0
 31
0.0
  0
LINE
  5
86
100
AcDbEntity
  8
0
  6
CONTINUOUS
 62
               4
100
AcDbLine
 10
135.0
 20
16.5
 30
0.0
 11
135.0
 21
28.0
 31
0.0
  0
LINE
  5
87
100
AcDbEntity
  8
0
  6
CONTINUOUS
 62
               4
100
AcDbLine
 10
124.99999999824831
 20
21.0
 30
0.0
 11
124.99999999824831
 21
26.0
 31
0.0
  0
LINE
  5
88
100
AcDbEntity
  8
0
  6
CONTINUOUS
 62
               4
100
AcDbLine
 10
125.49999999824833
 20
21.0
 30
0.0
 11
125.49999999824833
 21
26.0
 31
0.0
  0
LINE
  5
89
100
AcDbEntity
  8
0
  6
CONTINUOUS
 62
               4
100
AcDbLine
 10
120.99999999824833
 20
22.592749999999995
 30
0.0
 11
120.99999999824833
 21
24.392750000000007
 31
0.0
  0
LINE
  5
8A
100
AcDbEntity
  8
0
  6
CONTINUOUS
 62
               4
100
AcDbLine
 10
121.09999999824834
 20
22.492750000000001
 30
0.0
 11
124.99999999824831
 21
22.492750000000001
 31
0.0
  0
LINE
  5
8B
100
AcDbEntity
  8
0
  6
CONTINUOUS
 62
               4
100
AcDbLine
 10
121.09999999824834
 20
24.492750000000001
 30
0.0
 11
124.99999999824831
 21
24.492750000000001
 31
0.0
  0
LINE
  5
8C
100
AcDbEntity
  8
0
  6
CONTINUOUS
 62
               4
100
AcDbLine
 10
121.09999999824834
 20
24.492750000000001
 30
0.0
 11
120.99999999824833
 21
24.392750000000007
 31
0.0
  0
LINE
  5
8D
100
AcDbEntity
  8
0
  6
CONTINUOUS
 62
               4
100
AcDbLine
 10
121.09999999824834
 20
22.492750000000001
 30
0.0
 11
120.99999999824833
 21
22.592749999999995
 31
0.0
  0
LINE
  5
8E
100
AcDbEntity
  8
0
  6
CONTINUOUS
 62
               4
100
AcDbLine
 10
121.09999999824834
 20
24.492750000000001
 30
0.0
 11
121.09999999824834
 21
22.492750000000001
 31
0.0
  0
LINE
  5
8F
100
AcDbEntity
  8
0
  6
CONTINUOUS
 62
               4
100
AcDbLine
 10
124.99999999824831
 20
21.0
 30
0.0
 11
125.49999999824831
 21
21.0
 31
0.0
  0
LINE
  5
90
100
AcDbEntity
  8
0
  6
CONTINUOUS
 62
               4
100
AcDbLine
 10
124.99999999824831
 20
26.0
 30
0.0
 11
125.49999999824831
 21
26.0
 31
0.0
  0
LINE
  5
91
100
AcDbEntity
  8
0
  6
CONTINUOUS
 62
               4
100
AcDbLine
 10
125.99999999824833
 20
20.5
 30
0.0
 11
125.49999999824833
 21
21.0
 31
0.0
  0
LINE
  5
92
100
AcDbEntity
  8
0
  6
CONTINUOUS
 62
               4
100
AcDbLine
 10
125.99999999824833
 20
26.5
 30
0.0
 11
125.49999999824833
 21
26.0
 31
0.0
  0
LINE
  5
93
100
AcDbEntity
  8
0
  6
CONTINUOUS
 62
             200
100
AcDbLine
 10
125.59399999824834
 20
20.906000000000006
 30
0.0
 11
127.00000000000001
 21
20.906000000000006
 31
0.0
  0
LINE
  5
94
100
AcDbEntity
  8
0
  6
CONTINUOUS
 62
             200
100
AcDbLine
 10
125.59399999824834
 20
26.093999999999994
 30
0.0
 11
127.00000000000001
 21
26.093999999999994
 31
0.0
  0
LINE
  5
95
100
AcDbEntity
  8
0
  6
CONTINUOUS
 62
             200
100
AcDbLine
 10
119.95349337391637
 20
23.5
 30
0.0
 11
150.76939512328548
 21
23.5
 31
0.0
  0
LINE
  5
96
100
AcDbEntity
  8
0
  6
CONTINUOUS
 62
               4
100
AcDbLine
 10
33.0
 20
27.0
 30
0.0
 11
50.000000000000014
 21
27.0
 31
0.0
  0
LINE
  5
97
100
AcDbEntity
  8
0
  6
CONTINUOUS
 62
               4
100
AcDbLine
 10
120.00000000000001
 20
28.0
 30
0.0
 11
135.0
 21
28.0
 31
0.0
  0
LINE
  5
98
100
AcDbEntity
  8
0
  6
CONTINUOUS
 62
               4
100
AcDbLine
 10
30.999999998248313
 20
28.0
 30
0.0
 11
30.999999998248313
 21
19.0
 31
0.0
  0
LINE
  5
99
100
AcDbEntity
  8
0
  6
CONTINUOUS
 62
               4
100
AcDbLine
 10
22.999999998248313
 20
18.0
 30
0.0
 11
22.999999998248313
 21
28.0
 31
0.0
  0
LINE
  5
9A
100
AcDbEntity
  8
0
  6
CONTINUOUS
 62
               4
100
AcDbLine
 10
37.999999998248313
 20
28.0
 30
0.0
 11
22.999999998248313
 21
28.0
 31
0.0
  0
LINE
  5
9B
100
AcDbEntity
  8
0
  6
CONTINUOUS
 62
             200
100
AcDbLine
 10
35.519956076134747
 20
23.5
 30
0.0
 11
7.2306048749628644
 21
23.5
 31
0.0
  0
LINE
  5
9C
100
AcDbEntity
  8
0
  6
CONTINUOUS
 62
             200
100
AcDbLine
 10
32.406000000000006
 20
26.093999999999994
 30
0.0
 11
30.999999998248313
 21
26.093999999999994
 31
0.0
  0
LINE
  5
9D
100
AcDbEntity
  8
0
  6
CONTINUOUS
 62
             200
100
AcDbLine
 10
32.406000000000006
 20
20.906000000000006
 30
0.0
 11
30.999999998248313
 21
20.906000000000006
 31
0.0
  0
LINE
  5
9E
100
AcDbEntity
  8
0
  6
CONTINUOUS
 62
               4
100
AcDbLine
 10
32.0
 20
26.5
 30
0.0
 11
32.5
 21
26.0
 31
0.0
  0
LINE
  5
9F
100
AcDbEntity
  8
0
  6
CONTINUOUS
 62
               4
100
AcDbLine
 10
32.0
 20
20.5
 30
0.0
 11
32.5
 21
21.0
 31
0.0
  0
LINE
  5
A0
100
AcDbEntity
  8
0
  6
CONTINUOUS
 62
               4
100
AcDbLine
 10
33.0
 20
26.0
 30
0.0
 11
32.5
 21
26.0
 31
0.0
  0
LINE
  5
A1
100
AcDbEntity
  8
0
  6
CONTINUOUS
 62
               4
100
AcDbLine
 10
33.0
 20
21.0
 30
0.0
 11
32.5
 21
21.0
 31
0.0
  0
LINE
  5
A2
100
AcDbEntity
  8
0
  6
CONTINUOUS
 62
               4
100
AcDbLine
 10
32.5
 20
21.0
 30
0.0
 11
32.5
 21
26.0
 31
0.0
  0
LINE
  5
A3
100
AcDbEntity
  8
0
  6
CONTINUOUS
 62
               4
100
AcDbLine
 10
30.999999998248313
 20
19.0
 30
0.0
 11
22.999999998248313
 21
19.0
 31
0.0
  0
LINE
  5
A4
100
AcDbEntity
  8
0
  6
CONTINUOUS
 62
               4
100
AcDbLine
 10
33.0
 20
17.0
 30
0.0
 11
50.000000000000014
 21
17.0
 31
0.0
  0
LINE
  5
A5
100
AcDbEntity
  8
0
  6
CONTINUOUS
 62
               7
100
AcDbLine
 10
50.000000000000014
 20
18.0
 30
0.0
 11
100.00000000000001
 21
18.0
 31
0.0
  0
LINE
  5
A6
100
AcDbEntity
  8
0
  6
CONTINUOUS
 62
               7
100
AcDbLine
 10
135.0
 20
18.0
 30
0.0
 11
158.0
 21
18.0
 31
0.0
  0
LINE
  5
A7
100
AcDbEntity
  8
0
  6
CONTINUOUS
 62
               4
100
AcDbLine
 10
120.00000000000001
 20
16.5
 30
0.0
 11
135.0
 21
16.5
 31
0.0
  0
LINE
  5
A8
100
AcDbEntity
  8
0
  6
CONTINUOUS
 62
               2
100
AcDbLine
 10
13.5
 20
3.0588380836254458
 30
0.0
 11
13.5
 21
10.106445844173436
 31
0.0
  0
LINE
  5
A9
100
AcDbEntity
  8
0
  6
CONTINUOUS
 62
               7
100
AcDbLine
 10
149.99999981551269
 20
-11.749998873210529
 30
0.0
 11
150.75000019023639
 21
-10.999998941028821
 31
0.0
  0
LINE
  5
AA
100
AcDbEntity
  8
0
  6
CONTINUOUS
 62
               7
100
AcDbLine
 10
150.75
 20
-15.0
 30
0.0
 11
150.75
 21
-11.0
 31
0.0
  0
LINE
  5
AB
100
AcDbEntity
  8
0
  6
CONTINUOUS
 62
               7
100
AcDbLine
 10
150.0
 20
-14.25
 30
0.0
 11
150.0
 21
-11.75
 31
0.0
  0
LINE
  5
AC
100
AcDbEntity
  8
0
  6
CONTINUOUS
 62
               7
100
AcDbLine
 10
149.99999981551269
 20
-14.250001126789471
 30
0.0
 11
150.75000019023639
 21
-15.000001058971179
 31
0.0
  0
LINE
  5
AD
100
AcDbEntity
  8
0
  6
CONTINUOUS
 62
               2
100
AcDbLine
 10
152.0
 20
-11.379000663757324
 30
0.0
 11
150.37100028991699
 21
-11.379000663757324
 31
0.0
  0
LINE
  5
AE
100
AcDbEntity
  8
0
  6
CONTINUOUS
 62
               7
100
AcDbLine
 10
152.0
 20
-11.0
 30
0.0
 11
150.75
 21
-11.0
 31
0.0
  0
LINE
  5
AF
100
AcDbEntity
  8
0
  6
CONTINUOUS
 62
               2
100
AcDbLine
 10
152.0
 20
-14.620999336242676
 30
0.0
 11
150.37100028991699
 21
-14.620999336242676
 31
0.0
  0
LINE
  5
B0
100
AcDbEntity
  8
0
  6
CONTINUOUS
 62
               7
100
AcDbLine
 10
152.0
 20
-15.0
 30
0.0
 11
150.75
 21
-15.0
 31
0.0
  0
LINE
  5
B1
100
AcDbEntity
  8
0
  6
CONTINUOUS
 62
               7
100
AcDbLine
 10
6.0
 20
-15.0
 30
0.0
 11
7.25
 21
-15.0
 31
0.0
  0
LINE
  5
B2
100
AcDbEntity
  8
0
  6
CONTINUOUS
 62
               2
100
AcDbLine
 10
6.0
 20
-14.620999336242676
 30
0.0
 11
7.6289997100830078
 21
-14.620999336242676
 31
0.0
  0
LINE
  5
B3
100
AcDbEntity
  8
0
  6
CONTINUOUS
 62
               7
100
AcDbLine
 10
6.0
 20
-11.0
 30
0.0
 11
7.25
 21
-11.0
 31
0.0
  0
LINE
  5
B4
100
AcDbEntity
  8
0
  6
CONTINUOUS
 62
               2
100
AcDbLine
 10
6.0
 20
-11.379000663757324
 30
0.0
 11
7.6289997100830078
 21
-11.379000663757324
 31
0.0
  0
LINE
  5
B5
100
AcDbEntity
  8
0
  6
CONTINUOUS
 62
               7
100
AcDbLine
 10
8.0000001844873054
 20
-14.250001126789471
 30
0.0
 11
7.249999809763608
 21
-15.000001058971179
 31
0.0
  0
LINE
  5
B6
100
AcDbEntity
  8
0
  6
CONTINUOUS
 62
               7
100
AcDbLine
 10
7.25
 20
-15.0
 30
0.0
 11
7.25
 21
-11.0
 31
0.0
  0
LINE
  5
B7
100
AcDbEntity
  8
0
  6
CONTINUOUS
 62
               7
100
AcDbLine
 10
8.0000001844873054
 20
-11.749998873210529
 30
0.0
 11
7.249999809763608
 21
-10.999998941028821
 31
0.0
  0
LINE
  5
B8
100
AcDbEntity
  8
0
  6
CONTINUOUS
 62
               7
100
AcDbLine
 10
6.0
 20
-10.0
 30
0.0
 11
8.0
 21
-10.0
 31
0.0
  0
LINE
  5
B9
100
AcDbEntity
  8
0
  6
CONTINUOUS
 62
               2
100
AcDbLine
 10
91.500000000000014
 20
16.230000000000004
 30
0.0
 11
91.500000000000014
 21
9.7700000000000102
 31
0.0
  0
CIRCLE
  5
BA
100
AcDbEntity
  8
0
  6
CONTINUOUS
 62
               2
100
AcDbCircle
 10
91.49091491699221
 20
13.003468627929692
 30
0.0
 40
1.5
  0
CIRCLE
  5
BB
100
AcDbEntity
  8
0
  6
CONTINUOUS
 62
               7
100
AcDbCircle
 10
91.49091491699221
 20
13.003468627929692
 30
0.0
 40
1.25
  0
LINE
  5
BC
100
AcDbEntity
  8
0
  6
CONTINUOUS
 62
               2
100
AcDbLine
 10
88.410000000000025
 20
13.0
 30
0.0
 11
94.610000000000014
 21
13.0
 31
0.0
  0
LINE
  5
BD
100
AcDbEntity
  8
0
  6
CONTINUOUS
 62
               4
100
AcDbLine
 10
120.00000000000001
 20
16.5
 30
0.0
 11
120.00000000000001
 21
28.0
 31
0.0
  0
LINE
  5
BE
100
AcDbEntity
  8
0
  6
CONTINUOUS
 62
               4
100
AcDbLine
 10
37.999999998248313
 20
27.0
 30
0.0
 11
37.999999998248313
 21
28.0
 31
0.0
  0
LINE
  5
BF
100
AcDbEntity
  8
0
  6
CONTINUOUS
 62
               4
100
AcDbLine
 10
125.99999999824833
 20
26.5
 30
0.0
 11
125.99999999824833
 21
20.5
 31
0.0
  0
LINE
  5
C0
100
AcDbEntity
  8
0
  6
CONTINUOUS
 62
               4
100
AcDbLine
 10
125.99999999824833
 20
26.5
 30
0.0
 11
127.00000000000001
 21
26.5
 31
0.0
  0
LINE
  5
C1
100
AcDbEntity
  8
0
  6
CONTINUOUS
 62
               4
100
AcDbLine
 10
125.99999999824833
 20
20.5
 30
0.0
 11
127.00000000000001
 21
20.5
 31
0.0
  0
LINE
  5
C2
100
AcDbEntity
  8
0
  6
CONTINUOUS
 62
               4
100
AcDbLine
 10
32.0
 20
26.5
 30
0.0
 11
32.0
 21
20.5
 31
0.0
  0
LINE
  5
C3
100
AcDbEntity
  8
0
  6
CONTINUOUS
 62
               4
100
AcDbLine
 10
30.999999998248313
 20
26.5
 30
0.0
 11
32.0
 21
26.5
 31
0.0
  0
LINE
  5
C4
100
AcDbEntity
  8
0
  6
CONTINUOUS
 62
               4
100
AcDbLine
 10
30.999999998248313
 20
20.5
 30
0.0
 11
32.0
 21
20.5
 31
0.0
  0
CIRCLE
  5
C5
100
AcDbEntity
  8
0
  6
CONTINUOUS
 62
               7
100
AcDbCircle
 10
13.5
 20
6.5
 30
0.0
 40
2.75
  0
CIRCLE
  5
C6
100
AcDbEntity
  8
0
  6
CONTINUOUS
 62
               7
100
AcDbCircle
 10
13.5
 20
-6.5
 30
0.0
 40
2.75
  0
LINE
  5
C7
100
AcDbEntity
  8
0
  6
CONTINUOUS
 62
               7
100
AcDbLine
 10
14.645643923738987
 20
-9.0
 30
0.0
 11
100.00000000000001
 21
-9.0
 31
0.0
  0
LINE
  5
C8
100
AcDbEntity
  8
0
  6
CONTINUOUS
 62
               7
100
AcDbLine
 10
14.645643923738987
 20
9.0
 30
0.0
 11
100.00000000000001
 21
9.0
 31
0.0
  0
LINE
  5
C9
100
AcDbEntity
  8
0
  6
CONTINUOUS
 62
               4
100
AcDbLine
 10
137.0
 20
27.541900310403236
 30
0.0
 11
137.0
 21
19.458099689596764
 31
0.0
  0
LINE
  5
CA
100
AcDbEntity
  8
0
  6
CONTINUOUS
 62
               4
100
AcDbLine
 10
145.99999999824831
 20
21.0
 30
0.0
 11
145.49999999824831
 21
20.5
 31
0.0
  0
LINE
  5
CB
100
AcDbEntity
  8
0
  6
CONTINUOUS
 62
               4
100
AcDbLine
 10
145.99999999824831
 20
26.0
 30
0.0
 11
145.49999999824831
 21
26.5
 31
0.0
  0
LINE
  5
CC
100
AcDbEntity
  8
0
  6
CONTINUOUS
 62
               4
100
AcDbLine
 10
145.99999999824831
 20
26.0
 30
0.0
 11
149.99999999824831
 21
26.0
 31
0.0
  0
LINE
  5
CD
100
AcDbEntity
  8
0
  6
CONTINUOUS
 62
               4
100
AcDbLine
 10
145.99999999824831
 20
21.0
 30
0.0
 11
149.99999999824831
 21
21.0
 31
0.0
  0
LINE
  5
CE
100
AcDbEntity
  8
0
  6
CONTINUOUS
 62
               4
100
AcDbLine
 10
149.99999999824831
 20
21.0
 30
0.0
 11
149.99999999824831
 21
26.0
 31
0.0
  0
LINE
  5
CF
100
AcDbEntity
  8
0
  6
CONTINUOUS
 62
               4
100
AcDbLine
 10
145.49999999824831
 20
26.5
 30
0.0
 11
145.49999999824831
 21
20.5
 31
0.0
  0
LINE
  5
D0
100
AcDbEntity
  8
0
  6
CONTINUOUS
 62
               4
100
AcDbLine
 10
145.99999999824831
 20
26.0
 30
0.0
 11
145.99999999824831
 21
21.0
 31
0.0
  0
LINE
  5
D1
100
AcDbEntity
  8
0
  6
CONTINUOUS
 62
               4
100
AcDbLine
 10
137.0
 20
26.5
 30
0.0
 11
145.49999999824831
 21
26.5
 31
0.0
  0
LINE
  5
D2
100
AcDbEntity
  8
0
  6
CONTINUOUS
 62
             200
100
AcDbLine
 10
137.0
 20
26.093999999999994
 30
0.0
 11
145.90599999824832
 21
26.093999999999994
 31
0.0
  0
LINE
  5
D3
100
AcDbEntity
  8
0
  6
CONTINUOUS
 62
             200
100
AcDbLine
 10
137.0
 20
20.906000000000006
 30
0.0
 11
145.90599999824832
 21
20.906000000000006
 31
0.0
  0
LINE
  5
D4
100
AcDbEntity
  8
0
  6
CONTINUOUS
 62
               4
100
AcDbLine
 10
137.0
 20
20.5
 30
0.0
 11
145.49999999824831
 21
20.5
 31
0.0
  0
LINE
  5
D5
100
AcDbEntity
  8
0
  6
CONTINUOUS
 62
               4
100
AcDbLine
 10
137.0
 20
27.541900310403236
 30
0.0
 11
135.0
 21
27.541900310403236
 31
0.0
  0
LINE
  5
D6
100
AcDbEntity
  8
0
  6
CONTINUOUS
 62
               4
100
AcDbLine
 10
137.0
 20
19.458099689596764
 30
0.0
 11
135.0
 21
19.458099689596764
 31
0.0
  0
ARC
  5
D7
100
AcDbEntity
  8
0
  6
CONTINUOUS
 62
               4
100
AcDbCircle
 10
131.10539614494979
 20
25.520950155201618
 30
0.0
 40
5.8946038550502289
100
AcDbArc
 50
339.94954599005706
 51
20.050454009942911
  0
ARC
  5
D8
100
AcDbEntity
  8
0
  6
CONTINUOUS
 62
               4
100
AcDbCircle
 10
140.89460385505024
 20
25.520950155201618
 30
0.0
 40
5.8946038550502289
100
AcDbArc
 50
159.94954599005709
 51
200.05045400994291
  0
ARC
  5
D9
100
AcDbEntity
  8
0
  6
CONTINUOUS
 62
               4
100
AcDbCircle
 10
140.89460385505024
 20
21.479049844798382
 30
0.0
 40
5.8946038550502289
100
AcDbArc
 50
159.94954599005709
 51
200.05045400994291
  0
ARC
  5
DA
100
AcDbEntity
  8
0
  6
CONTINUOUS
 62
               4
100
AcDbCircle
 10
131.10539614494979
 20
21.479049844798382
 30
0.0
 40
5.8946038550502289
100
AcDbArc
 50
339.94954599005706
 51
20.050454009942911
  0
LINE
  5
DB
100
AcDbEntity
  8
0
  6
CONTINUOUS
 62
               4
100
AcDbLine
 10
136.64273441149658
 20
23.5
 30
0.0
 11
135.35726558850342
 21
23.5
 31
0.0
  0
LINE
  5
DC
100
AcDbEntity
  8
0
  6
CONTINUOUS
 62
               4
100
AcDbLine
 10
20.999999998248313
 20
19.458099689596764
 30
0.0
 11
20.999999998248313
 21
27.541900310403236
 31
0.0
  0
LINE
  5
DD
100
AcDbEntity
  8
0
  6
CONTINUOUS
 62
               4
100
AcDbLine
 10
12.0
 20
26.0
 30
0.0
 11
12.5
 21
26.5
 31
0.0
  0
LINE
  5
DE
100
AcDbEntity
  8
0
  6
CONTINUOUS
 62
               4
100
AcDbLine
 10
12.0
 20
21.0
 30
0.0
 11
12.5
 21
20.5
 31
0.0
  0
LINE
  5
DF
100
AcDbEntity
  8
0
  6
CONTINUOUS
 62
               4
100
AcDbLine
 10
12.0
 20
21.0
 30
0.0
 11
8.0
 21
21.0
 31
0.0
  0
LINE
  5
E0
100
AcDbEntity
  8
0
  6
CONTINUOUS
 62
               4
100
AcDbLine
 10
12.0
 20
26.0
 30
0.0
 11
8.0
 21
26.0
 31
0.0
  0
LINE
  5
E1
100
AcDbEntity
  8
0
  6
CONTINUOUS
 62
               4
100
AcDbLine
 10
8.0
 20
26.0
 30
0.0
 11
8.0
 21
21.0
 31
0.0
  0
LINE
  5
E2
100
AcDbEntity
  8
0
  6
CONTINUOUS
 62
               4
100
AcDbLine
 10
12.5
 20
20.5
 30
0.0
 11
12.5
 21
26.5
 31
0.0
  0
LINE
  5
E3
100
AcDbEntity
  8
0
  6
CONTINUOUS
 62
               4
100
AcDbLine
 10
12.0
 20
21.0
 30
0.0
 11
12.0
 21
26.0
 31
0.0
  0
LINE
  5
E4
100
AcDbEntity
  8
0
  6
CONTINUOUS
 62
               4
100
AcDbLine
 10
20.999999998248313
 20
20.5
 30
0.0
 11
12.5
 21
20.5
 31
0.0
  0
LINE
  5
E5
100
AcDbEntity
  8
0
  6
CONTINUOUS
 62
             200
100
AcDbLine
 10
20.999999998248313
 20
20.906000000000006
 30
0.0
 11
12.093999999999994
 21
20.906000000000006
 31
0.0
  0
LINE
  5
E6
100
AcDbEntity
  8
0
  6
CONTINUOUS
 62
             200
100
AcDbLine
 10
20.999999998248313
 20
26.093999999999994
 30
0.0
 11
12.093999999999994
 21
26.093999999999994
 31
0.0
  0
LINE
  5
E7
100
AcDbEntity
  8
0
  6
CONTINUOUS
 62
               4
100
AcDbLine
 10
20.999999998248313
 20
26.5
 30
0.0
 11
12.5
 21
26.5
 31
0.0
  0
LINE
  5
E8
100
AcDbEntity
  8
0
  6
CONTINUOUS
 62
               4
100
AcDbLine
 10
20.999999998248313
 20
19.458099689596764
 30
0.0
 11
22.999999998248313
 21
19.458099689596764
 31
0.0
  0
LINE
  5
E9
100
AcDbEntity
  8
0
  6
CONTINUOUS
 62
               4
100
AcDbLine
 10
20.999999998248313
 20
27.541900310403236
 30
0.0
 11
22.999999998248313
 21
27.541900310403236
 31
0.0
  0
ARC
  5
EA
100
AcDbEntity
  8
0
  6
CONTINUOUS
 62
               4
100
AcDbCircle
 10
26.894603853298548
 20
21.479049844798382
 30
0.0
 40
5.8946038550502289
100
AcDbArc
 50
159.94954599005709
 51
200.05045400994291
  0
ARC
  5
EB
100
AcDbEntity
  8
0
  6
CONTINUOUS
 62
               4
100
AcDbCircle
 10
17.105396143198078
 20
21.479049844798382
 30
0.0
 40
5.8946038550502289
100
AcDbArc
 50
339.94954599005706
 51
20.050454009942911
  0
ARC
  5
EC
100
AcDbEntity
  8
0
  6
CONTINUOUS
 62
               4
100
AcDbCircle
 10
17.105396143198078
 20
25.520950155201618
 30
0.0
 40
5.8946038550502289
100
AcDbArc
 50
339.94954599005706
 51
20.050454009942911
  0
ARC
  5
ED
100
AcDbEntity
  8
0
  6
CONTINUOUS
 62
               4
100
AcDbCircle
 10
26.894603853298548
 20
25.520950155201618
 30
0.0
 40
5.8946038550502289
100
AcDbArc
 50
159.94954599005709
 51
200.05045400994291
  0
LINE
  5
EE
100
AcDbEntity
  8
0
  6
CONTINUOUS
 62
               4
100
AcDbLine
 10
21.357265586751737
 20
23.5
 30
0.0
 11
22.642734409744889
 21
23.5
 31
0.0
  0
LINE
  5
EF
100
AcDbEntity
  8
0
  6
CONTINUOUS
 62
               7
100
AcDbLine
 10
160.39999980926515
 20
-9.5
 30
0.0
 11
158.0
 21
-9.5
 31
0.0
  0
LINE
  5
F0
100
AcDbEntity
  8
0
  6
CONTINUOUS
 62
               7
100
AcDbLine
 10
160.08739036321003
 20
-13.0
 30
0.0
 11
158.31260776519775
 21
-13.0
 31
0.0
  0
LINE
  5
F1
100
AcDbEntity
  8
0
  6
CONTINUOUS
 62
               7
100
AcDbLine
 10
160.39999980926515
 20
-9.5
 30
0.0
 11
160.39999980926515
 21
-16.5
 31
0.0
  0
LINE
  5
F2
100
AcDbEntity
  8
0
  6
CONTINUOUS
 62
               7
100
AcDbLine
 10
160.39999980926515
 20
-16.5
 30
0.0
 11
158.0
 21
-16.5
 31
0.0
  0
ARC
  5
F3
100
AcDbEntity
  8
0
  6
CONTINUOUS
 62
               7
100
AcDbCircle
 10
155.34537715911867
 20
-11.25
 30
0.0
 40
5.054621696472168
100
AcDbArc
 50
339.74388055445525
 51
20.256136748388741
  0
ARC
  5
F4
100
AcDbEntity
  8
0
  6
CONTINUOUS
 62
               7
100
AcDbCircle
 10
155.34537715911867
 20
-14.75
 30
0.0
 40
5.054621696472168
100
AcDbArc
 50
339.74393519596862
 51
20.256191389902099
  0
ARC
  5
F5
100
AcDbEntity
  8
0
  6
CONTINUOUS
 62
               7
100
AcDbCircle
 10
163.05462265014648
 20
-14.75
 30
0.0
 40
5.054621696472168
100
AcDbArc
 50
159.74389922378995
 51
200.25615541772342
  0
ARC
  5
F6
100
AcDbEntity
  8
0
  6
CONTINUOUS
 62
               7
100
AcDbCircle
 10
163.05462265014648
 20
-11.25
 30
0.0
 40
5.054621696472168
100
AcDbArc
 50
159.74389922378995
 51
200.25615541772342
  0
LINE
  5
F7
100
AcDbEntity
  8
0
  6
CONTINUOUS
 62
               7
100
AcDbLine
 10
174.62100028991699
 20
-15.0
 30
0.0
 11
160.39999980926515
 21
-15.0
 31
0.0
  0
LINE
  5
F8
100
AcDbEntity
  8
0
  6
CONTINUOUS
 62
               2
100
AcDbLine
 10
175.0
 20
-14.620999336242676
 30
0.0
 11
160.39999980926515
 21
-14.620999336242676
 31
0.0
  0
LINE
  5
F9
100
AcDbEntity
  8
0
  6
CONTINUOUS
 62
               7
100
AcDbLine
 10
175.00000060602952
 20
-14.620999392096849
 30
0.0
 11
174.62100064066561
 21
-14.999999325513443
 31
0.0
  0
LINE
  5
FA
100
AcDbEntity
  8
0
  6
CONTINUOUS
 62
               7
100
AcDbLine
 10
175.00000060602952
 20
-11.379000607903151
 30
0.0
 11
174.62100064066561
 21
-11.000000674486557
 31
0.0
  0
LINE
  5
FB
100
AcDbEntity
  8
0
  6
CONTINUOUS
 62
               7
100
AcDbLine
 10
175.0
 20
-11.379000663757324
 30
0.0
 11
175.0
 21
-14.620999336242676
 31
0.0
  0
LINE
  5
FC
100
AcDbEntity
  8
0
  6
CONTINUOUS
 62
               7
100
AcDbLine
 10
174.62100028991699
 20
-11.0
 30
0.0
 11
174.62100028991699
 21
-15.0
 31
0.0
  0
LINE
  5
FD
100
AcDbEntity
  8
0
  6
CONTINUOUS
 62
               2
100
AcDbLine
 10
175.0
 20
-11.379000663757324
 30
0.0
 11
160.39999980926515
 21
-11.379000663757324
 31
0.0
  0
LINE
  5
FE
100
AcDbEntity
  8
0
  6
CONTINUOUS
 62
               7
100
AcDbLine
 10
174.62100028991699
 20
-11.0
 30
0.0
 11
160.39999980926515
 21
-11.0
 31
0.0
  0
LINE
  5
FF
100
AcDbEntity
  8
0
  6
CONTINUOUS
 62
               7
100
AcDbLine
 10
-2.3999998092651254
 20
-16.5
 30
0.0
 11
0.0
 21
-16.5
 31
0.0
  0
LINE
  5
100
100
AcDbEntity
  8
0
  6
CONTINUOUS
 62
               7
100
AcDbLine
 10
-2.0873903632100337
 20
-13.0
 30
0.0
 11
-0.3126077651977539
 21
-13.0
 31
0.0
  0
LINE
  5
101
100
AcDbEntity
  8
0
  6
CONTINUOUS
 62
               7
100
AcDbLine
 10
-2.3999998092651254
 20
-16.5
 30
0.0
 11
-2.3999998092651254
 21
-9.5
 31
0.0
  0
LINE
  5
102
100
AcDbEntity
  8
0
  6
CONTINUOUS
 62
               7
100
AcDbLine
 10
-2.3999998092651254
 20
-9.5
 30
0.0
 11
0.0
 21
-9.5
 31
0.0
  0
ARC
  5
103
100
AcDbEntity
  8
0
  6
CONTINUOUS
 62
               7
100
AcDbCircle
 10
2.654622840881359
 20
-14.75
 30
0.0
 40
5.054621696472168
100
AcDbArc
 50
159.74388055445527
 51
200.25613674838874
  0
ARC
  5
104
100
AcDbEntity
  8
0
  6
CONTINUOUS
 62
               7
100
AcDbCircle
 10
2.654622840881359
 20
-11.25
 30
0.0
 40
5.054621696472168
100
AcDbArc
 50
159.74393519596862
 51
200.25619138990211
  0
ARC
  5
105
100
AcDbEntity
  8
0
  6
CONTINUOUS
 62
               7
100
AcDbCircle
 10
-5.0546226501464844
 20
-11.25
 30
0.0
 40
5.054621696472168
100
AcDbArc
 50
339.74389922378992
 51
20.256155417723416
  0
ARC
  5
106
100
AcDbEntity
  8
0
  6
CONTINUOUS
 62
               7
100
AcDbCircle
 10
-5.0546226501464844
 20
-14.75
 30
0.0
 40
5.054621696472168
100
AcDbArc
 50
339.74389922378992
 51
20.256155417723416
  0
LINE
  5
107
100
AcDbEntity
  8
0
  6
CONTINUOUS
 62
               7
100
AcDbLine
 10
0.0
 20
-16.0
 30
0.0
 11
6.0
 21
-16.0
 31
0.0
  0
LINE
  5
108
100
AcDbEntity
  8
0
  6
CONTINUOUS
 62
               7
100
AcDbLine
 10
152.0
 20
16.0
 30
0.0
 11
158.0
 21
16.0
 31
0.0
  0
LINE
  5
109
100
AcDbEntity
  8
0
  6
CONTINUOUS
 62
               7
100
AcDbLine
 10
0.0
 20
16.0
 30
0.0
 11
6.0
 21
16.0
 31
0.0
  0
LINE
  5
10A
100
AcDbEntity
  8
0
  6
CONTINUOUS
 62
               7
100
AcDbLine
 10
152.0
 20
-16.0
 30
0.0
 11
158.0
 21
-16.0
 31
0.0
  0
LINE
  5
10B
100
AcDbEntity
  8
0
  6
CONTINUOUS
 62
               7
100
AcDbLine
 10
120.00000000000001
 20
18.0
 30
0.0
 11
100.00000000000001
 21
18.0
 31
0.0
  0
LINE
  5
10C
100
AcDbEntity
  8
0
  6
CONTINUOUS
 62
               2
100
AcDbLine
 10
50.910000000000025
 20
13.0
 30
0.0
 11
57.110000000000014
 21
13.0
 31
0.0
  0
CIRCLE
  5
10D
100
AcDbEntity
  8
0
  6
CONTINUOUS
 62
               7
100
AcDbCircle
 10
54.000000000000014
 20
13.0
 30
0.0
 40
1.5
  0
LINE
  5
10E
100
AcDbEntity
  8
0
  6
CONTINUOUS
 62
               2
100
AcDbLine
 10
54.000000000000014
 20
16.230000000000004
 30
0.0
 11
54.000000000000014
 21
9.7700000000000102
 31
0.0
  0
LINE
  5
10F
100
AcDbEntity
  8
0
  6
CONTINUOUS
 62
               2
100
AcDbLine
 10
54.000000000000014
 20
-16.096542947339053
 30
0.0
 11
54.000000000000014
 21
-9.7700000000000102
 31
0.0
  0
ARC
  5
110
100
AcDbEntity
  8
0
  6
CONTINUOUS
 62
               7
100
AcDbCircle
 10
54.000000000000014
 20
-14.0
 30
0.0
 40
1.5
100
AcDbArc
 50
180.0
 51
0.0
  0
LINE
  5
111
100
AcDbEntity
  8
0
  6
CONTINUOUS
 62
               7
100
AcDbLine
 10
52.500000000000014
 20
-13.996531376838675
 30
0.0
 11
52.500000000000014
 21
-11.996531376838675
 31
0.0
  0
LINE
  5
112
100
AcDbEntity
  8
0
  6
CONTINUOUS
 62
               7
100
AcDbLine
 10
55.500000000000014
 20
-13.996531376838675
 30
0.0
 11
55.500000000000014
 21
-12.000000009536734
 31
0.0
  0
LINE
  5
113
100
AcDbEntity
  8
0
  6
CONTINUOUS
 62
               2
100
AcDbLine
 10
51.855243769369409
 20
-14.0
 30
0.0
 11
56.181629770990611
 21
-14.0
 31
0.0
  0
ARC
  5
114
100
AcDbEntity
  8
0
  6
CONTINUOUS
 62
               7
100
AcDbCircle
 10
54.000000000000014
 20
-12.0
 30
0.0
 40
1.5
100
AcDbArc
 50
0.0
 51
180.0
  0
LINE
  5
115
100
AcDbEntity
  8
0
  6
CONTINUOUS
 62
               2
100
AcDbLine
 10
51.838143429442056
 20
-12.0
 30
0.0
 11
56.215830450845317
 21
-12.0
 31
0.0
  0
LINE
  5
116
100
AcDbEntity
  8
0
  6
CONTINUOUS
 62
               2
100
AcDbLine
 10
50.910000000000025
 20
-13.0
 30
0.0
 11
57.110000000000014
 21
-13.0
 31
0.0
  0
LINE
  5
117
100
AcDbEntity
  8
0
  6
PHANTOM
 62
               3
100
AcDbLine
 10
82.75
 20
-29.710280115604405
 30
0.0
 11
82.75
 21
35.077763681411739
 31
0.0
  0
LINE
  5
118
100
AcDbEntity
  8
0
  6
PHANTOM
 62
               3
100
AcDbLine
 10
110.0
 20
-29.710280115604405
 30
0.0
 11
110.0
 21
35.077763681411739
 31
0.0
  0
LINE
  5
119
100
AcDbEntity
  8
0
  6
PHANTOM
 62
               3
100
AcDbLine
 10
25.344605433940899
 20
-29.710280115604405
 30
0.0
 11
62.74999995827676
 21
35.077763681411739
 31
0.0
  0
LINE
  5
11A
100
AcDbEntity
  8
0
  6
CONTINUOUS
 62
               7
100
AcDbLine
 10
-16.621000289916992
 20
-15.0
 30
0.0
 11
-2.3999998092651254
 21
-15.0
 31
0.0
  0
LINE
  5
11B
100
AcDbEntity
  8
0
  6
CONTINUOUS
 62
               2
100
AcDbLine
 10
-17.0
 20
-14.620999336242676
 30
0.0
 11
-2.3999998092651254
 21
-14.620999336242676
 31
0.0
  0
LINE
  5
11C
100
AcDbEntity
  8
0
  6
CONTINUOUS
 62
               2
100
AcDbLine
 10
-17.0
 20
-11.379000663757324
 30
0.0
 11
-2.3999998092651254
 21
-11.379000663757324
 31
0.0
  0
LINE
  5
11D
100
AcDbEntity
  8
0
  6
CONTINUOUS
 62
               7
100
AcDbLine
 10
-16.621000289916992
 20
-11.0
 30
0.0
 11
-2.3999998092651254
 21
-11.0
 31
0.0
  0
LINE
  5
11E
100
AcDbEntity
  8
0
  6
CONTINUOUS
 62
               2
100
AcDbLine
 10
12.22344610483853
 20
-13.0
 30
0.0
 11
-17.728011133574626
 21
-13.0
 31
0.0
  0
ENDBLK
  5
11F
100
AcDbEntity
  8
0
100
AcDbBlockEnd
  0
BLOCK
  5
120
100
AcDbEntity
  8
0
100
AcDbBlockBegin
  2
MS_2
 70
               0
 10
0.0
 20
0.0
 30
0.0
  3
MS_2
  1

  0
LINE
  5
121
100
AcDbEntity
  8
0
  6
CONTINUOUS
 62
               7
100
AcDbLine
 10
0.0
 20
-18.0
 30
0.0
 11
0.0
 21
18.0
 31
0.0
  0
LINE
  5
122
100
AcDbEntity
  8
0
  6
CONTINUOUS
 62
               7
100
AcDbLine
 10
-4.8499999999999943
 20
-17.120000000000005
 30
0.0
 11
-4.8499999999999943
 21
-17.700000000000003
 31
0.0
  0
LINE
  5
123
100
AcDbEntity
  8
0
  6
CONTINUOUS
 62
               7
100
AcDbLine
 10
-10.349999999999994
 20
-17.120000000000005
 30
0.0
 11
-10.349999999999994
 21
-17.700000000000003
 31
0.0
  0
LINE
  5
124
100
AcDbEntity
  8
0
  6
CONTINUOUS
 62
               7
100
AcDbLine
 10
-7.1500000000000057
 20
-17.120000000000005
 30
0.0
 11
-7.1500000000000057
 21
-17.700000000000003
 31
0.0
  0
LINE
  5
125
100
AcDbEntity
  8
0
  6
CONTINUOUS
 62
               7
100
AcDbLine
 10
-1.6500000000000057
 20
-17.120000000000005
 30
0.0
 11
-1.6500000000000057
 21
-17.700000000000003
 31
0.0
  0
LINE
  5
126
100
AcDbEntity
  8
0
  6
CONTINUOUS
 62
               7
100
AcDbLine
 10
-6.6799999999999784
 20
-15.02000000000001
 30
0.0
 11
-6.6799999999999784
 21
-16.650000000000006
 31
0.0
  0
LINE
  5
127
100
AcDbEntity
  8
0
  6
CONTINUOUS
 62
               7
100
AcDbLine
 10
-10.830000000000013
 20
-15.02000000000001
 30
0.0
 11
-10.830000000000013
 21
-16.650000000000006
 31
0.0
  0
LINE
  5
128
100
AcDbEntity
  8
0
  6
CONTINUOUS
 62
               7
100
AcDbLine
 10
-5.3300000000000125
 20
-15.050000000000011
 30
0.0
 11
-5.3300000000000125
 21
-16.650000000000006
 31
0.0
  0
LINE
  5
129
100
AcDbEntity
  8
0
  6
CONTINUOUS
 62
               7
100
AcDbLine
 10
-1.1799999999999784
 20
-15.02000000000001
 30
0.0
 11
-1.1799999999999784
 21
-16.650000000000006
 31
0.0
  0
LINE
  5
12A
100
AcDbEntity
  8
0
  6
CONTINUOUS
 62
               2
100
AcDbLine
 10
-0.3199999999999932
 20
-15.02000000000001
 30
0.0
 11
-11.669999999999987
 21
-15.02000000000001
 31
0.0
  0
LINE
  5
12B
100
AcDbEntity
  8
0
  6
CONTINUOUS
 62
               7
100
AcDbLine
 10
-4.8499999999999943
 20
-17.120000000000005
 30
0.0
 11
-5.3300000000000125
 21
-16.650000000000006
 31
0.0
  0
LINE
  5
12C
100
AcDbEntity
  8
0
  6
CONTINUOUS
 62
               7
100
AcDbLine
 10
-1.6500000000000057
 20
-17.120000000000005
 30
0.0
 11
-1.1799999999999784
 21
-16.650000000000006
 31
0.0
  0
LINE
  5
12D
100
AcDbEntity
  8
0
  6
CONTINUOUS
 62
               7
100
AcDbLine
 10
-7.1500000000000057
 20
-17.120000000000005
 30
0.0
 11
-6.6799999999999784
 21
-16.650000000000006
 31
0.0
  0
LINE
  5
12E
100
AcDbEntity
  8
0
  6
CONTINUOUS
 62
               7
100
AcDbLine
 10
-10.349999999999994
 20
-17.120000000000005
 30
0.0
 11
-10.830000000000013
 21
-16.650000000000006
 31
0.0
  0
ARC
  5
12F
100
AcDbEntity
  8
0
  6
CONTINUOUS
 62
               7
100
AcDbCircle
 10
-3.2549999999999955
 20
-15.028508354022449
 30
0.0
 40
2.0750174438033486
100
AcDbArc
 50
0.2349349609559007
 51
179.76506503904409
  0
ARC
  5
130
100
AcDbEntity
  8
0
  6
CONTINUOUS
 62
               7
100
AcDbCircle
 10
-8.7549999999999955
 20
-15.028508354022449
 30
0.0
 40
2.0750174438033486
100
AcDbArc
 50
0.2349349609559007
 51
179.76506503904409
  0
ARC
  5
131
100
AcDbEntity
  8
0
  6
CONTINUOUS
 62
               7
100
AcDbCircle
 10
-5.1470943324597158
 20
-17.702905667540264
 30
0.0
 40
0.2971085412497362
100
AcDbArc
 50
269.4396487559585
 51
0.5603512440415225
  0
ARC
  5
132
100
AcDbEntity
  8
0
  6
CONTINUOUS
 62
               7
100
AcDbCircle
 10
-6.8505437694140312
 20
-17.700543769414011
 30
0.0
 40
0.2994567242890686
100
AcDbArc
 50
179.89595922533815
 51
270.10404077466461
  0
LINE
  5
133
100
AcDbEntity
  8
0
  6
CONTINUOUS
 62
               7
100
AcDbLine
 10
-20.5
 20
-18.0
 30
0.0
 11
-10.644173377878047
 21
-18.0
 31
0.0
  0
LINE
  5
134
100
AcDbEntity
  8
0
  6
CONTINUOUS
 62
               7
100
AcDbLine
 10
-20.5
 20
18.0
 30
0.0
 11
0.0
 21
18.0
 31
0.0
  0
ARC
  5
135
100
AcDbEntity
  8
0
  6
CONTINUOUS
 62
               7
100
AcDbCircle
 10
-1.3505437694140312
 20
-17.700543769414011
 30
0.0
 40
0.2994567242890686
100
AcDbArc
 50
179.89595922533815
 51
270.10404077466461
  0
LINE
  5
136
100
AcDbEntity
  8
0
  6
CONTINUOUS
 62
               2
100
AcDbLine
 10
-3.25
 20
-12.329999999999998
 30
0.0
 11
-3.25
 21
-19.329999999999998
 31
0.0
  0
LINE
  5
137
100
AcDbEntity
  8
0
  6
CONTINUOUS
 62
               7
100
AcDbLine
 10
-22.0
 20
-16.5
 30
0.0
 11
-22.0
 21
-9.3000000000000114
 31
0.0
  0
ARC
  5
138
100
AcDbEntity
  8
0
  6
CONTINUOUS
 62
               7
100
AcDbCircle
 10
-10.647086688938401
 20
-17.702913311061593
 30
0.0
 40
0.2971009729464381
100
AcDbArc
 50
269.4381603611111
 51
0.561839638888894
  0
LINE
  5
139
100
AcDbEntity
  8
0
  6
CONTINUOUS
 62
               2
100
AcDbLine
 10
-8.75
 20
-12.329999999999998
 30
0.0
 11
-8.75
 21
-19.329999999999998
 31
0.0
  0
LINE
  5
13A
100
AcDbEntity
  8
0
  6
CONTINUOUS
 62
               7
100
AcDbLine
 10
-20.5
 20
18.0
 30
0.0
 11
-22.0
 21
16.5
 31
0.0
  0
LINE
  5
13B
100
AcDbEntity
  8
0
  6
CONTINUOUS
 62
               7
100
AcDbLine
 10
-22.0
 20
-16.5
 30
0.0
 11
-20.5
 21
-18.0
 31
0.0
  0
LINE
  5
13C
100
AcDbEntity
  8
0
  6
CONTINUOUS
 62
               7
100
AcDbLine
 10
0.0
 20
-18.0
 30
0.0
 11
0.0
 21
18.0
 31
0.0
  0
LINE
  5
13D
100
AcDbEntity
  8
0
  6
CONTINUOUS
 62
               7
100
AcDbLine
 10
-21.699999999999989
 20
-9.0
 30
0.0
 11
-21.699999999999989
 21
9.0
 31
0.0
  0
LINE
  5
13E
100
AcDbEntity
  8
0
  6
CONTINUOUS
 62
               7
100
AcDbLine
 10
-21.699999999999989
 20
-9.0
 30
0.0
 11
-22.0
 21
-9.3000000000000114
 31
0.0
  0
LINE
  5
13F
100
AcDbEntity
  8
0
  6
CONTINUOUS
 62
               7
100
AcDbLine
 10
-22.0
 20
9.2999999999999972
 30
0.0
 11
-22.0
 21
16.5
 31
0.0
  0
LINE
  5
140
100
AcDbEntity
  8
0
  6
CONTINUOUS
 62
               7
100
AcDbLine
 10
-21.699999999999989
 20
9.0
 30
0.0
 11
-22.0
 21
9.2999999999999972
 31
0.0
  0
LINE
  5
141
100
AcDbEntity
  8
0
  6
CONTINUOUS
 62
               7
100
AcDbLine
 10
-1.3505437694140312
 20
-18.0
 30
0.0
 11
0.0
 21
-18.0
 31
0.0
  0
LINE
  5
142
100
AcDbEntity
  8
0
  6
CONTINUOUS
 62
               7
100
AcDbLine
 10
-6.8505437694140312
 20
-18.0
 30
0.0
 11
-5.1441886649202218
 21
-18.0
 31
0.0
  0
LINE
  5
143
100
AcDbEntity
  8
0
  6
CONTINUOUS
 62
               2
100
AcDbLine
 10
-12.347516873099465
 20
-13.0
 30
0.0
 11
-21.652483126900535
 21
-13.0
 31
0.0
  0
LINE
  5
144
100
AcDbEntity
  8
0
  6
CONTINUOUS
 62
               2
100
AcDbLine
 10
-17.0
 20
-8.3475168730994511
 30
0.0
 11
-17.0
 21
-17.652483126900549
 31
0.0
  0
LINE
  5
145
100
AcDbEntity
  8
0
  6
CONTINUOUS
 62
               7
100
AcDbLine
 10
-21.0
 20
-16.0
 30
0.0
 11
-21.0
 21
-6.25
 31
0.0
  0
LINE
  5
146
100
AcDbEntity
  8
0
  6
CONTINUOUS
 62
               2
100
AcDbLine
 10
-7.1463055970850178
 20
14.5
 30
0.0
 11
0.1346124081614164
 21
14.5
 31
0.0
  0
LINE
  5
147
100
AcDbEntity
  8
0
  6
CONTINUOUS
 62
               2
100
AcDbLine
 10
-3.5
 20
10.940848535922427
 30
0.0
 11
-3.5
 21
18.426640277266742
 31
0.0
  0
LINE
  5
148
100
AcDbEntity
  8
0
  6
CONTINUOUS
 62
               2
100
AcDbLine
 10
-3.5
 20
-4.3105049198229182
 30
0.0
 11
-3.5
 21
4.5008957757177939
 31
0.0
  0
LINE
  5
149
100
AcDbEntity
  8
0
  6
CONTINUOUS
 62
               7
100
AcDbLine
 10
-4.75
 20
0.7216880321502686
 30
0.0
 11
-4.75
 21
-0.7216880321502686
 31
0.0
  0
LINE
  5
14A
100
AcDbEntity
  8
0
  6
CONTINUOUS
 62
               7
100
AcDbLine
 10
-2.25
 20
0.721687912940979
 30
0.0
 11
-2.25
 21
-0.721687912940979
 31
0.0
  0
LINE
  5
14B
100
AcDbEntity
  8
0
  6
CONTINUOUS
 62
               7
100
AcDbLine
 10
-4.7499999202652816
 20
0.7216879559569236
 30
0.0
 11
-3.4999999307231064
 21
1.4433756636567239
 31
0.0
  0
LINE
  5
14C
100
AcDbEntity
  8
0
  6
CONTINUOUS
 62
               7
100
AcDbLine
 10
-3.5000005461139949
 20
-1.4433748377504969
 30
0.0
 11
-2.2500005565718197
 21
-0.7216871300506966
 31
0.0
  0
LINE
  5
14D
100
AcDbEntity
  8
0
  6
CONTINUOUS
 62
               7
100
AcDbLine
 10
-3.5000005461139949
 20
1.4433748377504969
 30
0.0
 11
-2.2500005565718197
 21
0.7216871300506966
 31
0.0
  0
LINE
  5
14E
100
AcDbEntity
  8
0
  6
CONTINUOUS
 62
               7
100
AcDbLine
 10
-4.7499999202652816
 20
-0.7216879559569236
 30
0.0
 11
-3.4999999307231064
 21
-1.4433756636567239
 31
0.0
  0
CIRCLE
  5
14F
100
AcDbEntity
  8
0
  6
CONTINUOUS
 62
               7
100
AcDbCircle
 10
-3.5
 20
0.0
 30
0.0
 40
2.75
  0
CIRCLE
  5
150
100
AcDbEntity
  8
0
  6
CONTINUOUS
 62
               7
100
AcDbCircle
 10
-3.5
 20
0.0000001192092896
 30
0.0
 40
2.4035892486572266
  0
LINE
  5
151
100
AcDbEntity
  8
0
  6
CONTINUOUS
 62
               7
100
AcDbLine
 10
-4.75
 20
15.221688032150269
 30
0.0
 11
-4.75
 21
13.778311967849731
 31
0.0
  0
LINE
  5
152
100
AcDbEntity
  8
0
  6
CONTINUOUS
 62
               7
100
AcDbLine
 10
-2.25
 20
15.221687912940979
 30
0.0
 11
-2.25
 21
13.778312087059021
 31
0.0
  0
LINE
  5
153
100
AcDbEntity
  8
0
  6
CONTINUOUS
 62
               7
100
AcDbLine
 10
-4.7499999202652816
 20
15.221687955956924
 30
0.0
 11
-3.4999999307231064
 21
15.943375663656724
 31
0.0
  0
LINE
  5
154
100
AcDbEntity
  8
0
  6
CONTINUOUS
 62
               7
100
AcDbLine
 10
-3.5000005461139949
 20
13.056625162249503
 30
0.0
 11
-2.2500005565718197
 21
13.778312869949303
 31
0.0
  0
LINE
  5
155
100
AcDbEntity
  8
0
  6
CONTINUOUS
 62
               7
100
AcDbLine
 10
-3.5000005461139949
 20
15.943374837750497
 30
0.0
 11
-2.2500005565718197
 21
15.221687130050697
 31
0.0
  0
LINE
  5
156
100
AcDbEntity
  8
0
  6
CONTINUOUS
 62
               7
100
AcDbLine
 10
-4.7499999202652816
 20
13.778312044043076
 30
0.0
 11
-3.4999999307231064
 21
13.056624336343276
 31
0.0
  0
CIRCLE
  5
157
100
AcDbEntity
  8
0
  6
CONTINUOUS
 62
               7
100
AcDbCircle
 10
-3.5
 20
14.5
 30
0.0
 40
2.75
  0
CIRCLE
  5
158
100
AcDbEntity
  8
0
  6
CONTINUOUS
 62
               7
100
AcDbCircle
 10
-3.5
 20
14.50000011920929
 30
0.0
 40
2.4035892486572266
  0
CIRCLE
  5
159
100
AcDbEntity
  8
0
  6
CONTINUOUS
 62
               7
100
AcDbCircle
 10
-3.5
 20
14.5
 30
0.0
 40
3.0
  0
CIRCLE
  5
15A
100
AcDbEntity
  8
0
  6
CONTINUOUS
 62
               7
100
AcDbCircle
 10
-3.5
 20
0.0
 30
0.0
 40
3.0
  0
LINE
  5
15B
100
AcDbEntity
  8
0
  6
CONTINUOUS
 62
               7
100
AcDbLine
 10
-20.5
 20
28.0
 30
0.0
 11
-20.5
 21
19.0
 31
0.0
  0
LINE
  5
15C
100
AcDbEntity
  8
0
  6
CONTINUOUS
 62
               2
100
AcDbLine
 10
-21.0
 20
23.5
 30
0.0
 11
-10.0
 21
23.5
 31
0.0
  0
LINE
  5
15D
100
AcDbEntity
  8
0
  6
CONTINUOUS
 62
               2
100
AcDbLine
 10
-15.5
 20
29.0
 30
0.0
 11
-15.5
 21
18.0
 31
0.0
  0
LINE
  5
15E
100
AcDbEntity
  8
0
  6
CONTINUOUS
 62
               7
100
AcDbLine
 10
-13.190598928928381
 20
19.5
 30
0.0
 11
-17.809401070250857
 21
19.5
 31
0.0
  0
LINE
  5
15F
100
AcDbEntity
  8
0
  6
CONTINUOUS
 62
               7
100
AcDbLine
 10
-13.190598917007463
 20
27.5
 30
0.0
 11
-17.809401082992537
 21
27.5
 31
0.0
  0
LINE
  5
160
100
AcDbEntity
  8
0
  6
CONTINUOUS
 62
               7
100
AcDbLine
 10
-13.190598922967894
 20
19.500000011920932
 30
0.0
 11
-10.881197839975357
 21
23.500000023841864
 31
0.0
  0
LINE
  5
161
100
AcDbEntity
  8
0
  6
CONTINUOUS
 62
               7
100
AcDbLine
 10
-20.118802142143267
 20
23.500000023841864
 30
0.0
 11
-17.809401079149865
 21
27.5
 31
0.0
  0
LINE
  5
162
100
AcDbEntity
  8
0
  6
CONTINUOUS
 62
               7
100
AcDbLine
 10
-10.881197851896303
 20
23.500000011920932
 30
0.0
 11
-13.190598928928381
 21
27.500000011920946
 31
0.0
  0
LINE
  5
163
100
AcDbEntity
  8
0
  6
CONTINUOUS
 62
               7
100
AcDbLine
 10
-17.809401077032106
 20
19.500000011920932
 30
0.0
 11
-20.118802160024643
 21
23.500000023841864
 31
0.0
  0
CIRCLE
  5
164
100
AcDbEntity
  8
0
  6
CONTINUOUS
 62
               7
100
AcDbCircle
 10
-15.5
 20
23.5
 30
0.0
 40
4.0
  0
CIRCLE
  5
165
100
AcDbEntity
  8
0
  6
CONTINUOUS
 62
               7
100
AcDbCircle
 10
-15.5
 20
23.5
 30
0.0
 40
2.1499999999999999
  0
CIRCLE
  5
166
100
AcDbEntity
  8
0
  6
CONTINUOUS
 62
               7
100
AcDbCircle
 10
-15.5
 20
23.5
 30
0.0
 40
1.7484749726554534
  0
CIRCLE
  5
167
100
AcDbEntity
  8
0
  6
CONTINUOUS
 62
               7
100
AcDbCircle
 10
-15.5
 20
23.5
 30
0.0
 40
1.8500000000000001
  0
CIRCLE
  5
168
100
AcDbEntity
  8
0
  6
CONTINUOUS
 62
               2
100
AcDbCircle
 10
-15.5
 20
23.5
 30
0.0
 40
2.5939999999999985
  0
CIRCLE
  5
169
100
AcDbEntity
  8
0
  6
CONTINUOUS
 62
               7
100
AcDbCircle
 10
-15.5
 20
23.5
 30
0.0
 40
3.0
  0
CIRCLE
  5
16A
100
AcDbEntity
  8
0
  6
CONTINUOUS
 62
               7
100
AcDbCircle
 10
-15.5
 20
23.5
 30
0.0
 40
2.5
  0
LINE
  5
16B
100
AcDbEntity
  8
0
  6
CONTINUOUS
 62
               7
100
AcDbLine
 10
-20.5
 20
28.0
 30
0.0
 11
-0.5
 21
28.0
 31
0.0
  0
CIRCLE
  5
16C
100
AcDbEntity
  8
0
  6
CONTINUOUS
 62
               2
100
AcDbCircle
 10
-6.0
 20
-9.0
 30
0.0
 40
1.5
  0
CIRCLE
  5
16D
100
AcDbEntity
  8
0
  6
CONTINUOUS
 62
               7
100
AcDbCircle
 10
-6.0
 20
-9.0
 30
0.0
 40
1.25
  0
CIRCLE
  5
16E
100
AcDbEntity
  8
0
  6
CONTINUOUS
 62
               7
100
AcDbCircle
 10
-8.5
 20
13.0
 30
0.0
 40
1.25
  0
CIRCLE
  5
16F
100
AcDbEntity
  8
0
  6
CONTINUOUS
 62
               2
100
AcDbCircle
 10
-8.5
 20
13.0
 30
0.0
 40
1.5
  0
LINE
  5
170
100
AcDbEntity
  8
0
  6
CONTINUOUS
 62
               2
100
AcDbLine
 10
-8.48587224374333
 20
-9.0
 30
0.0
 11
-3.5209555400575425
 21
-9.0
 31
0.0
  0
LINE
  5
171
100
AcDbEntity
  8
0
  6
CONTINUOUS
 62
               2
100
AcDbLine
 10
-6.0
 20
-11.717528744276073
 30
0.0
 11
-6.0
 21
-6.4270437321518799
 31
0.0
  0
LINE
  5
172
100
AcDbEntity
  8
0
  6
CONTINUOUS
 62
               2
100
AcDbLine
 10
-10.98587224374333
 20
13.0
 30
0.0
 11
-6.0209555400575425
 21
13.0
 31
0.0
  0
LINE
  5
173
100
AcDbEntity
  8
0
  6
CONTINUOUS
 62
               2
100
AcDbLine
 10
-8.5
 20
10.28247125572392
 30
0.0
 11
-8.5
 21
15.572956267848127
 31
0.0
  0
LINE
  5
174
100
AcDbEntity
  8
0
  6
CONTINUOUS
 62
               7
100
AcDbLine
 10
-1.0
 20
-18.0
 30
0.0
 11
-1.0
 21
-12.5
 31
0.0
  0
LINE
  5
175
100
AcDbEntity
  8
0
  6
CONTINUOUS
 62
               7
100
AcDbLine
 10
-11.0
 20
-18.0
 30
0.0
 11
-11.0
 21
-12.5
 31
0.0
  0
LINE
  5
176
100
AcDbEntity
  8
0
  6
CONTINUOUS
 62
               7
100
AcDbLine
 10
-11.0
 20
-12.5
 30
0.0
 11
-1.0
 21
-12.5
 31
0.0
  0
LINE
  5
177
100
AcDbEntity
  8
0
  6
CONTINUOUS
 62
               7
100
AcDbLine
 10
-17.700000000000017
 20
-6.25
 30
0.0
 11
-17.700000000000017
 21
-3.75
 31
0.0
  0
LINE
  5
178
100
AcDbEntity
  8
0
  6
CONTINUOUS
 62
               7
100
AcDbLine
 10
-21.0
 20
6.25
 30
0.0
 11
-17.700000000000017
 21
6.25
 31
0.0
  0
LINE
  5
179
100
AcDbEntity
  8
0
  6
CONTINUOUS
 62
               7
100
AcDbLine
 10
-21.0
 20
3.75
 30
0.0
 11
-17.700000000000017
 21
3.75
 31
0.0
  0
LINE
  5
17A
100
AcDbEntity
  8
0
  6
CONTINUOUS
 62
               7
100
AcDbLine
 10
-21.0
 20
-3.75
 30
0.0
 11
-17.700000000000017
 21
-3.75
 31
0.0
  0
LINE
  5
17B
100
AcDbEntity
  8
0
  6
CONTINUOUS
 62
               7
100
AcDbLine
 10
-21.0
 20
-6.25
 30
0.0
 11
-17.700000000000017
 21
-6.25
 31
0.0
  0
LINE
  5
17C
100
AcDbEntity
  8
0
  6
CONTINUOUS
 62
               7
100
AcDbLine
 10
-17.700000000000017
 20
3.75
 30
0.0
 11
-17.700000000000017
 21
6.25
 31
0.0
  0
LINE
  5
17D
100
AcDbEntity
  8
0
  6
CONTINUOUS
 62
               7
100
AcDbLine
 10
-21.0
 20
6.25
 30
0.0
 11
-21.0
 21
16.000000000000014
 31
0.0
  0
LINE
  5
17E
100
AcDbEntity
  8
0
  6
CONTINUOUS
 62
               7
100
AcDbLine
 10
-21.0
 20
-3.75
 30
0.0
 11
-21.0
 21
3.75
 31
0.0
  0
LINE
  5
17F
100
AcDbEntity
  8
0
  6
CONTINUOUS
 62
               7
100
AcDbLine
 10
-17.721688091754913
 20
-14.25
 30
0.0
 11
-16.278311908245087
 21
-14.25
 31
0.0
  0
LINE
  5
180
100
AcDbEntity
  8
0
  6
CONTINUOUS
 62
               7
100
AcDbLine
 10
-17.721687853336334
 20
-11.75
 30
0.0
 11
-16.278312146663666
 21
-11.75
 31
0.0
  0
LINE
  5
181
100
AcDbEntity
  8
0
  6
CONTINUOUS
 62
               7
100
AcDbLine
 10
-17.721687955956924
 20
-14.249999920265282
 30
0.0
 11
-18.443375663656724
 21
-12.999999930723106
 31
0.0
  0
LINE
  5
182
100
AcDbEntity
  8
0
  6
CONTINUOUS
 62
               7
100
AcDbLine
 10
-18.443374837750497
 20
-13.000000546113995
 30
0.0
 11
-17.721687130050697
 21
-11.75000055657182
 31
0.0
  0
LINE
  5
183
100
AcDbEntity
  8
0
  6
CONTINUOUS
 62
               7
100
AcDbLine
 10
-16.278312044043076
 20
-14.249999920265282
 30
0.0
 11
-15.556624336343276
 21
-12.999999930723106
 31
0.0
  0
LINE
  5
184
100
AcDbEntity
  8
0
  6
CONTINUOUS
 62
               7
100
AcDbLine
 10
-15.556625162249503
 20
-13.000000546113995
 30
0.0
 11
-16.278312869949303
 21
-11.75000055657182
 31
0.0
  0
CIRCLE
  5
185
100
AcDbEntity
  8
0
  6
CONTINUOUS
 62
               7
100
AcDbCircle
 10
-17.0
 20
-13.0
 30
0.0
 40
2.0
  0
LINE
  5
186
100
AcDbEntity
  8
0
  6
CONTINUOUS
 62
               7
100
AcDbLine
 10
-19.020726203918457
 20
-16.5
 30
0.0
 11
-14.979274749755859
 21
-16.5
 31
0.0
  0
LINE
  5
187
100
AcDbEntity
  8
0
  6
CONTINUOUS
 62
               7
100
AcDbLine
 10
-19.020726203918457
 20
-9.5
 30
0.0
 11
-14.979274749755859
 21
-9.5
 31
0.0
  0
LINE
  5
188
100
AcDbEntity
  8
0
  6
CONTINUOUS
 62
               7
100
AcDbLine
 10
-19.020726562781647
 20
-16.499999281199052
 30
0.0
 11
-21.041451572136566
 21
-13.000000301568434
 31
0.0
  0
LINE
  5
189
100
AcDbEntity
  8
0
  6
CONTINUOUS
 62
               7
100
AcDbLine
 10
-12.958549253769661
 20
-13.000000175268667
 30
0.0
 11
-14.979274739961681
 21
-9.500000369731822
 31
0.0
  0
LINE
  5
18A
100
AcDbEntity
  8
0
  6
CONTINUOUS
 62
               7
100
AcDbLine
 10
-21.04145122306744
 20
-13.000001001174894
 30
0.0
 11
-19.02072573687542
 21
-9.500001195638049
 31
0.0
  0
LINE
  5
18B
100
AcDbEntity
  8
0
  6
CONTINUOUS
 62
               7
100
AcDbLine
 10
-14.979273914055454
 20
-16.500000107105279
 30
0.0
 11
-12.958548427863434
 21
-13.000000301568434
 31
0.0
  0
CIRCLE
  5
18C
100
AcDbEntity
  8
0
  6
CONTINUOUS
 62
               7
100
AcDbCircle
 10
-17.0
 20
-13.0
 30
0.0
 40
3.5
  0
CIRCLE
  5
18D
100
AcDbEntity
  8
0
  6
CONTINUOUS
 62
               7
100
AcDbCircle
 10
-17.0
 20
-13.0
 30
0.0
 40
1.6209993362426758
  0
LINE
  5
18E
100
AcDbEntity
  8
0
  6
CONTINUOUS
 62
               7
100
AcDbLine
 10
-0.5
 20
28.0
 30
0.0
 11
-0.5
 21
18.0
 31
0.0
  0
LINE
  5
18F
100
AcDbEntity
  8
0
  6
CONTINUOUS
 62
               7
100
AcDbLine
 10
-20.5
 20
19.0
 30
0.0
 11
-9.5
 21
19.0
 31
0.0
  0
LINE
  5
190
100
AcDbEntity
  8
0
  6
CONTINUOUS
 62
               7
100
AcDbLine
 10
-9.5
 20
19.0
 30
0.0
 11
-9.5
 21
18.0
 31
0.0
  0
LINE
  5
191
100
AcDbEntity
  8
0
  6
CONTINUOUS
 62
               7
100
AcDbLine
 10
-19.0
 20
18.0
 30
0.0
 11
-21.0
 21
16.000000000000014
 31
0.0
  0
LINE
  5
192
100
AcDbEntity
  8
0
  6
CONTINUOUS
 62
               7
100
AcDbLine
 10
-21.0
 20
-16.0
 30
0.0
 11
-18.999999999999972
 21
-18.0
 31
0.0
  0
LINE
  5
193
100
AcDbEntity
  8
0
  6
CONTINUOUS
 62
               7
100
AcDbLine
 10
-16.242462120245875
 20
22.757537879754125
 30
0.0
 11
-14.757537879754125
 21
24.242462120245875
 31
0.0
  0
LINE
  5
194
100
AcDbEntity
  8
0
  6
CONTINUOUS
 62
               7
100
AcDbLine
 10
-16.242462120245875
 20
24.242462120245875
 30
0.0
 11
-14.757537879754125
 21
22.757537879754125
 31
0.0
  0
LINE
  5
195
100
AcDbEntity
  8
0
  6
CONTINUOUS
 62
               2
100
AcDbLine
 10
-24.682895588554345
 20
0.0
 30
0.0
 11
5.5852051285810091
 21
0.0
 31
0.0
  0
ENDBLK
  5
196
100
AcDbEntity
  8
0
100
AcDbBlockEnd
  0
BLOCK
  5
197
100
AcDbEntity
  8
0
100
AcDbBlockBegin
  2
MS_3
 70
               0
 10
0.0
 20
0.0
 30
0.0
  3
MS_3
  1

  0
LINE
  5
198
100
AcDbEntity
  8
0
  6
CONTINUOUS
 62
               7
100
AcDbLine
 10
8.0000000013279191
 20
-22.000000009053849
 30
0.0
 11
8.0000000007243273
 21
-12.000000009053849
 31
0.0
  0
LINE
  5
199
100
AcDbEntity
  8
0
  6
CONTINUOUS
 62
               2
100
AcDbLine
 10
8.7140316541021718
 20
-17.00000000901079
 30
0.0
 11
-18.209671966848731
 21
-17.000000010635858
 31
0.0
  0
LINE
  5
19A
100
AcDbEntity
  8
0
  6
CONTINUOUS
 62
               4
100
AcDbLine
 10
127.00000000123737
 20
-20.500000001871172
 30
0.0
 11
127.00000000057342
 21
-9.5000000018711717
 31
0.0
  0
LINE
  5
19B
100
AcDbEntity
  8
0
  6
CONTINUOUS
 62
               2
100
AcDbLine
 10
149.24175104106527
 20
-17.000000000528701
 30
0.0
 11
175.63735426073794
 21
-16.999999998935493
 31
0.0
  0
LINE
  5
19C
100
AcDbEntity
  8
0
  6
CONTINUOUS
 62
               7
100
AcDbLine
 10
0.000000001267523
 20
-21.0
 30
0.0
 11
6.0000000012675514
 21
-20.999999999637851
 31
0.0
  0
LINE
  5
19D
100
AcDbEntity
  8
0
  6
CONTINUOUS
 62
               7
100
AcDbLine
 10
0.0
 20
0.0
 30
0.0
 11
0.000000001267523
 21
-21.0
 31
0.0
  0
LINE
  5
19E
100
AcDbEntity
  8
0
  6
CONTINUOUS
 62
               7
100
AcDbLine
 10
6.0
 20
0.0000000003621494
 30
0.0
 11
6.0000000012675514
 21
-20.999999999637851
 31
0.0
  0
LINE
  5
19F
100
AcDbEntity
  8
0
  6
CONTINUOUS
 62
               7
100
AcDbLine
 10
158.00000000126752
 20
-21.000000000000028
 30
0.0
 11
152.00000000126752
 21
-21.000000000362206
 31
0.0
  0
LINE
  5
1A0
100
AcDbEntity
  8
0
  6
CONTINUOUS
 62
               7
100
AcDbLine
 10
158.00000000126752
 20
-21.000000000000028
 30
0.0
 11
158.0
 21
-0.0000000000000568
 31
0.0
  0
LINE
  5
1A1
100
AcDbEntity
  8
0
  6
CONTINUOUS
 62
               7
100
AcDbLine
 10
152.00000000126752
 20
-21.000000000362206
 30
0.0
 11
152.0
 21
-0.0000000003622063
 31
0.0
  0
LINE
  5
1A2
100
AcDbEntity
  8
0
  6
CONTINUOUS
 62
               7
100
AcDbLine
 10
100.0000000013279
 20
-22.000000003500844
 30
0.0
 11
8.0000000013279191
 21
-22.000000009053849
 31
0.0
  0
LINE
  5
1A3
100
AcDbEntity
  8
0
  6
CONTINUOUS
 62
               7
100
AcDbLine
 10
158.0
 20
-0.0000000000000568
 30
0.0
 11
0.0000000000000284
 21
-0.0000000095367341
 31
0.0
  0
LINE
  5
1A4
100
AcDbEntity
  8
0
  6
CONTINUOUS
 62
               7
100
AcDbLine
 10
152.00000000063378
 20
-10.500000000362206
 30
0.0
 11
135.00000000063378
 21
-10.500000001388315
 31
0.0
  0
LINE
  5
1A5
100
AcDbEntity
  8
0
  6
CONTINUOUS
 62
               7
100
AcDbLine
 10
127.00000000072433
 20
-12.000000001871172
 30
0.0
 11
30.999999572058016
 21
-12.000000007665619
 31
0.0
  0
LINE
  5
1A6
100
AcDbEntity
  8
0
  6
CONTINUOUS
 62
               4
100
AcDbLine
 10
50.000000000724327
 20
-12.000000006518803
 30
0.0
 11
50.000000001207184
 21
-20.000000006518803
 31
0.0
  0
LINE
  5
1A7
100
AcDbEntity
  8
0
  6
CONTINUOUS
 62
               4
100
AcDbLine
 10
33.000000000724327
 20
-12.000000007544884
 30
0.0
 11
33.000000001207184
 21
-20.000000007544884
 31
0.0
  0
LINE
  5
1A8
100
AcDbEntity
  8
0
  6
CONTINUOUS
 62
               7
100
AcDbLine
 10
100.00000000123737
 20
-20.500000003500844
 30
0.0
 11
8.0000000012373675
 21
-20.500000009053849
 31
0.0
  0
LINE
  5
1A9
100
AcDbEntity
  8
0
  6
CONTINUOUS
 62
               4
100
AcDbLine
 10
135.00000000123737
 20
-20.500000001388315
 30
0.0
 11
127.00000000123737
 21
-20.500000001871172
 31
0.0
  0
LINE
  5
1AA
100
AcDbEntity
  8
0
  6
CONTINUOUS
 62
               4
100
AcDbLine
 10
135.00000000003018
 20
-0.5000000013883152
 30
0.0
 11
135.00000000123737
 21
-20.500000001388315
 31
0.0
  0
LINE
  5
1AB
100
AcDbEntity
  8
0
  6
CONTINUOUS
 62
               7
100
AcDbLine
 10
127.00000000063378
 20
-10.500000001871172
 30
0.0
 11
30.999999571967464
 21
-10.500000007665619
 31
0.0
  0
LINE
  5
1AC
100
AcDbEntity
  8
0
  6
CONTINUOUS
 62
             200
100
AcDbLine
 10
120.34918604356824
 20
-15.5000000022726
 30
0.0
 11
151.77173969730643
 21
-15.500000000375991
 31
0.0
  0
LINE
  5
1AD
100
AcDbEntity
  8
0
  6
CONTINUOUS
 62
               4
100
AcDbLine
 10
146.00234457242016
 20
-18.000000000724214
 30
0.0
 11
145.50234457245034
 21
-18.500000000754397
 31
0.0
  0
LINE
  5
1AE
100
AcDbEntity
  8
0
  6
CONTINUOUS
 62
               4
100
AcDbLine
 10
146.00234457211837
 20
-13.000000000724214
 30
0.0
 11
145.50234457208819
 21
-12.500000000754397
 31
0.0
  0
LINE
  5
1AF
100
AcDbEntity
  8
0
  6
CONTINUOUS
 62
               4
100
AcDbLine
 10
146.00234457211837
 20
-13.000000000724214
 30
0.0
 11
150.00234457211837
 21
-13.000000000482771
 31
0.0
  0
LINE
  5
1B0
100
AcDbEntity
  8
0
  6
CONTINUOUS
 62
               4
100
AcDbLine
 10
146.00234457242016
 20
-18.000000000724214
 30
0.0
 11
150.00234457242016
 21
-18.000000000482771
 31
0.0
  0
LINE
  5
1B1
100
AcDbEntity
  8
0
  6
CONTINUOUS
 62
             200
100
AcDbLine
 10
125.59634457211273
 20
-12.906000001955903
 30
0.0
 11
127.00000000077901
 21
-12.906000001871178
 31
0.0
  0
LINE
  5
1B2
100
AcDbEntity
  8
0
  6
CONTINUOUS
 62
             200
100
AcDbLine
 10
125.59634457242586
 20
-18.094000001955891
 30
0.0
 11
127.00000000109215
 21
-18.094000001871166
 31
0.0
  0
LINE
  5
1B3
100
AcDbEntity
  8
0
  6
CONTINUOUS
 62
               4
100
AcDbLine
 10
126.00234457208821
 20
-12.500000001931397
 30
0.0
 11
125.50234457211839
 21
-13.000000001961581
 31
0.0
  0
LINE
  5
1B4
100
AcDbEntity
  8
0
  6
CONTINUOUS
 62
               4
100
AcDbLine
 10
126.00234457245035
 20
-18.500000001931397
 30
0.0
 11
125.50234457242018
 21
-18.000000001961581
 31
0.0
  0
LINE
  5
1B5
100
AcDbEntity
  8
0
  6
CONTINUOUS
 62
               4
100
AcDbLine
 10
150.00234457242016
 20
-18.000000000482771
 30
0.0
 11
150.00234457211837
 21
-13.000000000482771
 31
0.0
  0
LINE
  5
1B6
100
AcDbEntity
  8
0
  6
CONTINUOUS
 62
               4
100
AcDbLine
 10
125.00234457211837
 20
-13.000000001991765
 30
0.0
 11
125.50234457211837
 21
-13.000000001961581
 31
0.0
  0
LINE
  5
1B7
100
AcDbEntity
  8
0
  6
CONTINUOUS
 62
               4
100
AcDbLine
 10
125.00234457242017
 20
-18.000000001991765
 30
0.0
 11
125.50234457242017
 21
-18.000000001961581
 31
0.0
  0
LINE
  5
1B8
100
AcDbEntity
  8
0
  6
CONTINUOUS
 62
               4
100
AcDbLine
 10
121.10234457220938
 20
-14.507250002227153
 30
0.0
 11
121.10234457233008
 21
-16.507250002227153
 31
0.0
  0
LINE
  5
1B9
100
AcDbEntity
  8
0
  6
CONTINUOUS
 62
               4
100
AcDbLine
 10
121.10234457233008
 20
-16.507250002227153
 30
0.0
 11
121.00234457232405
 21
-16.407250002233184
 31
0.0
  0
LINE
  5
1BA
100
AcDbEntity
  8
0
  6
CONTINUOUS
 62
               4
100
AcDbLine
 10
121.10234457220938
 20
-14.507250002227153
 30
0.0
 11
121.00234457221539
 21
-14.607250002233172
 31
0.0
  0
LINE
  5
1BB
100
AcDbEntity
  8
0
  6
CONTINUOUS
 62
               4
100
AcDbLine
 10
121.10234457220938
 20
-14.507250002227153
 30
0.0
 11
125.00234457220935
 21
-14.507250001991764
 31
0.0
  0
LINE
  5
1BC
100
AcDbEntity
  8
0
  6
CONTINUOUS
 62
               4
100
AcDbLine
 10
121.10234457233008
 20
-16.507250002227153
 30
0.0
 11
125.00234457233006
 21
-16.507250001991764
 31
0.0
  0
LINE
  5
1BD
100
AcDbEntity
  8
0
  6
CONTINUOUS
 62
               4
100
AcDbLine
 10
121.00234457232405
 20
-16.407250002233184
 30
0.0
 11
121.00234457221539
 21
-14.607250002233172
 31
0.0
  0
LINE
  5
1BE
100
AcDbEntity
  8
0
  6
CONTINUOUS
 62
               4
100
AcDbLine
 10
125.50234457242018
 20
-18.000000001961581
 30
0.0
 11
125.50234457211839
 21
-13.000000001961581
 31
0.0
  0
LINE
  5
1BF
100
AcDbEntity
  8
0
  6
CONTINUOUS
 62
               7
100
AcDbLine
 10
100.00234457242017
 20
-18.00000000350073
 30
0.0
 11
100.00234457205802
 21
-12.000000003500702
 31
0.0
  0
LINE
  5
1C0
100
AcDbEntity
  8
0
  6
CONTINUOUS
 62
               4
100
AcDbLine
 10
145.50234457208819
 20
-12.500000000754397
 30
0.0
 11
145.50234457245034
 21
-18.500000000754397
 31
0.0
  0
LINE
  5
1C1
100
AcDbEntity
  8
0
  6
CONTINUOUS
 62
               4
100
AcDbLine
 10
146.00234457211837
 20
-13.000000000724214
 30
0.0
 11
146.00234457242016
 21
-18.000000000724214
 31
0.0
  0
LINE
  5
1C2
100
AcDbEntity
  8
0
  6
CONTINUOUS
 62
               4
100
AcDbLine
 10
137.00234457426239
 20
-19.500000001267438
 30
0.0
 11
136.64507898579632
 21
-20.11880215237295
 31
0.0
  0
ARC
  5
1C3
100
AcDbEntity
  8
0
  6
CONTINUOUS
 62
               4
100
AcDbCircle
 10
134.95768636210855
 20
-18.964101612007596
 30
0.0
 40
2.0446582121215231
100
AcDbArc
 50
325.61575272115022
 51
34.384247285766399
  0
LINE
  5
1C4
100
AcDbEntity
  8
0
  6
CONTINUOUS
 62
               4
100
AcDbLine
 10
135.00234457429974
 20
-20.118802152472114
 30
0.0
 11
136.64507898579632
 21
-20.11880215237295
 31
0.0
  0
ARC
  5
1C5
100
AcDbEntity
  8
0
  6
CONTINUOUS
 62
               4
100
AcDbCircle
 10
129.35961017800454
 20
-15.50000000172875
 30
0.0
 40
7.6427343960164382
100
AcDbArc
 50
342.41204624799155
 51
17.587953758925075
  0
ARC
  5
1C6
100
AcDbEntity
  8
0
  6
CONTINUOUS
 62
               4
100
AcDbCircle
 10
134.95768636169035
 20
-12.035898390774122
 30
0.0
 40
2.0446582121215231
100
AcDbArc
 50
325.61575272115022
 51
34.384247285766399
  0
LINE
  5
1C7
100
AcDbEntity
  8
0
  6
CONTINUOUS
 62
               4
100
AcDbLine
 10
136.64507898429068
 20
-17.809401071438543
 30
0.0
 11
135.00234457416036
 21
-17.809401071537707
 31
0.0
  0
LINE
  5
1C8
100
AcDbEntity
  8
0
  6
CONTINUOUS
 62
               4
100
AcDbLine
 10
136.64507898401189
 20
-13.190598931139476
 30
0.0
 11
135.00234457388157
 21
-13.19059893123864
 31
0.0
  0
LINE
  5
1C9
100
AcDbEntity
  8
0
  6
CONTINUOUS
 62
               7
100
AcDbLine
 10
137.00234457377951
 20
-11.500000001267438
 30
0.0
 11
136.64507898523874
 21
-10.881197850205069
 31
0.0
  0
LINE
  5
1CA
100
AcDbEntity
  8
0
  6
CONTINUOUS
 62
               4
100
AcDbLine
 10
135.00234457374216
 20
-10.881197850304233
 30
0.0
 11
136.64507898523874
 21
-10.881197850205069
 31
0.0
  0
LINE
  5
1CB
100
AcDbEntity
  8
0
  6
CONTINUOUS
 62
               4
100
AcDbLine
 10
135.00234457429974
 20
-20.118802152472114
 30
0.0
 11
135.00234457374216
 21
-10.881197850304233
 31
0.0
  0
LINE
  5
1CC
100
AcDbEntity
  8
0
  6
CONTINUOUS
 62
               4
100
AcDbLine
 10
137.00234457383988
 20
-12.500000001267438
 30
0.0
 11
145.50234457208819
 21
-12.500000000754397
 31
0.0
  0
LINE
  5
1CD
100
AcDbEntity
  8
0
  6
CONTINUOUS
 62
             200
100
AcDbLine
 10
137.00234457386438
 20
-12.906000001267444
 30
0.0
 11
145.9083445721127
 21
-12.906000000729904
 31
0.0
  0
LINE
  5
1CE
100
AcDbEntity
  8
0
  6
CONTINUOUS
 62
             200
100
AcDbLine
 10
137.00234457417753
 20
-18.094000001267432
 30
0.0
 11
145.90834457242585
 21
-18.094000000729892
 31
0.0
  0
LINE
  5
1CF
100
AcDbEntity
  8
0
  6
CONTINUOUS
 62
               4
100
AcDbLine
 10
137.00234457420203
 20
-18.500000001267438
 30
0.0
 11
145.50234457245034
 21
-18.500000000754397
 31
0.0
  0
LINE
  5
1D0
100
AcDbEntity
  8
0
  6
CONTINUOUS
 62
               4
100
AcDbLine
 10
30.999999572571056
 20
-20.500000007665619
 30
0.0
 11
30.999999571907097
 21
-9.5000000076656193
 31
0.0
  0
LINE
  5
1D1
100
AcDbEntity
  8
0
  6
CONTINUOUS
 62
               4
100
AcDbLine
 10
22.999999571363873
 20
-0.5000000081485041
 30
0.0
 11
22.999999572571056
 21
-20.500000008148476
 31
0.0
  0
LINE
  5
1D2
100
AcDbEntity
  8
0
  6
CONTINUOUS
 62
             200
100
AcDbLine
 10
34.499189548831509
 20
-15.500000007454418
 30
0.0
 11
7.2282598758984022
 21
-15.500000009100461
 31
0.0
  0
ARC
  5
1D3
100
AcDbEntity
  8
0
  6
CONTINUOUS
 62
               4
100
AcDbCircle
 10
23.042313211514482
 20
-18.964101618762697
 30
0.0
 40
2.0446582121215231
100
AcDbArc
 50
145.61575272115022
 51
214.38424728576641
  0
LINE
  5
1D4
100
AcDbEntity
  8
0
  6
CONTINUOUS
 62
               4
100
AcDbLine
 10
20.997654999364954
 20
-18.500000008269353
 30
0.0
 11
12.497655001116641
 21
-18.500000008782393
 31
0.0
  0
LINE
  5
1D5
100
AcDbEntity
  8
0
  6
CONTINUOUS
 62
             200
100
AcDbLine
 10
20.997654999340455
 20
-18.094000008269347
 30
0.0
 11
12.091655001092136
 21
-18.094000008806916
 31
0.0
  0
LINE
  5
1D6
100
AcDbEntity
  8
0
  6
CONTINUOUS
 62
             200
100
AcDbLine
 10
20.997654999027304
 20
-12.906000008269359
 30
0.0
 11
12.091655000778985
 21
-12.906000008806927
 31
0.0
  0
LINE
  5
1D7
100
AcDbEntity
  8
0
  6
CONTINUOUS
 62
               4
100
AcDbLine
 10
20.997654999002805
 20
-12.500000008269353
 30
0.0
 11
12.497655000754492
 21
-12.500000008782393
 31
0.0
  0
LINE
  5
1D8
100
AcDbEntity
  8
0
  6
CONTINUOUS
 62
               4
100
AcDbLine
 10
22.997654998905091
 20
-10.881197857064706
 30
0.0
 11
21.354920587408515
 21
-10.881197857163841
 31
0.0
  0
LINE
  5
1D9
100
AcDbEntity
  8
0
  6
CONTINUOUS
 62
               4
100
AcDbLine
 10
20.997654998942437
 20
-11.500000008269353
 30
0.0
 11
21.354920587408515
 21
-10.881197857163841
 31
0.0
  0
LINE
  5
1DA
100
AcDbEntity
  8
0
  6
CONTINUOUS
 62
               4
100
AcDbLine
 10
21.354920588914183
 20
-13.190598938098248
 30
0.0
 11
22.997654999044471
 21
-13.190598937999113
 31
0.0
  0
LINE
  5
1DB
100
AcDbEntity
  8
0
  6
CONTINUOUS
 62
               4
100
AcDbLine
 10
21.354920589192972
 20
-17.809401078397315
 30
0.0
 11
22.99765499932326
 21
-17.80940107829818
 31
0.0
  0
ARC
  5
1DC
100
AcDbEntity
  8
0
  6
CONTINUOUS
 62
               4
100
AcDbCircle
 10
23.042313211096314
 20
-12.035898397529195
 30
0.0
 40
2.0446582121215231
100
AcDbArc
 50
145.61575272115022
 51
214.38424728576641
  0
ARC
  5
1DD
100
AcDbEntity
  8
0
  6
CONTINUOUS
 62
               4
100
AcDbCircle
 10
28.640389395200316
 20
-15.50000000780804
 30
0.0
 40
7.6427343960164382
100
AcDbArc
 50
162.41204624799153
 51
197.58795375892507
  0
LINE
  5
1DE
100
AcDbEntity
  8
0
  6
CONTINUOUS
 62
               4
100
AcDbLine
 10
11.997655000784647
 20
-13.000000008812577
 30
0.0
 11
11.997655001086457
 21
-18.000000008812577
 31
0.0
  0
LINE
  5
1DF
100
AcDbEntity
  8
0
  6
CONTINUOUS
 62
               4
100
AcDbLine
 10
12.497655000754492
 20
-12.500000008782393
 30
0.0
 11
12.497655001116641
 21
-18.500000008782393
 31
0.0
  0
LINE
  5
1E0
100
AcDbEntity
  8
0
  6
CONTINUOUS
 62
               4
100
AcDbLine
 10
32.497655001086457
 20
-18.000000007575238
 30
0.0
 11
32.497655000784675
 21
-13.000000007575238
 31
0.0
  0
LINE
  5
1E1
100
AcDbEntity
  8
0
  6
CONTINUOUS
 62
               4
100
AcDbLine
 10
32.997655001086457
 20
-18.000000007545054
 30
0.0
 11
32.497655001086457
 21
-18.000000007575238
 31
0.0
  0
LINE
  5
1E2
100
AcDbEntity
  8
0
  6
CONTINUOUS
 62
               4
100
AcDbLine
 10
32.997655000784675
 20
-13.000000007545054
 30
0.0
 11
32.497655000784675
 21
-13.000000007575238
 31
0.0
  0
LINE
  5
1E3
100
AcDbEntity
  8
0
  6
CONTINUOUS
 62
               4
100
AcDbLine
 10
31.997655001116641
 20
-18.500000007605422
 30
0.0
 11
32.497655001086457
 21
-18.000000007575238
 31
0.0
  0
LINE
  5
1E4
100
AcDbEntity
  8
0
  6
CONTINUOUS
 62
               4
100
AcDbLine
 10
31.997655000754492
 20
-12.500000007605422
 30
0.0
 11
32.497655000784675
 21
-13.000000007575238
 31
0.0
  0
LINE
  5
1E5
100
AcDbEntity
  8
0
  6
CONTINUOUS
 62
             200
100
AcDbLine
 10
32.403655001092119
 20
-18.094000007580888
 30
0.0
 11
30.99999957242585
 21
-18.094000007665613
 31
0.0
  0
LINE
  5
1E6
100
AcDbEntity
  8
0
  6
CONTINUOUS
 62
             200
100
AcDbLine
 10
32.403655000778969
 20
-12.9060000075809
 30
0.0
 11
30.999999572112699
 21
-12.906000007665625
 31
0.0
  0
LINE
  5
1E7
100
AcDbEntity
  8
0
  6
CONTINUOUS
 62
               4
100
AcDbLine
 10
11.997655001086457
 20
-18.000000008812577
 30
0.0
 11
7.9976550010864571
 21
-18.00000000905402
 31
0.0
  0
LINE
  5
1E8
100
AcDbEntity
  8
0
  6
CONTINUOUS
 62
               4
100
AcDbLine
 10
11.997655000784647
 20
-13.000000008812577
 30
0.0
 11
7.997655000784647
 21
-13.00000000905402
 31
0.0
  0
LINE
  5
1E9
100
AcDbEntity
  8
0
  6
CONTINUOUS
 62
               4
100
AcDbLine
 10
11.997655000784647
 20
-13.000000008812577
 30
0.0
 11
12.497655000754492
 21
-12.500000008782393
 31
0.0
  0
LINE
  5
1EA
100
AcDbEntity
  8
0
  6
CONTINUOUS
 62
               4
100
AcDbLine
 10
11.997655001086457
 20
-18.000000008812577
 30
0.0
 11
12.497655001116641
 21
-18.500000008782393
 31
0.0
  0
LINE
  5
1EB
100
AcDbEntity
  8
0
  6
CONTINUOUS
 62
               4
100
AcDbLine
 10
22.997654999462668
 20
-20.118802159232587
 30
0.0
 11
21.354920587966092
 21
-20.118802159331722
 31
0.0
  0
LINE
  5
1EC
100
AcDbEntity
  8
0
  6
CONTINUOUS
 62
               7
100
AcDbLine
 10
22.999999571967464
 20
-10.500000008148504
 30
0.0
 11
6.0000000006337757
 21
-10.500000009174585
 31
0.0
  0
LINE
  5
1ED
100
AcDbEntity
  8
0
  6
CONTINUOUS
 62
               7
100
AcDbLine
 10
8.0000000007243273
 20
-12.000000009053849
 30
0.0
 11
20.997654998972621
 21
-12.000000008269353
 31
0.0
  0
LINE
  5
1EE
100
AcDbEntity
  8
0
  6
CONTINUOUS
 62
               4
100
AcDbLine
 10
20.99765499939295
 20
-18.964101618886104
 30
0.0
 11
20.997654998939908
 21
-11.458099697866118
 31
0.0
  0
LINE
  5
1EF
100
AcDbEntity
  8
0
  6
CONTINUOUS
 62
               4
100
AcDbLine
 10
137.00234457426492
 20
-19.541900311670673
 30
0.0
 11
137.00234457377698
 21
-11.458099690864202
 31
0.0
  0
LINE
  5
1F0
100
AcDbEntity
  8
0
  6
CONTINUOUS
 62
               4
100
AcDbLine
 10
37.999999571907097
 20
-9.5000000072431021
 30
0.0
 11
37.999999571363873
 21
-0.5000000072431021
 31
0.0
  0
LINE
  5
1F1
100
AcDbEntity
  8
0
  6
CONTINUOUS
 62
               7
100
AcDbLine
 10
50.000000001207184
 20
-20.000000006518803
 30
0.0
 11
33.000000001207184
 21
-20.000000007544884
 31
0.0
  0
LINE
  5
1F2
100
AcDbEntity
  8
0
  6
CONTINUOUS
 62
               7
100
AcDbLine
 10
100.0000000013279
 20
-22.000000003500844
 30
0.0
 11
100.00000000105629
 21
-17.500000003500872
 31
0.0
  0
LINE
  5
1F3
100
AcDbEntity
  8
0
  6
CONTINUOUS
 62
               7
100
AcDbLine
 10
149.00000000078467
 20
-13.000000000543281
 30
0.0
 11
149.00000000063378
 21
-10.500000000543281
 31
0.0
  0
LINE
  5
1F4
100
AcDbEntity
  8
0
  6
CONTINUOUS
 62
               7
100
AcDbLine
 10
11.000000000633776
 20
-10.500000008872803
 30
0.0
 11
11.000000000724327
 21
-12.000000008872775
 31
0.0
  0
LINE
  5
1F5
100
AcDbEntity
  8
0
  6
CONTINUOUS
 62
               7
100
AcDbLine
 10
152.00000000114682
 20
-19.000000000362206
 30
0.0
 11
150.75000000114682
 21
-19.000000000437666
 31
0.0
  0
LINE
  5
1F6
100
AcDbEntity
  8
0
  6
CONTINUOUS
 62
               2
100
AcDbLine
 10
152.00000000112394
 20
-18.620999336604882
 30
0.0
 11
150.37100029104093
 21
-18.620999336703221
 31
0.0
  0
LINE
  5
1F7
100
AcDbEntity
  8
0
  6
CONTINUOUS
 62
               7
100
AcDbLine
 10
152.00000000090537
 20
-15.000000000362206
 30
0.0
 11
150.75000000090537
 21
-15.000000000437666
 31
0.0
  0
LINE
  5
1F8
100
AcDbEntity
  8
0
  6
CONTINUOUS
 62
               2
100
AcDbLine
 10
152.00000000092825
 20
-15.37900066411953
 30
0.0
 11
150.37100029084525
 21
-15.37900066421787
 31
0.0
  0
LINE
  5
1F9
100
AcDbEntity
  8
0
  6
CONTINUOUS
 62
               7
100
AcDbLine
 10
149.99999981661423
 20
-18.250001127272384
 30
0.0
 11
150.75000019138321
 21
-19.000001059408845
 31
0.0
  0
LINE
  5
1FA
100
AcDbEntity
  8
0
  6
CONTINUOUS
 62
               7
100
AcDbLine
 10
150.00000000110154
 20
-18.250000000482913
 30
0.0
 11
150.00000000095065
 21
-15.750000000482913
 31
0.0
  0
LINE
  5
1FB
100
AcDbEntity
  8
0
  6
CONTINUOUS
 62
               7
100
AcDbLine
 10
150.75000000114682
 20
-19.000000000437666
 30
0.0
 11
150.75000000090537
 21
-15.000000000437666
 31
0.0
  0
LINE
  5
1FC
100
AcDbEntity
  8
0
  6
CONTINUOUS
 62
               7
100
AcDbLine
 10
149.99999981646334
 20
-15.749998873693443
 30
0.0
 11
150.75000019114177
 21
-14.999998941466487
 31
0.0
  0
LINE
  5
1FD
100
AcDbEntity
  8
0
  6
CONTINUOUS
 62
               7
100
AcDbLine
 10
8.0000001854379548
 20
-15.749998882264407
 30
0.0
 11
7.2499998106689816
 21
-14.999998950127974
 31
0.0
  0
LINE
  5
1FE
100
AcDbEntity
  8
0
  6
CONTINUOUS
 62
               7
100
AcDbLine
 10
7.250000001146816
 20
-19.000000009099153
 30
0.0
 11
7.2500000009053736
 21
-15.000000009099153
 31
0.0
  0
LINE
  5
1FF
100
AcDbEntity
  8
0
  6
CONTINUOUS
 62
               7
100
AcDbLine
 10
8.0000001855888456
 20
-18.250001135843348
 30
0.0
 11
7.249999810910424
 21
-19.000001068070333
 31
0.0
  0
LINE
  5
200
100
AcDbEntity
  8
0
  6
CONTINUOUS
 62
               2
100
AcDbLine
 10
6.0000000009282815
 20
-15.379000672931909
 30
0.0
 11
7.6289997110112608
 21
-15.379000672833598
 31
0.0
  0
LINE
  5
201
100
AcDbEntity
  8
0
  6
CONTINUOUS
 62
               7
100
AcDbLine
 10
6.000000000905402
 20
-15.000000009174585
 30
0.0
 11
7.2500000009053736
 21
-15.000000009099153
 31
0.0
  0
LINE
  5
202
100
AcDbEntity
  8
0
  6
CONTINUOUS
 62
               2
100
AcDbLine
 10
6.0000000011239649
 20
-18.62099934541726
 30
0.0
 11
7.6289997112069443
 21
-18.62099934531895
 31
0.0
  0
LINE
  5
203
100
AcDbEntity
  8
0
  6
CONTINUOUS
 62
               7
100
AcDbLine
 10
6.0000000011468444
 20
-19.000000009174585
 30
0.0
 11
7.250000001146816
 21
-19.000000009099153
 31
0.0
  0
LINE
  5
204
100
AcDbEntity
  8
0
  6
CONTINUOUS
 62
               7
100
AcDbLine
 10
16.000000000633776
 20
-10.500000008571021
 30
0.0
 11
16.000000000724327
 21
-12.000000008570993
 31
0.0
  0
LINE
  5
205
100
AcDbEntity
  8
0
  6
CONTINUOUS
 62
               4
100
AcDbLine
 10
120.00000000057342
 20
-9.5000000022936888
 30
0.0
 11
120.0000000000302
 21
-0.5000000022936888
 31
0.0
  0
LINE
  5
206
100
AcDbEntity
  8
0
  6
CONTINUOUS
 62
               4
100
AcDbLine
 10
135.00000000003018
 20
-0.5000000013883152
 30
0.0
 11
120.0000000000302
 21
-0.5000000022936888
 31
0.0
  0
LINE
  5
207
100
AcDbEntity
  8
0
  6
CONTINUOUS
 62
               4
100
AcDbLine
 10
37.999999571363873
 20
-0.5000000072431021
 30
0.0
 11
22.999999571363873
 21
-0.5000000081485041
 31
0.0
  0
LINE
  5
208
100
AcDbEntity
  8
0
  6
CONTINUOUS
 62
               4
100
AcDbLine
 10
126.00234457208821
 20
-12.500000001931397
 30
0.0
 11
127.0000000007545
 21
-12.500000001871172
 31
0.0
  0
LINE
  5
209
100
AcDbEntity
  8
0
  6
CONTINUOUS
 62
               4
100
AcDbLine
 10
126.00234457245035
 20
-18.500000001931397
 30
0.0
 11
127.00000000111665
 21
-18.500000001871172
 31
0.0
  0
LINE
  5
20A
100
AcDbEntity
  8
0
  6
CONTINUOUS
 62
               4
100
AcDbLine
 10
126.00234457245035
 20
-18.500000001931397
 30
0.0
 11
126.00234457208821
 21
-12.500000001931397
 31
0.0
  0
LINE
  5
20B
100
AcDbEntity
  8
0
  6
CONTINUOUS
 62
               4
100
AcDbLine
 10
31.997655000754492
 20
-12.500000007605422
 30
0.0
 11
31.997655001116641
 21
-18.500000007605422
 31
0.0
  0
LINE
  5
20C
100
AcDbEntity
  8
0
  6
CONTINUOUS
 62
               4
100
AcDbLine
 10
30.9999995720882
 20
-12.500000007665619
 30
0.0
 11
31.997655000754492
 21
-12.500000007605422
 31
0.0
  0
LINE
  5
20D
100
AcDbEntity
  8
0
  6
CONTINUOUS
 62
               4
100
AcDbLine
 10
30.999999572450349
 20
-18.500000007665619
 30
0.0
 11
31.997655001116641
 21
-18.500000007605422
 31
0.0
  0
LINE
  5
20E
100
AcDbEntity
  8
0
  6
CONTINUOUS
 62
               4
100
AcDbLine
 10
127.00000000057342
 20
-9.5000000018711717
 30
0.0
 11
120.00000000057342
 21
-9.5000000022936888
 31
0.0
  0
LINE
  5
20F
100
AcDbEntity
  8
0
  6
CONTINUOUS
 62
               4
100
AcDbLine
 10
37.999999571907097
 20
-9.5000000072431021
 30
0.0
 11
30.999999571907097
 21
-9.5000000076656193
 31
0.0
  0
LINE
  5
210
100
AcDbEntity
  8
0
  6
CONTINUOUS
 62
             200
100
AcDbLine
 10
23.736021102476826
 20
-4.000000008104081
 30
0.0
 11
30.232907786314428
 21
-4.0000000077119182
 31
0.0
  0
CIRCLE
  5
211
100
AcDbEntity
  8
0
  6
CONTINUOUS
 62
               4
100
AcDbCircle
 10
26.999999571575131
 20
-4.0000000079070617
 30
0.0
 40
2.25
  0
LINE
  5
212
100
AcDbEntity
  8
0
  6
CONTINUOUS
 62
             200
100
AcDbLine
 10
26.999999571782837
 20
-7.4411619242816016
 30
0.0
 11
26.999999571357449
 21
-0.3935541637336257
 31
0.0
  0
CIRCLE
  5
213
100
AcDbEntity
  8
0
  6
CONTINUOUS
 62
               4
100
AcDbCircle
 10
26.999999571575131
 20
-4.0000000079070617
 30
0.0
 40
2.75
  0
LINE
  5
214
100
AcDbEntity
  8
0
  6
CONTINUOUS
 62
               4
100
AcDbLine
 10
25.849999571575125
 20
-4.0000000079764675
 30
0.0
 11
26.432108736934765
 21
-3.0000000079413383
 31
0.0
  0
LINE
  5
215
100
AcDbEntity
  8
0
  6
CONTINUOUS
 62
               4
100
AcDbLine
 10
26.432108737055472
 20
-5.0000000079413383
 30
0.0
 11
25.849999571575125
 21
-4.0000000079764675
 31
0.0
  0
LINE
  5
216
100
AcDbEntity
  8
0
  6
CONTINUOUS
 62
               4
100
AcDbLine
 10
28.149999571575137
 20
-4.0000000078376559
 30
0.0
 11
27.567890406215525
 21
-5.0000000078727851
 31
0.0
  0
LINE
  5
217
100
AcDbEntity
  8
0
  6
CONTINUOUS
 62
               4
100
AcDbLine
 10
27.567890406094818
 20
-3.0000000078727851
 30
0.0
 11
28.149999571575137
 21
-4.0000000078376559
 31
0.0
  0
LINE
  5
218
100
AcDbEntity
  8
0
  6
CONTINUOUS
 62
               4
100
AcDbLine
 10
26.432108737055472
 20
-5.0000000079413383
 30
0.0
 11
27.567890406215525
 21
-5.0000000078727851
 31
0.0
  0
LINE
  5
219
100
AcDbEntity
  8
0
  6
CONTINUOUS
 62
               4
100
AcDbLine
 10
26.432108736934765
 20
-3.0000000079413383
 30
0.0
 11
27.567890406094818
 21
-3.0000000078727851
 31
0.0
  0
CIRCLE
  5
21A
100
AcDbEntity
  8
0
  6
CONTINUOUS
 62
               4
100
AcDbCircle
 10
26.999999571575131
 20
-4.0000000079070617
 30
0.0
 40
1.1499999999999999
  0
LINE
  5
21B
100
AcDbEntity
  8
0
  6
CONTINUOUS
 62
             200
100
AcDbLine
 10
30.736021102476826
 20
-4.0000000076815638
 30
0.0
 11
37.232907786314428
 21
-4.0000000072894011
 31
0.0
  0
CIRCLE
  5
21C
100
AcDbEntity
  8
0
  6
CONTINUOUS
 62
               4
100
AcDbCircle
 10
33.999999571575131
 20
-4.0000000074845445
 30
0.0
 40
2.25
  0
LINE
  5
21D
100
AcDbEntity
  8
0
  6
CONTINUOUS
 62
             200
100
AcDbLine
 10
33.999999571782837
 20
-7.4411619238591129
 30
0.0
 11
33.999999571357449
 21
-0.3935541633111086
 31
0.0
  0
CIRCLE
  5
21E
100
AcDbEntity
  8
0
  6
CONTINUOUS
 62
               4
100
AcDbCircle
 10
33.999999571575131
 20
-4.0000000074845445
 30
0.0
 40
2.75
  0
LINE
  5
21F
100
AcDbEntity
  8
0
  6
CONTINUOUS
 62
               4
100
AcDbLine
 10
32.849999571575125
 20
-4.0000000075539504
 30
0.0
 11
33.432108736934765
 21
-3.0000000075188211
 31
0.0
  0
LINE
  5
220
100
AcDbEntity
  8
0
  6
CONTINUOUS
 62
               4
100
AcDbLine
 10
33.432108737055472
 20
-5.0000000075188211
 30
0.0
 11
32.849999571575125
 21
-4.0000000075539504
 31
0.0
  0
LINE
  5
221
100
AcDbEntity
  8
0
  6
CONTINUOUS
 62
               4
100
AcDbLine
 10
35.149999571575137
 20
-4.0000000074151387
 30
0.0
 11
34.567890406215525
 21
-5.000000007450268
 31
0.0
  0
LINE
  5
222
100
AcDbEntity
  8
0
  6
CONTINUOUS
 62
               4
100
AcDbLine
 10
34.567890406094818
 20
-3.000000007450268
 30
0.0
 11
35.149999571575137
 21
-4.0000000074151387
 31
0.0
  0
LINE
  5
223
100
AcDbEntity
  8
0
  6
CONTINUOUS
 62
               4
100
AcDbLine
 10
33.432108737055472
 20
-5.0000000075188211
 30
0.0
 11
34.567890406215525
 21
-5.000000007450268
 31
0.0
  0
LINE
  5
224
100
AcDbEntity
  8
0
  6
CONTINUOUS
 62
               4
100
AcDbLine
 10
33.432108736934765
 20
-3.0000000075188211
 30
0.0
 11
34.567890406094818
 21
-3.000000007450268
 31
0.0
  0
CIRCLE
  5
225
100
AcDbEntity
  8
0
  6
CONTINUOUS
 62
               4
100
AcDbCircle
 10
33.999999571575131
 20
-4.0000000074845445
 30
0.0
 40
1.1499999999999999
  0
LINE
  5
226
100
AcDbEntity
  8
0
  6
CONTINUOUS
 62
             200
100
AcDbLine
 10
120.73602153114315
 20
-4.0000000022492657
 30
0.0
 11
127.23290821498074
 21
-4.0000000018571313
 31
0.0
  0
CIRCLE
  5
227
100
AcDbEntity
  8
0
  6
CONTINUOUS
 62
               4
100
AcDbCircle
 10
124.00000000024146
 20
-4.0000000020522464
 30
0.0
 40
2.25
  0
LINE
  5
228
100
AcDbEntity
  8
0
  6
CONTINUOUS
 62
             200
100
AcDbLine
 10
124.00000000044915
 20
-7.4411619184268147
 30
0.0
 11
124.00000000002377
 21
-0.3935541578788104
 31
0.0
  0
CIRCLE
  5
229
100
AcDbEntity
  8
0
  6
CONTINUOUS
 62
               4
100
AcDbCircle
 10
124.00000000024146
 20
-4.0000000020522464
 30
0.0
 40
2.75
  0
LINE
  5
22A
100
AcDbEntity
  8
0
  6
CONTINUOUS
 62
               4
100
AcDbLine
 10
122.85000000024145
 20
-4.0000000021216806
 30
0.0
 11
123.43210916560106
 21
-3.000000002086523
 31
0.0
  0
LINE
  5
22B
100
AcDbEntity
  8
0
  6
CONTINUOUS
 62
               4
100
AcDbLine
 10
123.43210916572178
 20
-5.000000002086523
 30
0.0
 11
122.85000000024145
 21
-4.0000000021216806
 31
0.0
  0
LINE
  5
22C
100
AcDbEntity
  8
0
  6
CONTINUOUS
 62
               4
100
AcDbLine
 10
125.15000000024145
 20
-4.0000000019828406
 30
0.0
 11
124.56789083488184
 21
-5.0000000020179698
 31
0.0
  0
LINE
  5
22D
100
AcDbEntity
  8
0
  6
CONTINUOUS
 62
               4
100
AcDbLine
 10
124.56789083476112
 20
-3.0000000020179698
 30
0.0
 11
125.15000000024145
 21
-4.0000000019828406
 31
0.0
  0
LINE
  5
22E
100
AcDbEntity
  8
0
  6
CONTINUOUS
 62
               4
100
AcDbLine
 10
123.43210916572178
 20
-5.000000002086523
 30
0.0
 11
124.56789083488184
 21
-5.0000000020179698
 31
0.0
  0
LINE
  5
22F
100
AcDbEntity
  8
0
  6
CONTINUOUS
 62
               4
100
AcDbLine
 10
123.43210916560106
 20
-3.000000002086523
 30
0.0
 11
124.56789083476112
 21
-3.0000000020179698
 31
0.0
  0
CIRCLE
  5
230
100
AcDbEntity
  8
0
  6
CONTINUOUS
 62
               4
100
AcDbCircle
 10
124.00000000024146
 20
-4.0000000020522464
 30
0.0
 40
1.1499999999999999
  0
LINE
  5
231
100
AcDbEntity
  8
0
  6
CONTINUOUS
 62
             200
100
AcDbLine
 10
127.73602153114315
 20
-4.0000000018267485
 30
0.0
 11
134.23290821498074
 21
-4.0000000014346142
 31
0.0
  0
CIRCLE
  5
232
100
AcDbEntity
  8
0
  6
CONTINUOUS
 62
               4
100
AcDbCircle
 10
131.00000000024144
 20
-4.0000000016297292
 30
0.0
 40
2.25
  0
LINE
  5
233
100
AcDbEntity
  8
0
  6
CONTINUOUS
 62
             200
100
AcDbLine
 10
131.00000000044915
 20
-7.4411619180042976
 30
0.0
 11
131.00000000002376
 21
-0.3935541574562933
 31
0.0
  0
CIRCLE
  5
234
100
AcDbEntity
  8
0
  6
CONTINUOUS
 62
               4
100
AcDbCircle
 10
131.00000000024144
 20
-4.0000000016297292
 30
0.0
 40
2.75
  0
LINE
  5
235
100
AcDbEntity
  8
0
  6
CONTINUOUS
 62
               4
100
AcDbLine
 10
129.85000000024147
 20
-4.0000000016991635
 30
0.0
 11
130.43210916560108
 21
-3.0000000016640058
 31
0.0
  0
LINE
  5
236
100
AcDbEntity
  8
0
  6
CONTINUOUS
 62
               4
100
AcDbLine
 10
130.43210916572178
 20
-5.0000000016640058
 30
0.0
 11
129.85000000024147
 21
-4.0000000016991635
 31
0.0
  0
LINE
  5
237
100
AcDbEntity
  8
0
  6
CONTINUOUS
 62
               4
100
AcDbLine
 10
132.15000000024145
 20
-4.0000000015603234
 30
0.0
 11
131.56789083488184
 21
-5.0000000015954527
 31
0.0
  0
LINE
  5
238
100
AcDbEntity
  8
0
  6
CONTINUOUS
 62
               4
100
AcDbLine
 10
131.56789083476113
 20
-3.0000000015954527
 30
0.0
 11
132.15000000024145
 21
-4.0000000015603234
 31
0.0
  0
LINE
  5
239
100
AcDbEntity
  8
0
  6
CONTINUOUS
 62
               4
100
AcDbLine
 10
130.43210916572178
 20
-5.0000000016640058
 30
0.0
 11
131.56789083488184
 21
-5.0000000015954527
 31
0.0
  0
LINE
  5
23A
100
AcDbEntity
  8
0
  6
CONTINUOUS
 62
               4
100
AcDbLine
 10
130.43210916560108
 20
-3.0000000016640058
 30
0.0
 11
131.56789083476113
 21
-3.0000000015954527
 31
0.0
  0
CIRCLE
  5
23B
100
AcDbEntity
  8
0
  6
CONTINUOUS
 62
               4
100
AcDbCircle
 10
131.00000000024144
 20
-4.0000000016297292
 30
0.0
 40
1.1499999999999999
  0
LINE
  5
23C
100
AcDbEntity
  8
0
  6
CONTINUOUS
 62
             200
100
AcDbLine
 10
42.236021531867436
 20
-16.00000000698742
 30
0.0
 11
48.732908215705038
 21
-16.000000006595258
 31
0.0
  0
CIRCLE
  5
23D
100
AcDbEntity
  8
0
  6
CONTINUOUS
 62
               4
100
AcDbCircle
 10
45.50000000096577
 20
-16.000000006790401
 30
0.0
 40
2.25
  0
LINE
  5
23E
100
AcDbEntity
  8
0
  6
CONTINUOUS
 62
             200
100
AcDbLine
 10
45.500000001173476
 20
-19.441161923164969
 30
0.0
 11
45.500000000748059
 21
-12.393554162616965
 31
0.0
  0
CIRCLE
  5
23F
100
AcDbEntity
  8
0
  6
CONTINUOUS
 62
               4
100
AcDbCircle
 10
45.50000000096577
 20
-16.000000006790401
 30
0.0
 40
2.75
  0
LINE
  5
240
100
AcDbEntity
  8
0
  6
CONTINUOUS
 62
               4
100
AcDbLine
 10
44.350000000965736
 20
-16.000000006859807
 30
0.0
 11
44.932109166325375
 21
-15.000000006824678
 31
0.0
  0
LINE
  5
241
100
AcDbEntity
  8
0
  6
CONTINUOUS
 62
               4
100
AcDbLine
 10
44.932109166446082
 20
-17.000000006824678
 30
0.0
 11
44.350000000965736
 21
-16.000000006859807
 31
0.0
  0
LINE
  5
242
100
AcDbEntity
  8
0
  6
CONTINUOUS
 62
               4
100
AcDbLine
 10
46.650000000965747
 20
-16.000000006720995
 30
0.0
 11
46.067890835606136
 21
-17.000000006756125
 31
0.0
  0
LINE
  5
243
100
AcDbEntity
  8
0
  6
CONTINUOUS
 62
               4
100
AcDbLine
 10
46.067890835485429
 20
-15.000000006756125
 30
0.0
 11
46.650000000965747
 21
-16.000000006720995
 31
0.0
  0
LINE
  5
244
100
AcDbEntity
  8
0
  6
CONTINUOUS
 62
               4
100
AcDbLine
 10
44.932109166446082
 20
-17.000000006824678
 30
0.0
 11
46.067890835606136
 21
-17.000000006756125
 31
0.0
  0
LINE
  5
245
100
AcDbEntity
  8
0
  6
CONTINUOUS
 62
               4
100
AcDbLine
 10
44.932109166325375
 20
-15.000000006824678
 30
0.0
 11
46.067890835485429
 21
-15.000000006756125
 31
0.0
  0
CIRCLE
  5
246
100
AcDbEntity
  8
0
  6
CONTINUOUS
 62
               4
100
AcDbCircle
 10
45.50000000096577
 20
-16.000000006790401
 30
0.0
 40
1.1499999999999999
  0
LINE
  5
247
100
AcDbEntity
  8
0
  6
CONTINUOUS
 62
             200
100
AcDbLine
 10
34.236021531867436
 20
-16.000000007470277
 30
0.0
 11
40.732908215705038
 21
-16.000000007078143
 31
0.0
  0
CIRCLE
  5
248
100
AcDbEntity
  8
0
  6
CONTINUOUS
 62
               4
100
AcDbCircle
 10
37.50000000096577
 20
-16.000000007273286
 30
0.0
 40
2.25
  0
LINE
  5
249
100
AcDbEntity
  8
0
  6
CONTINUOUS
 62
             200
100
AcDbLine
 10
37.500000001173476
 20
-19.441161923647826
 30
0.0
 11
37.500000000748059
 21
-12.39355416309985
 31
0.0
  0
CIRCLE
  5
24A
100
AcDbEntity
  8
0
  6
CONTINUOUS
 62
               4
100
AcDbCircle
 10
37.50000000096577
 20
-16.000000007273286
 30
0.0
 40
2.75
  0
CIRCLE
  5
24B
100
AcDbEntity
  8
0
  6
CONTINUOUS
 62
               4
100
AcDbCircle
 10
37.50000000096577
 20
-16.000000007273286
 30
0.0
 40
1.1499999999999999
  0
LINE
  5
24C
100
AcDbEntity
  8
0
  6
CONTINUOUS
 62
               4
100
AcDbLine
 10
36.932109166325375
 20
-15.000000007307563
 30
0.0
 11
38.067890835485429
 21
-15.000000007239009
 31
0.0
  0
LINE
  5
24D
100
AcDbEntity
  8
0
  6
CONTINUOUS
 62
               4
100
AcDbLine
 10
36.932109166446082
 20
-17.000000007307563
 30
0.0
 11
38.067890835606136
 21
-17.000000007239009
 31
0.0
  0
LINE
  5
24E
100
AcDbEntity
  8
0
  6
CONTINUOUS
 62
               4
100
AcDbLine
 10
38.067890835485429
 20
-15.000000007239009
 30
0.0
 11
38.650000000965747
 21
-16.00000000720388
 31
0.0
  0
LINE
  5
24F
100
AcDbEntity
  8
0
  6
CONTINUOUS
 62
               4
100
AcDbLine
 10
38.650000000965747
 20
-16.00000000720388
 30
0.0
 11
38.067890835606136
 21
-17.000000007239009
 31
0.0
  0
LINE
  5
250
100
AcDbEntity
  8
0
  6
CONTINUOUS
 62
               4
100
AcDbLine
 10
36.932109166446082
 20
-17.000000007307563
 30
0.0
 11
36.350000000965736
 21
-16.000000007342692
 31
0.0
  0
LINE
  5
251
100
AcDbEntity
  8
0
  6
CONTINUOUS
 62
               4
100
AcDbLine
 10
36.350000000965736
 20
-16.000000007342692
 30
0.0
 11
36.932109166325375
 21
-15.000000007307563
 31
0.0
  0
LINE
  5
252
100
AcDbEntity
  8
0
  6
CONTINUOUS
 62
               7
100
AcDbLine
 10
160.0873914575435
 20
-14.979273795955606
 30
0.0
 11
158.31260776610188
 21
-14.979273796062728
 31
0.0
  0
LINE
  5
253
100
AcDbEntity
  8
0
  6
CONTINUOUS
 62
               7
100
AcDbLine
 10
174.62100029082237
 20
-14.999999998996827
 30
0.0
 11
160.39999981017053
 21
-14.999999999855191
 31
0.0
  0
LINE
  5
254
100
AcDbEntity
  8
0
  6
CONTINUOUS
 62
               2
100
AcDbLine
 10
175.00000000092825
 20
-15.379000662731272
 30
0.0
 11
160.39999981019341
 21
-15.379000663612516
 31
0.0
  0
LINE
  5
255
100
AcDbEntity
  8
0
  6
CONTINUOUS
 62
               7
100
AcDbLine
 10
175.00000060695777
 20
-15.379000606877099
 30
0.0
 11
174.62100064157099
 21
-15.000000673483385
 31
0.0
  0
LINE
  5
256
100
AcDbEntity
  8
0
  6
CONTINUOUS
 62
               7
100
AcDbLine
 10
175.00000060715345
 20
-18.620999391070796
 30
0.0
 11
174.62100064181243
 21
-18.99999932451027
 31
0.0
  0
LINE
  5
257
100
AcDbEntity
  8
0
  6
CONTINUOUS
 62
               7
100
AcDbLine
 10
175.00000000112394
 20
-18.620999335216624
 30
0.0
 11
175.00000000092825
 21
-15.379000662731272
 31
0.0
  0
LINE
  5
258
100
AcDbEntity
  8
0
  6
CONTINUOUS
 62
               7
100
AcDbLine
 10
174.62100029106381
 20
-18.999999998996827
 30
0.0
 11
174.62100029082237
 21
-14.999999998996827
 31
0.0
  0
LINE
  5
259
100
AcDbEntity
  8
0
  6
CONTINUOUS
 62
               2
100
AcDbLine
 10
175.00000000112394
 20
-18.620999335216624
 30
0.0
 11
160.39999981038909
 21
-18.620999336097867
 31
0.0
  0
LINE
  5
25A
100
AcDbEntity
  8
0
  6
CONTINUOUS
 62
               7
100
AcDbLine
 10
174.62100029106381
 20
-18.999999998996827
 30
0.0
 11
160.39999981041197
 21
-18.999999999855191
 31
0.0
  0
ARC
  5
25B
100
AcDbEntity
  8
0
  6
CONTINUOUS
 62
               7
100
AcDbCircle
 10
159.78907680632381
 20
-20.031088828932582
 30
0.0
 40
1.7890758514404297
100
AcDbArc
 50
145.61576221210359
 51
205.61562727797229
  0
ARC
  5
25C
100
AcDbEntity
  8
0
  6
CONTINUOUS
 62
               7
100
AcDbCircle
 10
164.6873950968513
 20
-16.999999999596412
 30
0.0
 40
6.6873941421508789
100
AcDbArc
 50
162.41204432462203
 51
197.58790104078122
  0
ARC
  5
25D
100
AcDbEntity
  8
0
  6
CONTINUOUS
 62
               7
100
AcDbCircle
 10
159.7890768059579
 20
-13.968911170851527
 30
0.0
 40
1.7890758514404297
100
AcDbArc
 50
154.38431808743096
 51
214.38418315329966
  0
ARC
  5
25E
100
AcDbEntity
  8
0
  6
CONTINUOUS
 62
               7
100
AcDbCircle
 10
158.61092300499357
 20
-13.968911170922638
 30
0.0
 40
1.7890758514404297
100
AcDbArc
 50
325.61569891916821
 51
25.615577645415282
  0
ARC
  5
25F
100
AcDbEntity
  8
0
  6
CONTINUOUS
 62
               7
100
AcDbCircle
 10
153.71260471446607
 20
-17.000000000258837
 30
0.0
 40
6.6873941421508789
100
AcDbArc
 50
342.41206299395668
 51
17.587919710115894
  0
ARC
  5
260
100
AcDbEntity
  8
0
  6
CONTINUOUS
 62
               7
100
AcDbCircle
 10
158.61092300535947
 20
-20.031088829003693
 30
0.0
 40
1.7890758514404297
100
AcDbArc
 50
334.38429577563062
 51
34.384174501877652
  0
LINE
  5
261
100
AcDbEntity
  8
0
  6
CONTINUOUS
 62
               7
100
AcDbLine
 10
158.00000028357647
 20
-20.500001314963129
 30
0.0
 11
158.31260720692947
 21
-21.041452148311237
 31
0.0
  0
LINE
  5
262
100
AcDbEntity
  8
0
  6
CONTINUOUS
 62
               7
100
AcDbLine
 10
157.99999911587935
 20
-13.499997540203083
 30
0.0
 11
158.312606449089
 21
-12.958546930411046
 31
0.0
  0
LINE
  5
263
100
AcDbEntity
  8
0
  6
CONTINUOUS
 62
               7
100
AcDbLine
 10
160.39999959491146
 20
-13.499999727086873
 30
0.0
 11
160.0873921947211
 21
-12.958548067832652
 31
0.0
  0
LINE
  5
264
100
AcDbEntity
  8
0
  6
CONTINUOUS
 62
               7
100
AcDbLine
 10
160.08739247062471
 20
-12.958548545711466
 30
0.0
 11
158.31260776597992
 21
-12.958548545818587
 31
0.0
  0
LINE
  5
265
100
AcDbEntity
  8
0
  6
CONTINUOUS
 62
               7
100
AcDbLine
 10
160.08739145778745
 20
-19.02072620379252
 30
0.0
 11
158.31260776634582
 21
-19.020726203899642
 31
0.0
  0
LINE
  5
266
100
AcDbEntity
  8
0
  6
CONTINUOUS
 62
               7
100
AcDbLine
 10
160.39999981050252
 20
-20.499999999855191
 30
0.0
 11
160.39999981008
 21
-13.499999999855191
 31
0.0
  0
LINE
  5
267
100
AcDbEntity
  8
0
  6
CONTINUOUS
 62
               7
100
AcDbLine
 10
160.39999959533398
 20
-20.50000027262351
 30
0.0
 11
160.08739219520896
 21
-21.041451931915475
 31
0.0
  0
LINE
  5
268
100
AcDbEntity
  8
0
  6
CONTINUOUS
 62
               7
100
AcDbLine
 10
160.08739247111257
 20
-21.041451454036661
 30
0.0
 11
158.31260776646778
 21
-21.041451454143782
 31
0.0
  0
LINE
  5
269
100
AcDbEntity
  8
0
  6
CONTINUOUS
 62
               7
100
AcDbLine
 10
-2.0873914554912858
 20
-19.020726213581213
 30
0.0
 11
-0.3126077640496874
 21
-19.020726213474063
 31
0.0
  0
LINE
  5
26A
100
AcDbEntity
  8
0
  6
CONTINUOUS
 62
               7
100
AcDbLine
 10
-16.621000288770176
 20
-19.000000010539964
 30
0.0
 11
-2.3999998081183094
 21
-19.0000000096816
 31
0.0
  0
LINE
  5
26B
100
AcDbEntity
  8
0
  6
CONTINUOUS
 62
               2
100
AcDbLine
 10
-16.999999998876064
 20
-18.620999346805519
 30
0.0
 11
-2.3999998081411889
 21
-18.620999345924275
 31
0.0
  0
LINE
  5
26C
100
AcDbEntity
  8
0
  6
CONTINUOUS
 62
               7
100
AcDbLine
 10
-17.00000060490558
 20
-18.620999402659692
 30
0.0
 11
-16.621000639518797
 21
-18.999999336053406
 31
0.0
  0
LINE
  5
26D
100
AcDbEntity
  8
0
  6
CONTINUOUS
 62
               7
100
AcDbLine
 10
-17.000000605101263
 20
-15.379000618465994
 30
0.0
 11
-16.62100063976024
 21
-15.000000685026521
 31
0.0
  0
LINE
  5
26E
100
AcDbEntity
  8
0
  6
CONTINUOUS
 62
               7
100
AcDbLine
 10
-16.999999999071747
 20
-15.379000674320167
 30
0.0
 11
-16.999999998876064
 21
-18.620999346805519
 31
0.0
  0
LINE
  5
26F
100
AcDbEntity
  8
0
  6
CONTINUOUS
 62
               7
100
AcDbLine
 10
-16.621000289011619
 20
-15.000000010539964
 30
0.0
 11
-16.621000288770176
 21
-19.000000010539964
 31
0.0
  0
LINE
  5
270
100
AcDbEntity
  8
0
  6
CONTINUOUS
 62
               2
100
AcDbLine
 10
-16.999999999071747
 20
-15.379000674320167
 30
0.0
 11
-2.3999998083368723
 21
-15.379000673438924
 31
0.0
  0
LINE
  5
271
100
AcDbEntity
  8
0
  6
CONTINUOUS
 62
               7
100
AcDbLine
 10
-16.621000289011619
 20
-15.000000010539964
 30
0.0
 11
-2.3999998083597518
 21
-15.0000000096816
 31
0.0
  0
ARC
  5
272
100
AcDbEntity
  8
0
  6
CONTINUOUS
 62
               7
100
AcDbCircle
 10
-1.7890768042715877
 20
-13.968911180604209
 30
0.0
 40
1.7890758514404297
100
AcDbArc
 50
325.61576221210362
 51
25.615627277972308
  0
ARC
  5
273
100
AcDbEntity
  8
0
  6
CONTINUOUS
 62
               7
100
AcDbCircle
 10
-6.6873950947990863
 20
-17.000000009940379
 30
0.0
 40
6.6873941421508789
100
AcDbArc
 50
342.41204432462206
 51
17.587901040781219
  0
ARC
  5
274
100
AcDbEntity
  8
0
  6
CONTINUOUS
 62
               7
100
AcDbCircle
 10
-1.7890768039056866
 20
-20.031088838685264
 30
0.0
 40
1.7890758514404297
100
AcDbArc
 50
334.38431808743093
 51
34.384183153299659
  0
ARC
  5
275
100
AcDbEntity
  8
0
  6
CONTINUOUS
 62
               7
100
AcDbCircle
 10
-0.6109230029413482
 20
-20.031088838614153
 30
0.0
 40
1.7890758514404297
100
AcDbArc
 50
145.61569891916824
 51
205.61557764541527
  0
ARC
  5
276
100
AcDbEntity
  8
0
  6
CONTINUOUS
 62
               7
100
AcDbCircle
 10
4.2873952875861505
 20
-17.000000009277954
 30
0.0
 40
6.6873941421508789
100
AcDbArc
 50
162.41206299395671
 51
197.5879197101159
  0
ARC
  5
277
100
AcDbEntity
  8
0
  6
CONTINUOUS
 62
               7
100
AcDbCircle
 10
-0.6109230033072493
 20
-13.968911180533098
 30
0.0
 40
1.7890758514404297
100
AcDbArc
 50
154.38429577563059
 51
214.38417450187765
  0
LINE
  5
278
100
AcDbEntity
  8
0
  6
CONTINUOUS
 62
               7
100
AcDbLine
 10
-0.000000281524251
 20
-13.499998694573662
 30
0.0
 11
-0.3126072048772812
 21
-12.958547861225554
 31
0.0
  0
LINE
  5
279
100
AcDbEntity
  8
0
  6
CONTINUOUS
 62
               7
100
AcDbLine
 10
0.0000008861728702
 20
-20.500002469333708
 30
0.0
 11
-0.3126064470368135
 21
-21.041453079125745
 31
0.0
  0
LINE
  5
27A
100
AcDbEntity
  8
0
  6
CONTINUOUS
 62
               7
100
AcDbLine
 10
-2.3999995928592455
 20
-20.500000282449918
 30
0.0
 11
-2.0873921926688865
 21
-21.041451941704167
 31
0.0
  0
LINE
  5
27B
100
AcDbEntity
  8
0
  6
CONTINUOUS
 62
               7
100
AcDbLine
 10
-2.0873924685724887
 20
-21.041451463825354
 30
0.0
 11
-0.3126077639277298
 21
-21.041451463718204
 31
0.0
  0
LINE
  5
27C
100
AcDbEntity
  8
0
  6
CONTINUOUS
 62
               7
100
AcDbLine
 10
-2.0873914557352293
 20
-14.97927380574427
 30
0.0
 11
-0.3126077642936309
 21
-14.979273805637149
 31
0.0
  0
LINE
  5
27D
100
AcDbEntity
  8
0
  6
CONTINUOUS
 62
               7
100
AcDbLine
 10
-2.3999998084503034
 20
-13.5000000096816
 30
0.0
 11
-2.3999998080277862
 21
-20.5000000096816
 31
0.0
  0
LINE
  5
27E
100
AcDbEntity
  8
0
  6
CONTINUOUS
 62
               7
100
AcDbLine
 10
-2.3999995932817626
 20
-13.499999736913281
 30
0.0
 11
-2.0873921931567736
 21
-12.958548077621316
 31
0.0
  0
LINE
  5
27F
100
AcDbEntity
  8
0
  6
CONTINUOUS
 62
               7
100
AcDbLine
 10
-2.0873924690603474
 20
-12.958548555500158
 30
0.0
 11
-0.3126077644155885
 21
-12.958548555393008
 31
0.0
  0
LINE
  5
280
100
AcDbEntity
  8
0
  6
CONTINUOUS
 62
               7
100
AcDbLine
 10
0.000000001146816
 20
-19.0
 30
0.0
 11
6.0000000011468444
 21
-18.999999999637851
 31
0.0
  0
LINE
  5
281
100
AcDbEntity
  8
0
  6
CONTINUOUS
 62
               7
100
AcDbLine
 10
158.00000000114682
 20
-19.000000000000028
 30
0.0
 11
152.00000000114682
 21
-19.000000000362206
 31
0.0
  0
LINE
  5
282
100
AcDbEntity
  8
0
  6
CONTINUOUS
 62
               7
100
AcDbLine
 10
9.0000000006337757
 20
-10.50000000899351
 30
0.0
 11
9.0000000007243273
 21
-12.00000000899351
 31
0.0
  0
LINE
  5
283
100
AcDbEntity
  8
0
  6
CONTINUOUS
 62
               4
100
AcDbLine
 10
125.00234457211837
 20
-13.000000001991765
 30
0.0
 11
125.00234457242017
 21
-18.000000001991765
 31
0.0
  0
LINE
  5
284
100
AcDbEntity
  8
0
  6
CONTINUOUS
 62
               7
100
AcDbLine
 10
50.000000001207184
 20
-20.000000006518803
 30
0.0
 11
50.000000001237368
 21
-20.500000006518803
 31
0.0
  0
LINE
  5
285
100
AcDbEntity
  8
0
  6
CONTINUOUS
 62
               7
100
AcDbLine
 10
33.000000001207184
 20
-20.000000007544884
 30
0.0
 11
33.000000001237368
 21
-20.500000007544884
 31
0.0
  0
LINE
  5
286
100
AcDbEntity
  8
0
  6
CONTINUOUS
 62
               7
100
AcDbLine
 10
37.999999571907097
 20
-9.5000000072431021
 30
0.0
 11
37.999999571967464
 21
-10.500000007243102
 31
0.0
  0
LINE
  5
287
100
AcDbEntity
  8
0
  6
CONTINUOUS
 62
               7
100
AcDbLine
 10
37.999999571363873
 20
-0.5000000072431021
 30
0.0
 11
37.999999571333717
 21
-0.0000000072431021
 31
0.0
  0
LINE
  5
288
100
AcDbEntity
  8
0
  6
CONTINUOUS
 62
               7
100
AcDbLine
 10
22.999999571363873
 20
-0.5000000081485041
 30
0.0
 11
22.999999571333717
 21
-0.0000000081485041
 31
0.0
  0
LINE
  5
289
100
AcDbEntity
  8
0
  6
CONTINUOUS
 62
               7
100
AcDbLine
 10
135.00000000003018
 20
-0.5000000013883152
 30
0.0
 11
135.0
 21
-0.0000000013883152
 31
0.0
  0
LINE
  5
28A
100
AcDbEntity
  8
0
  6
CONTINUOUS
 62
               7
100
AcDbLine
 10
120.0000000000302
 20
-0.5000000022936888
 30
0.0
 11
120.00000000000001
 21
-0.0000000022936888
 31
0.0
  0
LINE
  5
28B
100
AcDbEntity
  8
0
  6
CONTINUOUS
 62
               7
100
AcDbLine
 10
120.00000000057342
 20
-9.5000000022936888
 30
0.0
 11
120.00000000063378
 21
-10.500000002293689
 31
0.0
  0
LINE
  5
28C
100
AcDbEntity
  8
0
  6
PHANTOM
 62
               3
100
AcDbLine
 10
82.750000008274256
 20
-68.542236302804298
 30
0.0
 11
82.749999996657124
 21
27.691796661249612
 31
0.0
  0
LINE
  5
28D
100
AcDbEntity
  8
0
  6
PHANTOM
 62
               3
100
AcDbLine
 10
62.750000008274256
 20
-68.542236299514741
 30
0.0
 11
62.749999997864293
 21
17.691796658835244
 31
0.0
  0
LINE
  5
28E
100
AcDbEntity
  8
0
  6
PHANTOM
 62
               3
100
AcDbLine
 10
110.00000000827426
 20
-68.542236299514741
 30
0.0
 11
109.99999999544994
 21
37.69179666453914
 31
0.0
  0
ENDBLK
  5
28F
100
AcDbEntity
  8
0
100
AcDbBlockEnd
  0
BLOCK
  5
290
100
AcDbEntity
  8
0
100
AcDbBlockBegin
  2
MS_4
 70
               0
 10
0.0
 20
0.0
 30
0.0
  3
MS_4
  1

  0
LINE
  5
291
100
AcDbEntity
  8
0
  6
CONTINUOUS
 62
               7
100
AcDbLine
 10
152.00000000126755
 20
21.000000000362164
 30
0.0
 11
152.0
 21
0.0000000003621707
 31
0.0
  0
LINE
  5
292
100
AcDbEntity
  8
0
  6
CONTINUOUS
 62
               7
100
AcDbLine
 10
158.00000000126755
 20
21.000000000000007
 30
0.0
 11
158.0
 21
0.0000000000000142
 31
0.0
  0
LINE
  5
293
100
AcDbEntity
  8
0
  6
CONTINUOUS
 62
               7
100
AcDbLine
 10
158.00000000126755
 20
21.000000000000007
 30
0.0
 11
152.00000000126755
 21
21.000000000362164
 31
0.0
  0
LINE
  5
294
100
AcDbEntity
  8
0
  6
CONTINUOUS
 62
               7
100
AcDbLine
 10
149.00000000088727
 20
14.700000000543241
 30
0.0
 11
149.0000000007243
 21
12.000000000543245
 31
0.0
  0
LINE
  5
295
100
AcDbEntity
  8
0
  6
CONTINUOUS
 62
               4
100
AcDbLine
 10
135.00000000123737
 20
20.500000001388273
 30
0.0
 11
127.00000000123738
 21
20.500000001871147
 31
0.0
  0
LINE
  5
296
100
AcDbEntity
  8
0
  6
CONTINUOUS
 62
               4
100
AcDbLine
 10
135.00000000088727
 20
14.700000001388268
 30
0.0
 11
135.00000000123737
 21
20.500000001388273
 31
0.0
  0
LINE
  5
297
100
AcDbEntity
  8
0
  6
CONTINUOUS
 62
               4
100
AcDbLine
 10
137.00234457426239
 20
19.500000001267413
 30
0.0
 11
137.00234457397266
 21
14.700000001267409
 31
0.0
  0
LINE
  5
298
100
AcDbEntity
  8
0
  6
CONTINUOUS
 62
               4
100
AcDbLine
 10
137.00234457420203
 20
18.500000001267413
 30
0.0
 11
145.50234457245034
 21
18.500000000754362
 31
0.0
  0
LINE
  5
299
100
AcDbEntity
  8
0
  6
CONTINUOUS
 62
             200
100
AcDbLine
 10
137.00234457417753
 20
18.094000001267407
 30
0.0
 11
145.90834457242585
 21
18.094000000729849
 31
0.0
  0
LINE
  5
29A
100
AcDbEntity
  8
0
  6
CONTINUOUS
 62
               4
100
AcDbLine
 10
136.64507898429068
 20
17.809401071438511
 30
0.0
 11
135.00234457416036
 21
17.809401071537664
 31
0.0
  0
ARC
  5
29B
100
AcDbEntity
  8
0
  6
CONTINUOUS
 62
               4
100
AcDbCircle
 10
129.35961017800454
 20
15.500000001728722
 30
0.0
 40
7.6427343960164382
100
AcDbArc
 50
357.75039271201882
 51
17.587953752008413
  0
LINE
  5
29C
100
AcDbEntity
  8
0
  6
CONTINUOUS
 62
               4
100
AcDbLine
 10
135.00234457429974
 20
20.118802152472071
 30
0.0
 11
136.64507898579632
 21
20.118802152372918
 31
0.0
  0
ARC
  5
29D
100
AcDbEntity
  8
0
  6
CONTINUOUS
 62
               4
100
AcDbCircle
 10
134.95768636210855
 20
18.964101612007578
 30
0.0
 40
2.0446582121215231
100
AcDbArc
 50
325.61575271423362
 51
34.384247278849784
  0
LINE
  5
29E
100
AcDbEntity
  8
0
  6
CONTINUOUS
 62
               4
100
AcDbLine
 10
137.00234457426239
 20
19.500000001267413
 30
0.0
 11
136.64507898579632
 21
20.118802152372918
 31
0.0
  0
LINE
  5
29F
100
AcDbEntity
  8
0
  6
CONTINUOUS
 62
               4
100
AcDbLine
 10
146.00234457222098
 20
14.700000000724177
 30
0.0
 11
146.00234457242018
 21
18.000000000724182
 31
0.0
  0
LINE
  5
2A0
100
AcDbEntity
  8
0
  6
CONTINUOUS
 62
               4
100
AcDbLine
 10
145.50234457222098
 20
14.700000000754358
 30
0.0
 11
145.50234457245034
 21
18.500000000754362
 31
0.0
  0
LINE
  5
2A1
100
AcDbEntity
  8
0
  6
CONTINUOUS
 62
               4
100
AcDbLine
 10
146.00234457242018
 20
18.000000000724182
 30
0.0
 11
149.99999999933479
 21
18.000000000482888
 31
0.0
  0
LINE
  5
2A2
100
AcDbEntity
  8
0
  6
CONTINUOUS
 62
               4
100
AcDbLine
 10
149.00000000078467
 20
13.000000000543245
 30
0.0
 11
149.99999999903298
 21
13.000000000482885
 31
0.0
  0
LINE
  5
2A3
100
AcDbEntity
  8
0
  6
CONTINUOUS
 62
               4
100
AcDbLine
 10
146.00234457242018
 20
18.000000000724182
 30
0.0
 11
145.50234457245034
 21
18.500000000754362
 31
0.0
  0
LINE
  5
2A4
100
AcDbEntity
  8
0
  6
CONTINUOUS
 62
               7
100
AcDbLine
 10
149.99999981646334
 20
15.749998873693414
 30
0.0
 11
150.75000019114177
 21
14.999998941466437
 31
0.0
  0
LINE
  5
2A5
100
AcDbEntity
  8
0
  6
CONTINUOUS
 62
               7
100
AcDbLine
 10
150.75000000114682
 20
19.000000000437616
 30
0.0
 11
150.75000000090537
 21
15.000000000437616
 31
0.0
  0
LINE
  5
2A6
100
AcDbEntity
  8
0
  6
CONTINUOUS
 62
               7
100
AcDbLine
 10
149.99999981661423
 20
18.250001127272359
 30
0.0
 11
150.75000019138321
 21
19.000001059408795
 31
0.0
  0
LINE
  5
2A7
100
AcDbEntity
  8
0
  6
CONTINUOUS
 62
               2
100
AcDbLine
 10
152.00000000092825
 20
15.379000664119495
 30
0.0
 11
150.37100029084525
 21
15.37900066421782
 31
0.0
  0
LINE
  5
2A8
100
AcDbEntity
  8
0
  6
CONTINUOUS
 62
               7
100
AcDbLine
 10
152.00000000090537
 20
15.000000000362171
 30
0.0
 11
150.75000000090537
 21
15.000000000437616
 31
0.0
  0
LINE
  5
2A9
100
AcDbEntity
  8
0
  6
CONTINUOUS
 62
               2
100
AcDbLine
 10
152.00000000112394
 20
18.620999336604847
 30
0.0
 11
150.37100029104093
 21
18.620999336703171
 31
0.0
  0
LINE
  5
2AA
100
AcDbEntity
  8
0
  6
CONTINUOUS
 62
               7
100
AcDbLine
 10
152.00000000114682
 20
19.000000000362171
 30
0.0
 11
150.75000000114682
 21
19.000000000437616
 31
0.0
  0
LINE
  5
2AB
100
AcDbEntity
  8
0
  6
CONTINUOUS
 62
               2
100
AcDbLine
 10
149.24175104106527
 20
17.000000000528654
 30
0.0
 11
175.63735426073794
 21
16.99999999893544
 31
0.0
  0
LINE
  5
2AC
100
AcDbEntity
  8
0
  6
CONTINUOUS
 62
               7
100
AcDbLine
 10
158.00000000006037
 20
1.0000000000000142
 30
0.0
 11
152.00000000006037
 21
1.0000000003621707
 31
0.0
  0
LINE
  5
2AD
100
AcDbEntity
  8
0
  6
CONTINUOUS
 62
               7
100
AcDbLine
 10
158.00000000066396
 20
11.000000000000014
 30
0.0
 11
152.00000000066396
 21
11.000000000362171
 31
0.0
  0
LINE
  5
2AE
100
AcDbEntity
  8
0
  6
CONTINUOUS
 62
               7
100
AcDbLine
 10
160.08739145778745
 20
19.020726203792478
 30
0.0
 11
158.31260776634582
 21
19.020726203899603
 31
0.0
  0
LINE
  5
2AF
100
AcDbEntity
  8
0
  6
CONTINUOUS
 62
               7
100
AcDbLine
 10
174.62100029106381
 20
18.999999998996785
 30
0.0
 11
160.39999981041197
 21
18.999999999855152
 31
0.0
  0
LINE
  5
2B0
100
AcDbEntity
  8
0
  6
CONTINUOUS
 62
               2
100
AcDbLine
 10
175.00000000112394
 20
18.620999335216585
 30
0.0
 11
160.39999981038909
 21
18.620999336097828
 31
0.0
  0
LINE
  5
2B1
100
AcDbEntity
  8
0
  6
CONTINUOUS
 62
               7
100
AcDbLine
 10
175.00000060715345
 20
18.620999391070757
 30
0.0
 11
174.62100064181243
 21
18.999999324510227
 31
0.0
  0
LINE
  5
2B2
100
AcDbEntity
  8
0
  6
CONTINUOUS
 62
               7
100
AcDbLine
 10
175.00000060695777
 20
15.379000606877064
 30
0.0
 11
174.62100064157099
 21
15.000000673483342
 31
0.0
  0
LINE
  5
2B3
100
AcDbEntity
  8
0
  6
CONTINUOUS
 62
               7
100
AcDbLine
 10
175.00000000092825
 20
15.379000662731237
 30
0.0
 11
175.00000000112394
 21
18.620999335216585
 31
0.0
  0
LINE
  5
2B4
100
AcDbEntity
  8
0
  6
CONTINUOUS
 62
               7
100
AcDbLine
 10
174.62100029082237
 20
14.999999998996785
 30
0.0
 11
174.62100029106381
 21
18.999999998996785
 31
0.0
  0
LINE
  5
2B5
100
AcDbEntity
  8
0
  6
CONTINUOUS
 62
               2
100
AcDbLine
 10
175.00000000092825
 20
15.379000662731237
 30
0.0
 11
160.39999981019341
 21
15.379000663612477
 31
0.0
  0
LINE
  5
2B6
100
AcDbEntity
  8
0
  6
CONTINUOUS
 62
               7
100
AcDbLine
 10
174.62100029082237
 20
14.999999998996785
 30
0.0
 11
160.39999981017053
 21
14.999999999855152
 31
0.0
  0
ARC
  5
2B7
100
AcDbEntity
  8
0
  6
CONTINUOUS
 62
               7
100
AcDbCircle
 10
159.7890768059579
 20
13.968911170851499
 30
0.0
 40
1.7890758514404297
100
AcDbArc
 50
145.615762205187
 51
205.6156272710557
  0
ARC
  5
2B8
100
AcDbEntity
  8
0
  6
CONTINUOUS
 62
               7
100
AcDbCircle
 10
164.6873950968513
 20
16.999999999596369
 30
0.0
 40
6.6873941421508789
100
AcDbArc
 50
162.41204431770541
 51
197.5879010338646
  0
ARC
  5
2B9
100
AcDbEntity
  8
0
  6
CONTINUOUS
 62
               7
100
AcDbCircle
 10
159.78907680632381
 20
20.031088828932553
 30
0.0
 40
1.7890758514404297
100
AcDbArc
 50
154.38431808051433
 51
214.38418314638304
  0
ARC
  5
2BA
100
AcDbEntity
  8
0
  6
CONTINUOUS
 62
               7
100
AcDbCircle
 10
158.61092300535947
 20
20.031088829003668
 30
0.0
 40
1.7890758514404297
100
AcDbArc
 50
325.61569891225162
 51
25.615577638498667
  0
ARC
  5
2BB
100
AcDbEntity
  8
0
  6
CONTINUOUS
 62
               7
100
AcDbCircle
 10
153.71260471446607
 20
17.000000000258797
 30
0.0
 40
6.6873941421508789
100
AcDbArc
 50
342.41206298704009
 51
17.587919703199283
  0
ARC
  5
2BC
100
AcDbEntity
  8
0
  6
CONTINUOUS
 62
               7
100
AcDbCircle
 10
158.61092300499357
 20
13.968911170922613
 30
0.0
 40
1.7890758514404297
100
AcDbArc
 50
334.38429576871397
 51
34.384174494961037
  0
LINE
  5
2BD
100
AcDbEntity
  8
0
  6
CONTINUOUS
 62
               7
100
AcDbLine
 10
158.00000028315395
 20
13.499998685036942
 30
0.0
 11
158.31260720644161
 21
12.958547851651094
 31
0.0
  0
LINE
  5
2BE
100
AcDbEntity
  8
0
  6
CONTINUOUS
 62
               7
100
AcDbLine
 10
157.99999911630186
 20
20.500002459796988
 30
0.0
 11
158.31260644957689
 21
21.041453069551284
 31
0.0
  0
LINE
  5
2BF
100
AcDbEntity
  8
0
  6
CONTINUOUS
 62
               7
100
AcDbLine
 10
160.39999959533398
 20
20.50000027262347
 30
0.0
 11
160.08739219520899
 21
21.041451931915432
 31
0.0
  0
LINE
  5
2C0
100
AcDbEntity
  8
0
  6
CONTINUOUS
 62
               7
100
AcDbLine
 10
160.08739247111259
 20
21.041451454036618
 30
0.0
 11
158.31260776646781
 21
21.041451454143743
 31
0.0
  0
LINE
  5
2C1
100
AcDbEntity
  8
0
  6
CONTINUOUS
 62
               7
100
AcDbLine
 10
160.0873914575435
 20
14.979273795955564
 30
0.0
 11
158.31260776610188
 21
14.979273796062689
 31
0.0
  0
LINE
  5
2C2
100
AcDbEntity
  8
0
  6
CONTINUOUS
 62
               7
100
AcDbLine
 10
160.39999981008
 20
13.499999999855152
 30
0.0
 11
160.39999981050252
 21
20.499999999855152
 31
0.0
  0
LINE
  5
2C3
100
AcDbEntity
  8
0
  6
CONTINUOUS
 62
               7
100
AcDbLine
 10
160.39999959491146
 20
13.499999727086834
 30
0.0
 11
160.0873921947211
 21
12.958548067832609
 31
0.0
  0
LINE
  5
2C4
100
AcDbEntity
  8
0
  6
CONTINUOUS
 62
               7
100
AcDbLine
 10
160.08739247062471
 20
12.958548545711423
 30
0.0
 11
158.31260776597992
 21
12.958548545818548
 31
0.0
  0
LINE
  5
2C5
100
AcDbEntity
  8
0
  6
CONTINUOUS
 62
               7
100
AcDbLine
 10
158.00000000114682
 20
19.000000000000007
 30
0.0
 11
152.00000000114682
 21
19.000000000362164
 31
0.0
  0
LINE
  5
2C6
100
AcDbEntity
  8
0
  6
CONTINUOUS
 62
               4
100
AcDbLine
 10
127.0000000008873
 20
14.700000001871139
 30
0.0
 11
127.00000000123738
 21
20.499999992334399
 31
0.0
  0
LINE
  5
2C7
100
AcDbEntity
  8
0
  6
CONTINUOUS
 62
               4
100
AcDbLine
 10
125.49999999913561
 20
14.70000000196168
 30
0.0
 11
125.49999999933479
 21
18.000000001961684
 31
0.0
  0
LINE
  5
2C8
100
AcDbEntity
  8
0
  6
CONTINUOUS
 62
               4
100
AcDbLine
 10
124.99999999933478
 20
18.000000001991864
 30
0.0
 11
125.49999999933478
 21
18.000000001961684
 31
0.0
  0
LINE
  5
2C9
100
AcDbEntity
  8
0
  6
CONTINUOUS
 62
               4
100
AcDbLine
 10
125.99999999936497
 20
18.500000001931504
 30
0.0
 11
125.49999999933479
 21
18.000000001961684
 31
0.0
  0
LINE
  5
2CA
100
AcDbEntity
  8
0
  6
CONTINUOUS
 62
             200
100
AcDbLine
 10
125.59399999934047
 20
18.094000001956005
 30
0.0
 11
127.00000000109215
 21
18.094000001871141
 31
0.0
  0
LINE
  5
2CB
100
AcDbEntity
  8
0
  6
CONTINUOUS
 62
               4
100
AcDbLine
 10
125.99999999936497
 20
18.500000001931504
 30
0.0
 11
125.99999999913561
 21
14.7000000019315
 31
0.0
  0
LINE
  5
2CC
100
AcDbEntity
  8
0
  6
CONTINUOUS
 62
               4
100
AcDbLine
 10
125.99999999936497
 20
18.500000001931504
 30
0.0
 11
127.00000000111666
 21
18.500000001871147
 31
0.0
  0
LINE
  5
2CD
100
AcDbEntity
  8
0
  6
CONTINUOUS
 62
               4
100
AcDbLine
 10
149.99999999903298
 20
12.999999990946137
 30
0.0
 11
150.00000000110154
 21
18.250000000482888
 31
0.0
  0
LINE
  5
2CE
100
AcDbEntity
  8
0
  6
CONTINUOUS
 62
               4
100
AcDbLine
 10
121.10000000007796
 20
16.492750002227265
 30
0.0
 11
125.00000000007793
 21
16.492750001991865
 31
0.0
  0
LINE
  5
2CF
100
AcDbEntity
  8
0
  6
CONTINUOUS
 62
             200
100
AcDbLine
 10
119.95349337568608
 20
15.500000002296467
 30
0.0
 11
150.76939512505518
 21
15.500000000436447
 31
0.0
  0
LINE
  5
2D0
100
AcDbEntity
  8
0
  6
CONTINUOUS
 62
               4
100
AcDbLine
 10
121.10000000007796
 20
16.492750002227265
 30
0.0
 11
121.09999999996975
 21
14.700000002227259
 31
0.0
  0
LINE
  5
2D1
100
AcDbEntity
  8
0
  6
CONTINUOUS
 62
               4
100
AcDbLine
 10
121.10000000007796
 20
16.492750002227265
 30
0.0
 11
121.00000000007191
 21
16.392750002233306
 31
0.0
  0
LINE
  5
2D2
100
AcDbEntity
  8
0
  6
CONTINUOUS
 62
               4
100
AcDbLine
 10
120.99999999996975
 20
14.700000002233296
 30
0.0
 11
121.00000000007191
 21
16.392750002233306
 31
0.0
  0
LINE
  5
2D3
100
AcDbEntity
  8
0
  6
CONTINUOUS
 62
               4
100
AcDbLine
 10
124.99999999933478
 20
18.000000001991864
 30
0.0
 11
124.9999999991356
 21
14.70000000199186
 31
0.0
  0
LINE
  5
2D4
100
AcDbEntity
  8
0
  6
PHANTOM
 62
               3
100
AcDbLine
 10
62.749999997507928
 20
-20.643696043360166
 30
0.0
 11
62.750000008439372
 21
69.909719871071317
 31
0.0
  0
LINE
  5
2D5
100
AcDbEntity
  8
0
  6
PHANTOM
 62
               3
100
AcDbLine
 10
82.749999997507928
 20
-20.643696045774533
 30
0.0
 11
82.750000008439372
 21
69.909719865322117
 31
0.0
  0
LINE
  5
2D6
100
AcDbEntity
  8
0
  6
PHANTOM
 62
               3
100
AcDbLine
 10
109.99999999750793
 20
-20.64369604906409
 30
0.0
 11
110.00000000843937
 21
69.909719865322117
 31
0.0
  0
LINE
  5
2D7
100
AcDbEntity
  8
0
  6
CONTINUOUS
 62
               7
100
AcDbLine
 10
100.00000000132792
 20
22.000000003500833
 30
0.0
 11
100.00000000078468
 21
13.000000003500833
 31
0.0
  0
LINE
  5
2D8
100
AcDbEntity
  8
0
  6
CONTINUOUS
 62
               7
100
AcDbLine
 10
149.00000000088727
 20
14.700000000543241
 30
0.0
 11
100.0000000008873
 21
14.700000003500836
 31
0.0
  0
LINE
  5
2D9
100
AcDbEntity
  8
0
  6
CONTINUOUS
 62
               7
100
AcDbLine
 10
6.0
 20
-0.0000000003621565
 30
0.0
 11
6.0000000012675514
 21
20.999999999637847
 31
0.0
  0
LINE
  5
2DA
100
AcDbEntity
  8
0
  6
CONTINUOUS
 62
               7
100
AcDbLine
 10
0.0
 20
0.0
 30
0.0
 11
0.0000000012675514
 21
21.0
 31
0.0
  0
LINE
  5
2DB
100
AcDbEntity
  8
0
  6
CONTINUOUS
 62
               7
100
AcDbLine
 10
0.0000000012675514
 20
21.0
 30
0.0
 11
6.0000000012675514
 21
20.999999999637847
 31
0.0
  0
LINE
  5
2DC
100
AcDbEntity
  8
0
  6
CONTINUOUS
 62
               7
100
AcDbLine
 10
8.0000000013279191
 20
22.000000009053867
 30
0.0
 11
8.000000000784695
 21
13.000000009053871
 31
0.0
  0
LINE
  5
2DD
100
AcDbEntity
  8
0
  6
CONTINUOUS
 62
               2
100
AcDbLine
 10
8.7582489609869469
 20
17.000000009008108
 30
0.0
 11
-17.637354258685718
 21
17.000000010601322
 31
0.0
  0
LINE
  5
2DE
100
AcDbEntity
  8
0
  6
CONTINUOUS
 62
               7
100
AcDbLine
 10
6.0000000011468444
 20
19.000000009174595
 30
0.0
 11
7.250000001146816
 21
19.000000009099146
 31
0.0
  0
LINE
  5
2DF
100
AcDbEntity
  8
0
  6
CONTINUOUS
 62
               2
100
AcDbLine
 10
6.0000000011239649
 20
18.620999345417271
 30
0.0
 11
7.6289997112069443
 21
18.620999345318946
 31
0.0
  0
LINE
  5
2E0
100
AcDbEntity
  8
0
  6
CONTINUOUS
 62
               7
100
AcDbLine
 10
6.000000000905402
 20
15.000000009174592
 30
0.0
 11
7.2500000009053736
 21
15.000000009099146
 31
0.0
  0
LINE
  5
2E1
100
AcDbEntity
  8
0
  6
CONTINUOUS
 62
               2
100
AcDbLine
 10
6.0000000009282815
 20
15.379000672931916
 30
0.0
 11
7.6289997110112608
 21
15.379000672833591
 31
0.0
  0
LINE
  5
2E2
100
AcDbEntity
  8
0
  6
CONTINUOUS
 62
               7
100
AcDbLine
 10
8.0000001855888456
 20
18.250001135843345
 30
0.0
 11
7.249999810910424
 21
19.000001068070326
 31
0.0
  0
LINE
  5
2E3
100
AcDbEntity
  8
0
  6
CONTINUOUS
 62
               7
100
AcDbLine
 10
7.250000001146816
 20
19.000000009099146
 30
0.0
 11
7.2500000009053736
 21
15.000000009099146
 31
0.0
  0
LINE
  5
2E4
100
AcDbEntity
  8
0
  6
CONTINUOUS
 62
               7
100
AcDbLine
 10
8.0000001854379548
 20
15.749998882264407
 30
0.0
 11
7.2499998106689816
 21
14.999998950127967
 31
0.0
  0
LINE
  5
2E5
100
AcDbEntity
  8
0
  6
CONTINUOUS
 62
               7
100
AcDbLine
 10
6.0000000006639596
 20
11.000000009174592
 30
0.0
 11
0.0000000006639596
 21
11.000000009536748
 31
0.0
  0
LINE
  5
2E6
100
AcDbEntity
  8
0
  6
CONTINUOUS
 62
               7
100
AcDbLine
 10
6.0000000000603677
 20
1.0000000091745918
 30
0.0
 11
0.0000000000603677
 21
1.0000000095367483
 31
0.0
  0
LINE
  5
2E7
100
AcDbEntity
  8
0
  6
CONTINUOUS
 62
               7
100
AcDbLine
 10
-2.0873914557352293
 20
14.979273805744285
 30
0.0
 11
-0.3126077642936309
 21
14.97927380563716
 31
0.0
  0
LINE
  5
2E8
100
AcDbEntity
  8
0
  6
CONTINUOUS
 62
               7
100
AcDbLine
 10
-16.62100028901159
 20
15.000000010539978
 30
0.0
 11
-2.3999998083597518
 21
15.00000000968161
 31
0.0
  0
LINE
  5
2E9
100
AcDbEntity
  8
0
  6
CONTINUOUS
 62
               2
100
AcDbLine
 10
-16.999999999071747
 20
15.379000674320174
 30
0.0
 11
-2.3999998083368723
 21
15.379000673438934
 31
0.0
  0
LINE
  5
2EA
100
AcDbEntity
  8
0
  6
CONTINUOUS
 62
               7
100
AcDbLine
 10
-17.000000605101263
 20
15.379000618466002
 30
0.0
 11
-16.621000639760211
 21
15.000000685026535
 31
0.0
  0
LINE
  5
2EB
100
AcDbEntity
  8
0
  6
CONTINUOUS
 62
               7
100
AcDbLine
 10
-17.00000060490558
 20
18.620999402659702
 30
0.0
 11
-16.621000639518797
 21
18.999999336053421
 31
0.0
  0
LINE
  5
2EC
100
AcDbEntity
  8
0
  6
CONTINUOUS
 62
               7
100
AcDbLine
 10
-16.999999998876064
 20
18.620999346805529
 30
0.0
 11
-16.999999999071747
 21
15.379000674320174
 31
0.0
  0
LINE
  5
2ED
100
AcDbEntity
  8
0
  6
CONTINUOUS
 62
               7
100
AcDbLine
 10
-16.621000288770176
 20
19.000000010539978
 30
0.0
 11
-16.62100028901159
 21
15.000000010539978
 31
0.0
  0
LINE
  5
2EE
100
AcDbEntity
  8
0
  6
CONTINUOUS
 62
               2
100
AcDbLine
 10
-16.999999998876064
 20
18.620999346805529
 30
0.0
 11
-2.3999998081411889
 21
18.620999345924286
 31
0.0
  0
LINE
  5
2EF
100
AcDbEntity
  8
0
  6
CONTINUOUS
 62
               7
100
AcDbLine
 10
-16.621000288770176
 20
19.000000010539978
 30
0.0
 11
-2.3999998081183094
 21
19.00000000968161
 31
0.0
  0
ARC
  5
2F0
100
AcDbEntity
  8
0
  6
CONTINUOUS
 62
               7
100
AcDbCircle
 10
-1.7890768039056866
 20
20.031088838685264
 30
0.0
 40
1.7890758514404297
100
AcDbArc
 50
325.61576220518697
 51
25.615627271055693
  0
ARC
  5
2F1
100
AcDbEntity
  8
0
  6
CONTINUOUS
 62
               7
100
AcDbCircle
 10
-6.6873950947990863
 20
17.000000009940393
 30
0.0
 40
6.6873941421508789
100
AcDbArc
 50
342.41204431770541
 51
17.587901033864608
  0
ARC
  5
2F2
100
AcDbEntity
  8
0
  6
CONTINUOUS
 62
               7
100
AcDbCircle
 10
-1.7890768042715877
 20
13.968911180604209
 30
0.0
 40
1.7890758514404297
100
AcDbArc
 50
334.38431808051433
 51
34.384183146383045
  0
ARC
  5
2F3
100
AcDbEntity
  8
0
  6
CONTINUOUS
 62
               7
100
AcDbCircle
 10
-0.6109230033072493
 20
13.968911180533098
 30
0.0
 40
1.7890758514404297
100
AcDbArc
 50
145.61569891225162
 51
205.61557763849868
  0
ARC
  5
2F4
100
AcDbEntity
  8
0
  6
CONTINUOUS
 62
               7
100
AcDbCircle
 10
4.2873952875861505
 20
17.000000009277965
 30
0.0
 40
6.6873941421508789
100
AcDbArc
 50
162.41206298704009
 51
197.58791970319928
  0
ARC
  5
2F5
100
AcDbEntity
  8
0
  6
CONTINUOUS
 62
               7
100
AcDbCircle
 10
-0.6109230029413482
 20
20.031088838614149
 30
0.0
 40
1.7890758514404297
100
AcDbArc
 50
154.384295768714
 51
214.38417449496103
  0
LINE
  5
2F6
100
AcDbEntity
  8
0
  6
CONTINUOUS
 62
               7
100
AcDbLine
 10
-0.0000002811017339
 20
20.50000132449982
 30
0.0
 11
-0.3126072043893942
 21
21.041452157885669
 31
0.0
  0
LINE
  5
2F7
100
AcDbEntity
  8
0
  6
CONTINUOUS
 62
               7
100
AcDbLine
 10
0.0000008857503531
 20
13.499997549739774
 30
0.0
 11
-0.3126064475246722
 21
12.958546939985478
 31
0.0
  0
LINE
  5
2F8
100
AcDbEntity
  8
0
  6
CONTINUOUS
 62
               7
100
AcDbLine
 10
-2.3999995932817626
 20
13.499999736913292
 30
0.0
 11
-2.0873921931567452
 21
12.95854807762133
 31
0.0
  0
LINE
  5
2F9
100
AcDbEntity
  8
0
  6
CONTINUOUS
 62
               7
100
AcDbLine
 10
-2.0873924690603474
 20
12.958548555500144
 30
0.0
 11
-0.3126077644155885
 21
12.958548555393019
 31
0.0
  0
LINE
  5
2FA
100
AcDbEntity
  8
0
  6
CONTINUOUS
 62
               7
100
AcDbLine
 10
-2.0873914554912858
 20
19.020726213581199
 30
0.0
 11
-0.3126077640496874
 21
19.020726213474074
 31
0.0
  0
LINE
  5
2FB
100
AcDbEntity
  8
0
  6
CONTINUOUS
 62
               7
100
AcDbLine
 10
-2.3999998080277862
 20
20.50000000968161
 30
0.0
 11
-2.3999998084503034
 21
13.50000000968161
 31
0.0
  0
LINE
  5
2FC
100
AcDbEntity
  8
0
  6
CONTINUOUS
 62
               7
100
AcDbLine
 10
-2.3999995928592455
 20
20.500000282449928
 30
0.0
 11
-2.0873921926688865
 21
21.041451941704153
 31
0.0
  0
LINE
  5
2FD
100
AcDbEntity
  8
0
  6
CONTINUOUS
 62
               7
100
AcDbLine
 10
-2.0873924685724603
 20
21.041451463825339
 30
0.0
 11
-0.3126077639277014
 21
21.041451463718214
 31
0.0
  0
LINE
  5
2FE
100
AcDbEntity
  8
0
  6
CONTINUOUS
 62
               7
100
AcDbLine
 10
0.000000001146816
 20
19.0
 30
0.0
 11
6.0000000011468444
 21
18.999999999637847
 31
0.0
  0
LINE
  5
2FF
100
AcDbEntity
  8
0
  6
CONTINUOUS
 62
               7
100
AcDbLine
 10
9.0000000007243273
 20
12.000000008993517
 30
0.0
 11
9.000000000784695
 21
13.00000000899351
 31
0.0
  0
LINE
  5
300
100
AcDbEntity
  8
0
  6
CONTINUOUS
 62
               7
100
AcDbLine
 10
152.00000000029274
 20
4.8500000003621722
 30
0.0
 11
6.0000000002927436
 21
4.8500000091745932
 31
0.0
  0
LINE
  5
301
100
AcDbEntity
  8
0
  6
CONTINUOUS
 62
               7
100
AcDbLine
 10
152.00000000009959
 20
1.6500000003621693
 30
0.0
 11
6.0000000000996181
 21
1.6500000091745903
 31
0.0
  0
LINE
  5
302
100
AcDbEntity
  8
0
  6
CONTINUOUS
 62
               7
100
AcDbLine
 10
152.00000000062471
 20
10.350000000362172
 30
0.0
 11
6.0000000006247376
 21
10.350000009174593
 31
0.0
  0
LINE
  5
303
100
AcDbEntity
  8
0
  6
CONTINUOUS
 62
               7
100
AcDbLine
 10
152.00000000043156
 20
7.1500000003621693
 30
0.0
 11
6.0000000004315837
 21
7.1500000091745903
 31
0.0
  0
LINE
  5
304
100
AcDbEntity
  8
0
  6
CONTINUOUS
 62
               7
100
AcDbLine
 10
152.0000000007243
 20
12.000000000362171
 30
0.0
 11
6.0000000007243273
 21
12.000000009174592
 31
0.0
  0
LINE
  5
305
100
AcDbEntity
  8
0
  6
CONTINUOUS
 62
               7
100
AcDbLine
 10
100.00000000078468
 20
13.000000003500833
 30
0.0
 11
8.000000000784695
 21
13.000000009053871
 31
0.0
  0
LINE
  5
306
100
AcDbEntity
  8
0
  6
CONTINUOUS
 62
               7
100
AcDbLine
 10
100.00000000123738
 20
20.500000003500833
 30
0.0
 11
8.0000000012373675
 21
20.500000009053867
 31
0.0
  0
LINE
  5
307
100
AcDbEntity
  8
0
  6
CONTINUOUS
 62
               7
100
AcDbLine
 10
100.00000000132792
 20
22.000000003500833
 30
0.0
 11
8.0000000013279191
 21
22.000000009053867
 31
0.0
  0
LINE
  5
308
100
AcDbEntity
  8
0
  6
CONTINUOUS
 62
               7
100
AcDbLine
 10
158.0
 20
0.0000000000000142
 30
0.0
 11
0.0
 21
0.0000000095367483
 31
0.0
  0
ENDBLK
  5
309
100
AcDbEntity
  8
0
100
AcDbBlockEnd
  0
BLOCK
  5
30A
100
AcDbEntity
  8
0
100
AcDbBlockBegin
  2
MS_5
 70
               0
 10
0.0
 20
0.0
 30
0.0
  3
MS_5
  1

  0
LINE
  5
30B
100
AcDbEntity
  8
0
  6
CONTINUOUS
 62
               7
100
AcDbLine
 10
158.0
 20
-18.0
 30
0.0
 11
158.0
 21
18.0
 31
0.0
  0
LINE
  5
30C
100
AcDbEntity
  8
0
  6
CONTINUOUS
 62
               7
100
AcDbLine
 10
0.0
 20
18.0
 30
0.0
 11
158.0
 21
18.0
 31
0.0
  0
LINE
  5
30D
100
AcDbEntity
  8
0
  6
CONTINUOUS
 62
               7
100
AcDbLine
 10
0.0
 20
-18.0
 30
0.0
 11
22.999999998248313
 21
-18.0
 31
0.0
  0
LINE
  5
30E
100
AcDbEntity
  8
0
  6
CONTINUOUS
 62
               2
100
AcDbLine
 10
-1.2786394233519331
 20
0.0
 30
0.0
 11
163.32796377504616
 21
0.0
 31
0.0
  0
LINE
  5
30F
100
AcDbEntity
  8
0
  6
CONTINUOUS
 62
               7
100
AcDbLine
 10
0.0
 20
18.0
 30
0.0
 11
0.0
 21
-18.0
 31
0.0
  0
LINE
  5
310
100
AcDbEntity
  8
0
  6
CONTINUOUS
 62
               7
100
AcDbLine
 10
6.0
 20
13.299999999999997
 30
0.0
 11
152.0
 21
13.299999999999997
 31
0.0
  0
LINE
  5
311
100
AcDbEntity
  8
0
  6
CONTINUOUS
 62
               7
100
AcDbLine
 10
6.0
 20
13.0
 30
0.0
 11
152.0
 21
13.0
 31
0.0
  0
LINE
  5
312
100
AcDbEntity
  8
0
  6
CONTINUOUS
 62
               7
100
AcDbLine
 10
6.0
 20
5.0
 30
0.0
 11
152.0
 21
5.0
 31
0.0
  0
LINE
  5
313
100
AcDbEntity
  8
0
  6
CONTINUOUS
 62
               7
100
AcDbLine
 10
6.0
 20
4.6999999999999886
 30
0.0
 11
152.0
 21
4.6999999999999886
 31
0.0
  0
LINE
  5
314
100
AcDbEntity
  8
0
  6
CONTINUOUS
 62
               7
100
AcDbLine
 10
6.0
 20
-4.7000000000000028
 30
0.0
 11
152.0
 21
-4.7000000000000028
 31
0.0
  0
LINE
  5
315
100
AcDbEntity
  8
0
  6
CONTINUOUS
 62
               7
100
AcDbLine
 10
6.0
 20
-5.0
 30
0.0
 11
152.0
 21
-5.0
 31
0.0
  0
LINE
  5
316
100
AcDbEntity
  8
0
  6
CONTINUOUS
 62
               7
100
AcDbLine
 10
6.0
 20
-13.0
 30
0.0
 11
152.0
 21
-13.0
 31
0.0
  0
LINE
  5
317
100
AcDbEntity
  8
0
  6
CONTINUOUS
 62
               7
100
AcDbLine
 10
6.0
 20
-13.300000000000011
 30
0.0
 11
152.0
 21
-13.300000000000011
 31
0.0
  0
LINE
  5
318
100
AcDbEntity
  8
0
  6
CONTINUOUS
 62
               7
100
AcDbLine
 10
152.0
 20
-18.0
 30
0.0
 11
152.0
 21
18.0
 31
0.0
  0
LINE
  5
319
100
AcDbEntity
  8
0
  6
CONTINUOUS
 62
               2
100
AcDbLine
 10
35.0
 20
-3.0899999999999892
 30
0.0
 11
35.0
 21
3.1099999999999994
 31
0.0
  0
LINE
  5
31A
100
AcDbEntity
  8
0
  6
CONTINUOUS
 62
               2
100
AcDbLine
 10
34.0
 20
-2.1618565705579584
 30
0.0
 11
34.0
 21
2.2158304508453028
 31
0.0
  0
LINE
  5
31B
100
AcDbEntity
  8
0
  6
CONTINUOUS
 62
               2
100
AcDbLine
 10
36.0
 20
-2.1447562306306054
 30
0.0
 11
36.0
 21
2.1816297709905967
 31
0.0
  0
LINE
  5
31C
100
AcDbEntity
  8
0
  6
CONTINUOUS
 62
               7
100
AcDbLine
 10
36.000000004768367
 20
-1.509085083007804
 30
0.0
 11
34.000000004768367
 21
-1.509085083007804
 31
0.0
  0
LINE
  5
31D
100
AcDbEntity
  8
0
  6
CONTINUOUS
 62
               7
100
AcDbLine
 10
36.000000004768367
 20
1.490914916992196
 30
0.0
 11
34.003468637466426
 21
1.490914916992196
 31
0.0
  0
ARC
  5
31E
100
AcDbEntity
  8
0
  6
CONTINUOUS
 62
               7
100
AcDbCircle
 10
36.003468627929692
 20
-0.009085083007804
 30
0.0
 40
1.5
100
AcDbArc
 50
270.0
 51
90.0
  0
ARC
  5
31F
100
AcDbEntity
  8
0
  6
CONTINUOUS
 62
               7
100
AcDbCircle
 10
34.003468627929692
 20
-0.009085083007804
 30
0.0
 40
1.5
100
AcDbArc
 50
90.0
 51
270.0
  0
CIRCLE
  5
320
100
AcDbEntity
  8
0
  6
CONTINUOUS
 62
               7
100
AcDbCircle
 10
122.99091491699221
 20
0.003468627929692
 30
0.0
 40
1.5
  0
LINE
  5
321
100
AcDbEntity
  8
0
  6
CONTINUOUS
 62
               2
100
AcDbLine
 10
123.00000000000001
 20
3.230000000000004
 30
0.0
 11
123.00000000000001
 21
-3.2299999999999898
 31
0.0
  0
LINE
  5
322
100
AcDbEntity
  8
0
  6
CONTINUOUS
 62
               2
100
AcDbLine
 10
6.6069652141287634
 20
7.5
 30
0.0
 11
11.557128691643925
 21
7.5
 31
0.0
  0
LINE
  5
323
100
AcDbEntity
  8
0
  6
CONTINUOUS
 62
               7
100
AcDbLine
 10
6.0
 20
18.0
 30
0.0
 11
6.0
 21
-18.0
 31
0.0
  0
LINE
  5
324
100
AcDbEntity
  8
0
  6
CONTINUOUS
 62
               2
100
AcDbLine
 10
9.0
 20
9.9385932000500361
 30
0.0
 11
9.0
 21
5.0535634525021891
 31
0.0
  0
CIRCLE
  5
325
100
AcDbEntity
  8
0
  6
CONTINUOUS
 62
               2
100
AcDbCircle
 10
9.0
 20
7.5
 30
0.0
 40
1.5
  0
CIRCLE
  5
326
100
AcDbEntity
  8
0
  6
CONTINUOUS
 62
               7
100
AcDbCircle
 10
9.0
 20
7.5
 30
0.0
 40
1.25
  0
LINE
  5
327
100
AcDbEntity
  8
0
  6
CONTINUOUS
 62
               2
100
AcDbLine
 10
6.6069652141287634
 20
-7.5
 30
0.0
 11
11.557128691643925
 21
-7.5
 31
0.0
  0
LINE
  5
328
100
AcDbEntity
  8
0
  6
CONTINUOUS
 62
               2
100
AcDbLine
 10
9.0
 20
-9.9385932000500219
 30
0.0
 11
9.0
 21
-5.0535634525021891
 31
0.0
  0
CIRCLE
  5
329
100
AcDbEntity
  8
0
  6
CONTINUOUS
 62
               7
100
AcDbCircle
 10
9.0
 20
-7.5
 30
0.0
 40
1.5
  0
CIRCLE
  5
32A
100
AcDbEntity
  8
0
  6
CONTINUOUS
 62
               2
100
AcDbCircle
 10
9.0
 20
-7.5
 30
0.0
 40
1.25
  0
LINE
  5
32B
100
AcDbEntity
  8
0
  6
CONTINUOUS
 62
               7
100
AcDbLine
 10
8.25
 20
-7.9309582346353267
 30
0.0
 11
8.25
 21
-7.0690417653646733
 31
0.0
  0
LINE
  5
32C
100
AcDbEntity
  8
0
  6
CONTINUOUS
 62
               7
100
AcDbLine
 10
9.75
 20
-7.9309582346353267
 30
0.0
 11
9.75
 21
-7.0690417653646733
 31
0.0
  0
LINE
  5
32D
100
AcDbEntity
  8
0
  6
CONTINUOUS
 62
               7
100
AcDbLine
 10
8.25
 20
-7.0690417653646733
 30
0.0
 11
9.0
 21
-6.6350000000000051
 31
0.0
  0
LINE
  5
32E
100
AcDbEntity
  8
0
  6
CONTINUOUS
 62
               7
100
AcDbLine
 10
9.0
 20
-6.6350000000000051
 30
0.0
 11
9.75
 21
-7.0690417653646733
 31
0.0
  0
LINE
  5
32F
100
AcDbEntity
  8
0
  6
CONTINUOUS
 62
               7
100
AcDbLine
 10
9.75
 20
-7.9309582346353267
 30
0.0
 11
9.0
 21
-8.3649999999999949
 31
0.0
  0
LINE
  5
330
100
AcDbEntity
  8
0
  6
CONTINUOUS
 62
               7
100
AcDbLine
 10
9.0
 20
-8.3649999999999949
 30
0.0
 11
8.25
 21
-7.9309582346353267
 31
0.0
  0
LINE
  5
331
100
AcDbEntity
  8
0
  6
CONTINUOUS
 62
               7
100
AcDbLine
 10
8.25
 20
7.0690417653646733
 30
0.0
 11
9.0
 21
6.6349999999999909
 31
0.0
  0
LINE
  5
332
100
AcDbEntity
  8
0
  6
CONTINUOUS
 62
               7
100
AcDbLine
 10
8.25
 20
7.9309582346353267
 30
0.0
 11
8.25
 21
7.0690417653646733
 31
0.0
  0
LINE
  5
333
100
AcDbEntity
  8
0
  6
CONTINUOUS
 62
               7
100
AcDbLine
 10
9.0
 20
6.6349999999999909
 30
0.0
 11
9.75
 21
7.0690417653646733
 31
0.0
  0
LINE
  5
334
100
AcDbEntity
  8
0
  6
CONTINUOUS
 62
               7
100
AcDbLine
 10
9.75
 20
7.9309582346353267
 30
0.0
 11
9.75
 21
7.0690417653646733
 31
0.0
  0
LINE
  5
335
100
AcDbEntity
  8
0
  6
CONTINUOUS
 62
               7
100
AcDbLine
 10
9.75
 20
7.9309582346353267
 30
0.0
 11
9.0
 21
8.3649999999999949
 31
0.0
  0
LINE
  5
336
100
AcDbEntity
  8
0
  6
CONTINUOUS
 62
               7
100
AcDbLine
 10
9.0
 20
8.3649999999999949
 30
0.0
 11
8.25
 21
7.9309582346353267
 31
0.0
  0
CIRCLE
  5
337
100
AcDbEntity
  8
0
  6
CONTINUOUS
 62
               7
100
AcDbCircle
 10
155.0
 20
5.0
 30
0.0
 40
1.75
  0
CIRCLE
  5
338
100
AcDbEntity
  8
0
  6
CONTINUOUS
 62
               7
100
AcDbCircle
 10
155.0
 20
-5.0
 30
0.0
 40
1.75
  0
LINE
  5
339
100
AcDbEntity
  8
0
  6
CONTINUOUS
 62
               2
100
AcDbLine
 10
155.0
 20
1.9368631958961515
 30
0.0
 11
155.0
 21
8.0760411143302946
 31
0.0
  0
LINE
  5
33A
100
AcDbEntity
  8
0
  6
CONTINUOUS
 62
               2
100
AcDbLine
 10
158.06313680410386
 20
5.0
 30
0.0
 11
151.92395888566972
 21
5.0
 31
0.0
  0
LINE
  5
33B
100
AcDbEntity
  8
0
  6
CONTINUOUS
 62
               2
100
AcDbLine
 10
155.0
 20
-8.0631368041038485
 30
0.0
 11
155.0
 21
-1.9239588856697054
 31
0.0
  0
LINE
  5
33C
100
AcDbEntity
  8
0
  6
CONTINUOUS
 62
               2
100
AcDbLine
 10
158.06313680410386
 20
-5.0
 30
0.0
 11
151.92395888566972
 21
-5.0
 31
0.0
  0
LINE
  5
33D
100
AcDbEntity
  8
0
  6
CONTINUOUS
 62
               2
100
AcDbLine
 10
3.0
 20
-8.0631368041038485
 30
0.0
 11
3.0
 21
-1.9239588856697054
 31
0.0
  0
LINE
  5
33E
100
AcDbEntity
  8
0
  6
CONTINUOUS
 62
               2
100
AcDbLine
 10
6.0631368041038627
 20
-5.0
 30
0.0
 11
-0.0760411143302804
 21
-5.0
 31
0.0
  0
CIRCLE
  5
33F
100
AcDbEntity
  8
0
  6
CONTINUOUS
 62
               7
100
AcDbCircle
 10
3.0
 20
-5.0
 30
0.0
 40
1.75
  0
LINE
  5
340
100
AcDbEntity
  8
0
  6
CONTINUOUS
 62
               2
100
AcDbLine
 10
3.0
 20
8.0631368041038485
 30
0.0
 11
3.0
 21
1.9239588856697054
 31
0.0
  0
LINE
  5
341
100
AcDbEntity
  8
0
  6
CONTINUOUS
 62
               2
100
AcDbLine
 10
6.0631368041038627
 20
5.0
 30
0.0
 11
-0.0760411143302804
 21
5.0
 31
0.0
  0
CIRCLE
  5
342
100
AcDbEntity
  8
0
  6
CONTINUOUS
 62
               7
100
AcDbCircle
 10
3.0
 20
5.0
 30
0.0
 40
1.75
  0
CIRCLE
  5
343
100
AcDbEntity
  8
0
  6
CONTINUOUS
 62
               2
100
AcDbCircle
 10
133.0
 20
0.0
 30
0.0
 40
2.0
  0
CIRCLE
  5
344
100
AcDbEntity
  8
0
  6
CONTINUOUS
 62
               7
100
AcDbCircle
 10
133.0
 20
0.0
 30
0.0
 40
1.5
  0
LINE
  5
345
100
AcDbEntity
  8
0
  6
CONTINUOUS
 62
               2
100
AcDbLine
 10
133.0
 20
-3.4656368244360038
 30
0.0
 11
133.0
 21
3.8299766898155241
 31
0.0
  0
LINE
  5
346
100
AcDbEntity
  8
0
  6
CONTINUOUS
 62
               2
100
AcDbLine
 10
25.0
 20
-3.4656368244360038
 30
0.0
 11
25.0
 21
3.8299766898155241
 31
0.0
  0
CIRCLE
  5
347
100
AcDbEntity
  8
0
  6
CONTINUOUS
 62
               7
100
AcDbCircle
 10
25.0
 20
0.0
 30
0.0
 40
1.5
  0
CIRCLE
  5
348
100
AcDbEntity
  8
0
  6
CONTINUOUS
 62
               2
100
AcDbCircle
 10
25.0
 20
0.0
 30
0.0
 40
2.0
  0
LINE
  5
349
100
AcDbEntity
  8
0
  6
CONTINUOUS
 62
               2
100
AcDbLine
 10
156.62114738467994
 20
13.0
 30
0.0
 11
176.21976192242084
 21
13.0
 31
0.0
  0
LINE
  5
34A
100
AcDbEntity
  8
0
  6
CONTINUOUS
 62
               2
100
AcDbLine
 10
1.2136344716677741
 20
13.0
 30
0.0
 11
-17.728011133574626
 21
13.0
 31
0.0
  0
LINE
  5
34B
100
AcDbEntity
  8
0
  6
CONTINUOUS
 62
             200
100
AcDbLine
 10
26.020612092927166
 20
-23.5
 30
0.0
 11
7.2306048749628644
 21
-23.5
 31
0.0
  0
LINE
  5
34C
100
AcDbEntity
  8
0
  6
CONTINUOUS
 62
               4
100
AcDbLine
 10
37.999999998248313
 20
-16.5
 30
0.0
 11
37.999999998248313
 21
-28.118802151083941
 31
0.0
  0
LINE
  5
34D
100
AcDbEntity
  8
0
  6
CONTINUOUS
 62
               4
100
AcDbLine
 10
120.00000000000001
 20
-16.5
 30
0.0
 11
120.00000000000001
 21
-28.118802151083941
 31
0.0
  0
LINE
  5
34E
100
AcDbEntity
  8
0
  6
CONTINUOUS
 62
               4
100
AcDbLine
 10
120.00000000000001
 20
-16.5
 30
0.0
 11
135.0
 21
-16.5
 31
0.0
  0
LINE
  5
34F
100
AcDbEntity
  8
0
  6
CONTINUOUS
 62
               4
100
AcDbLine
 10
37.999999998248313
 20
-28.0
 30
0.0
 11
22.999999998248313
 21
-28.0
 31
0.0
  0
LINE
  5
350
100
AcDbEntity
  8
0
  6
CONTINUOUS
 62
               4
100
AcDbLine
 10
22.999999998248313
 20
-16.5
 30
0.0
 11
22.999999998248313
 21
-28.0
 31
0.0
  0
LINE
  5
351
100
AcDbEntity
  8
0
  6
CONTINUOUS
 62
               4
100
AcDbLine
 10
120.00000000000001
 20
-28.0
 30
0.0
 11
135.0
 21
-28.0
 31
0.0
  0
LINE
  5
352
100
AcDbEntity
  8
0
  6
CONTINUOUS
 62
               4
100
AcDbLine
 10
37.999999998248313
 20
-27.0
 30
0.0
 11
50.000000000000014
 21
-27.0
 31
0.0
  0
LINE
  5
353
100
AcDbEntity
  8
0
  6
CONTINUOUS
 62
             200
100
AcDbLine
 10
132.69870788034268
 20
-23.5
 30
0.0
 11
150.76939512328548
 21
-23.5
 31
0.0
  0
LINE
  5
354
100
AcDbEntity
  8
0
  6
CONTINUOUS
 62
               4
100
AcDbLine
 10
135.0
 20
-16.5
 30
0.0
 11
135.0
 21
-28.0
 31
0.0
  0
LINE
  5
355
100
AcDbEntity
  8
0
  6
CONTINUOUS
 62
               4
100
AcDbLine
 10
50.000000000000014
 20
-27.0
 30
0.0
 11
50.000000000000014
 21
-18.0
 31
0.0
  0
LINE
  5
356
100
AcDbEntity
  8
0
  6
CONTINUOUS
 62
               7
100
AcDbLine
 10
135.0
 20
-18.0
 30
0.0
 11
158.0
 21
-18.0
 31
0.0
  0
LINE
  5
357
100
AcDbEntity
  8
0
  6
CONTINUOUS
 62
               7
100
AcDbLine
 10
37.999999998248313
 20
-18.0
 30
0.0
 11
120.00000000000001
 21
-18.0
 31
0.0
  0
LINE
  5
358
100
AcDbEntity
  8
0
  6
CONTINUOUS
 62
               4
100
AcDbLine
 10
22.999999998248313
 20
-16.5
 30
0.0
 11
37.999999998248313
 21
-16.5
 31
0.0
  0
LINE
  5
359
100
AcDbEntity
  8
0
  6
CONTINUOUS
 62
               4
100
AcDbLine
 10
20.999999998248313
 20
-27.541900310403236
 30
0.0
 11
20.999999998248313
 21
-19.458099689596764
 31
0.0
  0
LINE
  5
35A
100
AcDbEntity
  8
0
  6
CONTINUOUS
 62
               4
100
AcDbLine
 10
12.0
 20
-21.0
 30
0.0
 11
12.5
 21
-20.5
 31
0.0
  0
LINE
  5
35B
100
AcDbEntity
  8
0
  6
CONTINUOUS
 62
               4
100
AcDbLine
 10
12.0
 20
-26.0
 30
0.0
 11
12.5
 21
-26.5
 31
0.0
  0
LINE
  5
35C
100
AcDbEntity
  8
0
  6
CONTINUOUS
 62
               4
100
AcDbLine
 10
12.0
 20
-26.0
 30
0.0
 11
8.0
 21
-26.0
 31
0.0
  0
LINE
  5
35D
100
AcDbEntity
  8
0
  6
CONTINUOUS
 62
               4
100
AcDbLine
 10
12.0
 20
-21.0
 30
0.0
 11
8.0
 21
-21.0
 31
0.0
  0
LINE
  5
35E
100
AcDbEntity
  8
0
  6
CONTINUOUS
 62
               4
100
AcDbLine
 10
8.0
 20
-21.0
 30
0.0
 11
8.0
 21
-26.0
 31
0.0
  0
LINE
  5
35F
100
AcDbEntity
  8
0
  6
CONTINUOUS
 62
               4
100
AcDbLine
 10
12.5
 20
-26.5
 30
0.0
 11
12.5
 21
-20.5
 31
0.0
  0
LINE
  5
360
100
AcDbEntity
  8
0
  6
CONTINUOUS
 62
               4
100
AcDbLine
 10
12.0
 20
-26.0
 30
0.0
 11
12.0
 21
-21.0
 31
0.0
  0
LINE
  5
361
100
AcDbEntity
  8
0
  6
CONTINUOUS
 62
               4
100
AcDbLine
 10
20.999999998248313
 20
-26.5
 30
0.0
 11
12.5
 21
-26.5
 31
0.0
  0
LINE
  5
362
100
AcDbEntity
  8
0
  6
CONTINUOUS
 62
             200
100
AcDbLine
 10
20.999999998248313
 20
-26.093999999999994
 30
0.0
 11
12.093999999999994
 21
-26.093999999999994
 31
0.0
  0
LINE
  5
363
100
AcDbEntity
  8
0
  6
CONTINUOUS
 62
             200
100
AcDbLine
 10
20.999999998248313
 20
-20.906000000000006
 30
0.0
 11
12.093999999999994
 21
-20.906000000000006
 31
0.0
  0
LINE
  5
364
100
AcDbEntity
  8
0
  6
CONTINUOUS
 62
               4
100
AcDbLine
 10
20.999999998248313
 20
-20.5
 30
0.0
 11
12.5
 21
-20.5
 31
0.0
  0
LINE
  5
365
100
AcDbEntity
  8
0
  6
CONTINUOUS
 62
               4
100
AcDbLine
 10
20.999999998248313
 20
-27.541900310403236
 30
0.0
 11
22.999999998248313
 21
-27.541900310403236
 31
0.0
  0
LINE
  5
366
100
AcDbEntity
  8
0
  6
CONTINUOUS
 62
               4
100
AcDbLine
 10
20.999999998248313
 20
-19.458099689596764
 30
0.0
 11
22.999999998248313
 21
-19.458099689596764
 31
0.0
  0
ARC
  5
367
100
AcDbEntity
  8
0
  6
CONTINUOUS
 62
               4
100
AcDbCircle
 10
26.894603853298548
 20
-25.520950155201604
 30
0.0
 40
5.8946038550502289
100
AcDbArc
 50
159.94954599005709
 51
200.05045400994291
  0
ARC
  5
368
100
AcDbEntity
  8
0
  6
CONTINUOUS
 62
               4
100
AcDbCircle
 10
17.105396143198078
 20
-25.520950155201604
 30
0.0
 40
5.8946038550502289
100
AcDbArc
 50
339.94954599005706
 51
20.050454009942911
  0
ARC
  5
369
100
AcDbEntity
  8
0
  6
CONTINUOUS
 62
               4
100
AcDbCircle
 10
17.105396143198078
 20
-21.479049844798396
 30
0.0
 40
5.8946038550502289
100
AcDbArc
 50
339.94954599005706
 51
20.050454009942911
  0
ARC
  5
36A
100
AcDbEntity
  8
0
  6
CONTINUOUS
 62
               4
100
AcDbCircle
 10
26.894603853298548
 20
-21.479049844798396
 30
0.0
 40
5.8946038550502289
100
AcDbArc
 50
159.94954599005709
 51
200.05045400994291
  0
LINE
  5
36B
100
AcDbEntity
  8
0
  6
CONTINUOUS
 62
               4
100
AcDbLine
 10
21.357265586751737
 20
-23.5
 30
0.0
 11
22.642734409744889
 21
-23.5
 31
0.0
  0
LINE
  5
36C
100
AcDbEntity
  8
0
  6
CONTINUOUS
 62
               4
100
AcDbLine
 10
137.0
 20
-19.458099689596764
 30
0.0
 11
137.0
 21
-27.541900310403236
 31
0.0
  0
LINE
  5
36D
100
AcDbEntity
  8
0
  6
CONTINUOUS
 62
               4
100
AcDbLine
 10
145.99999999824831
 20
-26.0
 30
0.0
 11
145.49999999824831
 21
-26.5
 31
0.0
  0
LINE
  5
36E
100
AcDbEntity
  8
0
  6
CONTINUOUS
 62
               4
100
AcDbLine
 10
145.99999999824831
 20
-21.0
 30
0.0
 11
145.49999999824831
 21
-20.5
 31
0.0
  0
LINE
  5
36F
100
AcDbEntity
  8
0
  6
CONTINUOUS
 62
               4
100
AcDbLine
 10
145.99999999824831
 20
-21.0
 30
0.0
 11
149.99999999824831
 21
-21.0
 31
0.0
  0
LINE
  5
370
100
AcDbEntity
  8
0
  6
CONTINUOUS
 62
               4
100
AcDbLine
 10
145.99999999824831
 20
-26.0
 30
0.0
 11
149.99999999824831
 21
-26.0
 31
0.0
  0
LINE
  5
371
100
AcDbEntity
  8
0
  6
CONTINUOUS
 62
               4
100
AcDbLine
 10
149.99999999824831
 20
-26.0
 30
0.0
 11
149.99999999824831
 21
-21.0
 31
0.0
  0
LINE
  5
372
100
AcDbEntity
  8
0
  6
CONTINUOUS
 62
               4
100
AcDbLine
 10
145.49999999824831
 20
-20.5
 30
0.0
 11
145.49999999824831
 21
-26.5
 31
0.0
  0
LINE
  5
373
100
AcDbEntity
  8
0
  6
CONTINUOUS
 62
               4
100
AcDbLine
 10
145.99999999824831
 20
-21.0
 30
0.0
 11
145.99999999824831
 21
-26.0
 31
0.0
  0
LINE
  5
374
100
AcDbEntity
  8
0
  6
CONTINUOUS
 62
               4
100
AcDbLine
 10
137.0
 20
-20.5
 30
0.0
 11
145.49999999824831
 21
-20.5
 31
0.0
  0
LINE
  5
375
100
AcDbEntity
  8
0
  6
CONTINUOUS
 62
             200
100
AcDbLine
 10
137.0
 20
-20.906000000000006
 30
0.0
 11
145.90599999824832
 21
-20.906000000000006
 31
0.0
  0
LINE
  5
376
100
AcDbEntity
  8
0
  6
CONTINUOUS
 62
             200
100
AcDbLine
 10
137.0
 20
-26.093999999999994
 30
0.0
 11
145.90599999824832
 21
-26.093999999999994
 31
0.0
  0
LINE
  5
377
100
AcDbEntity
  8
0
  6
CONTINUOUS
 62
               4
100
AcDbLine
 10
137.0
 20
-26.5
 30
0.0
 11
145.49999999824831
 21
-26.5
 31
0.0
  0
LINE
  5
378
100
AcDbEntity
  8
0
  6
CONTINUOUS
 62
               4
100
AcDbLine
 10
137.0
 20
-19.458099689596764
 30
0.0
 11
135.0
 21
-19.458099689596764
 31
0.0
  0
LINE
  5
379
100
AcDbEntity
  8
0
  6
CONTINUOUS
 62
               4
100
AcDbLine
 10
137.0
 20
-27.541900310403236
 30
0.0
 11
135.0
 21
-27.541900310403236
 31
0.0
  0
ARC
  5
37A
100
AcDbEntity
  8
0
  6
CONTINUOUS
 62
               4
100
AcDbCircle
 10
131.10539614494979
 20
-21.479049844798396
 30
0.0
 40
5.8946038550502289
100
AcDbArc
 50
339.94954599005706
 51
20.050454009942911
  0
ARC
  5
37B
100
AcDbEntity
  8
0
  6
CONTINUOUS
 62
               4
100
AcDbCircle
 10
140.89460385505024
 20
-21.479049844798396
 30
0.0
 40
5.8946038550502289
100
AcDbArc
 50
159.94954599005709
 51
200.05045400994291
  0
ARC
  5
37C
100
AcDbEntity
  8
0
  6
CONTINUOUS
 62
               4
100
AcDbCircle
 10
140.89460385505024
 20
-25.520950155201604
 30
0.0
 40
5.8946038550502289
100
AcDbArc
 50
159.94954599005709
 51
200.05045400994291
  0
ARC
  5
37D
100
AcDbEntity
  8
0
  6
CONTINUOUS
 62
               4
100
AcDbCircle
 10
131.10539614494979
 20
-25.520950155201604
 30
0.0
 40
5.8946038550502289
100
AcDbArc
 50
339.94954599005706
 51
20.050454009942911
  0
LINE
  5
37E
100
AcDbEntity
  8
0
  6
CONTINUOUS
 62
               4
100
AcDbLine
 10
136.64273441149658
 20
-23.5
 30
0.0
 11
135.35726558850342
 21
-23.5
 31
0.0
  0
LINE
  5
37F
100
AcDbEntity
  8
0
  6
CONTINUOUS
 62
               7
100
AcDbLine
 10
160.39999980926515
 20
16.5
 30
0.0
 11
158.0
 21
16.5
 31
0.0
  0
LINE
  5
380
100
AcDbEntity
  8
0
  6
CONTINUOUS
 62
               7
100
AcDbLine
 10
160.08739036321003
 20
13.0
 30
0.0
 11
158.31260776519775
 21
13.0
 31
0.0
  0
LINE
  5
381
100
AcDbEntity
  8
0
  6
CONTINUOUS
 62
               7
100
AcDbLine
 10
160.39999980926515
 20
16.5
 30
0.0
 11
160.39999980926515
 21
9.5
 31
0.0
  0
LINE
  5
382
100
AcDbEntity
  8
0
  6
CONTINUOUS
 62
               7
100
AcDbLine
 10
160.39999980926515
 20
9.5
 30
0.0
 11
158.0
 21
9.5
 31
0.0
  0
ARC
  5
383
100
AcDbEntity
  8
0
  6
CONTINUOUS
 62
               7
100
AcDbCircle
 10
155.34537715911867
 20
14.75
 30
0.0
 40
5.054621696472168
100
AcDbArc
 50
339.74388055445525
 51
20.256136748388741
  0
ARC
  5
384
100
AcDbEntity
  8
0
  6
CONTINUOUS
 62
               7
100
AcDbCircle
 10
155.34537715911867
 20
11.25
 30
0.0
 40
5.054621696472168
100
AcDbArc
 50
339.74393519596862
 51
20.256191389902099
  0
ARC
  5
385
100
AcDbEntity
  8
0
  6
CONTINUOUS
 62
               7
100
AcDbCircle
 10
163.05462265014648
 20
11.25
 30
0.0
 40
5.054621696472168
100
AcDbArc
 50
159.74389922378995
 51
200.25615541772342
  0
ARC
  5
386
100
AcDbEntity
  8
0
  6
CONTINUOUS
 62
               7
100
AcDbCircle
 10
163.05462265014648
 20
14.75
 30
0.0
 40
5.054621696472168
100
AcDbArc
 50
159.74389922378995
 51
200.25615541772342
  0
LINE
  5
387
100
AcDbEntity
  8
0
  6
CONTINUOUS
 62
               7
100
AcDbLine
 10
174.62100028991699
 20
11.0
 30
0.0
 11
160.39999980926515
 21
11.0
 31
0.0
  0
LINE
  5
388
100
AcDbEntity
  8
0
  6
CONTINUOUS
 62
               2
100
AcDbLine
 10
175.0
 20
11.379000663757324
 30
0.0
 11
160.39999980926515
 21
11.379000663757324
 31
0.0
  0
LINE
  5
389
100
AcDbEntity
  8
0
  6
CONTINUOUS
 62
               7
100
AcDbLine
 10
175.00000060602952
 20
11.379000607903151
 30
0.0
 11
174.62100064066561
 21
11.000000674486557
 31
0.0
  0
LINE
  5
38A
100
AcDbEntity
  8
0
  6
CONTINUOUS
 62
               7
100
AcDbLine
 10
175.00000060602952
 20
14.620999392096849
 30
0.0
 11
174.62100064066561
 21
14.999999325513443
 31
0.0
  0
LINE
  5
38B
100
AcDbEntity
  8
0
  6
CONTINUOUS
 62
               7
100
AcDbLine
 10
175.0
 20
14.620999336242676
 30
0.0
 11
175.0
 21
11.379000663757324
 31
0.0
  0
LINE
  5
38C
100
AcDbEntity
  8
0
  6
CONTINUOUS
 62
               7
100
AcDbLine
 10
174.62100028991699
 20
15.0
 30
0.0
 11
174.62100028991699
 21
11.0
 31
0.0
  0
LINE
  5
38D
100
AcDbEntity
  8
0
  6
CONTINUOUS
 62
               2
100
AcDbLine
 10
175.0
 20
14.620999336242676
 30
0.0
 11
160.39999980926515
 21
14.620999336242676
 31
0.0
  0
LINE
  5
38E
100
AcDbEntity
  8
0
  6
CONTINUOUS
 62
               7
100
AcDbLine
 10
174.62100028991699
 20
15.0
 30
0.0
 11
160.39999980926515
 21
15.0
 31
0.0
  0
LINE
  5
38F
100
AcDbEntity
  8
0
  6
CONTINUOUS
 62
               7
100
AcDbLine
 10
-2.3999998092651254
 20
9.5
 30
0.0
 11
0.0
 21
9.5
 31
0.0
  0
LINE
  5
390
100
AcDbEntity
  8
0
  6
CONTINUOUS
 62
               7
100
AcDbLine
 10
-2.0873903632100337
 20
13.0
 30
0.0
 11
-0.3126077651977539
 21
13.0
 31
0.0
  0
LINE
  5
391
100
AcDbEntity
  8
0
  6
CONTINUOUS
 62
               7
100
AcDbLine
 10
-2.3999998092651254
 20
9.5
 30
0.0
 11
-2.3999998092651254
 21
16.5
 31
0.0
  0
LINE
  5
392
100
AcDbEntity
  8
0
  6
CONTINUOUS
 62
               7
100
AcDbLine
 10
-2.3999998092651254
 20
16.5
 30
0.0
 11
0.0
 21
16.5
 31
0.0
  0
ARC
  5
393
100
AcDbEntity
  8
0
  6
CONTINUOUS
 62
               7
100
AcDbCircle
 10
2.654622840881359
 20
11.25
 30
0.0
 40
5.054621696472168
100
AcDbArc
 50
159.74388055445527
 51
200.25613674838874
  0
ARC
  5
394
100
AcDbEntity
  8
0
  6
CONTINUOUS
 62
               7
100
AcDbCircle
 10
2.654622840881359
 20
14.75
 30
0.0
 40
5.054621696472168
100
AcDbArc
 50
159.74393519596862
 51
200.25619138990211
  0
ARC
  5
395
100
AcDbEntity
  8
0
  6
CONTINUOUS
 62
               7
100
AcDbCircle
 10
-5.0546226501464844
 20
14.75
 30
0.0
 40
5.054621696472168
100
AcDbArc
 50
339.74389922378992
 51
20.256155417723416
  0
ARC
  5
396
100
AcDbEntity
  8
0
  6
CONTINUOUS
 62
               7
100
AcDbCircle
 10
-5.0546226501464844
 20
11.25
 30
0.0
 40
5.054621696472168
100
AcDbArc
 50
339.74389922378992
 51
20.256155417723416
  0
LINE
  5
397
100
AcDbEntity
  8
0
  6
CONTINUOUS
 62
               7
100
AcDbLine
 10
-16.621000289916992
 20
15.0
 30
0.0
 11
-2.3999998092651254
 21
15.0
 31
0.0
  0
LINE
  5
398
100
AcDbEntity
  8
0
  6
CONTINUOUS
 62
               2
100
AcDbLine
 10
-17.0
 20
14.620999336242676
 30
0.0
 11
-2.3999998092651254
 21
14.620999336242676
 31
0.0
  0
LINE
  5
399
100
AcDbEntity
  8
0
  6
CONTINUOUS
 62
               7
100
AcDbLine
 10
-17.000000606029516
 20
14.620999392096849
 30
0.0
 11
-16.621000640665613
 21
14.999999325513443
 31
0.0
  0
LINE
  5
39A
100
AcDbEntity
  8
0
  6
CONTINUOUS
 62
               7
100
AcDbLine
 10
-17.000000606029516
 20
11.379000607903151
 30
0.0
 11
-16.621000640665613
 21
11.000000674486557
 31
0.0
  0
LINE
  5
39B
100
AcDbEntity
  8
0
  6
CONTINUOUS
 62
               7
100
AcDbLine
 10
-17.0
 20
11.379000663757324
 30
0.0
 11
-17.0
 21
14.620999336242676
 31
0.0
  0
LINE
  5
39C
100
AcDbEntity
  8
0
  6
CONTINUOUS
 62
               7
100
AcDbLine
 10
-16.621000289916992
 20
11.0
 30
0.0
 11
-16.621000289916992
 21
15.0
 31
0.0
  0
LINE
  5
39D
100
AcDbEntity
  8
0
  6
CONTINUOUS
 62
               2
100
AcDbLine
 10
-17.0
 20
11.379000663757324
 30
0.0
 11
-2.3999998092651254
 21
11.379000663757324
 31
0.0
  0
LINE
  5
39E
100
AcDbEntity
  8
0
  6
CONTINUOUS
 62
               7
100
AcDbLine
 10
-16.621000289916992
 20
11.0
 30
0.0
 11
-2.3999998092651254
 21
11.0
 31
0.0
  0
LINE
  5
39F
100
AcDbEntity
  8
0
  6
PHANTOM
 62
               3
100
AcDbLine
 10
82.75
 20
-28.0
 30
0.0
 11
82.75
 21
56.066303973298929
 31
0.0
  0
LINE
  5
3A0
100
AcDbEntity
  8
0
  6
PHANTOM
 62
               3
100
AcDbLine
 10
62.75
 20
-28.0
 30
0.0
 11
62.75
 21
56.066303975713296
 31
0.0
  0
LINE
  5
3A1
100
AcDbEntity
  8
0
  6
PHANTOM
 62
               3
100
AcDbLine
 10
110.0
 20
-28.0
 30
0.0
 11
110.0
 21
56.066303973298929
 31
0.0
  0
ENDBLK
  5
3A2
100
AcDbEntity
  8
0
100
AcDbBlockEnd
  0
BLOCK
  5
3A3
100
AcDbEntity
  8
0
100
AcDbBlockBegin
  2
MS_6
 70
               0
 10
0.0
 20
0.0
 30
0.0
  3
MS_6
  1

  0
LINE
  5
3A4
100
AcDbEntity
  8
0
  6
CONTINUOUS
 62
               4
100
AcDbLine
 10
27.25
 20
-3.5999999999999943
 30
0.0
 11
30.5
 21
-3.5999999999999943
 31
0.0
  0
LINE
  5
3A5
100
AcDbEntity
  8
0
  6
CONTINUOUS
 62
               4
100
AcDbLine
 10
25.75
 20
-1.0
 30
0.0
 11
30.5
 21
-1.0
 31
0.0
  0
LINE
  5
3A6
100
AcDbEntity
  8
0
  6
CONTINUOUS
 62
               4
100
AcDbLine
 10
22.0
 20
-3.5999999999999943
 30
0.0
 11
25.75
 21
-3.5999999999999943
 31
0.0
  0
LINE
  5
3A7
100
AcDbEntity
  8
0
  6
CONTINUOUS
 62
               4
100
AcDbLine
 10
22.0
 20
-1.0
 30
0.0
 11
24.25
 21
-1.0
 31
0.0
  0
LINE
  5
3A8
100
AcDbEntity
  8
0
  6
CONTINUOUS
 62
               4
100
AcDbLine
 10
0.0
 20
-0.4500000000000028
 30
0.0
 11
22.0
 21
-0.4500000000000028
 31
0.0
  0
LINE
  5
3A9
100
AcDbEntity
  8
0
  6
CONTINUOUS
 62
               4
100
AcDbLine
 10
0.0
 20
-1.0
 30
0.0
 11
22.0
 21
-1.0
 31
0.0
  0
LINE
  5
3AA
100
AcDbEntity
  8
0
  6
CONTINUOUS
 62
               4
100
AcDbLine
 10
0.75
 20
0.5
 30
0.0
 11
3.25
 21
0.5
 31
0.0
  0
LINE
  5
3AB
100
AcDbEntity
  8
0
  6
CONTINUOUS
 62
               4
100
AcDbLine
 10
3.25
 20
0.5
 30
0.0
 11
3.25
 21
0.0
 31
0.0
  0
LINE
  5
3AC
100
AcDbEntity
  8
0
  6
CONTINUOUS
 62
             200
100
AcDbLine
 10
3.0200000000000102
 20
0.5
 30
0.0
 11
3.0200000000000102
 21
0.0
 31
0.0
  0
LINE
  5
3AD
100
AcDbEntity
  8
0
  6
CONTINUOUS
 62
             200
100
AcDbLine
 10
0.9699999999999989
 20
0.5
 30
0.0
 11
0.9699999999999989
 21
0.0
 31
0.0
  0
LINE
  5
3AE
100
AcDbEntity
  8
0
  6
CONTINUOUS
 62
               4
100
AcDbLine
 10
0.75
 20
0.5
 30
0.0
 11
0.75
 21
0.0
 31
0.0
  0
LINE
  5
3AF
100
AcDbEntity
  8
0
  6
CONTINUOUS
 62
               4
100
AcDbLine
 10
0.75
 20
-3.769999999999996
 30
0.0
 11
3.25
 21
-3.769999999999996
 31
0.0
  0
LINE
  5
3B0
100
AcDbEntity
  8
0
  6
CONTINUOUS
 62
               4
100
AcDbLine
 10
3.25
 20
-2.5900000000000034
 30
0.0
 11
3.25
 21
-3.769999999999996
 31
0.0
  0
LINE
  5
3B1
100
AcDbEntity
  8
0
  6
CONTINUOUS
 62
             200
100
AcDbLine
 10
3.0200000000000102
 20
-2.5900000000000034
 30
0.0
 11
3.0200000000000102
 21
-4.0
 31
0.0
  0
LINE
  5
3B2
100
AcDbEntity
  8
0
  6
CONTINUOUS
 62
             200
100
AcDbLine
 10
0.9699999999999989
 20
-2.5900000000000034
 30
0.0
 11
0.9699999999999989
 21
-4.0
 31
0.0
  0
LINE
  5
3B3
100
AcDbEntity
  8
0
  6
CONTINUOUS
 62
               4
100
AcDbLine
 10
0.75
 20
-2.5900000000000034
 30
0.0
 11
0.75
 21
-3.769999999999996
 31
0.0
  0
LINE
  5
3B4
100
AcDbEntity
  8
0
  6
CONTINUOUS
 62
               4
100
AcDbLine
 10
0.9699999999999989
 20
-4.0
 30
0.0
 11
0.75
 21
-3.769999999999996
 31
0.0
  0
LINE
  5
3B5
100
AcDbEntity
  8
0
  6
CONTINUOUS
 62
               4
100
AcDbLine
 10
3.0200000000000102
 20
-4.0
 30
0.0
 11
3.25
 21
-3.769999999999996
 31
0.0
  0
LINE
  5
3B6
100
AcDbEntity
  8
0
  6
CONTINUOUS
 62
               4
100
AcDbLine
 10
0.9699999999999989
 20
-4.0
 30
0.0
 11
3.0200000000000102
 21
-4.0
 31
0.0
  0
LINE
  5
3B7
100
AcDbEntity
  8
0
  6
CONTINUOUS
 62
             200
100
AcDbLine
 10
23.75
 20
-0.1299999999999955
 30
0.0
 11
26.25
 21
-4.4599999999999937
 31
0.0
  0
LINE
  5
3B8
100
AcDbEntity
  8
0
  6
CONTINUOUS
 62
             200
100
AcDbLine
 10
25.25
 20
-0.1299999999999955
 30
0.0
 11
27.75
 21
-4.4599999999999937
 31
0.0
  0
LINE
  5
3B9
100
AcDbEntity
  8
0
  6
CONTINUOUS
 62
             200
100
AcDbLine
 10
32.72999999999999
 20
-0.1299999999999955
 30
0.0
 11
35.22999999999999
 21
-4.4599999999999937
 31
0.0
  0
LINE
  5
3BB
100
AcDbEntity
  8
0
  6
CENTER
 62
             200
100
AcDbLine
 10
20.680000000000007
 20
-2.2999999999999972
 30
0.0
 11
30.5
 21
-2.2999999999999972
 31
0.0
  0
LINE
  5
3BC
100
AcDbEntity
  8
0
  6
CONTINUOUS
 62
             200
100
AcDbLine
 10
34.22999999999999
 20
-0.1299999999999955
 30
0.0
 11
36.72999999999999
 21
-4.4599999999999937
 31
0.0
  0
LINE
  5
3BD
100
AcDbEntity
  8
0
  6
CONTINUOUS
 62
               4
100
AcDbLine
 10
37.5
 20
-3.0
 30
0.0
 11
40.5
 21
-3.0
 31
0.0
  0
LINE
  5
3BE
100
AcDbEntity
  8
0
  6
CONTINUOUS
 62
               4
100
AcDbLine
 10
37.5
 20
-2.5
 30
0.0
 11
40.5
 21
-2.5
 31
0.0
  0
LINE
  5
3BF
100
AcDbEntity
  8
0
  6
CONTINUOUS
 62
               4
100
AcDbLine
 10
37.5
 20
-2.0999999999999943
 30
0.0
 11
40.5
 21
-2.0999999999999943
 31
0.0
  0
LINE
  5
3C0
100
AcDbEntity
  8
0
  6
CONTINUOUS
 62
               4
100
AcDbLine
 10
37.5
 20
-1.5999999999999943
 30
0.0
 11
40.5
 21
-1.5999999999999943
 31
0.0
  0
LINE
  5
3C1
100
AcDbEntity
  8
0
  6
CONTINUOUS
 62
               4
100
AcDbLine
 10
34.960000000000008
 20
-1.4000000000000057
 30
0.0
 11
37.5
 21
-1.4000000000000057
 31
0.0
  0
LINE
  5
3C2
100
AcDbEntity
  8
0
  6
CONTINUOUS
 62
               4
100
AcDbLine
 10
30.5
 20
-1.4000000000000057
 30
0.0
 11
33.460000000000008
 21
-1.4000000000000057
 31
0.0
  0
LINE
  5
3C3
100
AcDbEntity
  8
0
  6
CONTINUOUS
 62
               4
100
AcDbLine
 10
36.0
 20
-3.2000000000000028
 30
0.0
 11
37.5
 21
-3.2000000000000028
 31
0.0
  0
LINE
  5
3C4
100
AcDbEntity
  8
0
  6
CONTINUOUS
 62
               4
100
AcDbLine
 10
35.47999999999999
 20
-2.2999999999999972
 30
0.0
 11
37.5
 21
-2.2999999999999972
 31
0.0
  0
LINE
  5
3C5
100
AcDbEntity
  8
0
  6
CONTINUOUS
 62
               4
100
AcDbLine
 10
30.5
 20
-2.2999999999999972
 30
0.0
 11
33.97999999999999
 21
-2.2999999999999972
 31
0.0
  0
LINE
  5
3C6
100
AcDbEntity
  8
0
  6
CONTINUOUS
 62
               4
100
AcDbLine
 10
30.5
 20
-3.2000000000000028
 30
0.0
 11
34.5
 21
-3.2000000000000028
 31
0.0
  0
LINE
  5
3C7
100
AcDbEntity
  8
0
  6
CONTINUOUS
 62
               4
100
AcDbLine
 10
37.5
 20
-1.4000000000000057
 30
0.0
 11
37.5
 21
-3.2000000000000028
 31
0.0
  0
LINE
  5
3C8
100
AcDbEntity
  8
0
  6
CONTINUOUS
 62
               4
100
AcDbLine
 10
40.5
 20
-2.5
 30
0.0
 11
40.5
 21
-3.0
 31
0.0
  0
LINE
  5
3C9
100
AcDbEntity
  8
0
  6
CONTINUOUS
 62
               4
100
AcDbLine
 10
40.5
 20
-1.5999999999999943
 30
0.0
 11
40.5
 21
-2.0999999999999943
 31
0.0
  0
LINE
  5
3CA
100
AcDbEntity
  8
0
  6
CENTER
 62
             200
100
AcDbLine
 10
28.819999999999993
 20
-2.75
 30
0.0
 11
40.75
 21
-2.75
 31
0.0
  0
LINE
  5
3CB
100
AcDbEntity
  8
0
  6
CENTER
 62
             200
100
AcDbLine
 10
28.77000000000001
 20
-1.8499999999999943
 30
0.0
 11
40.699999999999989
 21
-1.8499999999999943
 31
0.0
  0
LINE
  5
3CC
100
AcDbEntity
  8
0
  6
CONTINUOUS
 62
               4
100
AcDbLine
 10
30.5
 20
-1.0
 30
0.0
 11
30.5
 21
-3.5999999999999943
 31
0.0
  0
LINE
  5
3CD
100
AcDbEntity
  8
0
  6
CONTINUOUS
 62
               4
100
AcDbLine
 10
4.25
 20
-3.0400000000000063
 30
0.0
 11
4.6999999999999886
 21
-3.0400000000000063
 31
0.0
  0
LINE
  5
3CE
100
AcDbEntity
  8
0
  6
CONTINUOUS
 62
               4
100
AcDbLine
 10
4.1999999999999886
 20
-3.7999999999999972
 30
0.0
 11
4.6999999999999886
 21
-3.7999999999999972
 31
0.0
  0
LINE
  5
3CF
100
AcDbEntity
  8
0
  6
CONTINUOUS
 62
               4
100
AcDbLine
 10
4.1999999999999886
 20
-1.7999999999999972
 30
0.0
 11
4.1999999999999886
 21
-3.7999999999999972
 31
0.0
  0
LINE
  5
3D0
100
AcDbEntity
  8
0
  6
CONTINUOUS
 62
               4
100
AcDbLine
 10
0.0
 20
-2.5999999999999943
 30
0.0
 11
4.0
 21
-2.5999999999999943
 31
0.0
  0
LINE
  5
3D1
100
AcDbEntity
  8
0
  6
CONTINUOUS
 62
               4
100
AcDbLine
 10
0.0
 20
-1.7999999999999972
 30
0.0
 11
0.0
 21
-2.5999999999999943
 31
0.0
  0
LINE
  5
3D2
100
AcDbEntity
  8
0
  6
CONTINUOUS
 62
               4
100
AcDbLine
 10
4.0
 20
-1.7999999999999972
 30
0.0
 11
4.0
 21
-2.5999999999999943
 31
0.0
  0
LINE
  5
3D3
100
AcDbEntity
  8
0
  6
CONTINUOUS
 62
               4
100
AcDbLine
 10
4.25
 20
-1.7999999999999972
 30
0.0
 11
4.25
 21
-3.0400000000000063
 31
0.0
  0
LINE
  5
3D4
100
AcDbEntity
  8
0
  6
CENTER
 62
             200
100
AcDbLine
 10
2.0
 20
0.7999999999999972
 30
0.0
 11
2.0
 21
-5.4299999999999926
 31
0.0
  0
LINE
  5
3D5
100
AcDbEntity
  8
0
  6
CONTINUOUS
 62
               4
100
AcDbLine
 10
0.0
 20
-1.7999999999999972
 30
0.0
 11
4.25
 21
-1.7999999999999972
 31
0.0
  0
LINE
  5
3D6
100
AcDbEntity
  8
0
  6
CONTINUOUS
 62
               4
100
AcDbLine
 10
4.6999999999999886
 20
-3.0400000000000063
 30
0.0
 11
4.6999999999999886
 21
-4.5999999999999943
 31
0.0
  0
LINE
  5
3D7
100
AcDbEntity
  8
0
  6
CONTINUOUS
 62
               4
100
AcDbLine
 10
0.0
 20
-1.7999999999999972
 30
0.0
 11
0.0
 21
0.0
 31
0.0
  0
LINE
  5
3D8
100
AcDbEntity
  8
0
  6
CONTINUOUS
 62
               4
100
AcDbLine
 10
22.0
 20
0.0
 30
0.0
 11
22.0
 21
-4.5999999999999943
 31
0.0
  0
LINE
  5
3D9
100
AcDbEntity
  8
0
  6
CONTINUOUS
 62
               4
100
AcDbLine
 10
4.6999999999999886
 20
-4.5999999999999943
 30
0.0
 11
22.0
 21
-4.5999999999999943
 31
0.0
  0
LINE
  5
3DA
100
AcDbEntity
  8
0
  6
CONTINUOUS
 62
               4
100
AcDbLine
 10
0.0
 20
0.0
 30
0.0
 11
22.0
 21
0.0
 31
0.0
  0
ENDBLK
  5
3DB
100
AcDbEntity
  8
0
100
AcDbBlockEnd
  0
BLOCK
  5
3DC
100
AcDbEntity
  8
0
100
AcDbBlockBegin
  2
MS_7
 70
               0
 10
0.0
 20
0.0
 30
0.0
  3
MS_7
  1

  0
ARC
  5
3DD
100
AcDbEntity
  8
0
  6
CONTINUOUS
 62
               4
100
AcDbCircle
 10
-0.000002288819644
 20
-2.5499977111803673
 30
0.0
 40
2.0500022888209148
100
AcDbArc
 50
270.00006397051652
 51
359.99993602948348
  0
ARC
  5
3DE
100
AcDbEntity
  8
0
  6
CONTINUOUS
 62
               4
100
AcDbCircle
 10
0.000002288819644
 20
-2.5499977111803673
 30
0.0
 40
2.0500022888209148
100
AcDbArc
 50
180.00006397051652
 51
269.99993602948348
  0
LINE
  5
3DF
100
AcDbEntity
  8
0
  6
CONTINUOUS
 62
               4
100
AcDbLine
 10
-1.25
 20
0.5
 30
0.0
 11
1.25
 21
0.5
 31
0.0
  0
LINE
  5
3E0
100
AcDbEntity
  8
0
  6
CONTINUOUS
 62
               4
100
AcDbLine
 10
1.25
 20
0.5
 30
0.0
 11
1.25
 21
0.0
 31
0.0
  0
LINE
  5
3E1
100
AcDbEntity
  8
0
  6
CONTINUOUS
 62
             200
100
AcDbLine
 10
1.019999999999996
 20
0.5
 30
0.0
 11
1.019999999999996
 21
0.0
 31
0.0
  0
LINE
  5
3E2
100
AcDbEntity
  8
0
  6
CONTINUOUS
 62
             200
100
AcDbLine
 10
-1.019999999999996
 20
0.5
 30
0.0
 11
-1.019999999999996
 21
0.0
 31
0.0
  0
LINE
  5
3E3
100
AcDbEntity
  8
0
  6
CONTINUOUS
 62
               4
100
AcDbLine
 10
-1.25
 20
0.5
 30
0.0
 11
-1.25
 21
0.0
 31
0.0
  0
LINE
  5
3E4
100
AcDbEntity
  8
0
  6
CONTINUOUS
 62
               4
100
AcDbLine
 10
-1.25
 20
-3.769999999999996
 30
0.0
 11
1.25
 21
-3.769999999999996
 31
0.0
  0
LINE
  5
3E5
100
AcDbEntity
  8
0
  6
CONTINUOUS
 62
               4
100
AcDbLine
 10
1.25
 20
-2.5900000000000034
 30
0.0
 11
1.25
 21
-3.769999999999996
 31
0.0
  0
LINE
  5
3E6
100
AcDbEntity
  8
0
  6
CONTINUOUS
 62
             200
100
AcDbLine
 10
1.019999999999996
 20
-2.5900000000000034
 30
0.0
 11
1.019999999999996
 21
-4.0
 31
0.0
  0
LINE
  5
3E7
100
AcDbEntity
  8
0
  6
CONTINUOUS
 62
             200
100
AcDbLine
 10
-1.019999999999996
 20
-2.5900000000000034
 30
0.0
 11
-1.019999999999996
 21
-4.0
 31
0.0
  0
LINE
  5
3E8
100
AcDbEntity
  8
0
  6
CONTINUOUS
 62
               4
100
AcDbLine
 10
-1.25
 20
-2.5900000000000034
 30
0.0
 11
-1.25
 21
-3.769999999999996
 31
0.0
  0
LINE
  5
3E9
100
AcDbEntity
  8
0
  6
CONTINUOUS
 62
               4
100
AcDbLine
 10
-1.019999999999996
 20
-4.0
 30
0.0
 11
-1.25
 21
-3.769999999999996
 31
0.0
  0
LINE
  5
3EA
100
AcDbEntity
  8
0
  6
CONTINUOUS
 62
               4
100
AcDbLine
 10
1.019999999999996
 20
-4.0
 30
0.0
 11
1.25
 21
-3.769999999999996
 31
0.0
  0
LINE
  5
3EB
100
AcDbEntity
  8
0
  6
CONTINUOUS
 62
               4
100
AcDbLine
 10
-1.019999999999996
 20
-4.0
 30
0.0
 11
1.019999999999996
 21
-4.0
 31
0.0
  0
LINE
  5
3EC
100
AcDbEntity
  8
0
  6
CONTINUOUS
 62
               4
100
AcDbLine
 10
-2.0499999999999972
 20
-2.5900000000000034
 30
0.0
 11
2.0499999999999972
 21
-2.5900000000000034
 31
0.0
  0
LINE
  5
3ED
100
AcDbEntity
  8
0
  6
CONTINUOUS
 62
               4
100
AcDbLine
 10
-2.0499999999999972
 20
-1.7999999999999972
 30
0.0
 11
2.0499999999999972
 21
-1.7999999999999972
 31
0.0
  0
LINE
  5
3EE
100
AcDbEntity
  8
0
  6
CONTINUOUS
 62
               4
100
AcDbLine
 10
2.0499999999999972
 20
-1.0
 30
0.0
 11
2.0499999999999972
 21
-2.5499999999999972
 31
0.0
  0
LINE
  5
3EF
100
AcDbEntity
  8
0
  6
CONTINUOUS
 62
               4
100
AcDbLine
 10
2.0499999999999972
 20
-1.0
 30
0.0
 11
1.5
 21
-0.4500000000000028
 31
0.0
  0
LINE
  5
3F0
100
AcDbEntity
  8
0
  6
CONTINUOUS
 62
               4
100
AcDbLine
 10
1.5
 20
0.0
 30
0.0
 11
1.5
 21
-0.4500000000000028
 31
0.0
  0
LINE
  5
3F1
100
AcDbEntity
  8
0
  6
CONTINUOUS
 62
               4
100
AcDbLine
 10
-1.5
 20
0.0
 30
0.0
 11
1.5
 21
0.0
 31
0.0
  0
LINE
  5
3F2
100
AcDbEntity
  8
0
  6
CONTINUOUS
 62
               4
100
AcDbLine
 10
-1.5
 20
0.0
 30
0.0
 11
-1.5
 21
-0.4500000000000028
 31
0.0
  0
LINE
  5
3F3
100
AcDbEntity
  8
0
  6
CONTINUOUS
 62
               4
100
AcDbLine
 10
-2.0499999999999972
 20
-1.0
 30
0.0
 11
-1.5
 21
-0.4500000000000028
 31
0.0
  0
LINE
  5
3F4
100
AcDbEntity
  8
0
  6
CONTINUOUS
 62
               4
100
AcDbLine
 10
-2.0499999999999972
 20
-1.0
 30
0.0
 11
-2.0499999999999972
 21
-2.5499999999999972
 31
0.0
  0
LINE
  5
3F5
100
AcDbEntity
  8
0
  6
CENTER
 62
             200
100
AcDbLine
 10
0.0
 20
2.0499999999999972
 30
0.0
 11
0.0
 21
-6.6599999999999966
 31
0.0
  0
ENDBLK
  5
3F6
100
AcDbEntity
  8
0
100
AcDbBlockEnd
  0
BLOCK
  5
3F7
100
AcDbEntity
  8
0
100
AcDbBlockBegin
  2
MS_8
 70
               0
 10
0.0
 20
0.0
 30
0.0
  3
MS_8
  1

  0
CIRCLE
  5
3F8
100
AcDbEntity
  8
0
  6
CONTINUOUS
 62
               4
100
AcDbCircle
 10
2.0000152587890625
 20
0.0
 30
0.0
 40
1.3999996185302734
  0
CIRCLE
  5
3F9
100
AcDbEntity
  8
0
  6
CONTINUOUS
 62
               4
100
AcDbCircle
 10
2.0000152587890625
 20
0.0
 30
0.0
 40
1.25
  0
LINE
  5
3FA
100
AcDbEntity
  8
0
  6
CONTINUOUS
 62
               4
100
AcDbLine
 10
22.0
 20
-1.2999999999999972
 30
0.0
 11
25.090000000000003
 21
-1.2999999999999972
 31
0.0
  0
LINE
  5
3FB
100
AcDbEntity
  8
0
  6
CONTINUOUS
 62
               4
100
AcDbLine
 10
22.0
 20
1.2999999999999972
 30
0.0
 11
23.579999999999984
 21
1.2999999999999972
 31
0.0
  0
LINE
  5
3FC
100
AcDbEntity
  8
0
  6
CONTINUOUS
 62
             200
100
AcDbLine
 10
23.079999999999984
 20
2.1600000000000001
 30
0.0
 11
25.579999999999984
 21
-2.1599999999999966
 31
0.0
  0
LINE
  5
3FD
100
AcDbEntity
  8
0
  6
CONTINUOUS
 62
               4
100
AcDbLine
 10
1.3000000000000114
 20
-1.0600000000000023
 30
0.0
 11
2.9399999999999977
 21
0.5600000000000023
 31
0.0
  0
LINE
  5
3FE
100
AcDbEntity
  8
0
  6
CONTINUOUS
 62
               4
100
AcDbLine
 10
0.9499999999999886
 20
-0.7100000000000009
 30
0.0
 11
2.6800000000000068
 21
1.0200000000000031
 31
0.0
  0
LINE
  5
3FF
100
AcDbEntity
  8
0
  6
CENTER
 62
             200
100
AcDbLine
 10
2.0
 20
2.8299999999999983
 30
0.0
 11
2.0
 21
-2.75
 31
0.0
  0
LINE
  5
400
100
AcDbEntity
  8
0
  6
CONTINUOUS
 62
               4
100
AcDbLine
 10
22.0
 20
2.0499999999999972
 30
0.0
 11
22.0
 21
-2.0499999999999972
 31
0.0
  0
LINE
  5
401
100
AcDbEntity
  8
0
  6
CONTINUOUS
 62
               4
100
AcDbLine
 10
0.0
 20
2.0499999999999972
 30
0.0
 11
0.0
 21
-2.0499999999999972
 31
0.0
  0
LINE
  5
402
100
AcDbEntity
  8
0
  6
CONTINUOUS
 62
               4
100
AcDbLine
 10
0.0
 20
2.0499999999999972
 30
0.0
 11
22.0
 21
2.0499999999999972
 31
0.0
  0
LINE
  5
403
100
AcDbEntity
  8
0
  6
CONTINUOUS
 62
               4
100
AcDbLine
 10
0.0
 20
-2.0499999999999972
 30
0.0
 11
22.0
 21
-2.0499999999999972
 31
0.0
  0
LINE
  5
404
100
AcDbEntity
  8
0
  6
CONTINUOUS
 62
               4
100
AcDbLine
 10
0.0
 20
1.5
 30
0.0
 11
22.0
 21
1.5
 31
0.0
  0
LINE
  5
405
100
AcDbEntity
  8
0
  6
CONTINUOUS
 62
               4
100
AcDbLine
 10
0.0
 20
-1.5
 30
0.0
 11
22.0
 21
-1.5
 31
0.0
  0
LINE
  5
406
100
AcDbEntity
  8
0
  6
CENTER
 62
             200
100
AcDbLine
 10
-2.8000000000000114
 20
0.0
 30
0.0
 11
27.400000000000006
 21
0.0
 31
0.0
  0
ENDBLK
  5
407
100
AcDbEntity
  8
0
100
AcDbBlockEnd
  0
BLOCK
  5
408
100
AcDbEntity
  8
0
100
AcDbBlockBegin
  2
MS_9
 70
               0
 10
0.0
 20
0.0
 30
0.0
  3
MS_9
  1

  0
LINE
  5
409
100
AcDbEntity
  8
0
  6
CONTINUOUS
 62
               4
100
AcDbLine
 10
20.699999999999989
 20
12.149999999999991
 30
0.0
 11
20.699999999999989
 21
15.399999999999999
 31
0.0
  0
LINE
  5
40A
100
AcDbEntity
  8
0
  6
CONTINUOUS
 62
               4
100
AcDbLine
 10
18.099999999999966
 20
10.649999999999991
 30
0.0
 11
18.099999999999966
 21
15.399999999999999
 31
0.0
  0
LINE
  5
40B
100
AcDbEntity
  8
0
  6
CONTINUOUS
 62
               4
100
AcDbLine
 10
18.099999999999966
 20
6.8999999999999915
 30
0.0
 11
18.099999999999966
 21
9.1499999999999915
 31
0.0
  0
LINE
  5
40C
100
AcDbEntity
  8
0
  6
CONTINUOUS
 62
               4
100
AcDbLine
 10
20.699999999999989
 20
6.8999999999999915
 30
0.0
 11
20.699999999999989
 21
10.649999999999991
 31
0.0
  0
LINE
  5
40D
100
AcDbEntity
  8
0
  6
CONTINUOUS
 62
               4
100
AcDbLine
 10
0.75
 20
0.5
 30
0.0
 11
3.25
 21
0.5
 31
0.0
  0
LINE
  5
40E
100
AcDbEntity
  8
0
  6
CONTINUOUS
 62
               4
100
AcDbLine
 10
3.25
 20
0.5
 30
0.0
 11
3.25
 21
0.0
 31
0.0
  0
LINE
  5
40F
100
AcDbEntity
  8
0
  6
CONTINUOUS
 62
             200
100
AcDbLine
 10
3.0200000000000387
 20
0.5
 30
0.0
 11
3.0200000000000387
 21
0.0
 31
0.0
  0
LINE
  5
410
100
AcDbEntity
  8
0
  6
CONTINUOUS
 62
             200
100
AcDbLine
 10
0.9699999999999704
 20
0.5
 30
0.0
 11
0.9699999999999704
 21
0.0
 31
0.0
  0
LINE
  5
411
100
AcDbEntity
  8
0
  6
CONTINUOUS
 62
               4
100
AcDbLine
 10
0.75
 20
0.5
 30
0.0
 11
0.75
 21
0.0
 31
0.0
  0
LINE
  5
412
100
AcDbEntity
  8
0
  6
CONTINUOUS
 62
               4
100
AcDbLine
 10
0.75
 20
-3.769999999999996
 30
0.0
 11
3.25
 21
-3.769999999999996
 31
0.0
  0
LINE
  5
413
100
AcDbEntity
  8
0
  6
CONTINUOUS
 62
               4
100
AcDbLine
 10
3.25
 20
-2.6000000000000085
 30
0.0
 11
3.25
 21
-3.769999999999996
 31
0.0
  0
LINE
  5
414
100
AcDbEntity
  8
0
  6
CONTINUOUS
 62
             200
100
AcDbLine
 10
3.0200000000000387
 20
-2.6000000000000085
 30
0.0
 11
3.0200000000000387
 21
-4.0
 31
0.0
  0
LINE
  5
415
100
AcDbEntity
  8
0
  6
CONTINUOUS
 62
             200
100
AcDbLine
 10
0.9699999999999704
 20
-2.6000000000000085
 30
0.0
 11
0.9699999999999704
 21
-4.0
 31
0.0
  0
LINE
  5
416
100
AcDbEntity
  8
0
  6
CONTINUOUS
 62
               4
100
AcDbLine
 10
0.75
 20
-2.6000000000000085
 30
0.0
 11
0.75
 21
-3.769999999999996
 31
0.0
  0
LINE
  5
417
100
AcDbEntity
  8
0
  6
CONTINUOUS
 62
               4
100
AcDbLine
 10
0.9699999999999704
 20
-4.0
 30
0.0
 11
0.75
 21
-3.769999999999996
 31
0.0
  0
LINE
  5
418
100
AcDbEntity
  8
0
  6
CONTINUOUS
 62
               4
100
AcDbLine
 10
3.0200000000000387
 20
-4.0
 30
0.0
 11
3.25
 21
-3.769999999999996
 31
0.0
  0
LINE
  5
419
100
AcDbEntity
  8
0
  6
CONTINUOUS
 62
               4
100
AcDbLine
 10
0.9699999999999704
 20
-4.0
 30
0.0
 11
3.0200000000000387
 21
-4.0
 31
0.0
  0
LINE
  5
41A
100
AcDbEntity
  8
0
  6
CONTINUOUS
 62
             200
100
AcDbLine
 10
17.240000000000009
 20
8.6499999999999915
 30
0.0
 11
21.569999999999993
 21
11.149999999999991
 31
0.0
  0
LINE
  5
41B
100
AcDbEntity
  8
0
  6
CONTINUOUS
 62
             200
100
AcDbLine
 10
17.240000000000009
 20
10.149999999999991
 30
0.0
 11
21.569999999999993
 21
12.649999999999999
 31
0.0
  0
LINE
  5
41C
100
AcDbEntity
  8
0
  6
CONTINUOUS
 62
             200
100
AcDbLine
 10
17.240000000000009
 20
17.629999999999995
 30
0.0
 11
21.569999999999993
 21
20.129999999999995
 31
0.0
  0
LINE
  5
41D
100
AcDbEntity
  8
0
  6
CENTER
 62
             200
100
AcDbLine
 10
19.400000000000034
 20
5.5799999999999983
 30
0.0
 11
19.400000000000034
 21
15.399999999999999
 31
0.0
  0
LINE
  5
41E
100
AcDbEntity
  8
0
  6
CONTINUOUS
 62
             200
100
AcDbLine
 10
17.240000000000009
 20
19.129999999999995
 30
0.0
 11
21.569999999999993
 21
21.629999999999995
 31
0.0
  0
LINE
  5
41F
100
AcDbEntity
  8
0
  6
CONTINUOUS
 62
               4
100
AcDbLine
 10
20.099999999999966
 20
22.399999999999999
 30
0.0
 11
20.099999999999966
 21
25.399999999999999
 31
0.0
  0
LINE
  5
420
100
AcDbEntity
  8
0
  6
CONTINUOUS
 62
               4
100
AcDbLine
 10
19.599999999999966
 20
22.399999999999999
 30
0.0
 11
19.599999999999966
 21
25.399999999999999
 31
0.0
  0
LINE
  5
421
100
AcDbEntity
  8
0
  6
CONTINUOUS
 62
               4
100
AcDbLine
 10
19.199999999999989
 20
22.399999999999999
 30
0.0
 11
19.199999999999989
 21
25.399999999999999
 31
0.0
  0
LINE
  5
422
100
AcDbEntity
  8
0
  6
CONTINUOUS
 62
               4
100
AcDbLine
 10
18.699999999999989
 20
22.399999999999999
 30
0.0
 11
18.699999999999989
 21
25.399999999999999
 31
0.0
  0
LINE
  5
423
100
AcDbEntity
  8
0
  6
CONTINUOUS
 62
               4
100
AcDbLine
 10
18.5
 20
19.859999999999999
 30
0.0
 11
18.5
 21
22.399999999999999
 31
0.0
  0
LINE
  5
424
100
AcDbEntity
  8
0
  6
CONTINUOUS
 62
               4
100
AcDbLine
 10
18.5
 20
15.399999999999999
 30
0.0
 11
18.5
 21
18.359999999999999
 31
0.0
  0
LINE
  5
425
100
AcDbEntity
  8
0
  6
CONTINUOUS
 62
               4
100
AcDbLine
 10
20.300000000000011
 20
20.899999999999999
 30
0.0
 11
20.300000000000011
 21
22.399999999999999
 31
0.0
  0
LINE
  5
426
100
AcDbEntity
  8
0
  6
CONTINUOUS
 62
               4
100
AcDbLine
 10
19.400000000000034
 20
20.379999999999995
 30
0.0
 11
19.400000000000034
 21
22.399999999999999
 31
0.0
  0
LINE
  5
427
100
AcDbEntity
  8
0
  6
CONTINUOUS
 62
               4
100
AcDbLine
 10
19.400000000000034
 20
15.399999999999999
 30
0.0
 11
19.400000000000034
 21
18.879999999999995
 31
0.0
  0
LINE
  5
428
100
AcDbEntity
  8
0
  6
CONTINUOUS
 62
               4
100
AcDbLine
 10
20.300000000000011
 20
15.399999999999999
 30
0.0
 11
20.300000000000011
 21
19.399999999999999
 31
0.0
  0
LINE
  5
429
100
AcDbEntity
  8
0
  6
CONTINUOUS
 62
               4
100
AcDbLine
 10
18.5
 20
22.399999999999999
 30
0.0
 11
20.300000000000011
 21
22.399999999999999
 31
0.0
  0
LINE
  5
42A
100
AcDbEntity
  8
0
  6
CONTINUOUS
 62
               4
100
AcDbLine
 10
19.599999999999966
 20
25.399999999999999
 30
0.0
 11
20.099999999999966
 21
25.399999999999999
 31
0.0
  0
LINE
  5
42B
100
AcDbEntity
  8
0
  6
CONTINUOUS
 62
               4
100
AcDbLine
 10
18.699999999999989
 20
25.399999999999999
 30
0.0
 11
19.199999999999989
 21
25.399999999999999
 31
0.0
  0
LINE
  5
42C
100
AcDbEntity
  8
0
  6
CENTER
 62
             200
100
AcDbLine
 10
19.849999999999966
 20
13.719999999999999
 30
0.0
 11
19.849999999999966
 21
25.649999999999999
 31
0.0
  0
LINE
  5
42D
100
AcDbEntity
  8
0
  6
CENTER
 62
             200
100
AcDbLine
 10
18.949999999999989
 20
13.670000000000002
 30
0.0
 11
18.949999999999989
 21
25.600000000000001
 31
0.0
  0
LINE
  5
42E
100
AcDbEntity
  8
0
  6
CONTINUOUS
 62
               4
100
AcDbLine
 10
18.099999999999966
 20
15.399999999999999
 30
0.0
 11
20.699999999999989
 21
15.399999999999999
 31
0.0
  0
LINE
  5
42F
100
AcDbEntity
  8
0
  6
CONTINUOUS
 62
               4
100
AcDbLine
 10
16.099999999999966
 20
5.3999999999999915
 30
0.0
 11
22.0
 21
5.3999999999999915
 31
0.0
  0
LINE
  5
430
100
AcDbEntity
  8
0
  6
CONTINUOUS
 62
               4
100
AcDbLine
 10
16.099999999999966
 20
0.3999999999999915
 30
0.0
 11
22.0
 21
0.3999999999999915
 31
0.0
  0
LINE
  5
431
100
AcDbEntity
  8
0
  6
CONTINUOUS
 62
               4
100
AcDbLine
 10
16.099999999999966
 20
1.1499999999999915
 30
0.0
 11
22.0
 21
1.1499999999999915
 31
0.0
  0
LINE
  5
432
100
AcDbEntity
  8
0
  6
CONTINUOUS
 62
               4
100
AcDbLine
 10
0.0
 20
-0.4500000000000028
 30
0.0
 11
22.0
 21
-0.4500000000000028
 31
0.0
  0
LINE
  5
433
100
AcDbEntity
  8
0
  6
CONTINUOUS
 62
               4
100
AcDbLine
 10
0.0
 20
-1.0
 30
0.0
 11
22.0
 21
-1.0
 31
0.0
  0
LINE
  5
434
100
AcDbEntity
  8
0
  6
CONTINUOUS
 62
               4
100
AcDbLine
 10
4.2700000000000387
 20
-1.7999999999999972
 30
0.0
 11
4.2700000000000387
 21
-2.980000000000004
 31
0.0
  0
LINE
  5
435
100
AcDbEntity
  8
0
  6
CONTINUOUS
 62
               4
100
AcDbLine
 10
4.2700000000000387
 20
-2.980000000000004
 30
0.0
 11
4.6999999999999886
 21
-2.980000000000004
 31
0.0
  0
LINE
  5
436
100
AcDbEntity
  8
0
  6
CONTINUOUS
 62
               4
100
AcDbLine
 10
4.1999999999999886
 20
-1.7999999999999972
 30
0.0
 11
4.1999999999999886
 21
-3.7999999999999972
 31
0.0
  0
LINE
  5
437
100
AcDbEntity
  8
0
  6
CONTINUOUS
 62
               4
100
AcDbLine
 10
4.1999999999999886
 20
-3.7999999999999972
 30
0.0
 11
4.6999999999999886
 21
-3.7999999999999972
 31
0.0
  0
LINE
  5
438
100
AcDbEntity
  8
0
  6
CONTINUOUS
 62
               4
100
AcDbLine
 10
16.099999999999966
 20
6.8999999999999915
 30
0.0
 11
22.0
 21
6.8999999999999915
 31
0.0
  0
LINE
  5
439
100
AcDbEntity
  8
0
  6
CONTINUOUS
 62
               4
100
AcDbLine
 10
4.0
 20
-1.7999999999999972
 30
0.0
 11
4.0
 21
-2.6000000000000085
 31
0.0
  0
LINE
  5
43A
100
AcDbEntity
  8
0
  6
CONTINUOUS
 62
               4
100
AcDbLine
 10
0.0
 20
-2.6000000000000085
 30
0.0
 11
4.0
 21
-2.6000000000000085
 31
0.0
  0
LINE
  5
43B
100
AcDbEntity
  8
0
  6
CONTINUOUS
 62
               4
100
AcDbLine
 10
0.0
 20
-1.7999999999999972
 30
0.0
 11
4.2700000000000387
 21
-1.7999999999999972
 31
0.0
  0
LINE
  5
43C
100
AcDbEntity
  8
0
  6
CONTINUOUS
 62
               4
100
AcDbLine
 10
16.099999999999966
 20
6.8999999999999915
 30
0.0
 11
16.099999999999966
 21
0.0
 31
0.0
  0
LINE
  5
43D
100
AcDbEntity
  8
0
  6
CENTER
 62
             200
100
AcDbLine
 10
2.0
 20
0.730000000000004
 30
0.0
 11
2.0
 21
-5.1700000000000017
 31
0.0
  0
LINE
  5
43E
100
AcDbEntity
  8
0
  6
CONTINUOUS
 62
               4
100
AcDbLine
 10
4.6999999999999886
 20
-2.980000000000004
 30
0.0
 11
4.6999999999999886
 21
-4.6000000000000085
 31
0.0
  0
LINE
  5
43F
100
AcDbEntity
  8
0
  6
CONTINUOUS
 62
               4
100
AcDbLine
 10
0.0
 20
-2.6000000000000085
 30
0.0
 11
0.0
 21
0.0
 31
0.0
  0
LINE
  5
440
100
AcDbEntity
  8
0
  6
CONTINUOUS
 62
               4
100
AcDbLine
 10
22.0
 20
6.8999999999999915
 30
0.0
 11
22.0
 21
-4.6000000000000085
 31
0.0
  0
LINE
  5
441
100
AcDbEntity
  8
0
  6
CONTINUOUS
 62
               4
100
AcDbLine
 10
4.6999999999999886
 20
-4.6000000000000085
 30
0.0
 11
22.0
 21
-4.6000000000000085
 31
0.0
  0
LINE
  5
442
100
AcDbEntity
  8
0
  6
CONTINUOUS
 62
               4
100
AcDbLine
 10
0.0
 20
0.0
 30
0.0
 11
16.099999999999966
 21
0.0
 31
0.0
  0
ENDBLK
  5
443
100
AcDbEntity
  8
0
100
AcDbBlockEnd
  0
BLOCK
  5
444
100
AcDbEntity
  8
0
100
AcDbBlockBegin
  2
MS_10
 70
               0
 10
0.0
 20
0.0
 30
0.0
  3
MS_10
  1

  0
ARC
  5
445
100
AcDbEntity
  8
0
  6
CONTINUOUS
 62
               4
100
AcDbCircle
 10
0.0
 20
-2.5499999999999972
 30
0.0
 40
2.0499999999999994
100
AcDbArc
 50
180.0
 51
0.0
  0
LINE
  5
446
100
AcDbEntity
  8
0
  6
CONTINUOUS
 62
               4
100
AcDbLine
 10
1.3000000000000114
 20
10.652314814814815
 30
0.0
 11
1.3000000000000114
 21
6.8999999999999915
 31
0.0
  0
LINE
  5
447
100
AcDbEntity
  8
0
  6
CONTINUOUS
 62
               4
100
AcDbLine
 10
-1.3000000000000114
 20
9.1476851851851819
 30
0.0
 11
-1.3000000000000114
 21
6.8999999999999915
 31
0.0
  0
LINE
  5
448
100
AcDbEntity
  8
0
  6
CONTINUOUS
 62
               4
100
AcDbLine
 10
-1.25
 20
0.5
 30
0.0
 11
1.25
 21
0.5
 31
0.0
  0
LINE
  5
449
100
AcDbEntity
  8
0
  6
CONTINUOUS
 62
               4
100
AcDbLine
 10
1.25
 20
0.5
 30
0.0
 11
1.25
 21
0.0
 31
0.0
  0
LINE
  5
44A
100
AcDbEntity
  8
0
  6
CONTINUOUS
 62
             200
100
AcDbLine
 10
1.0200000000000387
 20
0.5
 30
0.0
 11
1.0200000000000387
 21
0.0
 31
0.0
  0
LINE
  5
44B
100
AcDbEntity
  8
0
  6
CONTINUOUS
 62
             200
100
AcDbLine
 10
-1.0200000000000387
 20
0.5
 30
0.0
 11
-1.0200000000000387
 21
0.0
 31
0.0
  0
LINE
  5
44C
100
AcDbEntity
  8
0
  6
CONTINUOUS
 62
               4
100
AcDbLine
 10
-1.25
 20
0.5
 30
0.0
 11
-1.25
 21
0.0
 31
0.0
  0
LINE
  5
44D
100
AcDbEntity
  8
0
  6
CONTINUOUS
 62
               4
100
AcDbLine
 10
-1.25
 20
-3.769999999999996
 30
0.0
 11
1.25
 21
-3.769999999999996
 31
0.0
  0
LINE
  5
44E
100
AcDbEntity
  8
0
  6
CONTINUOUS
 62
               4
100
AcDbLine
 10
1.25
 20
-2.6000000000000085
 30
0.0
 11
1.25
 21
-3.769999999999996
 31
0.0
  0
LINE
  5
44F
100
AcDbEntity
  8
0
  6
CONTINUOUS
 62
             200
100
AcDbLine
 10
1.0200000000000387
 20
-2.6000000000000085
 30
0.0
 11
1.0200000000000387
 21
-4.0
 31
0.0
  0
LINE
  5
450
100
AcDbEntity
  8
0
  6
CONTINUOUS
 62
             200
100
AcDbLine
 10
-1.0200000000000387
 20
-2.6000000000000085
 30
0.0
 11
-1.0200000000000387
 21
-4.0
 31
0.0
  0
LINE
  5
451
100
AcDbEntity
  8
0
  6
CONTINUOUS
 62
               4
100
AcDbLine
 10
-1.25
 20
-2.6000000000000085
 30
0.0
 11
-1.25
 21
-3.769999999999996
 31
0.0
  0
LINE
  5
452
100
AcDbEntity
  8
0
  6
CONTINUOUS
 62
               4
100
AcDbLine
 10
-1.0200000000000387
 20
-4.0
 30
0.0
 11
-1.25
 21
-3.769999999999996
 31
0.0
  0
LINE
  5
453
100
AcDbEntity
  8
0
  6
CONTINUOUS
 62
               4
100
AcDbLine
 10
1.0200000000000387
 20
-4.0
 30
0.0
 11
1.25
 21
-3.769999999999996
 31
0.0
  0
LINE
  5
454
100
AcDbEntity
  8
0
  6
CONTINUOUS
 62
               4
100
AcDbLine
 10
-1.0200000000000387
 20
-4.0
 30
0.0
 11
1.0200000000000387
 21
-4.0
 31
0.0
  0
LINE
  5
455
100
AcDbEntity
  8
0
  6
CONTINUOUS
 62
             200
100
AcDbLine
 10
-2.160000000000025
 20
8.6499999999999915
 30
0.0
 11
2.160000000000025
 21
11.149999999999991
 31
0.0
  0
LINE
  5
456
100
AcDbEntity
  8
0
  6
CONTINUOUS
 62
               4
100
AcDbLine
 10
-2.25
 20
6.8999999999999915
 30
0.0
 11
2.25
 21
6.8999999999999915
 31
0.0
  0
LINE
  5
457
100
AcDbEntity
  8
0
  6
CONTINUOUS
 62
               4
100
AcDbLine
 10
-2.0493901531919505
 20
-2.6000000000000085
 30
0.0
 11
2.0493901531919505
 21
-2.6000000000000085
 31
0.0
  0
LINE
  5
458
100
AcDbEntity
  8
0
  6
CONTINUOUS
 62
               4
100
AcDbLine
 10
-2.0500000000000114
 20
-1.7999999999999972
 30
0.0
 11
2.0500000000000114
 21
-1.7999999999999972
 31
0.0
  0
LINE
  5
459
100
AcDbEntity
  8
0
  6
CONTINUOUS
 62
               4
100
AcDbLine
 10
-1.5
 20
0.0
 30
0.0
 11
1.5
 21
0.0
 31
0.0
  0
LINE
  5
45A
100
AcDbEntity
  8
0
  6
CENTER
 62
             200
100
AcDbLine
 10
0.0
 20
12.560000000000002
 30
0.0
 11
0.0
 21
-6.0600000000000023
 31
0.0
  0
LINE
  5
45B
100
AcDbEntity
  8
0
  6
CONTINUOUS
 62
               4
100
AcDbLine
 10
2.25
 20
6.8999999999999915
 30
0.0
 11
2.25
 21
1.1499999999999915
 31
0.0
  0
LINE
  5
45C
100
AcDbEntity
  8
0
  6
CONTINUOUS
 62
               4
100
AcDbLine
 10
1.5
 20
0.3999999999999915
 30
0.0
 11
2.25
 21
1.1499999999999915
 31
0.0
  0
LINE
  5
45D
100
AcDbEntity
  8
0
  6
CONTINUOUS
 62
               4
100
AcDbLine
 10
1.5
 20
-0.4500000000000028
 30
0.0
 11
1.5
 21
0.3999999999999915
 31
0.0
  0
LINE
  5
45E
100
AcDbEntity
  8
0
  6
CONTINUOUS
 62
               4
100
AcDbLine
 10
2.0500000000000114
 20
-1.0
 30
0.0
 11
1.5
 21
-0.4500000000000028
 31
0.0
  0
LINE
  5
45F
100
AcDbEntity
  8
0
  6
CONTINUOUS
 62
               4
100
AcDbLine
 10
2.0500000000000114
 20
-1.0
 30
0.0
 11
2.0500000000000114
 21
-2.5499999999999972
 31
0.0
  0
LINE
  5
460
100
AcDbEntity
  8
0
  6
CONTINUOUS
 62
               4
100
AcDbLine
 10
-2.0500000000000114
 20
-1.0
 30
0.0
 11
-2.0500000000000114
 21
-2.5499999999999972
 31
0.0
  0
LINE
  5
461
100
AcDbEntity
  8
0
  6
CONTINUOUS
 62
               4
100
AcDbLine
 10
-2.0500000000000114
 20
-1.0
 30
0.0
 11
-1.5
 21
-0.4500000000000028
 31
0.0
  0
LINE
  5
462
100
AcDbEntity
  8
0
  6
CONTINUOUS
 62
               4
100
AcDbLine
 10
-1.5
 20
-0.4500000000000028
 30
0.0
 11
-1.5
 21
0.3999999999999915
 31
0.0
  0
LINE
  5
463
100
AcDbEntity
  8
0
  6
CONTINUOUS
 62
               4
100
AcDbLine
 10
-1.5
 20
0.3999999999999915
 30
0.0
 11
-2.25
 21
1.1499999999999915
 31
0.0
  0
LINE
  5
464
100
AcDbEntity
  8
0
  6
CONTINUOUS
 62
               4
100
AcDbLine
 10
-2.25
 20
6.8999999999999915
 30
0.0
 11
-2.25
 21
1.1499999999999915
 31
0.0
  0
LINE
  5
465
100
AcDbEntity
  8
0
  6
CONTINUOUS
 62
               4
100
AcDbLine
 10
-2.25
 20
5.3999999999999915
 30
0.0
 11
2.25
 21
5.3999999999999915
 31
0.0
  0
ENDBLK
  5
466
100
AcDbEntity
  8
0
100
AcDbBlockEnd
  0
BLOCK
  5
467
100
AcDbEntity
  8
0
100
AcDbBlockBegin
  2
MS_11
 70
               0
 10
0.0
 20
0.0
 30
0.0
  3
MS_11
  1

  0
CIRCLE
  5
468
100
AcDbEntity
  8
0
  6
CONTINUOUS
 62
               4
100
AcDbCircle
 10
-2.882720947265625
 20
0.3181533813476563
 30
0.0
 40
0.25
  0
CIRCLE
  5
469
100
AcDbEntity
  8
0
  6
CONTINUOUS
 62
               4
100
AcDbCircle
 10
-2.270843505859375
 20
-0.34100341796875
 30
0.0
 40
0.25
  0
CIRCLE
  5
46A
100
AcDbEntity
  8
0
  6
CONTINUOUS
 62
               4
100
AcDbCircle
 10
-2.882720947265625
 20
0.3181533813476563
 30
0.0
 40
0.449999988079071
  0
CIRCLE
  5
46B
100
AcDbEntity
  8
0
  6
CONTINUOUS
 62
               4
100
AcDbCircle
 10
-2.270843505859375
 20
-0.34100341796875
 30
0.0
 40
0.449999988079071
  0
CIRCLE
  5
46C
100
AcDbEntity
  8
0
  6
CONTINUOUS
 62
               4
100
AcDbCircle
 10
-2.5926513671875
 20
0.0
 30
0.0
 40
1.2999992370605469
  0
CIRCLE
  5
46D
100
AcDbEntity
  8
0
  6
CONTINUOUS
 62
               4
100
AcDbCircle
 10
-20.0
 20
0.0
 30
0.0
 40
1.3999996185302734
  0
CIRCLE
  5
46E
100
AcDbEntity
  8
0
  6
CONTINUOUS
 62
               4
100
AcDbCircle
 10
-20.0
 20
0.0
 30
0.0
 40
1.25
  0
ARC
  5
46F
100
AcDbEntity
  8
0
  6
CONTINUOUS
 62
               4
100
AcDbCircle
 10
-2.5
 20
0.0
 30
0.0
 40
3.3043758866085451
100
AcDbArc
 50
137.08479304051025
 51
222.91520695948975
  0
LINE
  5
470
100
AcDbEntity
  8
0
  6
CONTINUOUS
 62
               4
100
AcDbLine
 10
-21.069999999999993
 20
-0.6400000000000006
 30
0.0
 11
-19.360000000000014
 21
1.0700000000000003
 31
0.0
  0
LINE
  5
471
100
AcDbEntity
  8
0
  6
CONTINUOUS
 62
               4
100
AcDbLine
 10
-20.650000000000034
 20
-1.0700000000000003
 30
0.0
 11
-18.930000000000007
 21
0.6400000000000006
 31
0.0
  0
LINE
  5
472
100
AcDbEntity
  8
0
  6
CONTINUOUS
 62
               4
100
AcDbLine
 10
0.0
 20
2.25
 30
0.0
 11
0.0
 21
-2.25
 31
0.0
  0
LINE
  5
473
100
AcDbEntity
  8
0
  6
CONTINUOUS
 62
               4
100
AcDbLine
 10
-4.9200000000000159
 20
-2.25
 30
0.0
 11
0.0
 21
-2.25
 31
0.0
  0
LINE
  5
474
100
AcDbEntity
  8
0
  6
CONTINUOUS
 62
               4
100
AcDbLine
 10
-4.9200000000000159
 20
2.25
 30
0.0
 11
0.0
 21
2.25
 31
0.0
  0
LINE
  5
475
100
AcDbEntity
  8
0
  6
CENTER
 62
             200
100
AcDbLine
 10
-20.0
 20
2.8299999999999983
 30
0.0
 11
-20.0
 21
-2.75
 31
0.0
  0
LINE
  5
476
100
AcDbEntity
  8
0
  6
CONTINUOUS
 62
               4
100
AcDbLine
 10
-22.0
 20
2.0500000000000007
 30
0.0
 11
-22.0
 21
-2.0500000000000007
 31
0.0
  0
LINE
  5
477
100
AcDbEntity
  8
0
  6
CONTINUOUS
 62
               4
100
AcDbLine
 10
-22.0
 20
2.0500000000000007
 30
0.0
 11
-5.089999999999975
 21
2.0500000000000007
 31
0.0
  0
LINE
  5
478
100
AcDbEntity
  8
0
  6
CONTINUOUS
 62
               4
100
AcDbLine
 10
-22.0
 20
-2.0500000000000007
 30
0.0
 11
-5.089999999999975
 21
-2.0500000000000007
 31
0.0
  0
LINE
  5
479
100
AcDbEntity
  8
0
  6
CONTINUOUS
 62
               4
100
AcDbLine
 10
-22.0
 20
-1.5
 30
0.0
 11
-5.4399999999999977
 21
-1.5
 31
0.0
  0
LINE
  5
47A
100
AcDbEntity
  8
0
  6
CENTER
 62
             200
100
AcDbLine
 10
-23.319999999999993
 20
0.0
 30
0.0
 11
1.5799999999999841
 21
0.0
 31
0.0
  0
ENDBLK
  5
47B
100
AcDbEntity
  8
0
100
AcDbBlockEnd
  0
BLOCK
  5
47C
100
AcDbEntity
  8
0
100
AcDbBlockBegin
  2
MS_12
 70
               0
 10
0.0
 20
0.0
 30
0.0
  3
MS_12
  1

  0
LINE
  5
47D
100
AcDbEntity
  8
0
  6
CONTINUOUS
 62
             200
100
AcDbLine
 10
27.729999999999961
 20
-0.3299995223464407
 30
0.0
 11
30.229999999999961
 21
-4.6599995223464532
 31
0.0
  0
LINE
  5
47E
100
AcDbEntity
  8
0
  6
CONTINUOUS
 62
             200
100
AcDbLine
 10
26.229999999999961
 20
-0.3299995223464407
 30
0.0
 11
28.729999999999961
 21
-4.6599995223464532
 31
0.0
  0
LINE
  5
47F
100
AcDbEntity
  8
0
  6
CONTINUOUS
 62
             200
100
AcDbLine
 10
18.75
 20
-0.3299995223464407
 30
0.0
 11
21.25
 21
-4.6599995223464532
 31
0.0
  0
LINE
  5
480
100
AcDbEntity
  8
0
  6
CONTINUOUS
 62
             200
100
AcDbLine
 10
17.25
 20
-0.3299995223464407
 30
0.0
 11
19.75
 21
-4.6599995223464532
 31
0.0
  0
LINE
  5
481
100
AcDbEntity
  8
0
  6
CENTER
 62
             200
100
AcDbLine
 10
22.269999995231615
 20
-1.8499995223464509
 30
0.0
 11
34.199999995231622
 21
-1.8499995223464509
 31
0.0
  0
LINE
  5
482
100
AcDbEntity
  8
0
  6
CENTER
 62
             200
100
AcDbLine
 10
22.319999995231626
 20
-3.1499995223464339
 30
0.0
 11
34.199999995231622
 21
-3.1499995223464339
 31
0.0
  0
LINE
  5
483
100
AcDbEntity
  8
0
  6
CONTINUOUS
 62
               4
100
AcDbLine
 10
33.999999995231633
 20
-1.5599995146298227
 30
0.0
 11
33.999999995231633
 21
-2.1399995234853577
 31
0.0
  0
LINE
  5
484
100
AcDbEntity
  8
0
  6
CONTINUOUS
 62
               4
100
AcDbLine
 10
30.999999995231633
 20
-1.5599995223464589
 30
0.0
 11
34.000000000212538
 21
-1.5599995223464589
 31
0.0
  0
LINE
  5
485
100
AcDbEntity
  8
0
  6
CONTINUOUS
 62
               4
100
AcDbLine
 10
30.999999995231633
 20
-2.139999522346443
 30
0.0
 11
34.000000000212538
 21
-2.139999522346443
 31
0.0
  0
LINE
  5
486
100
AcDbEntity
  8
0
  6
CONTINUOUS
 62
               4
100
AcDbLine
 10
30.999999995231633
 20
-2.3499995223464509
 30
0.0
 11
30.999999995231633
 21
-1.3499995223464509
 31
0.0
  0
LINE
  5
487
100
AcDbEntity
  8
0
  6
CONTINUOUS
 62
               4
100
AcDbLine
 10
28.896281755196298
 20
-2.3499995223464509
 30
0.0
 11
30.999999995231633
 21
-2.3499995223464509
 31
0.0
  0
LINE
  5
488
100
AcDbEntity
  8
0
  6
CONTINUOUS
 62
               4
100
AcDbLine
 10
28.318914549653584
 20
-1.3499995223464509
 30
0.0
 11
30.999999995231633
 21
-1.3499995223464509
 31
0.0
  0
LINE
  5
489
100
AcDbEntity
  8
0
  6
CONTINUOUS
 62
               4
100
AcDbLine
 10
23.999999995231633
 20
-2.3499995223464509
 30
0.0
 11
27.396281755196298
 21
-2.3499995223464509
 31
0.0
  0
LINE
  5
48A
100
AcDbEntity
  8
0
  6
CONTINUOUS
 62
               4
100
AcDbLine
 10
23.999999995231633
 20
-1.3499995223464509
 30
0.0
 11
26.818914549653584
 21
-1.3499995223464509
 31
0.0
  0
LINE
  5
48B
100
AcDbEntity
  8
0
  6
CONTINUOUS
 62
               4
100
AcDbLine
 10
30.999999995231633
 20
-3.4399995223464543
 30
0.0
 11
34.000000000212538
 21
-3.4399995223464543
 31
0.0
  0
LINE
  5
48C
100
AcDbEntity
  8
0
  6
CONTINUOUS
 62
               4
100
AcDbLine
 10
30.999999995231633
 20
-2.8599995223464703
 30
0.0
 11
34.000000000212538
 21
-2.8599995223464703
 31
0.0
  0
LINE
  5
48D
100
AcDbEntity
  8
0
  6
CONTINUOUS
 62
               4
100
AcDbLine
 10
33.999999995231633
 20
-3.4399995300630621
 30
0.0
 11
33.999999995231633
 21
-2.8599995212075271
 31
0.0
  0
LINE
  5
48E
100
AcDbEntity
  8
0
  6
CONTINUOUS
 62
               4
100
AcDbLine
 10
29.069491916859079
 20
-2.6499995223464339
 30
0.0
 11
30.999999995231633
 21
-2.6499995223464339
 31
0.0
  0
LINE
  5
48F
100
AcDbEntity
  8
0
  6
CONTINUOUS
 62
               4
100
AcDbLine
 10
29.64685912240185
 20
-3.6499995223464339
 30
0.0
 11
30.999999995231633
 21
-3.6499995223464339
 31
0.0
  0
LINE
  5
490
100
AcDbEntity
  8
0
  6
CONTINUOUS
 62
               4
100
AcDbLine
 10
30.999999995231633
 20
-2.6499995223464339
 30
0.0
 11
30.999999995231633
 21
-3.6499995223464339
 31
0.0
  0
LINE
  5
491
100
AcDbEntity
  8
0
  6
CONTINUOUS
 62
               4
100
AcDbLine
 10
23.999999995231633
 20
-2.6499995223464339
 30
0.0
 11
27.569491916859079
 21
-2.6499995223464339
 31
0.0
  0
LINE
  5
492
100
AcDbEntity
  8
0
  6
CONTINUOUS
 62
               4
100
AcDbLine
 10
23.999999995231633
 20
-3.6499995223464339
 30
0.0
 11
28.146859122401793
 21
-3.6499995223464339
 31
0.0
  0
LINE
  5
493
100
AcDbEntity
  8
0
  6
CONTINUOUS
 62
             200
100
AcDbLine
 10
0.9499999999999886
 20
0.6001359972752312
 30
0.0
 11
0.9499999999999886
 21
0.0
 31
0.0
  0
LINE
  5
494
100
AcDbEntity
  8
0
  6
CONTINUOUS
 62
             200
100
AcDbLine
 10
3.0500000000000114
 20
0.6001359972752312
 30
0.0
 11
3.0500000000000114
 21
0.0
 31
0.0
  0
LINE
  5
495
100
AcDbEntity
  8
0
  6
CONTINUOUS
 62
               4
100
AcDbLine
 10
0.751428571428562
 20
0.4001359972752141
 30
0.0
 11
3.251428571428562
 21
0.4001359972752141
 31
0.0
  0
LINE
  5
496
100
AcDbEntity
  8
0
  6
CONTINUOUS
 62
               4
100
AcDbLine
 10
3.0514285714285734
 20
0.6001359972752312
 30
0.0
 11
3.251428571428562
 21
0.4001359972752141
 31
0.0
  0
LINE
  5
497
100
AcDbEntity
  8
0
  6
CONTINUOUS
 62
               4
100
AcDbLine
 10
0.751428571428562
 20
0.4001359972752141
 30
0.0
 11
0.9514285714285791
 21
0.6001359972752312
 31
0.0
  0
LINE
  5
498
100
AcDbEntity
  8
0
  6
CONTINUOUS
 62
               4
100
AcDbLine
 10
3.251428571428562
 20
0.4001359972752141
 30
0.0
 11
3.251428571428562
 21
0.0
 31
0.0
  0
LINE
  5
499
100
AcDbEntity
  8
0
  6
CONTINUOUS
 62
               4
100
AcDbLine
 10
0.751428571428562
 20
0.0
 30
0.0
 11
0.751428571428562
 21
0.4001359972752141
 31
0.0
  0
LINE
  5
49A
100
AcDbEntity
  8
0
  6
CONTINUOUS
 62
             200
100
AcDbLine
 10
0.9499999999999886
 20
-2.5998640027247859
 30
0.0
 11
0.9499999999999886
 21
-4.0984354312961955
 31
0.0
  0
LINE
  5
49B
100
AcDbEntity
  8
0
  6
CONTINUOUS
 62
             200
100
AcDbLine
 10
3.0500000000000114
 20
-2.5998640027247859
 30
0.0
 11
3.0500000000000114
 21
-4.1012925741533479
 31
0.0
  0
LINE
  5
49C
100
AcDbEntity
  8
0
  6
CONTINUOUS
 62
               4
100
AcDbLine
 10
0.9514285714285791
 20
0.6001359972752312
 30
0.0
 11
3.0514285714285734
 21
0.6001359972752312
 31
0.0
  0
LINE
  5
49D
100
AcDbEntity
  8
0
  6
CENTER
 62
             200
100
AcDbLine
 10
6.0
 20
-6.0904161991769001
 30
0.0
 11
6.0
 21
-3.6810090657418471
 31
0.0
  0
LINE
  5
49E
100
AcDbEntity
  8
0
  6
CONTINUOUS
 62
               4
100
AcDbLine
 10
0.0
 20
-1.7998640027247745
 30
0.0
 11
0.0
 21
0.0
 31
0.0
  0
LINE
  5
49F
100
AcDbEntity
  8
0
  6
CENTER
 62
             200
100
AcDbLine
 10
2.0
 20
1.2864823084401849
 30
0.0
 11
2.0
 21
-5.0670362493540893
 31
0.0
  0
LINE
  5
4A0
100
AcDbEntity
  8
0
  6
CONTINUOUS
 62
               4
100
AcDbLine
 10
4.0
 20
-1.8000000027247722
 30
0.0
 11
4.0
 21
-2.6000000027247836
 31
0.0
  0
LINE
  5
4A1
100
AcDbEntity
  8
0
  6
CONTINUOUS
 62
               4
100
AcDbLine
 10
0.0
 20
-1.7998640027247745
 30
0.0
 11
0.0
 21
-2.6000000027247836
 31
0.0
  0
LINE
  5
4A2
100
AcDbEntity
  8
0
  6
CONTINUOUS
 62
               4
100
AcDbLine
 10
0.751428571428562
 20
-2.5998640027247859
 30
0.0
 11
0.751428571428562
 21
-3.8998640027247689
 31
0.0
  0
LINE
  5
4A3
100
AcDbEntity
  8
0
  6
CONTINUOUS
 62
             200
100
AcDbLine
 10
0.751428571428562
 20
-3.8998640027247689
 30
0.0
 11
3.251428571428562
 21
-3.8998640027247689
 31
0.0
  0
LINE
  5
4A4
100
AcDbEntity
  8
0
  6
CONTINUOUS
 62
               4
100
AcDbLine
 10
1.251428571428562
 20
-4.3998640027247689
 30
0.0
 11
0.751428571428562
 21
-3.8998640027247689
 31
0.0
  0
LINE
  5
4A5
100
AcDbEntity
  8
0
  6
CONTINUOUS
 62
               4
100
AcDbLine
 10
1.251428571428562
 20
-4.3998640027247689
 30
0.0
 11
2.751428571428562
 21
-4.3998640027247689
 31
0.0
  0
LINE
  5
4A6
100
AcDbEntity
  8
0
  6
CONTINUOUS
 62
               4
100
AcDbLine
 10
3.251428571428562
 20
-3.8998640027247689
 30
0.0
 11
2.751428571428562
 21
-4.3998640027247689
 31
0.0
  0
LINE
  5
4A7
100
AcDbEntity
  8
0
  6
CONTINUOUS
 62
               4
100
AcDbLine
 10
3.251428571428562
 20
-2.5998640027247859
 30
0.0
 11
3.251428571428562
 21
-3.8998640027247689
 31
0.0
  0
LINE
  5
4A8
100
AcDbEntity
  8
0
  6
CONTINUOUS
 62
               4
100
AcDbLine
 10
4.3000000000000114
 20
-1.8000000027247722
 30
0.0
 11
4.3000000000000114
 21
-4.5999995223464509
 31
0.0
  0
LINE
  5
4A9
100
AcDbEntity
  8
0
  6
CONTINUOUS
 62
               4
100
AcDbLine
 10
15.5
 20
-4.5999995223464509
 30
0.0
 11
15.5
 21
0.0
 31
0.0
  0
LINE
  5
4AA
100
AcDbEntity
  8
0
  6
CONTINUOUS
 62
               4
100
AcDbLine
 10
23.999999995231633
 20
-1.1999995223464452
 30
0.0
 11
23.999999995231633
 21
-3.799999522346468
 31
0.0
  0
LINE
  5
4AB
100
AcDbEntity
  8
0
  6
CONTINUOUS
 62
               4
100
AcDbLine
 10
4.2999999986375883
 20
-4.5999995223464509
 30
0.0
 11
15.499999995231633
 21
-4.5999995223464509
 31
0.0
  0
LINE
  5
4AC
100
AcDbEntity
  8
0
  6
CONTINUOUS
 62
               4
100
AcDbLine
 10
-0.000000004768367
 20
-1.8000000027247722
 30
0.0
 11
4.2999999986375883
 21
-1.8000000027247722
 31
0.0
  0
LINE
  5
4AD
100
AcDbEntity
  8
0
  6
CONTINUOUS
 62
               4
100
AcDbLine
 10
-0.000000004768367
 20
-2.6000000027247836
 30
0.0
 11
3.999999995231633
 21
-2.6000000027247836
 31
0.0
  0
LINE
  5
4AE
100
AcDbEntity
  8
0
  6
CONTINUOUS
 62
               4
100
AcDbLine
 10
-0.000000004768367
 20
-1.1000000027247836
 30
0.0
 11
15.5
 21
-1.1000000027247836
 31
0.0
  0
LINE
  5
4AF
100
AcDbEntity
  8
0
  6
CONTINUOUS
 62
               4
100
AcDbLine
 10
-0.000000004768367
 20
-0.5499999965940106
 30
0.0
 11
15.5
 21
-0.5499999965940106
 31
0.0
  0
LINE
  5
4B0
100
AcDbEntity
  8
0
  6
CONTINUOUS
 62
               4
100
AcDbLine
 10
-0.000000004768367
 20
0.0
 30
0.0
 11
15.5
 21
0.0
 31
0.0
  0
LINE
  5
4B1
100
AcDbEntity
  8
0
  6
CONTINUOUS
 62
               4
100
AcDbLine
 10
15.5
 20
-1.1999995223464452
 30
0.0
 11
17.752309468822148
 21
-1.1999995223464452
 31
0.0
  0
LINE
  5
4B2
100
AcDbEntity
  8
0
  6
CONTINUOUS
 62
               4
100
AcDbLine
 10
15.5
 20
-3.799999522346468
 30
0.0
 11
19.25346420323325
 21
-3.799999522346468
 31
0.0
  0
LINE
  5
4B3
100
AcDbEntity
  8
0
  6
CONTINUOUS
 62
               4
100
AcDbLine
 10
19.252309468822148
 20
-1.1999995223464452
 30
0.0
 11
23.999999995231633
 21
-1.1999995223464452
 31
0.0
  0
LINE
  5
4B4
100
AcDbEntity
  8
0
  6
CONTINUOUS
 62
               4
100
AcDbLine
 10
20.75346420323325
 20
-3.799999522346468
 30
0.0
 11
23.999999995231633
 21
-3.799999522346468
 31
0.0
  0
LINE
  5
4B5
100
AcDbEntity
  8
0
  6
CENTER
 62
             200
100
AcDbLine
 10
14.651603608812593
 20
-2.4999995223464566
 30
0.0
 11
33.252631006551155
 21
-2.4999995223464566
 31
0.0
  0
ENDBLK
  5
4B6
100
AcDbEntity
  8
0
100
AcDbBlockEnd
  0
BLOCK
  5
4B7
100
AcDbEntity
  8
0
100
AcDbBlockBegin
  2
MS_13
 70
               0
 10
0.0
 20
0.0
 30
0.0
  3
MS_13
  1

  0
LINE
  5
4B8
100
AcDbEntity
  8
0
  6
CONTINUOUS
 62
             200
100
AcDbLine
 10
1.0500000000000114
 20
-0.0000000019073525
 30
0.0
 11
1.0500000010901687
 21
0.6001359980926679
 31
0.0
  0
LINE
  5
4B9
100
AcDbEntity
  8
0
  6
CONTINUOUS
 62
             200
100
AcDbLine
 10
-1.0499999999999829
 20
0.0000000019073525
 30
0.0
 11
-1.0499999989098256
 21
0.6001360019073729
 31
0.0
  0
LINE
  5
4BA
100
AcDbEntity
  8
0
  6
CONTINUOUS
 62
             200
100
AcDbLine
 10
1.0499999925576873
 20
-4.0970068590501967
 30
0.0
 11
1.049999995277048
 21
-2.6000000019073752
 31
0.0
  0
LINE
  5
4BB
100
AcDbEntity
  8
0
  6
CONTINUOUS
 62
             200
100
AcDbLine
 10
-1.050000007442307
 20
-4.0970068552354917
 30
0.0
 11
-1.0500000047229463
 21
-2.5999999980926702
 31
0.0
  0
LINE
  5
4BC
100
AcDbEntity
  8
0
  6
CONTINUOUS
 62
               4
100
AcDbLine
 10
-1.2499999992731432
 20
0.4001360022706422
 30
0.0
 11
-1.0499999989098256
 21
0.6001360019073729
 31
0.0
  0
LINE
  5
4BD
100
AcDbEntity
  8
0
  6
CONTINUOUS
 62
               4
100
AcDbLine
 10
-1.25
 20
0.0000000022706672
 30
0.0
 11
-1.2499999992731432
 21
0.4001360022706422
 31
0.0
  0
LINE
  5
4BE
100
AcDbEntity
  8
0
  6
CONTINUOUS
 62
               4
100
AcDbLine
 10
-2.0500000019981712
 20
-1.0999999962761535
 30
0.0
 11
-2.0500000046292968
 21
-2.5484354248475825
 31
0.0
  0
LINE
  5
4BF
100
AcDbEntity
  8
0
  6
CONTINUOUS
 62
               4
100
AcDbLine
 10
-2.0500000019981712
 20
-1.0999999962761535
 30
0.0
 11
-1.5014285724250556
 21
-0.5485714258440737
 31
0.0
  0
LINE
  5
4C0
100
AcDbEntity
  8
0
  6
CONTINUOUS
 62
               4
100
AcDbLine
 10
-1.2500000047229634
 20
-2.5999999977293555
 30
0.0
 11
-1.2500000070790236
 21
-3.8970068548721883
 31
0.0
  0
LINE
  5
4C1
100
AcDbEntity
  8
0
  6
CONTINUOUS
 62
               4
100
AcDbLine
 10
-0.7471428651353165
 20
-4.3998639986428145
 30
0.0
 11
-1.2500000070790236
 21
-3.8970068548721883
 31
0.0
  0
LINE
  5
4C2
100
AcDbEntity
  8
0
  6
CONTINUOUS
 62
               4
100
AcDbLine
 10
-0.7471428651353165
 20
-4.3998639986428145
 30
0.0
 11
0.7471428491504071
 21
-4.3998640013572015
 31
0.0
  0
LINE
  5
4C3
100
AcDbEntity
  8
0
  6
CENTER
 62
             200
100
AcDbLine
 10
-0.0000000092044132
 20
-5.0670362466293
 30
0.0
 11
0.0000000023369324
 21
1.2864823111649457
 31
0.0
  0
LINE
  5
4C4
100
AcDbEntity
  8
0
  6
CONTINUOUS
 62
               4
100
AcDbLine
 10
-1.500000000993893
 20
-0.5471354139418736
 30
0.0
 11
-1.5
 21
0.0000000054495786
 31
0.0
  0
LINE
  5
4C5
100
AcDbEntity
  8
0
  6
CONTINUOUS
 62
               4
100
AcDbLine
 10
1.0500000010901687
 20
0.6001359980926679
 30
0.0
 11
1.2500000007268568
 21
0.4001359977293078
 31
0.0
  0
LINE
  5
4C6
100
AcDbEntity
  8
0
  6
CONTINUOUS
 62
               4
100
AcDbLine
 10
1.2500000007268568
 20
0.4001359977293078
 30
0.0
 11
1.25
 21
-0.0000000022706672
 31
0.0
  0
LINE
  5
4C7
100
AcDbEntity
  8
0
  6
CONTINUOUS
 62
               4
100
AcDbLine
 10
2.0499999980018373
 20
-1.100000003723892
 30
0.0
 11
2.0499999953707118
 21
-2.5484354322953209
 31
0.0
  0
LINE
  5
4C8
100
AcDbEntity
  8
0
  6
CONTINUOUS
 62
               4
100
AcDbLine
 10
1.2499999952772782
 20
-2.5998640022706923
 30
0.0
 11
1.2499999929209764
 21
-3.8970068594135228
 31
0.0
  0
LINE
  5
4C9
100
AcDbEntity
  8
0
  6
CONTINUOUS
 62
               4
100
AcDbLine
 10
1.4999999990009059
 20
-0.5500000027248007
 30
0.0
 11
1.5
 21
0.0
 31
0.0
  0
LINE
  5
4CA
100
AcDbEntity
  8
0
  6
CONTINUOUS
 62
               4
100
AcDbLine
 10
1.4999999928701584
 20
-0.5499999965940106
 30
0.0
 11
2.0499999980018373
 21
-1.100000003723892
 31
0.0
  0
LINE
  5
4CB
100
AcDbEntity
  8
0
  6
CONTINUOUS
 62
               4
100
AcDbLine
 10
-2.0500000047229605
 20
-2.5999999962761535
 30
0.0
 11
2.049390718603064
 21
-2.6000000037227835
 31
0.0
  0
LINE
  5
4CC
100
AcDbEntity
  8
0
  6
CONTINUOUS
 62
               4
100
AcDbLine
 10
-2.0500000032697443
 20
-1.7999999962761422
 30
0.0
 11
2.0499999967302642
 21
-1.8000000037238806
 31
0.0
  0
ARC
  5
4CD
100
AcDbEntity
  8
0
  6
CONTINUOUS
 62
               4
100
AcDbCircle
 10
-0.0000000046321418
 20
-2.5499989233983342
 30
0.0
 40
2.050000596223347
100
AcDbArc
 50
179.95630153623421
 51
359.99999989592067
  0
LINE
  5
4CE
100
AcDbEntity
  8
0
  6
CONTINUOUS
 62
               4
100
AcDbLine
 10
1.2499999929209764
 20
-3.8970068594135228
 30
0.0
 11
0.7471428491504071
 21
-4.3998640013572015
 31
0.0
  0
LINE
  5
4CF
100
AcDbEntity
  8
0
  6
CONTINUOUS
 62
               4
100
AcDbLine
 10
-1.2500000070790236
 20
-3.8970068548721883
 30
0.0
 11
1.2499999929209764
 21
-3.8970068594135228
 31
0.0
  0
LINE
  5
4D0
100
AcDbEntity
  8
0
  6
CONTINUOUS
 62
               4
100
AcDbLine
 10
-1.501428571428562
 20
0.0000000027273757
 30
0.0
 11
1.5
 21
-0.0000000027247893
 31
0.0
  0
LINE
  5
4D1
100
AcDbEntity
  8
0
  6
CONTINUOUS
 62
               4
100
AcDbLine
 10
-1.2499999992731432
 20
0.4001360022706422
 30
0.0
 11
1.2500000007268568
 21
0.4001359977293078
 31
0.0
  0
LINE
  5
4D2
100
AcDbEntity
  8
0
  6
CONTINUOUS
 62
               4
100
AcDbLine
 10
-1.0499999989098256
 20
0.6001360019073729
 30
0.0
 11
1.0500000010901687
 21
0.6001359980926679
 31
0.0
  0
ENDBLK
  5
4D3
100
AcDbEntity
  8
0
100
AcDbBlockEnd
  0
BLOCK
  5
4D4
100
AcDbEntity
  8
0
100
AcDbBlockBegin
  2
MS_14
 70
               0
 10
0.0
 20
0.0
 30
0.0
  3
MS_14
  1

  0
LINE
  5
4D5
100
AcDbEntity
  8
0
  6
CENTER
 62
             200
100
AcDbLine
 10
-1.4104017530168846
 20
0.0
 30
0.0
 11
21.502886840796066
 21
0.0
 31
0.0
  0
LINE
  5
4D6
100
AcDbEntity
  8
0
  6
CONTINUOUS
 62
             200
100
AcDbLine
 10
17.250000004768367
 20
2.1700000000000159
 30
0.0
 11
19.750000004768367
 21
-2.1599999999999966
 31
0.0
  0
LINE
  5
4D7
100
AcDbEntity
  8
0
  6
CONTINUOUS
 62
               4
100
AcDbLine
 10
15.500000004768367
 20
-1.2999999999999829
 30
0.0
 11
19.253464208001617
 21
-1.2999999999999829
 31
0.0
  0
LINE
  5
4D8
100
AcDbEntity
  8
0
  6
CONTINUOUS
 62
               4
100
AcDbLine
 10
15.500000004768367
 20
1.3000000000000114
 30
0.0
 11
17.752309473590515
 21
1.3000000000000114
 31
0.0
  0
LINE
  5
4D9
100
AcDbEntity
  8
0
  6
CENTER
 62
             200
100
AcDbLine
 10
2.000000004768367
 20
2.9428571428571502
 30
0.0
 11
2.000000004768367
 21
-3.2999846734234666
 31
0.0
  0
LINE
  5
4DA
100
AcDbEntity
  8
0
  6
CONTINUOUS
 62
               4
100
AcDbLine
 10
3.9000000047683443
 20
-1.5
 30
0.0
 11
3.9000000047683443
 21
1.5
 31
0.0
  0
LINE
  5
4DB
100
AcDbEntity
  8
0
  6
CONTINUOUS
 62
               4
100
AcDbLine
 10
10.400000004768344
 20
-1.5
 30
0.0
 11
10.400000004768344
 21
1.5
 31
0.0
  0
LINE
  5
4DC
100
AcDbEntity
  8
0
  6
CONTINUOUS
 62
               4
100
AcDbLine
 10
8.000000004768367
 20
-0.5999999999999943
 30
0.0
 11
8.000000004768367
 21
0.9000000000000057
 31
0.0
  0
LINE
  5
4DD
100
AcDbEntity
  8
0
  6
CONTINUOUS
 62
               4
100
AcDbLine
 10
9.6000000047683898
 20
-0.5999999999999943
 30
0.0
 11
9.6000000047683898
 21
0.9000000000000057
 31
0.0
  0
LINE
  5
4DE
100
AcDbEntity
  8
0
  6
CONTINUOUS
 62
               4
100
AcDbLine
 10
0.0
 20
-2.0499999999999829
 30
0.0
 11
0.0
 21
2.0500000000000114
 31
0.0
  0
LINE
  5
4DF
100
AcDbEntity
  8
0
  6
CONTINUOUS
 62
               4
100
AcDbLine
 10
15.500000004768367
 20
-2.0499999999999829
 30
0.0
 11
15.500000004768367
 21
2.0500000000000114
 31
0.0
  0
LINE
  5
4E0
100
AcDbEntity
  8
0
  6
CONTINUOUS
 62
               4
100
AcDbLine
 10
0.0
 20
1.5
 30
0.0
 11
15.500000004768367
 21
1.5
 31
0.0
  0
LINE
  5
4E1
100
AcDbEntity
  8
0
  6
CONTINUOUS
 62
               4
100
AcDbLine
 10
0.0
 20
-1.5
 30
0.0
 11
15.500000004768367
 21
-1.5
 31
0.0
  0
CIRCLE
  5
4E2
100
AcDbEntity
  8
0
  6
CONTINUOUS
 62
               4
100
AcDbCircle
 10
2.000000004768367
 20
0.0
 30
0.0
 40
1.3999999999999997
  0
CIRCLE
  5
4E3
100
AcDbEntity
  8
0
  6
CONTINUOUS
 62
               4
100
AcDbCircle
 10
2.000000004768367
 20
0.0
 30
0.0
 40
1.25
  0
CIRCLE
  5
4E4
100
AcDbEntity
  8
0
  6
CONTINUOUS
 62
             200
100
AcDbCircle
 10
2.000000004768367
 20
0.0
 30
0.0
 40
1.05
  0
LINE
  5
4E5
100
AcDbEntity
  8
0
  6
CONTINUOUS
 62
               4
100
AcDbLine
 10
0.9571978986753322
 20
-0.6892486978790089
 30
0.0
 11
2.6892487026473759
 21
1.0428021060930348
 31
0.0
  0
LINE
  5
4E6
100
AcDbEntity
  8
0
  6
CONTINUOUS
 62
               4
100
AcDbLine
 10
1.3107513189315796
 20
-1.0428020722525559
 30
0.0
 11
3.0428021124430984
 21
0.6892487212589913
 31
0.0
  0
LINE
  5
4E7
100
AcDbEntity
  8
0
  6
CONTINUOUS
 62
               4
100
AcDbLine
 10
8.000000004768367
 20
0.9000000000000057
 30
0.0
 11
9.6000000047683898
 21
0.9000000000000057
 31
0.0
  0
LINE
  5
4E8
100
AcDbEntity
  8
0
  6
CONTINUOUS
 62
               4
100
AcDbLine
 10
8.000000004768367
 20
-0.5999999999999943
 30
0.0
 11
9.6000000047683898
 21
-0.5999999999999943
 31
0.0
  0
LINE
  5
4E9
100
AcDbEntity
  8
0
  6
CONTINUOUS
 62
               4
100
AcDbLine
 10
0.0
 20
2.0500000000000114
 30
0.0
 11
15.500000004768367
 21
2.0500000000000114
 31
0.0
  0
LINE
  5
4EA
100
AcDbEntity
  8
0
  6
CONTINUOUS
 62
               4
100
AcDbLine
 10
0.0
 20
-2.0499999999999829
 30
0.0
 11
15.500000004768367
 21
-2.0499999999999829
 31
0.0
  0
ENDBLK
  5
4EB
100
AcDbEntity
  8
0
100
AcDbBlockEnd
  0
BLOCK
  5
4EC
100
AcDbEntity
  8
0
100
AcDbBlockBegin
  2
MS_15
 70
               0
 10
0.0
 20
0.0
 30
0.0
  3
MS_15
  1

  0
LINE
  5
4ED
100
AcDbEntity
  8
0
  6
CONTINUOUS
 62
               4
100
AcDbLine
 10
11.200000004768356
 20
9.6445121127279663
 30
0.0
 11
11.200000004768356
 21
14.397976315961245
 31
0.0
  0
LINE
  5
4EE
100
AcDbEntity
  8
0
  6
CONTINUOUS
 62
               4
100
AcDbLine
 10
13.800000004768378
 20
11.145666847139069
 30
0.0
 11
13.800000004768378
 21
14.397976315961245
 31
0.0
  0
LINE
  5
4EF
100
AcDbEntity
  8
0
  6
CONTINUOUS
 62
             200
100
AcDbLine
 10
10.340000004768399
 20
16.627976315961234
 30
0.0
 11
14.670000004768326
 21
19.127976315961234
 31
0.0
  0
LINE
  5
4F0
100
AcDbEntity
  8
0
  6
CONTINUOUS
 62
             200
100
AcDbLine
 10
10.340000004768399
 20
18.127976315961234
 30
0.0
 11
14.670000004768326
 21
20.627976315961234
 31
0.0
  0
LINE
  5
4F1
100
AcDbEntity
  8
0
  6
CONTINUOUS
 62
             200
100
AcDbLine
 10
10.340000004768399
 20
7.6479763159612446
 30
0.0
 11
14.670000004768326
 21
10.147976315961245
 31
0.0
  0
LINE
  5
4F2
100
AcDbEntity
  8
0
  6
CONTINUOUS
 62
             200
100
AcDbLine
 10
10.340000004768399
 20
9.1479763159612446
 30
0.0
 11
14.670000004768326
 21
11.647976315961245
 31
0.0
  0
LINE
  5
4F3
100
AcDbEntity
  8
0
  6
CONTINUOUS
 62
               4
100
AcDbLine
 10
10.400000010217923
 20
0.9479762348989311
 30
0.0
 11
12.050955668063693
 21
1.4979762296661931
 31
0.0
  0
LINE
  5
4F4
100
AcDbEntity
  8
0
  6
CONTINUOUS
 62
               4
100
AcDbLine
 10
12.050955668063693
 20
1.4979762296661931
 30
0.0
 11
12.050955668063693
 21
5.8979763159612446
 31
0.0
  0
LINE
  5
4F5
100
AcDbEntity
  8
0
  6
CONTINUOUS
 62
               4
100
AcDbLine
 10
12.949044341473041
 20
4.8979763118740607
 30
0.0
 11
12.949044341473041
 21
5.8979763118740607
 31
0.0
  0
LINE
  5
4F6
100
AcDbEntity
  8
0
  6
CONTINUOUS
 62
               4
100
AcDbLine
 10
12.949044341473041
 20
4.8979763159612446
 30
0.0
 11
15.000000004768367
 21
4.8979763159612446
 31
0.0
  0
LINE
  5
4F7
100
AcDbEntity
  8
0
  6
CONTINUOUS
 62
               4
100
AcDbLine
 10
14.60000000476839
 20
4.8979763159612446
 30
0.0
 11
14.60000000476839
 21
5.8979763159612446
 31
0.0
  0
LINE
  5
4F8
100
AcDbEntity
  8
0
  6
CONTINUOUS
 62
               4
100
AcDbLine
 10
10.400000004768344
 20
-0.0020236840387611
 30
0.0
 11
10.400000004768344
 21
5.8979763159612446
 31
0.0
  0
LINE
  5
4F9
100
AcDbEntity
  8
0
  6
CONTINUOUS
 62
               4
100
AcDbLine
 10
10.400000004768344
 20
5.8979763159612446
 30
0.0
 11
14.60000000476839
 21
5.8979763159612446
 31
0.0
  0
LINE
  5
4FA
100
AcDbEntity
  8
0
  6
CONTINUOUS
 62
               4
100
AcDbLine
 10
15.000000004768367
 20
3.8979763159612446
 30
0.0
 11
10.400000004768344
 21
3.8979763159612446
 31
0.0
  0
LINE
  5
4FB
100
AcDbEntity
  8
0
  6
CENTER
 62
             200
100
AcDbLine
 10
12.500000004768367
 20
5.3933952003748118
 30
0.0
 11
12.500000004768367
 21
17.186465534727631
 31
0.0
  0
LINE
  5
4FC
100
AcDbEntity
  8
0
  6
CONTINUOUS
 62
             200
100
AcDbLine
 10
0.9500000047683557
 20
0.5979763159612617
 30
0.0
 11
0.9500000047683557
 21
-0.0020236840387611
 31
0.0
  0
LINE
  5
4FD
100
AcDbEntity
  8
0
  6
CONTINUOUS
 62
             200
100
AcDbLine
 10
3.0500000047683784
 20
0.5979763159612617
 30
0.0
 11
3.0500000047683784
 21
-0.0020236840387611
 31
0.0
  0
LINE
  5
4FE
100
AcDbEntity
  8
0
  6
CONTINUOUS
 62
               4
100
AcDbLine
 10
0.751428576196929
 20
0.3979763159612446
 30
0.0
 11
3.251428576196929
 21
0.3979763159612446
 31
0.0
  0
LINE
  5
4FF
100
AcDbEntity
  8
0
  6
CONTINUOUS
 62
               4
100
AcDbLine
 10
3.0514285761969404
 20
0.5979763159612617
 30
0.0
 11
3.251428576196929
 21
0.3979763159612446
 31
0.0
  0
LINE
  5
500
100
AcDbEntity
  8
0
  6
CONTINUOUS
 62
               4
100
AcDbLine
 10
0.751428576196929
 20
0.3979763159612446
 30
0.0
 11
0.9514285761969177
 21
0.5979763159612617
 31
0.0
  0
LINE
  5
501
100
AcDbEntity
  8
0
  6
CONTINUOUS
 62
               4
100
AcDbLine
 10
3.251428576196929
 20
0.3979763159612446
 30
0.0
 11
3.251428576196929
 21
-0.0020236840387611
 31
0.0
  0
LINE
  5
502
100
AcDbEntity
  8
0
  6
CONTINUOUS
 62
               4
100
AcDbLine
 10
0.751428576196929
 20
-0.0020236840387611
 30
0.0
 11
0.751428576196929
 21
0.3979763159612446
 31
0.0
  0
LINE
  5
503
100
AcDbEntity
  8
0
  6
CONTINUOUS
 62
             200
100
AcDbLine
 10
0.9500000047683557
 20
-2.6020236840387554
 30
0.0
 11
0.9500000047683557
 21
-4.100595112610165
 31
0.0
  0
LINE
  5
504
100
AcDbEntity
  8
0
  6
CONTINUOUS
 62
             200
100
AcDbLine
 10
3.0500000047683784
 20
-2.6020236840387554
 30
0.0
 11
3.0500000047683784
 21
-4.1034522554673174
 31
0.0
  0
LINE
  5
505
100
AcDbEntity
  8
0
  6
CONTINUOUS
 62
               4
100
AcDbLine
 10
0.9514285761969177
 20
0.5979763159612617
 30
0.0
 11
3.0514285761969404
 21
0.5979763159612617
 31
0.0
  0
LINE
  5
506
100
AcDbEntity
  8
0
  6
CENTER
 62
             200
100
AcDbLine
 10
6.000000004768367
 20
-6.0925758804908696
 30
0.0
 11
6.000000004768367
 21
-3.6831687470558165
 31
0.0
  0
LINE
  5
507
100
AcDbEntity
  8
0
  6
CONTINUOUS
 62
               4
100
AcDbLine
 10
0.000000004768367
 20
-1.8020236840387724
 30
0.0
 11
0.000000004768367
 21
0.0
 31
0.0
  0
LINE
  5
508
100
AcDbEntity
  8
0
  6
CENTER
 62
             200
100
AcDbLine
 10
2.000000004768367
 20
1.2843226271262154
 30
0.0
 11
2.000000004768367
 21
-5.0691959306680587
 31
0.0
  0
LINE
  5
509
100
AcDbEntity
  8
0
  6
CONTINUOUS
 62
               4
100
AcDbLine
 10
4.000000004768367
 20
-1.8020236840387724
 30
0.0
 11
4.000000004768367
 21
-2.6020236840387554
 31
0.0
  0
LINE
  5
50A
100
AcDbEntity
  8
0
  6
CONTINUOUS
 62
               4
100
AcDbLine
 10
0.000000004768367
 20
-1.8020236840387724
 30
0.0
 11
0.000000004768367
 21
-2.6020236840387554
 31
0.0
  0
LINE
  5
50B
100
AcDbEntity
  8
0
  6
CONTINUOUS
 62
               4
100
AcDbLine
 10
0.751428576196929
 20
-2.6020236840387554
 30
0.0
 11
0.751428576196929
 21
-3.9020236840387383
 31
0.0
  0
LINE
  5
50C
100
AcDbEntity
  8
0
  6
CONTINUOUS
 62
             200
100
AcDbLine
 10
0.751428576196929
 20
-3.9020236840387383
 30
0.0
 11
3.251428576196929
 21
-3.9020236840387383
 31
0.0
  0
LINE
  5
50D
100
AcDbEntity
  8
0
  6
CONTINUOUS
 62
               4
100
AcDbLine
 10
1.251428576196929
 20
-4.4020236840387383
 30
0.0
 11
0.751428576196929
 21
-3.9020236840387383
 31
0.0
  0
LINE
  5
50E
100
AcDbEntity
  8
0
  6
CONTINUOUS
 62
               4
100
AcDbLine
 10
1.251428576196929
 20
-4.4020236840387383
 30
0.0
 11
2.751428576196929
 21
-4.4020236840387383
 31
0.0
  0
LINE
  5
50F
100
AcDbEntity
  8
0
  6
CONTINUOUS
 62
               4
100
AcDbLine
 10
3.251428576196929
 20
-3.9020236840387383
 30
0.0
 11
2.751428576196929
 21
-4.4020236840387383
 31
0.0
  0
LINE
  5
510
100
AcDbEntity
  8
0
  6
CONTINUOUS
 62
               4
100
AcDbLine
 10
3.251428576196929
 20
-2.6020236840387554
 30
0.0
 11
3.251428576196929
 21
-3.9020236840387383
 31
0.0
  0
LINE
  5
511
100
AcDbEntity
  8
0
  6
CONTINUOUS
 62
               4
100
AcDbLine
 10
4.3000000047683784
 20
-1.8000000000000114
 30
0.0
 11
4.3000000047683784
 21
-4.6000000000000227
 31
0.0
  0
LINE
  5
512
100
AcDbEntity
  8
0
  6
CONTINUOUS
 62
               4
100
AcDbLine
 10
15.000000004768367
 20
-4.6000000000000227
 30
0.0
 11
15.000000004768367
 21
4.8979763159612446
 31
0.0
  0
LINE
  5
513
100
AcDbEntity
  8
0
  6
CONTINUOUS
 62
               4
100
AcDbLine
 10
11.200000004768356
 20
14.397976315961245
 30
0.0
 11
13.800000004768378
 21
14.397976315961245
 31
0.0
  0
LINE
  5
514
100
AcDbEntity
  8
0
  6
CONTINUOUS
 62
               4
100
AcDbLine
 10
11.200000004768356
 20
5.8979763159612446
 30
0.0
 11
11.200000004768356
 21
8.1445121127279663
 31
0.0
  0
LINE
  5
515
100
AcDbEntity
  8
0
  6
CONTINUOUS
 62
               4
100
AcDbLine
 10
13.800000004768378
 20
5.8979763159612446
 30
0.0
 11
13.800000004768378
 21
9.6456668471390685
 31
0.0
  0
LINE
  5
516
100
AcDbEntity
  8
0
  6
CONTINUOUS
 62
               4
100
AcDbLine
 10
4.3000000034060122
 20
-4.6000000000000227
 30
0.0
 11
15.0
 21
-4.6000000000000227
 31
0.0
  0
LINE
  5
517
100
AcDbEntity
  8
0
  6
CONTINUOUS
 62
               4
100
AcDbLine
 10
0.0
 20
0.0
 30
0.0
 11
15.0
 21
0.0
 31
0.0
  0
LINE
  5
518
100
AcDbEntity
  8
0
  6
CONTINUOUS
 62
               4
100
AcDbLine
 10
0.000000004768367
 20
-1.8000000000000114
 30
0.0
 11
4.3000000047683784
 21
-1.8000000000000114
 31
0.0
  0
LINE
  5
519
100
AcDbEntity
  8
0
  6
CONTINUOUS
 62
               4
100
AcDbLine
 10
0.0
 20
-2.6000000000000227
 30
0.0
 11
4.0
 21
-2.6000000000000227
 31
0.0
  0
LINE
  5
51A
100
AcDbEntity
  8
0
  6
CONTINUOUS
 62
               4
100
AcDbLine
 10
0.0
 20
-1.1000000082564156
 30
0.0
 11
15.0
 21
-1.1000000082564156
 31
0.0
  0
LINE
  5
51B
100
AcDbEntity
  8
0
  6
CONTINUOUS
 62
               4
100
AcDbLine
 10
0.0
 20
-0.5500000000000114
 30
0.0
 11
15.000000004768367
 21
-0.5500000000000114
 31
0.0
  0
LINE
  5
51C
100
AcDbEntity
  8
0
  6
CONTINUOUS
 62
               4
100
AcDbLine
 10
10.399999993188032
 20
0.9479762301305641
 30
0.0
 11
15.0
 21
0.9479762301305641
 31
0.0
  0
LINE
  5
51D
100
AcDbEntity
  8
0
  6
CONTINUOUS
 62
               4
100
AcDbLine
 10
10.400000010217923
 20
1.4979762335365194
 30
0.0
 11
15.000000004768367
 21
1.4979762335365194
 31
0.0
  0
LINE
  5
51E
100
AcDbEntity
  8
0
  6
CONTINUOUS
 62
               4
100
AcDbLine
 10
12.35000000476839
 20
14.397976315961245
 30
0.0
 11
12.35000000476839
 21
17.788484399102117
 31
0.0
  0
LINE
  5
51F
100
AcDbEntity
  8
0
  6
CONTINUOUS
 62
               4
100
AcDbLine
 10
12.650000004768344
 20
14.397976315961245
 30
0.0
 11
12.650000004768344
 21
17.961694560764954
 31
0.0
  0
LINE
  5
520
100
AcDbEntity
  8
0
  6
CONTINUOUS
 62
               4
100
AcDbLine
 10
13.650000004768344
 20
14.397976315961245
 30
0.0
 11
13.650000004768344
 21
18.539061766307668
 31
0.0
  0
LINE
  5
521
100
AcDbEntity
  8
0
  6
CONTINUOUS
 62
               4
100
AcDbLine
 10
11.35000000476839
 20
14.397976315961245
 30
0.0
 11
11.35000000476839
 21
17.211117193559403
 31
0.0
  0
LINE
  5
522
100
AcDbEntity
  8
0
  6
CONTINUOUS
 62
               4
100
AcDbLine
 10
11.350000006811968
 20
21.397976315961245
 30
0.0
 11
12.35000000476839
 21
21.397976315961245
 31
0.0
  0
LINE
  5
523
100
AcDbEntity
  8
0
  6
CONTINUOUS
 62
               4
100
AcDbLine
 10
12.650000004768344
 20
21.397976315961245
 30
0.0
 11
13.650000010217923
 21
21.397976315961245
 31
0.0
  0
LINE
  5
524
100
AcDbEntity
  8
0
  6
CONTINUOUS
 62
               4
100
AcDbLine
 10
12.650000004768344
 20
19.461694560764954
 30
0.0
 11
12.650000004768344
 21
21.397976315961245
 31
0.0
  0
LINE
  5
525
100
AcDbEntity
  8
0
  6
CONTINUOUS
 62
               4
100
AcDbLine
 10
13.650000004768344
 20
20.039061766307668
 30
0.0
 11
13.650000004768344
 21
21.397976315961245
 31
0.0
  0
LINE
  5
526
100
AcDbEntity
  8
0
  6
CONTINUOUS
 62
               4
100
AcDbLine
 10
11.35000000476839
 20
18.711117193559403
 30
0.0
 11
11.35000000476839
 21
21.397976315961245
 31
0.0
  0
LINE
  5
527
100
AcDbEntity
  8
0
  6
CONTINUOUS
 62
               4
100
AcDbLine
 10
12.35000000476839
 20
19.288484399102117
 30
0.0
 11
12.35000000476839
 21
21.397976315961245
 31
0.0
  0
LINE
  5
528
100
AcDbEntity
  8
0
  6
CENTER
 62
             200
100
AcDbLine
 10
11.8500000020436
 20
12.667976315961255
 30
0.0
 11
11.8500000020436
 21
24.597976315961233
 31
0.0
  0
LINE
  5
529
100
AcDbEntity
  8
0
  6
CENTER
 62
             200
100
AcDbLine
 10
13.15000000749319
 20
12.667976315961255
 30
0.0
 11
13.15000000749319
 21
24.647976315961245
 31
0.0
  0
LINE
  5
52A
100
AcDbEntity
  8
0
  6
CONTINUOUS
 62
               4
100
AcDbLine
 10
12.86000000749317
 20
21.397976315961245
 30
0.0
 11
12.86000000749317
 21
24.397976315961245
 31
0.0
  0
LINE
  5
52B
100
AcDbEntity
  8
0
  6
CONTINUOUS
 62
               4
100
AcDbLine
 10
13.440000007493154
 20
21.397976315961245
 30
0.0
 11
13.440000007493154
 21
24.397976315961245
 31
0.0
  0
LINE
  5
52C
100
AcDbEntity
  8
0
  6
CONTINUOUS
 62
               4
100
AcDbLine
 10
12.860000014305115
 20
24.397976315961245
 30
0.0
 11
13.440000006130731
 21
24.397976315961245
 31
0.0
  0
LINE
  5
52D
100
AcDbEntity
  8
0
  6
CONTINUOUS
 62
               4
100
AcDbLine
 10
12.139999995231619
 20
24.397976315961245
 30
0.0
 11
11.560000003406003
 21
24.397976315961245
 31
0.0
  0
LINE
  5
52E
100
AcDbEntity
  8
0
  6
CONTINUOUS
 62
               4
100
AcDbLine
 10
12.140000002043564
 20
21.397976315961245
 30
0.0
 11
12.140000002043564
 21
24.397976315961245
 31
0.0
  0
LINE
  5
52F
100
AcDbEntity
  8
0
  6
CONTINUOUS
 62
               4
100
AcDbLine
 10
11.56000000204358
 20
21.397976315961245
 30
0.0
 11
11.56000000204358
 21
24.397976315961245
 31
0.0
  0
ENDBLK
  5
530
100
AcDbEntity
  8
0
100
AcDbBlockEnd
  0
BLOCK
  5
531
100
AcDbEntity
  8
0
100
AcDbBlockBegin
  2
MS_16
 70
               0
 10
0.0
 20
0.0
 30
0.0
  3
MS_16
  1

  0
LINE
  5
532
100
AcDbEntity
  8
0
  6
CONTINUOUS
 62
             200
100
AcDbLine
 10
-2.160000000000025
 20
7.6479762296661988
 30
0.0
 11
2.1700000000000159
 21
10.147976229666199
 31
0.0
  0
LINE
  5
533
100
AcDbEntity
  8
0
  6
CONTINUOUS
 62
               4
100
AcDbLine
 10
-2.0500000000000114
 20
5.8979762296661988
 30
0.0
 11
2.0500000000000114
 21
5.8979762296661988
 31
0.0
  0
LINE
  5
534
100
AcDbEntity
  8
0
  6
CONTINUOUS
 62
               4
100
AcDbLine
 10
-2.0500000000000114
 20
3.8979762296661988
 30
0.0
 11
2.0500000000000114
 21
3.8979762296661988
 31
0.0
  0
LINE
  5
535
100
AcDbEntity
  8
0
  6
CONTINUOUS
 62
               4
100
AcDbLine
 10
-1.0500000000000114
 20
0.5979763159612617
 30
0.0
 11
1.0500000000000114
 21
0.5979763159612617
 31
0.0
  0
LINE
  5
536
100
AcDbEntity
  8
0
  6
CONTINUOUS
 62
               4
100
AcDbLine
 10
-1.25
 20
0.3979763159612446
 30
0.0
 11
-1.0500000000000114
 21
0.5979763159612617
 31
0.0
  0
LINE
  5
537
100
AcDbEntity
  8
0
  6
CONTINUOUS
 62
               4
100
AcDbLine
 10
1.0500000000000114
 20
0.5979763159612617
 30
0.0
 11
1.25
 21
0.3979763159612446
 31
0.0
  0
LINE
  5
538
100
AcDbEntity
  8
0
  6
CONTINUOUS
 62
               4
100
AcDbLine
 10
-1.25
 20
0.3979763159612446
 30
0.0
 11
1.25
 21
0.3979763159612446
 31
0.0
  0
LINE
  5
539
100
AcDbEntity
  8
0
  6
CONTINUOUS
 62
               4
100
AcDbLine
 10
1.25
 20
0.3979763159612446
 30
0.0
 11
1.25
 21
0.0
 31
0.0
  0
LINE
  5
53A
100
AcDbEntity
  8
0
  6
CONTINUOUS
 62
               4
100
AcDbLine
 10
-1.25
 20
0.0
 30
0.0
 11
-1.25
 21
0.3979763159612446
 31
0.0
  0
LINE
  5
53B
100
AcDbEntity
  8
0
  6
CONTINUOUS
 62
               4
100
AcDbLine
 10
-2.0479763159612503
 20
-1.1020236840387554
 30
0.0
 11
-1.5
 21
-0.5511933247651939
 31
0.0
  0
LINE
  5
53C
100
AcDbEntity
  8
0
  6
CONTINUOUS
 62
               4
100
AcDbLine
 10
2.0500000000000114
 20
-1.1000000000000227
 30
0.0
 11
1.5
 21
-0.5500000000000114
 31
0.0
  0
LINE
  5
53D
100
AcDbEntity
  8
0
  6
CONTINUOUS
 62
               4
100
AcDbLine
 10
1.25
 20
-2.6000000000000227
 30
0.0
 11
1.25
 21
-3.8991665411816143
 31
0.0
  0
LINE
  5
53E
100
AcDbEntity
  8
0
  6
CONTINUOUS
 62
               4
100
AcDbLine
 10
-1.25
 20
-2.6000000000000227
 30
0.0
 11
-1.25
 21
-3.8991665411816143
 31
0.0
  0
LINE
  5
53F
100
AcDbEntity
  8
0
  6
CONTINUOUS
 62
               4
100
AcDbLine
 10
-1.25
 20
-3.8991665411816143
 30
0.0
 11
1.25
 21
-3.8991665411816143
 31
0.0
  0
LINE
  5
540
100
AcDbEntity
  8
0
  6
CONTINUOUS
 62
               4
100
AcDbLine
 10
1.25
 20
-3.8991665411816143
 30
0.0
 11
0.7471428571428191
 21
-4.4020236840387383
 31
0.0
  0
LINE
  5
541
100
AcDbEntity
  8
0
  6
CONTINUOUS
 62
               4
100
AcDbLine
 10
-0.7471428571428191
 20
-4.4020236840387383
 30
0.0
 11
-1.25
 21
-3.8991665411816143
 31
0.0
  0
LINE
  5
542
100
AcDbEntity
  8
0
  6
CONTINUOUS
 62
               4
100
AcDbLine
 10
2.0005951126101422
 20
-1.8000000000000114
 30
0.0
 11
2.0005951126101422
 21
-2.6020236840387554
 31
0.0
  0
LINE
  5
543
100
AcDbEntity
  8
0
  6
CONTINUOUS
 62
               4
100
AcDbLine
 10
-1.9994048873898578
 20
-1.8000000000000114
 30
0.0
 11
-1.9994048873898578
 21
-2.6020236840387554
 31
0.0
  0
LINE
  5
544
100
AcDbEntity
  8
0
  6
CONTINUOUS
 62
               4
100
AcDbLine
 10
-0.7471428571428191
 20
-4.4020236840387383
 30
0.0
 11
0.7471428571428191
 21
-4.4020236840387383
 31
0.0
  0
LINE
  5
545
100
AcDbEntity
  8
0
  6
CONTINUOUS
 62
               4
100
AcDbLine
 10
-2.0500000000000114
 20
-2.550595112610182
 30
0.0
 11
-2.0500000000000114
 21
-1.1020236840387554
 31
0.0
  0
LINE
  5
546
100
AcDbEntity
  8
0
  6
CONTINUOUS
 62
               4
100
AcDbLine
 10
2.0500000000000114
 20
-2.6411128569469895
 30
0.0
 11
2.0500000000000114
 21
-1.1000000082564156
 31
0.0
  0
ARC
  5
547
100
AcDbEntity
  8
0
  6
CONTINUOUS
 62
               4
100
AcDbCircle
 10
0.0
 20
-2.5500000000000114
 30
0.0
 40
2.0499999999999994
100
AcDbArc
 50
180.0
 51
0.0
  0
LINE
  5
548
100
AcDbEntity
  8
0
  6
CONTINUOUS
 62
               4
100
AcDbLine
 10
-2.0500000000000114
 20
1.4979762281690228
 30
0.0
 11
-2.0500000000000114
 21
5.8979762296661988
 31
0.0
  0
LINE
  5
549
100
AcDbEntity
  8
0
  6
CONTINUOUS
 62
               4
100
AcDbLine
 10
2.0500000000000114
 20
1.4979762320920713
 30
0.0
 11
2.0500000000000114
 21
5.8979762296661988
 31
0.0
  0
LINE
  5
54A
100
AcDbEntity
  8
0
  6
CONTINUOUS
 62
               4
100
AcDbLine
 10
1.5
 20
0.9479762320920884
 30
0.0
 11
2.0500000014444595
 21
1.4979762335365194
 31
0.0
  0
LINE
  5
54B
100
AcDbEntity
  8
0
  6
CONTINUOUS
 62
               4
100
AcDbLine
 10
-2.050000005367508
 20
1.4979762335365194
 30
0.0
 11
-1.5
 21
0.9479762281690114
 31
0.0
  0
LINE
  5
54C
100
AcDbEntity
  8
0
  6
CONTINUOUS
 62
               4
100
AcDbLine
 10
-1.5
 20
-0.5511933238986444
 30
0.0
 11
-1.5
 21
0.9479762301305641
 31
0.0
  0
LINE
  5
54D
100
AcDbEntity
  8
0
  6
CONTINUOUS
 62
               4
100
AcDbLine
 10
1.5
 20
-0.5500000048504319
 30
0.0
 11
1.5
 21
0.9479762301305641
 31
0.0
  0
LINE
  5
54E
100
AcDbEntity
  8
0
  6
CONTINUOUS
 62
               4
100
AcDbLine
 10
-1.5000000019614959
 20
0.0
 30
0.0
 11
1.4999999980385041
 21
0.0
 31
0.0
  0
LINE
  5
54F
100
AcDbEntity
  8
0
  6
CONTINUOUS
 62
               4
100
AcDbLine
 10
-2.0500000000000114
 20
-1.8000000000000114
 30
0.0
 11
2.0500000000000114
 21
-1.8000000000000114
 31
0.0
  0
LINE
  5
550
100
AcDbEntity
  8
0
  6
CONTINUOUS
 62
               4
100
AcDbLine
 10
-1.9994048873898578
 20
-2.6000000000000227
 30
0.0
 11
2.0005951126101422
 21
-2.6000000000000227
 31
0.0
  0
LINE
  5
551
100
AcDbEntity
  8
0
  6
CONTINUOUS
 62
               4
100
AcDbLine
 10
-1.3000000000000114
 20
5.8979762296661988
 30
0.0
 11
-1.3000000000000114
 21
8.1445120264329205
 31
0.0
  0
LINE
  5
552
100
AcDbEntity
  8
0
  6
CONTINUOUS
 62
               4
100
AcDbLine
 10
1.3000000000000114
 20
5.8979762296661988
 30
0.0
 11
1.3000000000000114
 21
9.6456667608439943
 31
0.0
  0
LINE
  5
553
100
AcDbEntity
  8
0
  6
CENTER
 62
             200
100
AcDbLine
 10
0.0
 20
-5.5464060491292457
 30
0.0
 11
0.0
 21
9.6693480170655448
 31
0.0
  0
LINE
  5
554
100
AcDbEntity
  8
0
  6
CONTINUOUS
 62
             200
100
AcDbLine
 10
-1.0250000000000341
 20
-4.1241665411816086
 30
0.0
 11
-1.0250000000000341
 21
-2.6000000000000227
 31
0.0
  0
LINE
  5
555
100
AcDbEntity
  8
0
  6
CONTINUOUS
 62
             200
100
AcDbLine
 10
1.0250000000000341
 20
-4.1241665411816086
 30
0.0
 11
1.0250000000000341
 21
-2.6000000000000227
 31
0.0
  0
LINE
  5
556
100
AcDbEntity
  8
0
  6
CONTINUOUS
 62
             200
100
AcDbLine
 10
1.0250000000000341
 20
-0.0000000014444481
 30
0.0
 11
1.0250000000000341
 21
0.5979763159612617
 31
0.0
  0
LINE
  5
557
100
AcDbEntity
  8
0
  6
CONTINUOUS
 62
             200
100
AcDbLine
 10
-1.0250000000000341
 20
-0.0000000014444481
 30
0.0
 11
-1.0250000000000341
 21
0.5979763159612617
 31
0.0
  0
ENDBLK
  5
558
100
AcDbEntity
  8
0
100
AcDbBlockEnd
  0
BLOCK
  5
559
100
AcDbEntity
  8
0
100
AcDbBlockBegin
  2
MS_17
 70
               0
 10
0.0
 20
0.0
 30
0.0
  3
MS_17
  1

  0
LINE
  5
55A
100
AcDbEntity
  8
0
  6
CENTER
 62
             200
100
AcDbLine
 10
2.0
 20
2.8342857142856985
 30
0.0
 11
2.0
 21
-3.3514132448520115
 31
0.0
  0
CIRCLE
  5
55B
100
AcDbEntity
  8
0
  6
CONTINUOUS
 62
               4
100
AcDbCircle
 10
12.5
 20
0.0
 30
0.0
 40
1.3
  0
LINE
  5
55C
100
AcDbEntity
  8
0
  6
CENTER
 62
             200
100
AcDbLine
 10
12.5
 20
-2.4429562044143438
 30
0.0
 11
12.5
 21
2.4456261784689843
 31
0.0
  0
ARC
  5
55D
100
AcDbEntity
  8
0
  6
CONTINUOUS
 62
               4
100
AcDbCircle
 10
12.5
 20
0.0
 30
0.0
 40
2.1000000000000001
100
AcDbArc
 50
282.34693236741282
 51
77.293658161570477
  0
ARC
  5
55E
100
AcDbEntity
  8
0
  6
CONTINUOUS
 62
               4
100
AcDbCircle
 10
12.5
 20
0.0
 30
0.0
 40
2.1000000000000001
100
AcDbArc
 50
102.70634183842952
 51
257.65306763258718
  0
LINE
  5
55F
100
AcDbEntity
  8
0
  6
CENTER
 62
             200
100
AcDbLine
 10
-1.3247205773654969
 20
0.0
 30
0.0
 11
16.23761911485019
 21
0.0
 31
0.0
  0
LINE
  5
560
100
AcDbEntity
  8
0
  6
CONTINUOUS
 62
               4
100
AcDbLine
 10
0.0
 20
1.5
 30
0.0
 11
11.030306154330106
 21
1.5
 31
0.0
  0
LINE
  5
561
100
AcDbEntity
  8
0
  6
CONTINUOUS
 62
               4
100
AcDbLine
 10
0.0
 20
2.0499999999999829
 30
0.0
 11
0.0
 21
-2.0499999999999829
 31
0.0
  0
LINE
  5
562
100
AcDbEntity
  8
0
  6
CONTINUOUS
 62
               4
100
AcDbLine
 10
15.0
 20
2.0499999999999829
 30
0.0
 11
15.0
 21
-2.0499999999999829
 31
0.0
  0
LINE
  5
563
100
AcDbEntity
  8
0
  6
CONTINUOUS
 62
               4
100
AcDbLine
 10
0.9571428571428555
 20
-0.714285714285694
 30
0.0
 11
2.6885714285714357
 21
1.0200000000000102
 31
0.0
  0
LINE
  5
564
100
AcDbEntity
  8
0
  6
CONTINUOUS
 62
               4
100
AcDbLine
 10
1.3085714285714403
 20
-1.0685714285714027
 30
0.0
 11
3.051993036971453
 21
0.67485017982861
 31
0.0
  0
LINE
  5
565
100
AcDbEntity
  8
0
  6
CONTINUOUS
 62
               4
100
AcDbLine
 10
3.8999999999999773
 20
-1.5028571503503088
 30
0.0
 11
3.8999999999999773
 21
1.5000000068119732
 31
0.0
  0
LINE
  5
566
100
AcDbEntity
  8
0
  6
CONTINUOUS
 62
               4
100
AcDbLine
 10
10.399999999999977
 20
-1.5028571503503088
 30
0.0
 11
10.399999999999977
 21
1.5000000068119732
 31
0.0
  0
LINE
  5
567
100
AcDbEntity
  8
0
  6
CONTINUOUS
 62
               4
100
AcDbLine
 10
8.0
 20
-0.7000000068119618
 30
0.0
 11
8.0
 21
0.9000000000000057
 31
0.0
  0
LINE
  5
568
100
AcDbEntity
  8
0
  6
CONTINUOUS
 62
               4
100
AcDbLine
 10
9.6000000000000227
 20
-0.7000000068119618
 30
0.0
 11
9.6000000000000227
 21
0.9000000000000057
 31
0.0
  0
LINE
  5
569
100
AcDbEntity
  8
0
  6
CONTINUOUS
 62
               4
100
AcDbLine
 10
8.0
 20
0.9000000000000057
 30
0.0
 11
9.6000000000000227
 21
0.9000000000000057
 31
0.0
  0
LINE
  5
56A
100
AcDbEntity
  8
0
  6
CONTINUOUS
 62
               4
100
AcDbLine
 10
8.0
 20
-0.7000000000000171
 30
0.0
 11
9.6000000000000227
 21
-0.7000000000000171
 31
0.0
  0
LINE
  5
56B
100
AcDbEntity
  8
0
  6
CONTINUOUS
 62
               4
100
AcDbLine
 10
0.0
 20
2.0499999999999829
 30
0.0
 11
15.0
 21
2.0499999999999829
 31
0.0
  0
LINE
  5
56C
100
AcDbEntity
  8
0
  6
CONTINUOUS
 62
               4
100
AcDbLine
 10
0.0
 20
-2.0499999999999829
 30
0.0
 11
15.0
 21
-2.0499999999999829
 31
0.0
  0
LINE
  5
56D
100
AcDbEntity
  8
0
  6
CONTINUOUS
 62
               4
100
AcDbLine
 10
0.0
 20
-1.5
 30
0.0
 11
11.030306154330106
 21
-1.5
 31
0.0
  0
CIRCLE
  5
56E
100
AcDbEntity
  8
0
  6
CONTINUOUS
 62
               4
100
AcDbCircle
 10
2.0
 20
0.0
 30
0.0
 40
1.3999999999999997
  0
CIRCLE
  5
56F
100
AcDbEntity
  8
0
  6
CONTINUOUS
 62
             200
100
AcDbCircle
 10
2.0
 20
0.0
 30
0.0
 40
1.05
  0
CIRCLE
  5
570
100
AcDbEntity
  8
0
  6
CONTINUOUS
 62
               4
100
AcDbCircle
 10
2.0
 20
0.0
 30
0.0
 40
1.25
  0
LINE
  5
571
100
AcDbEntity
  8
0
  6
CENTER
 62
             200
100
AcDbLine
 10
11.849999997275233
 20
-0.8054622970305729
 30
0.0
 11
11.849999997275233
 21
0.8557856223879981
 31
0.0
  0
LINE
  5
572
100
AcDbEntity
  8
0
  6
CENTER
 62
             200
100
AcDbLine
 10
13.150000002724823
 20
-0.8054622970305729
 30
0.0
 11
13.150000002724823
 21
0.8557856223879981
 31
0.0
  0
CIRCLE
  5
573
100
AcDbEntity
  8
0
  6
CONTINUOUS
 62
               4
100
AcDbCircle
 10
13.150000002724823
 20
0.0
 30
0.0
 40
0.5
  0
CIRCLE
  5
574
100
AcDbEntity
  8
0
  6
CONTINUOUS
 62
               4
100
AcDbCircle
 10
11.849999997275233
 20
0.0
 30
0.0
 40
0.5
  0
CIRCLE
  5
575
100
AcDbEntity
  8
0
  6
CONTINUOUS
 62
               4
100
AcDbCircle
 10
13.150000002724823
 20
0.0
 30
0.0
 40
0.29
  0
CIRCLE
  5
576
100
AcDbEntity
  8
0
  6
CONTINUOUS
 62
               4
100
AcDbCircle
 10
11.849999997275233
 20
0.0
 30
0.0
 40
0.29
  0
ENDBLK
  5
577
100
AcDbEntity
  8
0
100
AcDbBlockEnd
  0
ENDSEC
  0
SECTION
  2
ENTITIES
  0
MTEXT
  5
578
100
AcDbEntity
  8
0
  6
CONTINUOUS
 62
               7
100
AcDbMText
 10
-375.65353835763619
 20
-62.767777374031027
 30
0.0
 40
6.3000001907348633
 41
0.0
 71
               4
 72
               1
  1
\W1.065;\A1;STRETCH LIST
  0
MTEXT
  5
579
100
AcDbEntity
  8
0
  6
CONTINUOUS
 62
               7
100
AcDbMText
 10
-297.02944793224867
 20
-83.25
 30
0.0
 40
6.3000001907348633
 41
0.0
 71
               4
 72
               1
  1
\W1.091;\A1;50
  0
MTEXT
  5
57A
100
AcDbEntity
  8
0
  6
CONTINUOUS
 62
               7
100
AcDbMText
 10
-328.62490249300669
 20
-83.25
 30
0.0
 40
6.3000001907348633
 41
0.0
 71
               4
 72
               1
  1
\A1;25
  0
LINE
  5
57B
100
AcDbEntity
  8
0
  6
CONTINUOUS
 62
               7
100
AcDbLine
 10
-389.52490234375
 20
-128.25
 30
0.0
 11
-389.52490234375
 21
-68.25
 31
0.0
  0
MTEXT
  5
57C
100
AcDbEntity
  8
0
  6
CONTINUOUS
 62
               7
100
AcDbMText
 10
-387.19326853666661
 20
-88.741504360465115
 30
0.0
 40
6.1424996886849339
 41
0.0
 71
               4
 72
               1
  1
\T0.975;\W1.052;\A1;STRETCH\P  PLACE
  0
LINE
  5
57D
100
AcDbEntity
  8
0
  6
CONTINUOUS
 62
               7
100
AcDbLine
 10
-339.12490233406095
 20
-98.25
 30
0.0
 11
-344.4838861762409
 21
-78.25
 31
0.0
  0
LINE
  5
57E
100
AcDbEntity
  8
0
  6
CONTINUOUS
 62
               7
100
AcDbLine
 10
-389.52490234375
 20
-78.25
 30
0.0
 11
-344.4838861762409
 21
-78.25
 31
0.0
  0
LINE
  5
57F
100
AcDbEntity
  8
0
  6
CONTINUOUS
 62
               7
100
AcDbLine
 10
-389.52490234375
 20
-98.25
 30
0.0
 11
-276.12490233406095
 21
-98.25
 31
0.0
  0
LINE
  5
580
100
AcDbEntity
  8
0
  6
CONTINUOUS
 62
               7
100
AcDbLine
 10
-389.52490234375
 20
-128.25
 30
0.0
 11
-276.12490233406095
 21
-128.25
 31
0.0
  0
LINE
  5
581
100
AcDbEntity
  8
0
  6
CONTINUOUS
 62
               7
100
AcDbLine
 10
-389.52490234375
 20
-118.25
 30
0.0
 11
-276.12490233406095
 21
-118.25
 31
0.0
  0
MTEXT
  5
582
100
AcDbEntity
  8
0
  6
CONTINUOUS
 62
               7
100
AcDbMText
 10
-366.42490240248378
 20
-113.25
 30
0.0
 40
6.3000001907348633
 41
0.0
 71
               4
 72
               1
  1
\A1;B
  0
MTEXT
  5
583
100
AcDbEntity
  8
0
  6
CONTINUOUS
 62
               7
100
AcDbMText
 10
-366.42490240248378
 20
-103.25
 30
0.0
 40
6.3000001907348633
 41
0.0
 71
               4
 72
               1
  1
\A1;A
  0
MTEXT
  5
584
100
AcDbEntity
  8
0
  6
CONTINUOUS
 62
               7
100
AcDbMText
 10
-381.40714488513487
 20
-73.699095203488383
 30
0.0
 40
6.3000001907348633
 41
0.0
 71
               4
 72
               1
  1
\A1;STROKE
  0
LINE
  5
585
100
AcDbEntity
  8
0
  6
CONTINUOUS
 62
               7
100
AcDbLine
 10
-339.12490233406095
 20
-68.25
 30
0.0
 11
-339.12490233406095
 21
-128.25
 31
0.0
  0
LINE
  5
586
100
AcDbEntity
  8
0
  6
CONTINUOUS
 62
               7
100
AcDbLine
 10
-389.52490234375
 20
-108.25
 30
0.0
 11
-276.12490233406095
 21
-108.25
 31
0.0
  0
MTEXT
  5
587
100
AcDbEntity
  8
0
  6
CONTINUOUS
 62
               7
100
AcDbMText
 10
-366.42490240248378
 20
-123.25
 30
0.0
 40
6.3000001907348633
 41
0.0
 71
               4
 72
               1
  1
\A1;C
  0
MTEXT
  5
588
100
AcDbEntity
  8
0
  6
CONTINUOUS
 62
               7
100
AcDbMText
 10
-296.48270417175434
 20
-64.161328730620141
 30
0.0
 40
6.3000001907348633
 41
0.0
 71
               4
 72
               1
  1
\W0.833;\A1;（ｍｍ）
  0
LINE
  5
589
100
AcDbEntity
  8
0
  6
CONTINUOUS
 62
               7
100
AcDbLine
 10
-307.62490233406095
 20
-68.25
 30
0.0
 11
-307.62490233406095
 21
-128.25
 31
0.0
  0
LINE
  5
58A
100
AcDbEntity
  8
0
  6
CONTINUOUS
 62
               7
100
AcDbLine
 10
-276.12490233406095
 20
-68.25
 30
0.0
 11
-276.12490233406095
 21
-128.25
 31
0.0
  0
MTEXT
  5
58B
100
AcDbEntity
  8
0
  6
CONTINUOUS
 62
               7
100
AcDbMText
 10
-337.81240278094054
 20
-103.25
 30
0.0
 40
6.3000001907348633
 41
0.0
 71
               4
 72
               1
  1
\W1.250;\A1;-12.5
  0
MTEXT
  5
58C
100
AcDbEntity
  8
0
  6
CONTINUOUS
 62
               7
100
AcDbMText
 10
-337.81240278094054
 20
-113.25
 30
0.0
 40
6.3000001907348633
 41
0.0
 71
               4
 72
               1
  1
\W1.250;\A1;-12.5
  0
MTEXT
  5
58D
100
AcDbEntity
  8
0
  6
CONTINUOUS
 62
               7
100
AcDbMText
 10
-331.77490258837412
 20
-123.25
 30
0.0
 40
6.3000001907348633
 41
0.0
 71
               4
 72
               1
  1
\A1;-25
  0
MTEXT
  5
58E
100
AcDbEntity
  8
0
  6
CONTINUOUS
 62
               7
100
AcDbMText
 10
-293.76490236124067
 20
-123.25
 30
0.0
 40
6.3000001907348633
 41
0.0
 71
               4
 72
               1
  1
\W1.200;\A1;0
  0
MTEXT
  5
58F
100
AcDbEntity
  8
0
  6
CONTINUOUS
 62
               7
100
AcDbMText
 10
-293.73904223021395
 20
-103.37234655627439
 30
0.0
 40
6.3000001907348633
 41
0.0
 71
               4
 72
               1
  1
\W1.200;\A1;0
  0
MTEXT
  5
590
100
AcDbEntity
  8
0
  6
CONTINUOUS
 62
               7
100
AcDbMText
 10
-293.73904223021395
 20
-113.37234655627439
 30
0.0
 40
6.3000001907348633
 41
0.0
 71
               4
 72
               1
  1
\W1.200;\A1;0
  0
LINE
  5
591
100
AcDbEntity
  8
0
  6
CONTINUOUS
 62
               7
100
AcDbLine
 10
-389.52490234375
 20
-68.25
 30
0.0
 11
-276.12490233406095
 21
-68.25
 31
0.0
  0
LINE
  5
592
100
AcDbEntity
  8
0
  6
CONTINUOUS
 62
               7
100
AcDbLine
 10
199.762451171875
 20
-138.25
 30
0.0
 11
199.762451171875
 21
-275.80875000000009
 31
0.0
  0
LINE
  5
593
100
AcDbEntity
  8
0
  6
CONTINUOUS
 62
               7
100
AcDbLine
 10
0.0
 20
-138.25
 30
0.0
 11
0.0
 21
-275.80875000000009
 31
0.0
  0
LINE
  5
594
100
AcDbEntity
  8
0
  6
CONTINUOUS
 62
               7
100
AcDbLine
 10
-199.762451171875
 20
-138.25
 30
0.0
 11
-199.762451171875
 21
-276.61520833333333
 31
0.0
  0
LINE
  5
595
100
AcDbEntity
  8
0
  6
CONTINUOUS
 62
               7
100
AcDbLine
 10
-399.52490234375
 20
-138.25
 30
0.0
 11
399.52490234375
 21
-138.25
 31
0.0
  0
INSERT
  5
596
100
AcDbEntity
  8
0
  6
ByBlock
100
AcDbBlockReference
  2
MS_17
 10
327.25068975625635
 20
-176.64599754142796
 30
0.0
  0
INSERT
  5
597
100
AcDbEntity
  8
0
  6
ByBlock
100
AcDbBlockReference
  2
MS_16
 10
246.38781264364616
 20
-232.43117591199177
 30
0.0
  0
INSERT
  5
598
100
AcDbEntity
  8
0
  6
ByBlock
100
AcDbBlockReference
  2
MS_15
 10
327.25068976102472
 20
-232.43117591199177
 30
0.0
  0
INSERT
  5
599
100
AcDbEntity
  8
0
  6
ByBlock
100
AcDbBlockReference
  2
MS_14
 10
126.11170107455581
 20
-176.83116902277362
 30
0.0
  0
INSERT
  5
59A
100
AcDbEntity
  8
0
  6
ByBlock
100
AcDbBlockReference
  2
MS_13
 10
46.667761929846961
 20
-232.43117560585853
 30
0.0
  0
INSERT
  5
59B
100
AcDbEntity
  8
0
  6
ByBlock
100
AcDbBlockReference
  2
MS_12
 10
126.11169227443349
 20
-232.43117561222147
 30
0.0
  0
INSERT
  5
59C
100
AcDbEntity
  8
0
  6
ByBlock
100
AcDbBlockReference
  2
MS_11
 10
-49.094364675892052
 20
-174.20470313017898
 30
0.0
  0
INSERT
  5
59D
100
AcDbEntity
  8
0
  6
ByBlock
100
AcDbBlockReference
  2
MS_10
 10
-153.13708928526705
 20
-230.80472449248367
 30
0.0
  0
INSERT
  5
59E
100
AcDbEntity
  8
0
  6
ByBlock
100
AcDbBlockReference
  2
MS_9
 10
-71.094364675892052
 20
-230.80472449248367
 30
0.0
  0
INSERT
  5
59F
100
AcDbEntity
  8
0
  6
ByBlock
100
AcDbBlockReference
  2
MS_8
 10
-276.56332505022323
 20
-174.20470350674773
 30
0.0
  0
INSERT
  5
5A0
100
AcDbEntity
  8
0
  6
ByBlock
100
AcDbBlockReference
  2
MS_7
 10
-357.85714041390304
 20
-232.10459061026336
 30
0.0
  0
INSERT
  5
5A1
100
AcDbEntity
  8
0
  6
ByBlock
100
AcDbBlockReference
  2
MS_6
 10
-276.31441580452804
 20
-232.10459061026336
 30
0.0
  0
INSERT
  5
5A2
100
AcDbEntity
  8
0
  6
ByBlock
100
AcDbBlockReference
  2
MS_5
 10
-78.738815379601817
 20
-78.986876491159137
 30
0.0
  0
INSERT
  5
5A3
100
AcDbEntity
  8
0
  6
ByBlock
100
AcDbBlockReference
  2
MS_4
 10
-78.738815379601817
 20
-2.2768764625489268
 30
0.0
 50
360.0
  0
INSERT
  5
5A4
100
AcDbEntity
  8
0
  6
ByBlock
100
AcDbBlockReference
  2
MS_3
 10
-78.738815379601817
 20
200.96312348023059
 30
0.0
  0
INSERT
  5
5A5
100
AcDbEntity
  8
0
  6
ByBlock
100
AcDbBlockReference
  2
MS_2
 10
200.16118462039816
 20
97.343123508840847
 30
0.0
  0
INSERT
  5
5A6
100
AcDbEntity
  8
0
  6
ByBlock
100
AcDbBlockReference
  2
MS_1
 10
-78.738815379601817
 20
97.343123508840847
 30
0.0
  0
MTEXT
  5
5A7
100
AcDbEntity
  8
0
  6
CONTINUOUS
 62
               7
100
AcDbMText
 10
203.87755362504842
 20
-143.54924192857084
 30
0.0
 40
6.3000001907348633
 41
0.0
 71
               4
 72
               1
  1
\W1.084;\A1;MODEL:ZE235,255
  0
MTEXT
  5
5A8
100
AcDbEntity
  8
0
  6
CONTINUOUS
 62
               7
100
AcDbMText
 10
-195.58970039173138
 20
-143.54924192857081
 30
0.0
 40
6.3000001907348633
 41
0.0
 71
               4
 72
               1
  1
\W1.139;\A1;MODEL:ZE201,202
  0
MTEXT
  5
5A9
100
AcDbEntity
  8
0
  6
CONTINUOUS
 62
               3
100
AcDbMText
 10
-62.220022433127973
 20
238.4741219979858
 30
0.0
 40
6.3000001907348633
 41
0.0
 71
               4
 72
               1
  1
\W1.088;\A1;STRETCH LINE B
  0
MTEXT
  5
5AA
100
AcDbEntity
  8
0
  6
CONTINUOUS
 62
               3
100
AcDbMText
 10
-86.644086439404575
 20
225.65808693416079
 30
0.0
 40
6.3000001907348633
 41
0.0
 71
               4
 72
               1
  1
\W1.088;\A1;STRETCH LINE A
  0
MTEXT
  5
5AB
100
AcDbEntity
  8
0
  6
CONTINUOUS
 62
               7
100
AcDbMText
 10
4.1727507747284793
 20
-143.54924192857084
 30
0.0
 40
6.3000001907348633
 41
0.0
 71
               4
 72
               1
  1
\W1.139;\A1;MODEL:ZE135,155
  0
MTEXT
  5
5AC
100
AcDbEntity
  8
0
  6
CONTINUOUS
 62
               7
100
AcDbMText
 10
-395.28835408756959
 20
-143.54924192857081
 30
0.0
 40
6.3000001907348633
 41
0.0
 71
               4
 72
               1
  1
\W1.200;\A1;MODEL:ZE101,102
  0
MTEXT
  5
5AD
100
AcDbEntity
  8
0
  6
CONTINUOUS
 62
               3
100
AcDbMText
 10
-31.619146977195307
 20
251.51081762699025
 30
0.0
 40
6.3000001907348633
 41
0.0
 71
               4
 72
               1
  1
\W1.088;\A1;STRETCH LINE C
  0
LINE
  5
5AE
100
AcDbEntity
  8
0
  6
CONTINUOUS
 62
               7
100
AcDbLine
 10
279.5250244140625
 20
-256.5
 30
0.0
 11
399.52490234375
 21
-256.5
 31
0.0
  0
LINE
  5
5AF
100
AcDbEntity
  8
0
  6
CONTINUOUS
 62
               7
100
AcDbLine
 10
279.5250244140625
 20
-256.5
 30
0.0
 11
279.5250244140625
 21
-276.5
 31
0.0
  0
MTEXT
  5
5B0
100
AcDbEntity
  8
0
  6
CONTINUOUS
 62
               7
100
AcDbMText
 10
287.7060468509938
 20
-266.5
 30
0.0
 40
9.0
 41
0.0
 71
               4
 72
               1
  1
\W1.121;\A1;KOGANEI CORP.
  0
MTEXT
  5
5B1
100
AcDbEntity
  8
0
  6
CONTINUOUS
 62
               7
100
AcDbMText
 10
318.73502062892914
 20
266.5
 30
0.0
 40
6.3000001907348633
 41
0.0
 71
               4
 72
               1
  1
\W1.200;\A1;Ver.2.0
  0
LINE
  5
5B2
100
AcDbEntity
  8
0
  6
CONTINUOUS
 62
               7
100
AcDbLine
 10
279.5250244140625
 20
256.5
 30
0.0
 11
399.52490234375
 21
256.5
 31
0.0
  0
LINE
  5
5B3
100
AcDbEntity
  8
0
  6
CONTINUOUS
 62
               7
100
AcDbLine
 10
279.5250244140625
 20
276.5
 30
0.0
 11
279.5250244140625
 21
256.5
 31
0.0
  0
MTEXT
  5
5B4
100
AcDbEntity
  8
0
  6
CONTINUOUS
 62
               7
100
AcDbMText
 10
-386.58290272019389
 20
241.5
 30
0.0
 40
6.3000001907348633
 41
0.0
 71
               4
 72
               1
  1
\W1.040;\A1;MODEL:AWS6*50
  0
LINE
  5
5B5
100
AcDbEntity
  8
0
  6
CONTINUOUS
 62
               7
100
AcDbLine
 10
-399.52490234375
 20
256.5
 30
0.0
 11
-279.52490234375
 21
256.5
 31
0.0
  0
LINE
  5
5B6
100
AcDbEntity
  8
0
  6
CONTINUOUS
 62
               7
100
AcDbLine
 10
-279.52490234375
 20
276.5
 30
0.0
 11
-279.52490234375
 21
256.5
 31
0.0
  0
MTEXT
  5
5B7
100
AcDbEntity
  8
0
  6
CONTINUOUS
 62
               7
100
AcDbMText
 10
-382.51127379371195
 20
266.5
 30
0.0
 40
6.3000001907348633
 41
0.0
 71
               4
 72
               1
  1
\W1.061;\A1;WS SLIDE TABLE
  0
LINE
  5
5B8
100
AcDbEntity
  8
0
  6
CONTINUOUS
 62
               7
100
AcDbLine
 10
-399.52490234375
 20
-276.5
 30
0.0
 11
399.52490234375
 21
-276.5
 31
0.0
  0
LINE
  5
5B9
100
AcDbEntity
  8
0
  6
CONTINUOUS
 62
               7
100
AcDbLine
 10
-399.52490234375
 20
276.5
 30
0.0
 11
399.52490234375
 21
276.5
 31
0.0
  0
LINE
  5
5BA
100
AcDbEntity
  8
0
  6
CONTINUOUS
 62
               7
100
AcDbLine
 10
-399.52490234375
 20
276.5
 30
0.0
 11
-399.52490234375
 21
-276.5
 31
0.0
  0
LINE
  5
5BB
100
AcDbEntity
  8
0
  6
CONTINUOUS
 62
               7
100
AcDbLine
 10
399.52490234375
 20
276.5
 30
0.0
 11
399.52490234375
 21
-276.5
 31
0.0
  0
ENDSEC
  0
SECTION
  2
OBJECTS
  0
DICTIONARY
  5
19
100
AcDbDictionary
  3
ACAD_GROUP
350
1A
  3
ACAD_MLINESTYLE
350
1B
  0
DICTIONARY
  5
1A
102
{ACAD_REACTORS
330
19
102
}
100
AcDbDictionary
  0
DICTIONARY
  5
1B
102
{ACAD_REACTORS
330
19
102
}
100
AcDbDictionary
  3
STANDARD
350
1C
  0
MLINESTYLE
  5
1C
102
{ACAD_REACTORS
330
1B
102
}
100
AcDbMlineStyle
  2
Standard
 70
               0
  3

 62
               0
 51
90.0
 52
90.0
 71
               2
 49
0.5
 62
             256
  6
ByLayer
 49
-0.5
 62
             256
  6
ByLayer
  0
ENDSEC
  0
EOF
