  0
SECTION
  2
HEADER
  0
ENDSEC
  0
SECTION
  2
TABLES
  0
TABLE
  2
LTYPE
 70
     4
  0
LTYPE
  2
CONTINUOUS
 70
    64
  3
Solid line
 72
    65
 73
     0
 40
0.000000
  0
LTYPE
  2
DASHED
 70
    64
  3
__ __ __ __ __ __ __ __ __ __ __ __ __ __ __
 72
    65
 73
     2
 40
3.500000
 49
2.000000
 49
-1.500000
  0
LTYPE
  2
CENTER
 70
    64
  3
____ _ ____ _ ____ _ ____ _ ____ _ ____ _ ____
 72
    65
 73
     4
 40
17.500000
 49
13.000000
 49
-1.500000
 49
1.500000
 49
-1.500000
  0
LTYPE
  2
PHANTOM
 70
    64
  3
_____ _ _ _____ _ _ _____ _ _ _____ _ _ ____  
 72
    65
 73
     6
 40
15.500000
 49
8.000000
 49
-1.500000
 49
1.500000
 49
-1.500000
 49
1.500000
 49
-1.500000
  0
LTYPE
  2
DASHED1
 70
    64
  3
__ __ __ __ __ __ __ __ __ __ __ __ __ __ __
 72
    65
 73
     2
 40
1.500000
 49
1.000000
 49
-0.500000
  0
LTYPE
  2
DASHED2
 70
    64
  3
__ __ __ __ __ __ __ __ __ __ __ __ __ __ __
 72
    65
 73
     2
 40
3.500000
 49
2.500000
 49
-1.000000
  0
LTYPE
  2
DASHED3
 70
    64
  3
__ __ __ __ __ __ __ __ __ __ __ __ __ __ __
 72
    65
 73
     2
 40
6.000000
 49
4.000000
 49
-2.000000
  0
LTYPE
  2
DASHED4
 70
    64
  3
__ __ __ __ __ __ __ __ __ __ __ __ __ __ __
 72
    65
 73
     2
 40
12.000000
 49
10.000000
 49
-2.000000
  0
LTYPE
  2
DASHED5
 70
    64
  3
__ __ __ __ __ __ __ __ __ __ __ __ __ __ __
 72
    65
 73
     2
 40
17.000000
 49
15.000000
 49
-2.000000
  0
LTYPE
  2
DASHED6
 70
    64
  3
__ __ __ __ __ __ __ __ __ __ __ __ __ __ __
 72
    65
 73
     2
 40
29.000000
 49
27.000000
 49
-2.000000
  0
LTYPE
  2
PHANTOM1
 70
    64
  3
_____ _ _ _____ _ _ _____ _ _ _____ _ _ ____  
 72
    65
 73
     6
 40
31.000000
 49
25.000000
 49
-1.500000
 49
1.000000
 49
-1.000000
 49
1.000000
 49
-1.500000
  0
LTYPE
  2
PHANTOM2
 70
    64
  3
_____ _ _ _____ _ _ _____ _ _ _____ _ _ ____  
 72
    65
 73
     6
 40
36.000000
 49
27.000000
 49
-1.500000
 49
2.500000
 49
-1.000000
 49
2.500000
 49
-1.500000
  0
LTYPE
  2
PHANTOM3
 70
    64
  3
_____ _ _ _____ _ _ _____ _ _ _____ _ _ ____  
 72
    65
 73
     6
 40
78.000000
 49
64.000000
 49
-2.000000
 49
4.000000
 49
-2.000000
 49
4.000000
 49
-2.000000
  0
LTYPE
  2
CENTER1
 70
    64
  3
____ _ ____ _ ____ _ ____ _ ____ _ ____ _ ____
 72
    65
 73
     4
 40
19.000000
 49
14.000000
 49
-1.000000
 49
3.000000
 49
-1.000000
  0
LTYPE
  2
CENTER2
 70
    64
  3
____ _ ____ _ ____ _ ____ _ ____ _ ____ _ ____
 72
    65
 73
     4
 40
28.500000
 49
25.000000
 49
-1.000000
 49
1.500000
 49
-1.000000
  0
LTYPE
  2
CENTER3
 70
    64
  3
____ _ ____ _ ____ _ ____ _ ____ _ ____ _ ____
 72
    65
 73
     4
 40
31.500000
 49
27.000000
 49
-1.000000
 49
2.500000
 49
-1.000000
  0
LTYPE
  2
CENTER4
 70
    64
  3
____ _ ____ _ ____ _ ____ _ ____ _ ____ _ ____
 72
    65
 73
     4
 40
50.000000
 49
45.000000
 49
-1.000000
 49
3.000000
 49
-1.000000
  0
LTYPE
  2
CENTER5
 70
    64
  3
____ _ ____ _ ____ _ ____ _ ____ _ ____ _ ____
 72
    65
 73
     4
 40
100.000000
 49
92.000000
 49
-2.000000
 49
4.000000
 49
-2.000000
  0
LTYPE
  2
SBK1
 70
    64
  3
______ _ _ _ ______ _ _ _ ______ _ _ _ _____  
 72
    65
 73
     8
 40
60.500000
 49
45.000000
 49
-2.000000
 49
2.500000
 49
-2.000000
 49
2.500000
 49
-2.000000
 49
2.500000
 49
-2.000000
  0
LTYPE
  2
SBK2
 70
    64
  3
______ _ _ _ ______ _ _ _ ______ _ _ _ _____  
 72
    65
 73
     8
 40
84.000000
 49
64.000000
 49
-2.000000
 49
4.000000
 49
-2.000000
 49
4.000000
 49
-2.000000
 49
4.000000
 49
-2.000000
  0
LTYPE
  2
STCH
 70
    64
  3
__ __ __ __ __ __ __ __ __ __ __ __ __ __ __
 72
    65
 73
     2
 40
3.000000
 49
1.000000
 49
-2.000000
  0
LTYPE
  2
MTCH
 70
    64
  3
_____ _ _ _____ _ _ _____ _ _ _____ _ _ ____  
 72
    65
 73
     6
 40
80.000000
 49
66.000000
 49
-2.000000
 49
4.000000
 49
-2.000000
 49
4.000000
 49
-2.000000
  0
ENDTAB
  0
TABLE
  2
LAYER
 70
     1
  0
LAYER
  2
0
 70
     0
 62
     7
  6
CONTINUOUS
  0
ENDTAB
  0
TABLE
  2
STYLE
 70
     1
  0
STYLE
  2
STANDARD
 70
     0
 40
0.000000
 41
1.000000
 50
0.000000
 71
     0
 42
0.200000
  3
txt
  4
BIGFONT
  0
ENDTAB
  0
TABLE
  2
VIEW
 70
     0
  0
ENDTAB
  0
ENDSEC
  0
SECTION
  2
BLOCKS
  0
ENDSEC
  0
SECTION
  2
ENTITIES
  0
LINE
  8
0
 10
-105.975967
 20
-175.170929
 11
124.009735
 21
-175.170929
  0
LINE
  8
0
 10
-105.975967
 20
-175.670929
 11
124.009735
 21
-175.670929
  0
LINE
  8
0
 10
-105.975967
 20
-204.170929
 11
124.009735
 21
-204.170929
  0
LINE
  8
0
 10
-105.975967
 20
-203.670929
 11
124.009735
 21
-203.670929
  0
LINE
  8
0
 10
-105.975967
 20
-247.670929
 11
-105.975967
 21
-131.670929
  0
LINE
  8
0
 10
-105.975967
 20
-131.670929
 11
124.009735
 21
-131.670929
  0
LINE
  8
0
 10
-105.975967
 20
-247.670929
 11
124.009735
 21
-247.670929
  0
LINE
  8
0
  6
CENTER
 62
     2
 10
-113.447395
 20
-189.670929
 11
131.066879
 21
-189.670929
  0
LINE
  8
0
 10
124.009735
 20
-247.670929
 11
124.009735
 21
-131.670929
  0
LINE
  8
0
  6
CENTER
 62
     2
 10
-76.983551
 20
-167.681641
 11
-64.983551
 21
-167.681641
  0
LINE
  8
0
  6
CENTER
 62
     2
 10
-70.983551
 20
-161.681641
 11
-70.983551
 21
-173.681641
  0
LINE
  8
0
  6
CENTER
 62
     2
 10
-76.983551
 20
-211.681641
 11
-64.983551
 21
-211.681641
  0
LINE
  8
0
  6
CENTER
 62
     2
 10
-70.983551
 20
-205.681641
 11
-70.983551
 21
-217.681625
  0
LINE
  8
0
  6
CENTER
 62
     2
 10
83.016449
 20
-211.681641
 11
95.016449
 21
-211.681641
  0
LINE
  8
0
  6
CENTER
 62
     2
 10
89.016449
 20
-205.681641
 11
89.016449
 21
-217.681625
  0
LINE
  8
0
  6
CENTER
 62
     2
 10
83.016449
 20
-167.681641
 11
95.016449
 21
-167.681641
  0
LINE
  8
0
  6
CENTER
 62
     2
 10
89.016449
 20
-161.681641
 11
89.016449
 21
-173.681641
  0
LINE
  8
0
  6
CENTER
 62
     2
 10
148.596451
 20
-234.181641
 11
120.006439
 21
-234.181641
  0
LINE
  8
0
 10
129.016449
 20
-239.181625
 11
129.016449
 21
-229.181641
  0
LINE
  8
0
 10
129.016449
 20
-237.181625
 11
143.516449
 21
-237.181625
  0
LINE
  8
0
 62
     2
 10
129.016449
 20
-236.431625
 11
144.016449
 21
-236.431625
  0
LINE
  8
0
 62
     2
 10
129.016449
 20
-231.931641
 11
144.016449
 21
-231.931641
  0
LINE
  8
0
 10
129.016449
 20
-231.181641
 11
143.516449
 21
-231.181641
  0
LINE
  8
0
 10
143.516418
 20
-231.181625
 11
144.016434
 21
-231.681641
  0
LINE
  8
0
 10
144.016449
 20
-236.681641
 11
143.516449
 21
-237.181641
  0
LINE
  8
0
 10
144.016449
 20
-231.681641
 11
144.016449
 21
-236.681625
  0
LINE
  8
0
 10
143.516449
 20
-231.181641
 11
143.516449
 21
-237.181625
  0
LINE
  8
0
 10
128.566437
 20
-234.181641
 11
124.456451
 21
-234.181641
  0
LINE
  8
0
 10
129.016449
 20
-229.181641
 11
124.016449
 21
-229.181641
  0
LINE
  8
0
 10
129.016449
 20
-239.181625
 11
124.016449
 21
-239.181625
  0
LINE
  8
0
  6
CENTER
 62
     2
 10
-130.563538
 20
-234.181641
 11
-101.973549
 21
-234.181641
  0
LINE
  8
0
 10
-110.983551
 20
-229.181641
 11
-110.983551
 21
-239.181625
  0
LINE
  8
0
 10
-110.983551
 20
-231.181641
 11
-125.483536
 21
-231.181641
  0
LINE
  8
0
 62
     2
 10
-110.983551
 20
-231.931641
 11
-125.983536
 21
-231.931641
  0
LINE
  8
0
 62
     2
 10
-110.983551
 20
-236.431625
 11
-125.983536
 21
-236.431625
  0
LINE
  8
0
 10
-110.983551
 20
-237.181625
 11
-125.483536
 21
-237.181625
  0
LINE
  8
0
 10
-125.483536
 20
-237.181610
 11
-125.983536
 21
-236.681610
  0
LINE
  8
0
 10
-125.983536
 20
-231.681625
 11
-125.483536
 21
-231.181625
  0
LINE
  8
0
 10
-125.983536
 20
-236.681625
 11
-125.983536
 21
-231.681641
  0
LINE
  8
0
 10
-125.483536
 20
-237.181625
 11
-125.483536
 21
-231.181641
  0
LINE
  8
0
 10
-110.533546
 20
-234.181641
 11
-106.423546
 21
-234.181641
  0
LINE
  8
0
 10
-110.983551
 20
-239.181625
 11
-105.983551
 21
-239.181625
  0
LINE
  8
0
 10
-110.983551
 20
-229.181641
 11
-105.983551
 21
-229.181641
  0
LINE
  8
0
  6
CENTER
 62
     2
 10
101.516449
 20
-167.681641
 11
116.516449
 21
-167.681641
  0
LINE
  8
0
  6
CENTER
 62
     2
 10
109.016449
 20
-175.181641
 11
109.016449
 21
-160.181641
  0
LINE
  8
0
  6
CENTER
 62
     2
 10
101.516449
 20
-211.681641
 11
116.516449
 21
-211.681641
  0
LINE
  8
0
  6
CENTER
 62
     2
 10
109.016449
 20
-219.181625
 11
109.016449
 21
-204.181641
  0
LINE
  8
0
  6
CENTER
 62
     2
 10
-98.483551
 20
-211.681641
 11
-83.483551
 21
-211.681641
  0
LINE
  8
0
  6
CENTER
 62
     2
 10
-90.983551
 20
-219.181625
 11
-90.983551
 21
-204.181641
  0
LINE
  8
0
  6
CENTER
 62
     2
 10
-98.483551
 20
-167.681641
 11
-83.483551
 21
-167.681641
  0
LINE
  8
0
  6
CENTER
 62
     2
 10
-90.983551
 20
-175.181641
 11
-90.983551
 21
-160.181641
  0
LINE
  8
0
  6
PHANTOM
 62
     3
 10
-56.196671
 20
-115.693756
 11
-56.196671
 21
-266.155670
  0
LINE
  8
0
  6
PHANTOM
 62
     3
 10
-28.307205
 20
-115.693756
 11
-28.307205
 21
-266.155670
  0
LINE
  8
0
  6
PHANTOM
 62
     3
 10
93.786484
 20
-115.693756
 11
78.812653
 21
-115.693756
  0
LINE
  8
0
  6
PHANTOM
 62
     3
 10
78.812653
 20
-115.693756
 11
78.812653
 21
-266.155670
  0
LINE
  8
0
 10
-125.982666
 20
-68.828049
 11
-125.482666
 21
-69.328056
  0
LINE
  8
0
 10
-125.482674
 20
-63.328045
 11
-125.982674
 21
-63.828045
  0
LINE
  8
0
 10
-123.982666
 20
-65.728058
 11
-123.982666
 21
-66.928055
  0
LINE
  8
0
 10
-123.982666
 20
-66.928055
 11
-125.982666
 21
-66.928055
  0
LINE
  8
0
 10
-123.982666
 20
-65.728058
 11
-125.982666
 21
-65.728058
  0
LINE
  8
0
 10
-125.982666
 20
-63.828049
 11
-125.982666
 21
-65.728058
  0
LINE
  8
0
 10
-125.482666
 20
-63.328049
 11
-125.482666
 21
-65.728058
  0
LINE
  8
0
 10
-125.982666
 20
-66.928055
 11
-125.982666
 21
-68.828049
  0
LINE
  8
0
 10
-125.482666
 20
-66.928055
 11
-125.482666
 21
-69.328049
  0
LINE
  8
0
 10
-105.975967
 20
-56.328079
 11
-105.975967
 21
-85.328064
  0
LINE
  8
0
 10
-105.975967
 20
-64.628067
 11
124.009735
 21
-64.628067
  0
LINE
  8
0
 10
-105.975967
 20
-67.828064
 11
124.009735
 21
-67.828064
  0
LINE
  8
0
 10
-105.975967
 20
-76.828064
 11
124.009735
 21
-76.828064
  0
LINE
  8
0
 10
-105.975967
 20
-80.028061
 11
124.009735
 21
-80.028061
  0
LINE
  8
0
 10
-105.975967
 20
-84.328064
 11
124.009735
 21
-84.328064
  0
LINE
  8
0
 10
-105.975967
 20
-57.328079
 11
124.009735
 21
-57.328079
  0
LINE
  8
0
 10
-50.975967
 20
-44.328079
 11
119.009735
 21
-44.328079
  0
LINE
  8
0
 10
-21.975967
 20
-54.328079
 11
-21.975967
 21
-56.328079
  0
LINE
  8
0
 10
33.009735
 20
-54.328079
 11
33.009735
 21
-56.328079
  0
LINE
  8
0
 10
35.009735
 20
-54.328079
 11
35.009735
 21
-56.328079
  0
LINE
  8
0
 10
90.009735
 20
-54.328079
 11
90.009735
 21
-56.328079
  0
LINE
  8
0
 10
-50.975967
 20
-54.328079
 11
119.009735
 21
-54.328079
  0
LINE
  8
0
 10
-105.975967
 20
-85.328064
 11
124.009735
 21
-85.328064
  0
LINE
  8
0
 10
119.009735
 20
-43.328079
 11
119.009735
 21
-54.328079
  0
LINE
  8
0
 10
-50.975967
 20
-43.328079
 11
-50.975967
 21
-54.328079
  0
LINE
  8
0
 10
-105.975967
 20
-56.328079
 11
-105.975967
 21
-85.328064
  0
LINE
  8
0
 10
-105.975967
 20
-56.328079
 11
124.009735
 21
-56.328079
  0
LINE
  8
0
 10
124.009735
 20
-56.328079
 11
124.009735
 21
-85.328064
  0
LINE
  8
0
 10
-50.975967
 20
-43.328079
 11
119.009735
 21
-43.328079
  0
LINE
  8
0
 10
128.566437
 20
-72.098045
 11
124.456451
 21
-72.098045
  0
LINE
  8
0
 10
129.016434
 20
-71.328026
 11
128.566437
 21
-72.098022
  0
LINE
  8
0
 10
129.016449
 20
-71.328041
 11
129.016449
 21
-61.328049
  0
LINE
  8
0
 10
128.566437
 20
-69.208054
 11
124.456451
 21
-69.208054
  0
LINE
  8
0
 10
128.566437
 20
-63.448044
 11
124.456451
 21
-63.448044
  0
LINE
  8
0
 10
128.566437
 20
-60.558044
 11
124.456451
 21
-60.558044
  0
LINE
  8
0
 10
129.016449
 20
-61.328045
 11
128.566437
 21
-60.558041
  0
LINE
  8
0
 10
124.016449
 20
-61.328045
 11
124.456444
 21
-60.558048
  0
LINE
  8
0
 10
124.016434
 20
-71.328033
 11
124.456436
 21
-72.098045
  0
LINE
  8
0
 10
144.016449
 20
-63.828049
 11
144.016449
 21
-65.728058
  0
LINE
  8
0
 10
129.016449
 20
-69.328049
 11
143.516449
 21
-69.328049
  0
LINE
  8
0
 62
     2
 10
129.016449
 20
-68.578049
 11
144.016449
 21
-68.578049
  0
LINE
  8
0
 62
     2
 10
129.016449
 20
-64.078049
 11
144.016449
 21
-64.078049
  0
LINE
  8
0
 10
129.016449
 20
-63.328049
 11
143.516449
 21
-63.328049
  0
LINE
  8
0
 10
143.516418
 20
-63.328037
 11
144.016434
 21
-63.828037
  0
LINE
  8
0
 10
144.016434
 20
-68.828049
 11
143.516434
 21
-69.328056
  0
LINE
  8
0
 10
143.516449
 20
-63.328049
 11
143.516449
 21
-65.728058
  0
LINE
  8
0
 10
142.016449
 20
-65.728058
 11
144.016449
 21
-65.728058
  0
LINE
  8
0
 10
142.016449
 20
-66.928055
 11
144.016449
 21
-66.928055
  0
LINE
  8
0
 10
142.016449
 20
-65.728058
 11
142.016449
 21
-66.928055
  0
LINE
  8
0
 10
144.016449
 20
-66.928055
 11
144.016449
 21
-68.828049
  0
LINE
  8
0
 10
143.516449
 20
-66.928055
 11
143.516449
 21
-69.328049
  0
LINE
  8
0
  6
CENTER
 62
     2
 10
120.746445
 20
-66.328049
 11
146.366440
 21
-66.328049
  0
LINE
  8
0
 10
-110.533546
 20
-60.558044
 11
-106.423546
 21
-60.558044
  0
LINE
  8
0
 10
-110.983551
 20
-61.328045
 11
-110.533554
 21
-60.558052
  0
LINE
  8
0
 10
-110.983551
 20
-61.328049
 11
-110.983551
 21
-71.328041
  0
LINE
  8
0
 10
-110.533546
 20
-63.448044
 11
-106.423546
 21
-63.448044
  0
LINE
  8
0
 10
-110.533546
 20
-69.208054
 11
-106.423546
 21
-69.208054
  0
LINE
  8
0
 10
-110.533546
 20
-72.098045
 11
-106.423546
 21
-72.098045
  0
LINE
  8
0
 10
-110.983551
 20
-71.328041
 11
-110.533546
 21
-72.098045
  0
LINE
  8
0
 10
-105.983551
 20
-71.328041
 11
-106.423546
 21
-72.098045
  0
LINE
  8
0
 10
-105.983559
 20
-61.328045
 11
-106.423553
 21
-60.558052
  0
LINE
  8
0
  6
PHANTOM
 62
     3
 10
-28.307205
 20
-27.824997
 11
-28.307205
 21
-115.693726
  0
LINE
  8
0
  6
PHANTOM
 62
     3
 10
-56.196671
 20
-27.824997
 11
-56.196671
 21
-115.693726
  0
LINE
  8
0
  6
PHANTOM
 62
     3
 10
93.786484
 20
-27.824997
 11
93.786484
 21
-115.693726
  0
LINE
  8
0
  6
CENTER
 62
     2
 10
-102.713547
 20
-66.328049
 11
-128.333542
 21
-66.328049
  0
LINE
  8
0
 10
-110.983551
 20
-69.328049
 11
-125.483536
 21
-69.328049
  0
LINE
  8
0
 62
     2
 10
-110.983551
 20
-68.578049
 11
-125.983536
 21
-68.578049
  0
LINE
  8
0
 62
     2
 10
-110.983551
 20
-64.078049
 11
-125.983536
 21
-64.078049
  0
LINE
  8
0
 10
-110.983551
 20
-63.328049
 11
-125.483536
 21
-63.328049
  0
LINE
  8
0
 10
-50.975967
 20
162.500488
 11
119.009735
 21
162.500488
  0
LINE
  8
0
 10
-105.975967
 20
192.500488
 11
124.009735
 21
192.500488
  0
LINE
  8
0
 10
-11.990266
 20
167.500488
 11
-11.590262
 21
166.414780
  0
LINE
  8
0
 10
-11.590256
 20
170.457642
 11
-8.990265
 21
170.457642
  0
LINE
  8
0
 10
-11.590256
 20
166.414780
 11
-8.990265
 21
166.414780
  0
LINE
  8
0
 10
-11.990258
 20
181.500488
 11
-11.590264
 21
182.586197
  0
LINE
  8
0
 10
-11.590256
 20
178.543350
 11
-8.990265
 21
178.543350
  0
LINE
  8
0
 10
-11.590256
 20
182.586197
 11
-8.990265
 21
182.586197
  0
LINE
  8
0
 10
-11.990265
 20
181.500488
 11
-11.990265
 21
167.500488
  0
LINE
  8
0
 10
-19.475977
 20
176.000488
 11
-19.975977
 21
175.500488
  0
LINE
  8
0
 10
-19.975977
 20
173.500488
 11
-19.475986
 21
173.000488
  0
LINE
  8
0
 10
-19.975967
 20
173.500488
 11
-19.975967
 21
175.500488
  0
LINE
  8
0
 10
-19.475967
 20
173.000488
 11
-11.990265
 21
173.000488
  0
LINE
  8
0
 10
-19.475967
 20
176.000488
 11
-19.475967
 21
173.000488
  0
LINE
  8
0
 10
-19.475967
 20
176.000488
 11
-11.990265
 21
176.000488
  0
LINE
  8
0
  6
CENTER
 62
     2
 10
-22.804550
 20
174.500488
 11
-5.318832
 21
174.500488
  0
LINE
  8
0
 10
-8.990265
 20
179.500488
 11
77.009735
 21
179.500488
  0
LINE
  8
0
 10
-50.975967
 20
152.500488
 11
119.009735
 21
152.500488
  0
LINE
  8
0
 10
-74.975967
 20
164.500488
 11
-21.975967
 21
164.500488
  0
LINE
  8
0
 10
-21.975967
 20
170.500488
 11
-21.975967
 21
162.500488
  0
LINE
  8
0
 10
-21.975967
 20
170.500488
 11
-11.990265
 21
170.500488
  0
LINE
  8
0
 10
-61.975967
 20
172.500488
 11
-11.990265
 21
172.500488
  0
LINE
  8
0
 10
93.009735
 20
165.500488
 11
124.009735
 21
165.500488
  0
LINE
  8
0
 10
-105.975967
 20
165.500488
 11
-74.975967
 21
165.500488
  0
LINE
  8
0
 10
-62.418835
 20
180.271912
 11
-61.975986
 21
179.500488
  0
LINE
  8
0
 10
-65.975967
 20
180.271912
 11
-62.418839
 21
180.271912
  0
LINE
  8
0
 10
-62.418827
 20
168.729065
 11
-61.975971
 21
169.500488
  0
LINE
  8
0
 10
-65.975967
 20
168.729065
 11
-62.418839
 21
168.729065
  0
LINE
  8
0
 10
-65.975967
 20
177.386215
 11
-62.418839
 21
177.386215
  0
LINE
  8
0
 10
-65.975967
 20
171.614777
 11
-62.418839
 21
171.614777
  0
LINE
  8
0
 10
-65.975967
 20
180.271912
 11
-65.975967
 21
168.729065
  0
LINE
  8
0
 10
-68.975967
 20
171.500488
 11
-68.975967
 21
177.500488
  0
LINE
  8
0
 62
     2
 10
-68.975983
 20
176.743347
 11
-67.675972
 21
177.500488
  0
LINE
  8
0
 62
     2
 10
-68.975983
 20
172.243362
 11
-67.675964
 21
171.500488
  0
LINE
  8
0
 62
     2
 10
-74.975967
 20
172.243347
 11
-68.975967
 21
172.243347
  0
LINE
  8
0
 62
     2
 10
-74.975967
 20
176.743347
 11
-68.975967
 21
176.743347
  0
LINE
  8
0
 10
-74.975967
 20
177.500488
 11
-65.975967
 21
177.500488
  0
LINE
  8
0
 10
-74.975967
 20
171.500488
 11
-65.975967
 21
171.500488
  0
LINE
  8
0
 10
-61.975967
 20
169.500488
 11
-61.975967
 21
179.500488
  0
LINE
  8
0
  6
CENTER
 62
     2
 10
-128.248428
 20
174.500488
 11
-58.175980
 21
174.500488
  0
LINE
  8
0
 10
-74.975967
 20
187.500488
 11
-74.975967
 21
164.500488
  0
LINE
  8
0
 10
80.452591
 20
180.271927
 11
80.009743
 21
179.500488
  0
LINE
  8
0
 10
84.009735
 20
180.271912
 11
80.452591
 21
180.271912
  0
LINE
  8
0
 10
80.452583
 20
168.729050
 11
80.009720
 21
169.500488
  0
LINE
  8
0
 10
84.009735
 20
168.729065
 11
80.452591
 21
168.729065
  0
LINE
  8
0
 10
84.009735
 20
177.386215
 11
80.452591
 21
177.386215
  0
LINE
  8
0
 10
84.009735
 20
171.614777
 11
80.452591
 21
171.614777
  0
LINE
  8
0
 10
84.009735
 20
180.271912
 11
84.009735
 21
168.729065
  0
LINE
  8
0
 10
87.009735
 20
171.500488
 11
87.009735
 21
177.500488
  0
LINE
  8
0
 62
     2
 10
87.009735
 20
176.743362
 11
85.709740
 21
177.500504
  0
LINE
  8
0
 62
     2
 10
87.009735
 20
172.243347
 11
85.709732
 21
171.500488
  0
LINE
  8
0
 62
     2
 10
93.009735
 20
172.243347
 11
87.009735
 21
172.243347
  0
LINE
  8
0
 62
     2
 10
93.009735
 20
176.743347
 11
87.009735
 21
176.743347
  0
LINE
  8
0
 10
93.009735
 20
177.500488
 11
84.009735
 21
177.500488
  0
LINE
  8
0
 10
93.009735
 20
171.500488
 11
84.009735
 21
171.500488
  0
LINE
  8
0
 10
80.009743
 20
181.500488
 11
79.609749
 21
182.586212
  0
LINE
  8
0
 10
79.609741
 20
178.543350
 11
77.009735
 21
178.543350
  0
LINE
  8
0
 10
79.609741
 20
182.586197
 11
77.009735
 21
182.586197
  0
LINE
  8
0
 10
80.009735
 20
167.500488
 11
79.609734
 21
166.414780
  0
LINE
  8
0
 10
79.609741
 20
170.457642
 11
77.009735
 21
170.457642
  0
LINE
  8
0
 10
79.609741
 20
166.414780
 11
77.009735
 21
166.414780
  0
LINE
  8
0
 10
80.009735
 20
167.500488
 11
80.009735
 21
181.500488
  0
LINE
  8
0
 10
93.009735
 20
187.500488
 11
93.009735
 21
162.500488
  0
LINE
  8
0
 10
-8.990265
 20
184.500488
 11
77.009735
 21
184.500488
  0
LINE
  8
0
 10
77.009735
 20
162.500488
 11
77.009735
 21
184.500488
  0
LINE
  8
0
  6
CENTER
 62
     2
 10
80.009735
 20
186.500488
 11
80.009735
 21
176.500488
  0
LINE
  8
0
  6
CENTER
 62
     2
 10
75.009735
 20
181.500488
 11
85.009735
 21
181.500488
  0
LINE
  8
0
 10
119.009735
 20
162.500488
 11
119.009735
 21
151.500488
  0
LINE
  8
0
 10
-50.975967
 20
162.500488
 11
-50.975967
 21
151.500488
  0
LINE
  8
0
 10
-50.975967
 20
151.500488
 11
119.009735
 21
151.500488
  0
LINE
  8
0
 10
-8.990265
 20
184.500488
 11
-8.990265
 21
162.500488
  0
LINE
  8
0
 10
93.009735
 20
164.500488
 11
124.009735
 21
164.500488
  0
LINE
  8
0
 10
-105.975967
 20
164.500488
 11
-74.975967
 21
164.500488
  0
LINE
  8
0
 10
-105.975967
 20
187.500488
 11
124.009735
 21
187.500488
  0
LINE
  8
0
 10
-105.975967
 20
193.500488
 11
-105.975967
 21
164.500488
  0
LINE
  8
0
 10
-105.975967
 20
193.500488
 11
124.009735
 21
193.500488
  0
LINE
  8
0
 10
124.009735
 20
193.500488
 11
124.009735
 21
164.500488
  0
LINE
  8
0
  6
CENTER
 62
     2
 10
-66.975967
 20
181.500488
 11
-56.975967
 21
181.500488
  0
LINE
  8
0
  6
CENTER
 62
     2
 10
-61.975967
 20
186.500488
 11
-61.975967
 21
176.500488
  0
LINE
  8
0
 10
96.516449
 20
182.944977
 11
96.516449
 21
180.064972
  0
LINE
  8
0
 10
101.516449
 20
182.944977
 11
101.516449
 21
180.064972
  0
LINE
  8
0
 10
96.516457
 20
182.944977
 11
99.016441
 21
184.384979
  0
LINE
  8
0
 10
99.016441
 20
178.624985
 11
101.516449
 21
180.064987
  0
LINE
  8
0
 10
99.016441
 20
184.384964
 11
101.516441
 21
182.944962
  0
LINE
  8
0
 10
96.516449
 20
180.064972
 11
99.016441
 21
178.624969
  0
LINE
  8
0
  6
CENTER
 62
     2
 10
92.016449
 20
181.504974
 11
106.016449
 21
181.504974
  0
LINE
  8
0
  6
CENTER
 62
     2
 10
99.016449
 20
188.504974
 11
99.016449
 21
174.504974
  0
LINE
  8
0
 10
115.516449
 20
182.944977
 11
115.516449
 21
180.064972
  0
LINE
  8
0
 10
120.516449
 20
182.944977
 11
120.516449
 21
180.064972
  0
LINE
  8
0
 10
115.516449
 20
182.944977
 11
118.016449
 21
184.384979
  0
LINE
  8
0
 10
118.016449
 20
178.624969
 11
120.516457
 21
180.064987
  0
LINE
  8
0
 10
118.016457
 20
184.384949
 11
120.516449
 21
182.944962
  0
LINE
  8
0
 10
115.516441
 20
180.064972
 11
118.016449
 21
178.624969
  0
LINE
  8
0
  6
CENTER
 62
     2
 10
111.016449
 20
181.504974
 11
125.016449
 21
181.504974
  0
LINE
  8
0
  6
CENTER
 62
     2
 10
118.016449
 20
188.504974
 11
118.016449
 21
174.504974
  0
LINE
  8
0
 10
-102.483551
 20
182.944977
 11
-102.483551
 21
180.064972
  0
LINE
  8
0
 10
-97.483551
 20
182.944977
 11
-97.483551
 21
180.064972
  0
LINE
  8
0
 10
-102.483543
 20
182.944977
 11
-99.983543
 21
184.384979
  0
LINE
  8
0
 10
-99.983543
 20
178.624969
 11
-97.483543
 21
180.064972
  0
LINE
  8
0
 10
-99.983559
 20
184.384979
 11
-97.483559
 21
182.944977
  0
LINE
  8
0
 10
-102.483551
 20
180.064972
 11
-99.983559
 21
178.624969
  0
LINE
  8
0
  6
CENTER
 62
     2
 10
-106.983551
 20
181.504974
 11
-92.983551
 21
181.504974
  0
LINE
  8
0
  6
CENTER
 62
     2
 10
-99.983551
 20
188.504974
 11
-99.983551
 21
174.504974
  0
LINE
  8
0
 10
-83.483551
 20
182.944977
 11
-83.483551
 21
180.064972
  0
LINE
  8
0
 10
-78.483551
 20
182.944977
 11
-78.483551
 21
180.064972
  0
LINE
  8
0
 10
-83.483551
 20
182.944977
 11
-80.983551
 21
184.384979
  0
LINE
  8
0
 10
-80.983551
 20
178.624985
 11
-78.483559
 21
180.064987
  0
LINE
  8
0
 10
-80.983566
 20
184.384979
 11
-78.483559
 21
182.944977
  0
LINE
  8
0
 10
-83.483566
 20
180.064972
 11
-80.983559
 21
178.624969
  0
LINE
  8
0
  6
CENTER
 62
     2
 10
-87.983551
 20
181.504974
 11
-73.983551
 21
181.504974
  0
LINE
  8
0
  6
CENTER
 62
     2
 10
-80.983551
 20
188.504974
 11
-80.983551
 21
174.504974
  0
LINE
  8
0
 10
-110.533546
 20
180.274979
 11
-106.423546
 21
180.274979
  0
LINE
  8
0
 10
-110.983551
 20
179.504974
 11
-110.533546
 21
180.274979
  0
LINE
  8
0
 10
-110.983551
 20
179.504974
 11
-110.983551
 21
169.504990
  0
LINE
  8
0
 10
-110.533546
 20
177.384995
 11
-106.423546
 21
177.384995
  0
LINE
  8
0
 10
-110.533546
 20
171.624985
 11
-106.423546
 21
171.624985
  0
LINE
  8
0
 10
-110.533546
 20
168.734985
 11
-106.423546
 21
168.734985
  0
LINE
  8
0
 10
-110.983543
 20
169.505005
 11
-110.533539
 21
168.735001
  0
LINE
  8
0
 10
-105.983543
 20
169.504990
 11
-106.423546
 21
168.734985
  0
LINE
  8
0
 10
-105.983551
 20
179.504974
 11
-106.423553
 21
180.274979
  0
LINE
  8
0
 10
-125.983536
 20
172.004990
 11
-125.983536
 21
173.904984
  0
LINE
  8
0
 10
-110.983551
 20
177.504974
 11
-125.483536
 21
177.504974
  0
LINE
  8
0
 62
     2
 10
-110.983551
 20
176.754990
 11
-125.983536
 21
176.754990
  0
LINE
  8
0
 62
     2
 10
-110.983551
 20
172.254990
 11
-125.983536
 21
172.254990
  0
LINE
  8
0
 10
-110.983551
 20
171.504990
 11
-125.483536
 21
171.504990
  0
LINE
  8
0
 10
-125.483543
 20
171.504990
 11
-125.983543
 21
172.004990
  0
LINE
  8
0
 10
-125.983528
 20
177.004990
 11
-125.483536
 21
177.504990
  0
LINE
  8
0
 10
-125.483536
 20
171.504990
 11
-125.483536
 21
173.904984
  0
LINE
  8
0
 10
-123.983536
 20
173.904984
 11
-125.983536
 21
173.904984
  0
LINE
  8
0
 10
-123.983536
 20
175.104980
 11
-125.983536
 21
175.104980
  0
LINE
  8
0
 10
-123.983536
 20
173.904984
 11
-123.983536
 21
175.104980
  0
LINE
  8
0
 10
-125.983536
 20
175.104980
 11
-125.983536
 21
177.004990
  0
LINE
  8
0
 10
-125.483536
 20
175.104980
 11
-125.483536
 21
177.504974
  0
LINE
  8
0
 10
128.566437
 20
168.734985
 11
124.456451
 21
168.734985
  0
LINE
  8
0
 10
129.016449
 20
169.504990
 11
128.566452
 21
168.734985
  0
LINE
  8
0
 10
129.016449
 20
169.504990
 11
129.016449
 21
179.504974
  0
LINE
  8
0
 10
128.566437
 20
171.624985
 11
124.456451
 21
171.624985
  0
LINE
  8
0
 10
128.566437
 20
177.384995
 11
124.456451
 21
177.384995
  0
LINE
  8
0
 10
128.566437
 20
180.274979
 11
124.456451
 21
180.274979
  0
LINE
  8
0
 10
129.016449
 20
179.504974
 11
128.566437
 21
180.274979
  0
LINE
  8
0
 10
124.016441
 20
179.504974
 11
124.456451
 21
180.274979
  0
LINE
  8
0
 10
124.016434
 20
169.504990
 11
124.456429
 21
168.734985
  0
LINE
  8
0
 10
144.016449
 20
177.004990
 11
144.016449
 21
175.104980
  0
LINE
  8
0
 10
129.016449
 20
171.504990
 11
143.516449
 21
171.504990
  0
LINE
  8
0
 62
     2
 10
129.016449
 20
172.254990
 11
144.016449
 21
172.254990
  0
LINE
  8
0
 62
     2
 10
129.016449
 20
176.754990
 11
144.016449
 21
176.754990
  0
LINE
  8
0
 10
129.016449
 20
177.504974
 11
143.516449
 21
177.504974
  0
LINE
  8
0
 10
143.516434
 20
177.504974
 11
144.016434
 21
177.004974
  0
LINE
  8
0
 10
144.016434
 20
172.004974
 11
143.516434
 21
171.504974
  0
LINE
  8
0
 10
143.516449
 20
177.504974
 11
143.516449
 21
175.104980
  0
LINE
  8
0
 10
142.016449
 20
175.104980
 11
144.016449
 21
175.104980
  0
LINE
  8
0
 10
142.016449
 20
173.904984
 11
144.016449
 21
173.904984
  0
LINE
  8
0
 10
142.016449
 20
175.104980
 11
142.016449
 21
173.904984
  0
LINE
  8
0
 10
144.016449
 20
173.904984
 11
144.016449
 21
172.004990
  0
LINE
  8
0
 10
143.516449
 20
173.904984
 11
143.516449
 21
171.504990
  0
LINE
  8
0
  6
CENTER
 62
     2
 10
74.099777
 20
174.504990
 11
146.366440
 21
174.504990
  0
LINE
  8
0
  6
PHANTOM
 62
     3
 10
66.279694
 20
218.406631
 11
66.279694
 21
120.906250
  0
LINE
  8
0
  6
PHANTOM
 62
     3
 10
24.111725
 20
232.871979
 11
24.111725
 21
120.906250
  0
LINE
  8
0
  6
PHANTOM
 62
     3
 10
-56.196671
 20
245.677094
 11
-56.196671
 21
120.906250
  0
LINE
  8
0
  6
CENTER
 62
     2
 10
254.538681
 20
6.547058
 11
281.238678
 21
6.547058
  0
LINE
  8
0
  6
CENTER
 62
     2
 10
267.888672
 20
-6.802948
 11
267.888672
 21
19.897049
  0
LINE
  8
0
 10
250.881104
 20
-0.452942
 11
251.881104
 21
-0.452942
  0
LINE
  8
0
 10
250.881104
 20
13.547058
 11
251.881104
 21
13.547058
  0
LINE
  8
0
 10
250.881104
 20
-1.456650
 11
250.881104
 21
14.543350
  0
LINE
  8
0
 10
250.881104
 20
-1.456650
 11
249.881104
 21
-1.456650
  0
LINE
  8
0
 10
250.881104
 20
14.543350
 11
249.881104
 21
14.543350
  0
LINE
  8
0
 10
280.381104
 20
33.543346
 11
280.881104
 21
33.043343
  0
LINE
  8
0
 10
280.381104
 20
61.543354
 11
280.881104
 21
62.043354
  0
LINE
  8
0
 10
280.881104
 20
62.043350
 11
280.881104
 21
104.543350
  0
LINE
  8
0
 10
280.381104
 20
33.543350
 11
280.381104
 21
61.543350
  0
LINE
  8
0
 10
238.881119
 20
32.043343
 11
239.381119
 21
32.543343
  0
LINE
  8
0
 10
238.881119
 20
63.043350
 11
239.381119
 21
62.543350
  0
LINE
  8
0
 10
238.881104
 20
63.043350
 11
238.881104
 21
104.543350
  0
LINE
  8
0
 10
239.381104
 20
32.543350
 11
239.381104
 21
62.543350
  0
LINE
  8
0
 10
251.281113
 20
5.043350
 11
251.281113
 21
8.043350
  0
LINE
  8
0
 10
249.881104
 20
17.543350
 11
258.881104
 21
17.543350
  0
LINE
  8
0
 10
249.881104
 20
77.543335
 11
258.881104
 21
77.543335
  0
LINE
  8
0
 10
249.881104
 20
-10.456650
 11
249.881104
 21
105.543350
  0
LINE
  8
0
 10
249.881104
 20
102.043350
 11
251.881104
 21
102.043350
  0
LINE
  8
0
 10
249.881104
 20
82.043350
 11
251.881104
 21
82.043350
  0
LINE
  8
0
 10
238.881104
 20
-9.456650
 11
238.881104
 21
32.043350
  0
LINE
  8
0
 10
280.881104
 20
-9.456650
 11
280.881104
 21
33.043350
  0
LINE
  8
0
 10
252.881104
 20
26.543350
 11
252.881104
 21
68.543350
  0
LINE
  8
0
 10
262.881104
 20
26.543350
 11
262.881104
 21
70.543350
  0
LINE
  8
0
 10
259.881104
 20
70.543350
 11
262.881104
 21
70.543350
  0
LINE
  8
0
 10
274.881104
 20
78.543350
 11
274.881104
 21
105.543350
  0
LINE
  8
0
 10
279.881104
 20
105.543358
 11
280.881104
 21
104.543358
  0
LINE
  8
0
 10
252.881104
 20
105.543350
 11
279.881104
 21
105.543350
  0
LINE
  8
0
 10
239.881104
 20
105.543350
 11
249.881104
 21
105.543350
  0
LINE
  8
0
 10
238.881088
 20
104.543343
 11
239.881088
 21
105.543343
  0
LINE
  8
0
 10
251.881104
 20
104.543335
 11
252.881104
 21
105.543335
  0
LINE
  8
0
 10
251.881119
 20
79.543350
 11
252.881104
 21
78.543358
  0
LINE
  8
0
 10
259.881104
 20
78.543350
 11
259.881104
 21
70.543350
  0
LINE
  8
0
 10
252.881104
 20
78.543350
 11
274.881104
 21
78.543350
  0
LINE
  8
0
 10
251.881104
 20
104.543350
 11
251.881104
 21
79.543350
  0
LINE
  8
0
 10
258.881104
 20
68.543350
 11
258.881104
 21
77.543335
  0
LINE
  8
0
 10
252.881104
 20
68.543350
 11
262.881104
 21
68.543350
  0
LINE
  8
0
 10
259.881104
 20
16.543350
 11
259.881104
 21
26.543350
  0
LINE
  8
0
 10
238.881088
 20
-9.456647
 11
239.881088
 21
-10.456648
  0
LINE
  8
0
 10
239.881104
 20
-10.456650
 11
249.881104
 21
-10.456650
  0
LINE
  8
0
 10
263.681091
 20
-10.456650
 11
272.081116
 21
-10.456650
  0
LINE
  8
0
 10
275.881104
 20
-10.456650
 11
279.881104
 21
-10.456650
  0
LINE
  8
0
 10
279.881104
 20
-10.456648
 11
280.881104
 21
-9.456646
  0
LINE
  8
0
 10
251.881119
 20
-9.456635
 11
252.881119
 21
-10.456636
  0
LINE
  8
0
 10
251.881119
 20
15.543348
 11
252.881104
 21
16.543341
  0
LINE
  8
0
 10
252.881104
 20
16.543350
 11
259.881104
 21
16.543350
  0
LINE
  8
0
 10
272.381104
 20
-9.956631
 11
271.881134
 21
-9.456641
  0
LINE
  8
0
 10
272.381104
 20
-10.156647
 11
272.381104
 21
-9.956650
  0
LINE
  8
0
 10
275.581116
 20
-10.156647
 11
275.581116
 21
-9.956650
  0
LINE
  8
0
 10
275.581116
 20
-9.956629
 11
276.081116
 21
-9.456628
  0
LINE
  8
0
 10
276.081116
 20
-9.456650
 11
276.081116
 21
-7.856644
  0
LINE
  8
0
 10
271.881104
 20
-9.456650
 11
271.881104
 21
-7.856644
  0
LINE
  8
0
  6
CENTER
 62
     2
 10
273.981110
 20
-12.242355
 11
273.981110
 21
-4.513779
  0
LINE
  8
0
 10
260.181091
 20
-9.956636
 11
259.681091
 21
-9.456641
  0
LINE
  8
0
 10
260.181091
 20
-10.156647
 11
260.181091
 21
-9.956650
  0
LINE
  8
0
 10
263.381104
 20
-10.156647
 11
263.381104
 21
-9.956650
  0
LINE
  8
0
 10
263.381104
 20
-9.956647
 11
263.881104
 21
-9.456647
  0
LINE
  8
0
 10
263.881104
 20
-9.456650
 11
263.881104
 21
-7.856644
  0
LINE
  8
0
 10
259.681091
 20
-9.456650
 11
259.681091
 21
-7.856644
  0
LINE
  8
0
  6
CENTER
 62
     2
 10
261.781128
 20
-12.242355
 11
261.781128
 21
-4.513779
  0
LINE
  8
0
 10
251.881104
 20
-9.456650
 11
251.881104
 21
15.543350
  0
LINE
  8
0
 10
252.881104
 20
-10.456650
 11
259.881104
 21
-10.456650
  0
LINE
  8
0
 10
258.881104
 20
17.543350
 11
258.881104
 21
26.543350
  0
LINE
  8
0
 10
252.881104
 20
26.543350
 11
262.881104
 21
26.543350
  0
LINE
  8
0
  6
CENTER
 62
     2
 10
234.295395
 20
47.543350
 11
283.766815
 21
47.543350
  0
LINE
  8
0
  6
CENTER
 62
     2
 10
253.888657
 20
92.047043
 11
269.888641
 21
92.047043
  0
LINE
  8
0
  6
CENTER
 62
     2
 10
261.888672
 20
84.047043
 11
261.888672
 21
100.047043
  0
LINE
  8
0
 10
261.288666
 20
89.117050
 11
261.288666
 21
94.977051
  0
LINE
  8
0
 10
262.488647
 20
89.117050
 11
262.488647
 21
94.977051
  0
LINE
  8
0
 10
267.658661
 20
92.047043
 11
264.768677
 21
87.047043
  0
LINE
  8
0
 10
264.768646
 20
97.047058
 11
267.658661
 21
92.047050
  0
LINE
  8
0
 10
259.008667
 20
97.047043
 11
264.768677
 21
97.047043
  0
LINE
  8
0
 10
256.118652
 20
92.047050
 11
259.008667
 21
97.047028
  0
LINE
  8
0
 10
259.008667
 20
87.047050
 11
256.118652
 21
92.047043
  0
LINE
  8
0
 10
264.768677
 20
87.047043
 11
259.008667
 21
87.047043
  0
LINE
  8
0
  6
CENTER
 62
     2
 10
262.161133
 20
52.547043
 11
277.601105
 21
52.547043
  0
LINE
  8
0
  6
CENTER
 62
     2
 10
269.881104
 20
44.827042
 11
269.881104
 21
60.267044
  0
LINE
  8
0
  6
CENTER
 62
     2
 10
262.161133
 20
36.547047
 11
277.601105
 21
36.547047
  0
LINE
  8
0
  6
CENTER
 62
     2
 10
269.881104
 20
28.827057
 11
269.881104
 21
44.267048
  0
LINE
  8
0
 10
-255.200607
 20
0.222504
 11
-257.852783
 21
0.222504
  0
LINE
  8
0
 10
-255.200607
 20
12.871613
 11
-257.836243
 21
12.871613
  0
LINE
  8
0
 10
-267.866058
 20
1.547058
 11
-267.866058
 21
-0.452942
  0
LINE
  8
0
 10
-267.866058
 20
13.547058
 11
-267.866058
 21
11.547058
  0
LINE
  8
0
 10
-264.581879
 20
13.547058
 11
-267.866058
 21
13.547058
  0
LINE
  8
0
 10
-265.915009
 20
12.871613
 11
-267.866058
 21
12.871613
  0
LINE
  8
0
 10
-267.470520
 20
11.547058
 11
-267.866058
 21
11.547058
  0
LINE
  8
0
 10
-254.729019
 20
13.547058
 11
-259.169373
 21
13.547058
  0
LINE
  8
0
 10
-267.461060
 20
1.547058
 11
-267.866058
 21
1.547058
  0
LINE
  8
0
 10
-265.898468
 20
0.222504
 11
-267.866058
 21
0.222504
  0
LINE
  8
0
 10
-264.554443
 20
-0.452942
 11
-267.866058
 21
-0.452942
  0
LINE
  8
0
 10
-254.739365
 20
-0.452942
 11
-259.196808
 21
-0.452942
  0
LINE
  8
0
 62
     2
 10
-249.375610
 20
6.547058
 11
-274.375610
 21
6.547058
  0
LINE
  8
0
 62
     2
 10
-261.876038
 20
19.052338
 11
-261.876038
 21
-5.947662
  0
LINE
  8
0
 10
-245.875732
 20
-0.452942
 11
-244.875732
 21
-0.452942
  0
LINE
  8
0
 10
-245.875732
 20
13.547058
 11
-244.875732
 21
13.547058
  0
LINE
  8
0
 10
-260.990021
 20
52.543354
 11
-262.432861
 21
50.043354
  0
LINE
  8
0
 10
-262.432861
 20
50.043350
 11
-265.318604
 21
50.043350
  0
LINE
  8
0
 10
-265.318604
 20
50.043346
 11
-266.761444
 21
52.543350
  0
LINE
  8
0
 10
-266.761444
 20
52.543343
 11
-265.318604
 21
55.043350
  0
LINE
  8
0
 10
-265.318604
 20
55.043350
 11
-262.432861
 21
55.043350
  0
LINE
  8
0
 10
-262.432861
 20
55.043354
 11
-260.990021
 21
52.543346
  0
LINE
  8
0
  6
CENTER
 62
     2
 10
-263.875732
 20
44.814781
 11
-263.875732
 21
60.257637
  0
LINE
  8
0
  6
CENTER
 62
     2
 10
-271.590027
 20
52.543350
 11
-256.147156
 21
52.543350
  0
LINE
  8
0
 10
-244.875732
 20
-1.456650
 11
-244.875732
 21
14.543350
  0
LINE
  8
0
 10
-274.375732
 20
61.543343
 11
-274.875732
 21
62.043343
  0
LINE
  8
0
 10
-274.375732
 20
33.543354
 11
-274.875732
 21
33.043354
  0
LINE
  8
0
 10
-274.875732
 20
33.043350
 11
-274.875732
 21
-9.456650
  0
LINE
  8
0
 10
-274.375732
 20
61.543350
 11
-274.375732
 21
33.543350
  0
LINE
  8
0
 10
-274.875732
 20
104.543350
 11
-274.875732
 21
62.043350
  0
LINE
  8
0
  6
DASHED
 62
     2
 10
-258.875732
 20
18.543350
 11
-258.875732
 21
32.543350
  0
LINE
  8
0
  6
CENTER
 62
     2
 10
-249.590027
 20
25.543350
 11
-276.604309
 21
25.543350
  0
LINE
  8
0
  6
DASHED
 62
     2
 10
-256.875732
 20
32.543350
 11
-258.875732
 21
32.543350
  0
LINE
  8
0
  6
DASHED
 62
     2
 10
-253.875732
 20
18.543350
 11
-258.875732
 21
18.543350
  0
LINE
  8
0
  6
DASHED
 62
     2
 10
-258.875732
 20
30.043350
 11
-274.875732
 21
30.043350
  0
LINE
  8
0
  6
DASHED
 62
     2
 10
-258.875732
 20
21.043350
 11
-274.875732
 21
21.043350
  0
LINE
  8
0
  6
DASHED
 62
     2
 10
-258.875732
 20
74.043350
 11
-274.875732
 21
74.043350
  0
LINE
  8
0
  6
DASHED
 62
     2
 10
-258.875732
 20
65.043335
 11
-274.875732
 21
65.043335
  0
LINE
  8
0
  6
DASHED
 62
     2
 10
-258.875732
 20
76.543350
 11
-258.875732
 21
62.543350
  0
LINE
  8
0
  6
CENTER
 62
     2
 10
-249.504318
 20
69.543350
 11
-276.604309
 21
69.543350
  0
LINE
  8
0
  6
DASHED
 62
     2
 10
-256.875732
 20
62.543350
 11
-258.875732
 21
62.543350
  0
LINE
  8
0
  6
DASHED
 62
     2
 10
-253.875732
 20
76.543350
 11
-258.875732
 21
76.543350
  0
LINE
  8
0
 10
-243.875732
 20
14.543350
 11
-243.875732
 21
105.543350
  0
LINE
  8
0
 10
-244.875732
 20
14.543350
 11
-240.875732
 21
14.543350
  0
LINE
  8
0
 10
-244.875732
 20
-1.456650
 11
-240.875732
 21
-1.456650
  0
LINE
  8
0
 10
-240.875732
 20
-1.456650
 11
-240.875732
 21
14.543350
  0
LINE
  8
0
 10
-232.875748
 20
32.043354
 11
-233.375748
 21
32.543354
  0
LINE
  8
0
 10
-232.875748
 20
63.043343
 11
-233.375748
 21
62.543343
  0
LINE
  8
0
 10
-232.875748
 20
63.043350
 11
-232.875748
 21
104.543350
  0
LINE
  8
0
 10
-233.375732
 20
32.543350
 11
-233.375732
 21
62.543350
  0
LINE
  8
0
 10
-243.875732
 20
17.543350
 11
-252.875732
 21
17.543350
  0
LINE
  8
0
 10
-243.875732
 20
77.543335
 11
-252.875732
 21
77.543335
  0
LINE
  8
0
 10
-243.875732
 20
-10.456650
 11
-243.875732
 21
-1.456650
  0
LINE
  8
0
 10
-243.875732
 20
102.043350
 11
-245.875732
 21
102.043350
  0
LINE
  8
0
 10
-243.875732
 20
82.043350
 11
-245.875732
 21
82.043350
  0
LINE
  8
0
 10
-232.875748
 20
-9.456650
 11
-232.875748
 21
32.043350
  0
LINE
  8
0
 10
-246.875732
 20
26.543350
 11
-246.875732
 21
68.543350
  0
LINE
  8
0
 10
-256.875732
 20
26.543350
 11
-256.875732
 21
70.543350
  0
LINE
  8
0
 10
-253.875732
 20
70.543350
 11
-256.875732
 21
70.543350
  0
LINE
  8
0
 10
-268.875732
 20
78.543350
 11
-268.875732
 21
105.543350
  0
LINE
  8
0
 10
-273.875732
 20
105.543343
 11
-274.875732
 21
104.543343
  0
LINE
  8
0
 10
-246.875732
 20
105.543350
 11
-273.875732
 21
105.543350
  0
LINE
  8
0
 10
-233.875732
 20
105.543350
 11
-243.875732
 21
105.543350
  0
LINE
  8
0
 10
-232.875732
 20
104.543350
 11
-233.875732
 21
105.543350
  0
LINE
  8
0
 10
-245.875717
 20
104.543327
 11
-246.875717
 21
105.543327
  0
LINE
  8
0
 10
-245.875732
 20
79.543343
 11
-246.875717
 21
78.543350
  0
LINE
  8
0
 10
-253.875732
 20
78.543350
 11
-253.875732
 21
70.543350
  0
LINE
  8
0
 10
-246.875732
 20
78.543350
 11
-268.875732
 21
78.543350
  0
LINE
  8
0
 10
-245.875732
 20
104.543350
 11
-245.875732
 21
79.543350
  0
LINE
  8
0
 10
-252.875732
 20
68.543350
 11
-252.875732
 21
77.543335
  0
LINE
  8
0
 10
-246.875732
 20
68.543350
 11
-256.875732
 21
68.543350
  0
LINE
  8
0
 10
-253.875732
 20
16.543350
 11
-253.875732
 21
26.543350
  0
LINE
  8
0
 10
-232.875732
 20
-9.456647
 11
-233.875732
 21
-10.456648
  0
LINE
  8
0
 10
-233.875732
 20
-10.456650
 11
-243.875732
 21
-10.456650
  0
LINE
  8
0
 10
-257.675720
 20
-10.456650
 11
-266.075745
 21
-10.456650
  0
LINE
  8
0
 10
-269.875732
 20
-10.456650
 11
-273.875732
 21
-10.456650
  0
LINE
  8
0
 10
-273.875732
 20
-10.456651
 11
-274.875732
 21
-9.456649
  0
LINE
  8
0
 10
-245.875732
 20
-9.456632
 11
-246.875732
 21
-10.456634
  0
LINE
  8
0
 10
-245.875748
 20
15.543345
 11
-246.875732
 21
16.543337
  0
LINE
  8
0
 10
-246.875732
 20
16.543350
 11
-253.875732
 21
16.543350
  0
LINE
  8
0
 10
-266.375732
 20
-9.956636
 11
-265.875732
 21
-9.456635
  0
LINE
  8
0
 10
-266.375732
 20
-10.156647
 11
-266.375732
 21
-9.956650
  0
LINE
  8
0
 10
-269.575745
 20
-10.156647
 11
-269.575745
 21
-9.956650
  0
LINE
  8
0
 10
-269.575745
 20
-9.956635
 11
-270.075745
 21
-9.456634
  0
LINE
  8
0
 10
-270.075745
 20
-9.456650
 11
-270.075745
 21
-7.856644
  0
LINE
  8
0
 10
-265.875732
 20
-9.456650
 11
-265.875732
 21
-7.856644
  0
LINE
  8
0
  6
CENTER
 62
     2
 10
-267.975739
 20
-12.242355
 11
-267.975739
 21
-4.513779
  0
LINE
  8
0
 10
-254.175720
 20
-9.956628
 11
-253.675751
 21
-9.456647
  0
LINE
  8
0
 10
-254.175735
 20
-10.156647
 11
-254.175735
 21
-9.956650
  0
LINE
  8
0
 10
-257.375732
 20
-10.156647
 11
-257.375732
 21
-9.956650
  0
LINE
  8
0
 10
-257.375732
 20
-9.956647
 11
-257.875732
 21
-9.456647
  0
LINE
  8
0
 10
-257.875732
 20
-9.456650
 11
-257.875732
 21
-7.856644
  0
LINE
  8
0
 10
-253.675735
 20
-9.456650
 11
-253.675735
 21
-7.856644
  0
LINE
  8
0
  6
CENTER
 62
     2
 10
-255.775742
 20
-12.242355
 11
-255.775742
 21
-4.513779
  0
LINE
  8
0
 10
-245.875732
 20
-9.456650
 11
-245.875732
 21
15.543350
  0
LINE
  8
0
 10
-246.875732
 20
-10.456650
 11
-253.875732
 21
-10.456650
  0
LINE
  8
0
 10
-252.875732
 20
17.543350
 11
-252.875732
 21
26.543350
  0
LINE
  8
0
 10
-246.875732
 20
26.543350
 11
-256.875732
 21
26.543350
  0
LINE
  8
0
  6
CENTER
 62
     2
 10
-229.897797
 20
47.543350
 11
-278.433990
 21
47.543350
  0
LINE
  8
0
  6
CENTER
 62
     2
 10
-263.876038
 20
92.047043
 11
-247.876053
 21
92.047043
  0
LINE
  8
0
  6
CENTER
 62
     2
 10
-255.876053
 20
84.047043
 11
-255.876053
 21
100.047043
  0
LINE
  8
0
 10
-256.476074
 20
89.117050
 11
-256.476074
 21
94.977051
  0
LINE
  8
0
 10
-255.276062
 20
89.117050
 11
-255.276062
 21
94.977051
  0
LINE
  8
0
 10
-250.106033
 20
92.047043
 11
-252.996048
 21
87.047043
  0
LINE
  8
0
 10
-252.996048
 20
97.047043
 11
-250.106064
 21
92.047050
  0
LINE
  8
0
 10
-258.756042
 20
97.047043
 11
-252.996063
 21
97.047043
  0
LINE
  8
0
 10
-261.646027
 20
92.047043
 11
-258.756012
 21
97.047043
  0
LINE
  8
0
 10
-258.756042
 20
87.047043
 11
-261.646057
 21
92.047043
  0
LINE
  8
0
 10
-252.996063
 20
87.047043
 11
-258.756042
 21
87.047043
  0
LINE
  8
0
 10
-263.026062
 20
4.547058
 11
-260.726044
 21
4.547058
  0
LINE
  8
0
 10
-263.026062
 20
8.547058
 11
-260.726044
 21
8.547058
  0
LINE
  8
0
 10
-263.026062
 20
4.547058
 11
-264.176056
 21
6.547059
  0
LINE
  8
0
 10
-259.576050
 20
6.547059
 11
-260.726044
 21
8.547047
  0
LINE
  8
0
 10
-264.176056
 20
6.547049
 11
-263.026062
 21
8.547050
  0
LINE
  8
0
 10
-260.726044
 20
4.547061
 11
-259.576050
 21
6.547062
  0
LINE
  8
0
  6
CENTER
 62
     2
 10
-261.876038
 20
0.297058
 11
-261.876038
 21
12.797058
  0
LINE
  8
0
  6
CENTER
 62
     2
 10
-268.126038
 20
6.547058
 11
-255.626053
 21
6.547058
  0
LINE
  8
0
  6
PHANTOM
 62
     3
 10
93.786484
 20
120.906235
 11
66.279694
 21
120.906235
  0
LINE
  8
0
  6
PHANTOM
 62
     3
 10
24.111725
 20
120.906235
 11
-28.307205
 21
120.906235
  0
LINE
  8
0
 10
-50.975967
 20
32.043350
 11
119.009735
 21
32.043350
  0
LINE
  8
0
 10
-50.975967
 20
63.043350
 11
119.009735
 21
63.043350
  0
LINE
  8
0
 10
-50.975967
 20
32.543350
 11
119.009735
 21
32.543350
  0
LINE
  8
0
 10
-50.975967
 20
62.543350
 11
119.009735
 21
62.543350
  0
LINE
  8
0
 10
-105.975967
 20
-9.456650
 11
124.009735
 21
-9.456650
  0
LINE
  8
0
 10
-50.975967
 20
104.543350
 11
124.009735
 21
104.543350
  0
LINE
  8
0
 10
-105.975967
 20
104.543350
 11
-74.975967
 21
104.543350
  0
LINE
  8
0
 10
-84.047409
 20
26.543350
 11
-50.975967
 21
26.543350
  0
LINE
  8
0
 10
-84.047409
 20
70.543350
 11
-50.975967
 21
70.543350
  0
LINE
  8
0
 10
-105.975967
 20
15.543350
 11
-50.975967
 21
15.543350
  0
LINE
  8
0
 10
119.009735
 20
26.543350
 11
124.009735
 21
26.543350
  0
LINE
  8
0
 10
119.009735
 20
70.543350
 11
124.009735
 21
70.543350
  0
LINE
  8
0
 10
-105.975967
 20
16.543350
 11
-50.975967
 21
16.543350
  0
LINE
  8
0
 10
119.009735
 20
15.543350
 11
124.009735
 21
15.543350
  0
LINE
  8
0
 10
119.009735
 20
16.543350
 11
124.009735
 21
16.543350
  0
LINE
  8
0
 10
-105.975967
 20
70.543350
 11
-97.904541
 21
70.543350
  0
LINE
  8
0
  6
CENTER
 62
     2
 10
-130.181076
 20
92.043350
 11
-58.304550
 21
92.043350
  0
LINE
  8
0
 10
-65.975967
 20
97.043350
 11
-61.975967
 21
97.043350
  0
LINE
  8
0
 10
-65.975967
 20
87.043350
 11
-61.975967
 21
87.043350
  0
LINE
  8
0
 10
-65.975967
 20
92.043350
 11
-62.418839
 21
92.043350
  0
LINE
  8
0
 10
-65.975967
 20
97.043350
 11
-65.975967
 21
87.043350
  0
LINE
  8
0
 10
-68.975967
 20
89.043350
 11
-68.975967
 21
95.043350
  0
LINE
  8
0
 62
     2
 10
-68.975975
 20
94.286209
 11
-67.675980
 21
95.043350
  0
LINE
  8
0
 62
     2
 10
-68.975967
 20
89.786209
 11
-67.675964
 21
89.043350
  0
LINE
  8
0
 62
     2
 10
-74.975967
 20
89.786194
 11
-68.975967
 21
89.786194
  0
LINE
  8
0
 62
     2
 10
-74.975967
 20
94.286194
 11
-68.975967
 21
94.286194
  0
LINE
  8
0
 10
-74.975967
 20
95.043350
 11
-65.975967
 21
95.043350
  0
LINE
  8
0
 10
-74.975967
 20
89.043350
 11
-65.975967
 21
89.043350
  0
LINE
  8
0
 10
-61.975967
 20
87.043350
 11
-61.975967
 21
97.043350
  0
LINE
  8
0
 10
119.009735
 20
79.543350
 11
124.009735
 21
79.543350
  0
LINE
  8
0
 10
119.009735
 20
78.543350
 11
124.009735
 21
78.543350
  0
LINE
  8
0
 10
-105.975967
 20
79.543350
 11
-74.975967
 21
79.543350
  0
LINE
  8
0
 10
-105.975967
 20
78.543350
 11
-50.975967
 21
78.543350
  0
LINE
  8
0
 10
-74.975967
 20
105.543350
 11
-74.975967
 21
78.543350
  0
LINE
  8
0
 10
-80.975967
 20
68.543350
 11
-80.975967
 21
26.543350
  0
LINE
  8
0
  6
CENTER
 62
     2
 10
-90.975967
 20
60.043350
 11
-90.975967
 21
79.043350
  0
LINE
  8
0
  6
CENTER
 62
     2
 10
-81.475967
 20
69.543350
 11
-100.475967
 21
69.543350
  0
LINE
  8
0
  6
CENTER
 62
     2
 10
109.009735
 20
60.043350
 11
109.009735
 21
79.043350
  0
LINE
  8
0
  6
CENTER
 62
     2
 10
99.509735
 20
69.543350
 11
118.509735
 21
69.543350
  0
LINE
  8
0
  6
CENTER
 62
     2
 10
-90.975967
 20
35.043350
 11
-90.975967
 21
16.043350
  0
LINE
  8
0
  6
CENTER
 62
     2
 10
-81.475967
 20
25.543350
 11
-100.475967
 21
25.543350
  0
LINE
  8
0
 10
-50.975967
 20
105.543350
 11
-50.975967
 21
-10.456650
  0
LINE
  8
0
 10
119.009735
 20
105.543350
 11
119.009735
 21
-10.456650
  0
LINE
  8
0
 10
-85.975967
 20
14.043350
 11
-50.975967
 21
14.043350
  0
LINE
  8
0
 10
-85.975967
 20
-0.956650
 11
-50.975967
 21
-0.956650
  0
LINE
  8
0
 10
-105.975967
 20
105.543350
 11
-105.975967
 21
-10.456650
  0
LINE
  8
0
 10
-80.975967
 20
68.543350
 11
-50.975967
 21
68.543350
  0
LINE
  8
0
 10
-105.975967
 20
26.543350
 11
-97.904541
 21
26.543350
  0
LINE
  8
0
  6
CENTER
 62
     2
 10
99.509735
 20
25.543350
 11
118.509735
 21
25.543350
  0
LINE
  8
0
  6
CENTER
 62
     2
 10
109.009735
 20
35.043350
 11
109.009735
 21
16.043350
  0
LINE
  8
0
  6
CENTER
 62
     2
 10
-98.761681
 20
6.543350
 11
-44.158310
 21
6.543350
  0
LINE
  8
0
 10
-105.975967
 20
-10.456650
 11
124.009735
 21
-10.456650
  0
LINE
  8
0
 10
-105.975967
 20
105.543350
 11
124.009735
 21
105.543350
  0
LINE
  8
0
  6
CENTER
 62
     2
 10
-113.447395
 20
47.543350
 11
131.066879
 21
47.543350
  0
LINE
  8
0
 10
124.009735
 20
105.543350
 11
124.009735
 21
-10.456650
  0
LINE
  8
0
  6
CENTER
 62
     2
 10
-16.983566
 20
2.547043
 11
-4.983566
 21
2.547043
  0
LINE
  8
0
  6
CENTER
 62
     2
 10
-10.983566
 20
8.547043
 11
-10.983566
 21
-3.452942
  0
LINE
  8
0
  6
CENTER
 62
     2
 10
73.016449
 20
2.547043
 11
85.016449
 21
2.547043
  0
LINE
  8
0
  6
CENTER
 62
     2
 10
79.016449
 20
8.547043
 11
79.016449
 21
-3.452942
  0
LINE
  8
0
  6
CENTER
 62
     2
 10
73.016449
 20
92.547043
 11
85.016449
 21
92.547043
  0
LINE
  8
0
  6
CENTER
 62
     2
 10
79.016449
 20
98.547028
 11
79.016449
 21
86.547043
  0
LINE
  8
0
  6
CENTER
 62
     2
 10
-16.983566
 20
92.547043
 11
-4.983566
 21
92.547043
  0
LINE
  8
0
  6
CENTER
 62
     2
 10
-10.983566
 20
98.547028
 11
-10.983566
 21
86.547043
  0
LINE
  8
0
 10
-110.983551
 20
97.047043
 11
-110.983551
 21
87.047043
  0
LINE
  8
0
 10
-110.983551
 20
95.047043
 11
-125.483536
 21
95.047043
  0
LINE
  8
0
 62
     2
 10
-110.983551
 20
94.297043
 11
-125.983536
 21
94.297043
  0
LINE
  8
0
 62
     2
 10
-110.983551
 20
89.797043
 11
-125.983536
 21
89.797043
  0
LINE
  8
0
 10
-110.983551
 20
89.047043
 11
-125.483536
 21
89.047043
  0
LINE
  8
0
 10
-125.483536
 20
89.047043
 11
-125.983536
 21
89.547043
  0
LINE
  8
0
 10
-125.983536
 20
94.547043
 11
-125.483536
 21
95.047043
  0
LINE
  8
0
 10
-125.983536
 20
89.547043
 11
-125.983536
 21
94.547043
  0
LINE
  8
0
 10
-125.483536
 20
89.047043
 11
-125.483536
 21
95.047043
  0
LINE
  8
0
 10
-110.533546
 20
92.047043
 11
-106.423546
 21
92.047043
  0
LINE
  8
0
 10
-110.983551
 20
87.047043
 11
-105.983551
 21
87.047043
  0
LINE
  8
0
 10
-110.983551
 20
97.047043
 11
-105.983551
 21
97.047043
  0
LINE
  8
0
  6
CENTER
 62
     2
 10
148.596451
 20
92.047043
 11
120.006439
 21
92.047043
  0
LINE
  8
0
 10
129.016449
 20
87.047043
 11
129.016449
 21
97.047043
  0
LINE
  8
0
 10
129.016449
 20
89.047043
 11
143.516449
 21
89.047043
  0
LINE
  8
0
 62
     2
 10
129.016449
 20
89.797043
 11
144.016449
 21
89.797043
  0
LINE
  8
0
 62
     2
 10
129.016449
 20
94.297043
 11
144.016449
 21
94.297043
  0
LINE
  8
0
 10
129.016449
 20
95.047043
 11
143.516449
 21
95.047043
  0
LINE
  8
0
 10
143.516434
 20
95.047058
 11
144.016434
 21
94.547058
  0
LINE
  8
0
 10
144.016434
 20
89.547050
 11
143.516434
 21
89.047050
  0
LINE
  8
0
 10
144.016449
 20
94.547043
 11
144.016449
 21
89.547043
  0
LINE
  8
0
 10
143.516449
 20
95.047043
 11
143.516449
 21
89.047043
  0
LINE
  8
0
 10
128.566437
 20
92.047043
 11
124.456451
 21
92.047043
  0
LINE
  8
0
 10
129.016449
 20
97.047043
 11
124.016449
 21
97.047043
  0
LINE
  8
0
 10
129.016449
 20
87.047043
 11
124.016449
 21
87.047043
  0
LINE
  8
0
  6
PHANTOM
 62
     3
 10
-56.196671
 20
120.906235
 11
-56.196671
 21
-27.824997
  0
LINE
  8
0
  6
PHANTOM
 62
     3
 10
-28.307205
 20
120.906235
 11
-28.307205
 21
-27.824997
  0
LINE
  8
0
  6
PHANTOM
 62
     3
 10
93.786484
 20
120.906235
 11
93.786484
 21
-27.824997
  0
LINE
  8
0
 10
-389.250000
 20
-266.750000
 11
-239.250000
 21
-266.750000
  0
LINE
  8
0
 10
-389.250000
 20
-256.750000
 11
-239.250000
 21
-256.750000
  0
LINE
  8
0
 10
-389.250000
 20
-246.750000
 11
-239.250000
 21
-246.750000
  0
LINE
  8
0
 10
-389.250000
 20
-236.750000
 11
-239.250000
 21
-236.750000
  0
LINE
  8
0
 10
-389.250000
 20
-216.750000
 11
-344.608887
 21
-216.750000
  0
LINE
  8
0
 10
-389.250000
 20
-206.750000
 11
-239.250000
 21
-206.750000
  0
LINE
  8
0
 10
-389.250000
 20
-266.750000
 11
-389.250000
 21
-206.750000
  0
LINE
  8
0
 10
-339.250000
 20
-266.750000
 11
-339.250000
 21
-206.750000
  0
LINE
  8
0
 10
-339.249847
 20
-236.749954
 11
-344.608826
 21
-216.749954
  0
LINE
  8
0
 10
-314.250000
 20
-266.750000
 11
-314.250000
 21
-206.750000
  0
LINE
  8
0
 10
-289.250000
 20
-266.750000
 11
-289.250000
 21
-206.750000
  0
LINE
  8
0
 10
-264.250000
 20
-266.750000
 11
-264.250000
 21
-206.750000
  0
LINE
  8
0
 10
-239.250000
 20
-266.750000
 11
-239.250000
 21
-206.750000
  0
LINE
  8
0
 10
399.799805
 20
276.250000
 11
399.799805
 21
-276.750000
  0
LINE
  8
0
 10
-399.250000
 20
276.250000
 11
-399.250000
 21
-276.750000
  0
LINE
  8
0
 10
-399.250000
 20
276.250000
 11
399.799805
 21
276.250000
  0
LINE
  8
0
 10
-399.250000
 20
-276.750000
 11
399.799805
 21
-276.750000
  0
LINE
  8
0
 10
239.799988
 20
-251.750000
 11
399.799805
 21
-251.750000
  0
LINE
  8
0
 10
239.799988
 20
251.250000
 11
399.799805
 21
251.250000
  0
LINE
  8
0
 10
-399.250000
 20
251.250000
 11
-239.250000
 21
251.250000
  0
LINE
  8
0
 10
239.799988
 20
-251.750000
 11
239.799988
 21
-276.750000
  0
LINE
  8
0
 10
239.799988
 20
251.250000
 11
239.799988
 21
276.250000
  0
LINE
  8
0
 10
-239.250000
 20
276.250000
 11
-239.250000
 21
251.250000
  0
CIRCLE
  8
0
 62
     2
 10
-70.983551
 20
-167.681641
 40
3.999999
  0
CIRCLE
  8
0
 10
-70.983551
 20
-167.681641
 40
3.299998
  0
CIRCLE
  8
0
 62
     2
 10
-70.983551
 20
-211.681641
 40
3.999999
  0
CIRCLE
  8
0
 10
-70.983551
 20
-211.681641
 40
3.299998
  0
CIRCLE
  8
0
 62
     2
 10
89.016449
 20
-211.681641
 40
3.999999
  0
CIRCLE
  8
0
 10
89.016449
 20
-211.681641
 40
3.299998
  0
CIRCLE
  8
0
 62
     2
 10
89.016449
 20
-167.681641
 40
3.999999
  0
CIRCLE
  8
0
 10
89.016449
 20
-167.681641
 40
3.299998
  0
ARC
  8
0
 10
121.795303
 20
-231.681641
 40
7.217926
 50
339.735168
 51
20.264830
  0
ARC
  8
0
 10
121.795303
 20
-236.681625
 40
7.217926
 50
339.735168
 51
20.264830
  0
ARC
  8
0
 10
131.237610
 20
-231.681641
 40
7.227317
 50
159.762650
 51
200.237350
  0
ARC
  8
0
 10
131.237610
 20
-236.681625
 40
7.227317
 50
159.762650
 51
200.237350
  0
ARC
  8
0
 10
-103.762405
 20
-236.681625
 40
7.217919
 50
159.735153
 51
200.264832
  0
ARC
  8
0
 10
-103.762405
 20
-231.681641
 40
7.217919
 50
159.735153
 51
200.264832
  0
ARC
  8
0
 10
-113.204712
 20
-236.681625
 40
7.227317
 50
339.762665
 51
20.237345
  0
ARC
  8
0
 10
-113.204712
 20
-231.681641
 40
7.227317
 50
339.762665
 51
20.237345
  0
CIRCLE
  8
0
 10
109.016449
 20
-167.681641
 40
4.499999
  0
CIRCLE
  8
0
 10
109.016449
 20
-211.681641
 40
4.499999
  0
CIRCLE
  8
0
 10
-90.983551
 20
-211.681641
 40
4.499999
  0
CIRCLE
  8
0
 10
-90.983551
 20
-167.681641
 40
4.499999
  0
ARC
  8
0
 10
119.463058
 20
-66.328049
 40
9.548097
 50
342.444427
 51
17.555582
  0
ARC
  8
0
 10
126.459824
 20
-62.009003
 40
2.551207
 50
325.662750
 51
25.814775
  0
ARC
  8
0
 10
126.573059
 20
-62.008270
 40
2.559895
 50
154.297699
 51
214.224609
  0
ARC
  8
0
 10
133.569901
 20
-66.328049
 40
9.557686
 50
162.462601
 51
197.537384
  0
ARC
  8
0
 10
126.572281
 20
-70.653046
 40
2.562185
 50
145.669083
 51
214.330917
  0
ARC
  8
0
 10
126.460663
 20
-70.653046
 40
2.553881
 50
325.541748
 51
34.458241
  0
ARC
  8
0
 10
-101.430161
 20
-66.328049
 40
9.548099
 50
162.444412
 51
197.555557
  0
ARC
  8
0
 10
-108.426926
 20
-70.647087
 40
2.551214
 50
145.662857
 51
205.814621
  0
ARC
  8
0
 10
-108.540169
 20
-70.647827
 40
2.559895
 50
334.297699
 51
34.224682
  0
ARC
  8
0
 10
-115.537003
 20
-66.328049
 40
9.557685
 50
342.462616
 51
17.537399
  0
ARC
  8
0
 10
-108.539383
 20
-62.003052
 40
2.562185
 50
325.669098
 51
34.330914
  0
ARC
  8
0
 10
-108.427773
 20
-62.003052
 40
2.553881
 50
145.541763
 51
214.458237
  0
ARC
  8
0
 10
-64.539383
 20
178.829056
 40
2.564870
 50
325.767975
 51
34.232014
  0
ARC
  8
0
 10
-71.537018
 20
174.500488
 40
9.563922
 50
342.438538
 51
17.561476
  0
ARC
  8
0
 10
-64.539383
 20
170.171921
 40
2.564867
 50
325.767944
 51
34.232063
  0
ARC
  8
0
 10
82.572266
 20
178.829056
 40
2.564148
 50
145.757004
 51
214.242996
  0
ARC
  8
0
 10
89.569885
 20
174.500488
 40
9.563066
 50
162.436905
 51
197.563095
  0
ARC
  8
0
 10
82.572266
 20
170.171921
 40
2.564142
 50
145.756912
 51
214.243088
  0
ARC
  8
0
 10
-61.974670
 20
181.500092
 40
2.299607
 50
269.967499
 51
212.281677
  0
ARC
  8
0
 10
80.012466
 20
181.507294
 40
2.300053
 50
327.513306
 51
152.025085
  0
ARC
  8
0
 62
     2
 10
80.013397
 20
181.506241
 40
3.004465
 50
335.742920
 51
158.933487
  0
ARC
  8
0
 62
     2
 10
-61.980362
 20
181.502914
 40
3.002429
 50
270.083710
 51
204.204956
  0
CIRCLE
  8
0
 10
99.016449
 20
181.504974
 40
4.999999
  0
CIRCLE
  8
0
 10
99.016449
 20
181.504974
 40
4.307178
  0
CIRCLE
  8
0
 10
118.016449
 20
181.504974
 40
4.999999
  0
CIRCLE
  8
0
 10
118.016449
 20
181.504974
 40
4.307178
  0
CIRCLE
  8
0
 10
-99.983551
 20
181.504974
 40
4.999999
  0
CIRCLE
  8
0
 10
-99.983551
 20
181.504974
 40
4.307178
  0
CIRCLE
  8
0
 10
-80.983551
 20
181.504974
 40
4.999999
  0
CIRCLE
  8
0
 10
-80.983551
 20
181.504974
 40
4.307178
  0
ARC
  8
0
 10
-101.430161
 20
174.504990
 40
9.548100
 50
162.444397
 51
197.555603
  0
ARC
  8
0
 10
-108.426926
 20
170.185944
 40
2.551214
 50
145.662857
 51
205.814774
  0
ARC
  8
0
 10
-108.540169
 20
170.185196
 40
2.559895
 50
334.297699
 51
34.224682
  0
ARC
  8
0
 10
-115.537003
 20
174.504990
 40
9.557687
 50
342.462585
 51
17.537422
  0
ARC
  8
0
 10
-108.539383
 20
178.829987
 40
2.562181
 50
325.669220
 51
34.330772
  0
ARC
  8
0
 10
-108.427773
 20
178.829987
 40
2.553885
 50
145.541626
 51
214.458099
  0
ARC
  8
0
 10
119.463058
 20
174.504990
 40
9.548100
 50
342.444397
 51
17.555605
  0
ARC
  8
0
 10
126.459824
 20
178.824020
 40
2.551207
 50
325.662750
 51
25.814852
  0
ARC
  8
0
 10
126.573059
 20
178.824768
 40
2.559895
 50
154.297699
 51
214.224686
  0
ARC
  8
0
 10
133.569901
 20
174.504990
 40
9.557687
 50
162.462585
 51
197.537415
  0
ARC
  8
0
 10
126.572281
 20
170.179993
 40
2.562189
 50
145.668945
 51
214.330780
  0
ARC
  8
0
 10
126.460663
 20
170.179993
 40
2.553877
 50
325.541901
 51
34.458099
  0
CIRCLE
  8
0
 10
267.888672
 20
6.547058
 40
10.500000
  0
ARC
  8
0
 10
253.773483
 20
7.803772
 40
2.503868
 50
139.093796
 51
174.509094
  0
ARC
  8
0
 10
253.776138
 20
5.284088
 40
2.506612
 50
185.511032
 51
220.886154
  0
ARC
  8
0
 10
273.981110
 20
-7.856644
 40
2.100006
 50
0.000000
 51
179.999954
  0
ARC
  8
0
 10
272.083008
 20
-10.158554
 40
0.298098
 50
269.630463
 51
0.366599
  0
ARC
  8
0
 10
275.886688
 20
-10.151047
 40
0.305654
 50
181.049438
 51
268.953064
  0
ARC
  8
0
 10
261.781128
 20
-7.856644
 40
2.100006
 50
0.000000
 51
179.999954
  0
ARC
  8
0
 10
259.883026
 20
-10.158554
 40
0.298093
 50
269.630463
 51
0.367515
  0
ARC
  8
0
 10
263.686707
 20
-10.151047
 40
0.305654
 50
181.050323
 51
268.947357
  0
CIRCLE
  8
0
 10
261.888672
 20
92.047043
 40
3.000000
  0
CIRCLE
  8
0
 62
     2
 10
261.888672
 20
92.047043
 40
2.299998
  0
CIRCLE
  8
0
 10
261.888672
 20
92.047043
 40
4.999999
  0
CIRCLE
  8
0
 62
     2
 10
269.881104
 20
52.547043
 40
4.863999
  0
CIRCLE
  8
0
 10
269.881104
 20
52.547043
 40
4.278001
  0
CIRCLE
  8
0
 62
     2
 10
269.881104
 20
36.547047
 40
4.863999
  0
CIRCLE
  8
0
 10
269.881104
 20
36.547047
 40
4.278001
  0
CIRCLE
  8
0
 10
-261.875610
 20
6.552338
 40
10.000000
  0
CIRCLE
  8
0
 10
-261.875610
 20
6.552338
 40
7.500000
  0
ARC
  8
0
 10
-255.200607
 20
6.547058
 40
6.324554
 50
270.000000
 51
280.494507
  0
ARC
  8
0
 10
-255.200607
 20
6.547058
 40
6.324553
 50
79.414940
 51
90.000000
  0
CIRCLE
  8
0
 62
     2
 10
-263.876038
 20
52.547066
 40
4.278000
  0
CIRCLE
  8
0
 10
-263.876038
 20
52.547066
 40
4.863998
  0
ARC
  8
0
 10
-267.975739
 20
-7.856644
 40
2.100006
 50
0.000000
 51
179.999954
  0
ARC
  8
0
 10
-266.074066
 20
-10.154984
 40
0.301671
 50
180.315536
 51
269.687012
  0
ARC
  8
0
 10
-269.877716
 20
-10.154663
 40
0.301987
 50
270.376343
 51
359.623993
  0
ARC
  8
0
 10
-255.775742
 20
-7.856644
 40
2.100006
 50
0.000000
 51
179.999954
  0
ARC
  8
0
 10
-253.874084
 20
-10.154984
 40
0.301656
 50
180.314636
 51
269.684113
  0
ARC
  8
0
 10
-257.677734
 20
-10.154663
 40
0.301982
 50
270.376373
 51
359.625244
  0
CIRCLE
  8
0
 10
-255.876053
 20
92.047043
 40
3.000000
  0
CIRCLE
  8
0
 62
     2
 10
-255.876053
 20
92.047043
 40
2.299998
  0
CIRCLE
  8
0
 10
-255.876053
 20
92.047043
 40
4.999999
  0
CIRCLE
  8
0
 10
-261.876038
 20
6.547058
 40
4.250000
  0
CIRCLE
  8
0
 10
-261.876038
 20
6.547058
 40
3.730385
  0
ARC
  8
0
 10
-69.204422
 20
89.543350
 40
7.231480
 50
339.774811
 51
20.225185
  0
ARC
  8
0
 10
-69.204422
 20
94.543350
 40
7.231480
 50
339.774811
 51
20.225185
  0
CIRCLE
  8
0
 10
-90.983551
 20
69.547043
 40
4.499999
  0
CIRCLE
  8
0
 10
-90.983551
 20
69.547043
 40
6.999999
  0
CIRCLE
  8
0
  6
DASHED
 62
     2
 10
109.016449
 20
69.547043
 40
4.499999
  0
CIRCLE
  8
0
  6
DASHED
 62
     2
 10
109.016449
 20
69.547043
 40
6.999999
  0
CIRCLE
  8
0
 10
-90.983551
 20
25.547058
 40
4.499999
  0
CIRCLE
  8
0
 10
-90.983551
 20
25.547058
 40
6.999999
  0
ARC
  8
0
 10
-85.975967
 20
6.543350
 40
7.500004
 50
90.000000
 51
269.999939
  0
CIRCLE
  8
0
  6
DASHED
 62
     2
 10
109.016449
 20
25.547058
 40
6.999999
  0
CIRCLE
  8
0
  6
DASHED
 62
     2
 10
109.016449
 20
25.547058
 40
4.499999
  0
CIRCLE
  8
0
 62
     2
 10
-10.983566
 20
2.547043
 40
3.999999
  0
CIRCLE
  8
0
 10
-10.983566
 20
2.547043
 40
3.299998
  0
CIRCLE
  8
0
 62
     2
 10
79.016449
 20
2.547043
 40
3.999999
  0
CIRCLE
  8
0
 10
79.016449
 20
2.547043
 40
3.299998
  0
CIRCLE
  8
0
 62
     2
 10
79.016449
 20
92.547043
 40
3.999999
  0
CIRCLE
  8
0
 10
79.016449
 20
92.547043
 40
3.299998
  0
CIRCLE
  8
0
 62
     2
 10
-10.983566
 20
92.547043
 40
3.999999
  0
CIRCLE
  8
0
 10
-10.983566
 20
92.547043
 40
3.299998
  0
ARC
  8
0
 10
-103.762405
 20
89.547043
 40
7.217921
 50
159.735092
 51
200.264771
  0
ARC
  8
0
 10
-103.762405
 20
94.547043
 40
7.217921
 50
159.735092
 51
200.264771
  0
ARC
  8
0
 10
-113.204712
 20
89.547043
 40
7.227317
 50
339.762665
 51
20.237345
  0
ARC
  8
0
 10
-113.204712
 20
94.547043
 40
7.227317
 50
339.762665
 51
20.237345
  0
ARC
  8
0
 10
121.795303
 20
94.547043
 40
7.217926
 50
339.735168
 51
20.264830
  0
ARC
  8
0
 10
121.795303
 20
89.547043
 40
7.217926
 50
339.735168
 51
20.264830
  0
ARC
  8
0
 10
131.237610
 20
94.547043
 40
7.227317
 50
159.762650
 51
200.237350
  0
ARC
  8
0
 10
131.237610
 20
89.547043
 40
7.227317
 50
159.762650
 51
200.237350
  0
POLYLINE
  8
0
 66
     1
  0
VERTEX
  8
0
 10
-11.590256
 20
178.543350
  0
VERTEX
  8
0
 10
-11.731364
 20
177.742966
  0
VERTEX
  8
0
 10
-11.843005
 20
176.937012
  0
VERTEX
  8
0
 10
-11.924092
 20
176.126953
  0
VERTEX
  8
0
 10
-11.973541
 20
175.314285
  0
VERTEX
  8
0
 10
-11.990265
 20
174.500488
  0
VERTEX
  8
0
 10
-11.973541
 20
173.686691
  0
VERTEX
  8
0
 10
-11.924092
 20
172.874023
  0
VERTEX
  8
0
 10
-11.843005
 20
172.063980
  0
VERTEX
  8
0
 10
-11.731364
 20
171.258026
  0
VERTEX
  8
0
 10
-11.590256
 20
170.457642
  0
SEQEND
  0
POLYLINE
  8
0
 66
     1
  0
VERTEX
  8
0
 10
-11.590256
 20
166.414780
  0
VERTEX
  8
0
 10
-11.804814
 20
167.070847
  0
VERTEX
  8
0
 10
-11.941985
 20
167.751480
  0
VERTEX
  8
0
 10
-11.990265
 20
168.443359
  0
VERTEX
  8
0
 10
-11.941984
 20
169.130478
  0
VERTEX
  8
0
 10
-11.804813
 20
169.804764
  0
VERTEX
  8
0
 10
-11.590256
 20
170.457642
  0
SEQEND
  0
POLYLINE
  8
0
 66
     1
  0
VERTEX
  8
0
 10
-11.590256
 20
182.586197
  0
VERTEX
  8
0
 10
-11.804813
 20
181.930130
  0
VERTEX
  8
0
 10
-11.941985
 20
181.249496
  0
VERTEX
  8
0
 10
-11.990265
 20
180.557632
  0
VERTEX
  8
0
 10
-11.941984
 20
179.870514
  0
VERTEX
  8
0
 10
-11.804812
 20
179.196243
  0
VERTEX
  8
0
 10
-11.590256
 20
178.543350
  0
SEQEND
  0
POLYLINE
  8
0
 66
     1
  0
VERTEX
  8
0
 10
79.609741
 20
170.457642
  0
VERTEX
  8
0
 10
79.750847
 20
171.258026
  0
VERTEX
  8
0
 10
79.862488
 20
172.063980
  0
VERTEX
  8
0
 10
79.943565
 20
172.874023
  0
VERTEX
  8
0
 10
79.993011
 20
173.686691
  0
VERTEX
  8
0
 10
80.009735
 20
174.500488
  0
VERTEX
  8
0
 10
79.993011
 20
175.314285
  0
VERTEX
  8
0
 10
79.943565
 20
176.126953
  0
VERTEX
  8
0
 10
79.862488
 20
176.937012
  0
VERTEX
  8
0
 10
79.750847
 20
177.742966
  0
VERTEX
  8
0
 10
79.609741
 20
178.543350
  0
SEQEND
  0
POLYLINE
  8
0
 66
     1
  0
VERTEX
  8
0
 10
79.609741
 20
182.586197
  0
VERTEX
  8
0
 10
79.824295
 20
181.930130
  0
VERTEX
  8
0
 10
79.961456
 20
181.249496
  0
VERTEX
  8
0
 10
80.009735
 20
180.557632
  0
VERTEX
  8
0
 10
79.961456
 20
179.870514
  0
VERTEX
  8
0
 10
79.824295
 20
179.196228
  0
VERTEX
  8
0
 10
79.609741
 20
178.543350
  0
SEQEND
  0
POLYLINE
  8
0
 66
     1
  0
VERTEX
  8
0
 10
79.609741
 20
166.414780
  0
VERTEX
  8
0
 10
79.824295
 20
167.070847
  0
VERTEX
  8
0
 10
79.961456
 20
167.751495
  0
VERTEX
  8
0
 10
80.009735
 20
168.443359
  0
VERTEX
  8
0
 10
79.961456
 20
169.130478
  0
VERTEX
  8
0
 10
79.824295
 20
169.804749
  0
VERTEX
  8
0
 10
79.609741
 20
170.457642
  0
SEQEND
  0
TEXT
  8
0
 62
     3
 10
-24.060728
 20
238.080231
 40
6.300000
  1
STRETCH LINE B
 50
0.000000
 41
1.052632
 51
0.000000
  7
STANDARD
  0
TEXT
  8
0
 62
     3
 10
41.360321
 20
224.446609
 40
6.300000
  1
STRETCH LINE C
 50
0.000000
 41
1.052632
 51
0.000000
  7
STANDARD
  0
TEXT
  8
0
 62
     3
 10
-103.452469
 20
251.616867
 40
6.300000
  1
STRETCH LINE A
 50
0.000000
 41
1.052632
 51
0.000000
  7
STANDARD
  0
TEXT
  8
0
 10
-367.839050
 20
-266.420013
 40
6.300000
  1
C
 50
0.000000
 41
1.052632
 51
0.000000
  7
STANDARD
  0
TEXT
  8
0
 10
-330.339050
 20
-266.420013
 40
6.300000
  1
0
 50
0.000000
 41
1.052632
 51
0.000000
  7
STANDARD
  0
TEXT
  8
0
 10
-305.339050
 20
-266.420013
 40
6.300000
  1
0
 50
0.000000
 41
1.052632
 51
0.000000
  7
STANDARD
  0
TEXT
  8
0
 10
-283.489075
 20
-266.420013
 40
6.300000
  1
25
 50
0.000000
 41
1.052632
 51
0.000000
  7
STANDARD
  0
TEXT
  8
0
 10
-258.489075
 20
-266.420013
 40
6.300000
  1
50
 50
0.000000
 41
1.052632
 51
0.000000
  7
STANDARD
  0
TEXT
  8
0
 10
-262.331604
 20
-205.098251
 40
6.300000
  1
（ｍｍ）
 50
0.000000
 41
0.833333
 51
0.000000
  7
STANDARD
  0
TEXT
  8
0
 10
-367.839050
 20
-246.419998
 40
6.300000
  1
A
 50
0.000000
 41
1.052632
 51
0.000000
  7
STANDARD
  0
TEXT
  8
0
 10
-367.839050
 20
-256.420013
 40
6.300000
  1
B
 50
0.000000
 41
1.052632
 51
0.000000
  7
STANDARD
  0
TEXT
  8
0
 10
-383.589050
 20
-216.419998
 40
6.300000
  1
STROKE
 50
0.000000
 41
1.052632
 51
0.000000
  7
STANDARD
  0
TEXT
  8
0
 10
-388.739075
 20
-224.726242
 40
6.300000
  1
STRETCH
 50
0.000000
 41
1.052632
 51
0.000000
  7
STANDARD
  0
TEXT
  8
0
 10
-388.739075
 20
-234.963745
 40
6.300000
  1
  PLACE
 50
0.000000
 41
1.052632
 51
0.000000
  7
STANDARD
  0
TEXT
  8
0
 10
-333.489075
 20
-226.419998
 40
6.300000
  1
50
 50
0.000000
 41
1.052632
 51
0.000000
  7
STANDARD
  0
TEXT
  8
0
 10
-330.339050
 20
-246.419998
 40
6.300000
  1
0
 50
0.000000
 41
1.052632
 51
0.000000
  7
STANDARD
  0
TEXT
  8
0
 10
-330.339050
 20
-256.420013
 40
6.300000
  1
0
 50
0.000000
 41
1.052632
 51
0.000000
  7
STANDARD
  0
TEXT
  8
0
 10
-311.639069
 20
-226.419998
 40
6.300000
  1
100
 50
0.000000
 41
1.052632
 51
0.000000
  7
STANDARD
  0
TEXT
  8
0
 10
-308.489075
 20
-246.419998
 40
6.300000
  1
50
 50
0.000000
 41
1.052632
 51
0.000000
  7
STANDARD
  0
TEXT
  8
0
 10
-305.339050
 20
-256.420013
 40
6.300000
  1
0
 50
0.000000
 41
1.052632
 51
0.000000
  7
STANDARD
  0
TEXT
  8
0
 10
-286.639069
 20
-226.419998
 40
6.300000
  1
150
 50
0.000000
 41
1.052632
 51
0.000000
  7
STANDARD
  0
TEXT
  8
0
 10
-286.639069
 20
-246.419998
 40
6.300000
  1
100
 50
0.000000
 41
1.052632
 51
0.000000
  7
STANDARD
  0
TEXT
  8
0
 10
-283.489075
 20
-256.420013
 40
6.300000
  1
25
 50
0.000000
 41
1.052632
 51
0.000000
  7
STANDARD
  0
TEXT
  8
0
 10
-261.639069
 20
-226.419998
 40
6.300000
  1
200
 50
0.000000
 41
1.052632
 51
0.000000
  7
STANDARD
  0
TEXT
  8
0
 10
-261.639069
 20
-246.419998
 40
6.300000
  1
150
 50
0.000000
 41
1.052632
 51
0.000000
  7
STANDARD
  0
TEXT
  8
0
 10
-258.489075
 20
-256.420013
 40
6.300000
  1
50
 50
0.000000
 41
1.052632
 51
0.000000
  7
STANDARD
  0
TEXT
  8
0
 10
-356.082825
 20
-205.098251
 40
6.300000
  1
STRETCH LIST
 50
0.000000
 41
1.052632
 51
0.000000
  7
STANDARD
  0
TEXT
  8
0
 10
-364.245453
 20
256.649994
 40
9.000000
  1
SLIDE TABLE
 50
0.000000
 41
0.937799
 51
0.000000
  7
STANDARD
  0
TEXT
  8
0
 10
242.014633
 20
-274.500000
 40
12.500000
  1
KOGANEI CORP.
 50
0.000000
 41
1.052632
 51
0.000000
  7
STANDARD
  0
TEXT
  8
0
 10
282.764496
 20
256.649994
 40
9.000000
  1
Ｖｅｒ．　１．０
 50
0.000000
 41
0.833333
 51
0.000000
  7
STANDARD
  0
TEXT
  8
0
 10
-384.785309
 20
224.149994
 40
9.000000
  1
MODEL:AWT20*ST(50)
 50
0.000000
 41
1.052632
 51
0.000000
  7
STANDARD
  0
ENDSEC
  0
EOF
