  0
SECTION
  2
HEADER
  0
ENDSEC
  0
SECTION
  2
TABLES
  0
TABLE
  2
LTYPE
 70
     4
  0
LTYPE
  2
CONTINUOUS
 70
    64
  3
Solid line
 72
    65
 73
     0
 40
0.000000
  0
LTYPE
  2
DASHED
 70
    64
  3
__ __ __ __ __ __ __ __ __ __ __ __ __ __ __
 72
    65
 73
     2
 40
3.500000
 49
2.000000
 49
-1.500000
  0
LTYPE
  2
CENTER
 70
    64
  3
____ _ ____ _ ____ _ ____ _ ____ _ ____ _ ____
 72
    65
 73
     4
 40
17.500000
 49
13.000000
 49
-1.500000
 49
1.500000
 49
-1.500000
  0
LTYPE
  2
PHANTOM
 70
    64
  3
_____ _ _ _____ _ _ _____ _ _ _____ _ _ ____  
 72
    65
 73
     6
 40
15.500000
 49
8.000000
 49
-1.500000
 49
1.500000
 49
-1.500000
 49
1.500000
 49
-1.500000
  0
LTYPE
  2
DASHED1
 70
    64
  3
__ __ __ __ __ __ __ __ __ __ __ __ __ __ __
 72
    65
 73
     2
 40
1.500000
 49
1.000000
 49
-0.500000
  0
LTYPE
  2
DASHED2
 70
    64
  3
__ __ __ __ __ __ __ __ __ __ __ __ __ __ __
 72
    65
 73
     2
 40
3.500000
 49
2.500000
 49
-1.000000
  0
LTYPE
  2
DASHED3
 70
    64
  3
__ __ __ __ __ __ __ __ __ __ __ __ __ __ __
 72
    65
 73
     2
 40
6.000000
 49
4.000000
 49
-2.000000
  0
LTYPE
  2
DASHED4
 70
    64
  3
__ __ __ __ __ __ __ __ __ __ __ __ __ __ __
 72
    65
 73
     2
 40
12.000000
 49
10.000000
 49
-2.000000
  0
LTYPE
  2
DASHED5
 70
    64
  3
__ __ __ __ __ __ __ __ __ __ __ __ __ __ __
 72
    65
 73
     2
 40
17.000000
 49
15.000000
 49
-2.000000
  0
LTYPE
  2
DASHED6
 70
    64
  3
__ __ __ __ __ __ __ __ __ __ __ __ __ __ __
 72
    65
 73
     2
 40
29.000000
 49
27.000000
 49
-2.000000
  0
LTYPE
  2
PHANTOM1
 70
    64
  3
_____ _ _ _____ _ _ _____ _ _ _____ _ _ ____  
 72
    65
 73
     6
 40
31.000000
 49
25.000000
 49
-1.500000
 49
1.000000
 49
-1.000000
 49
1.000000
 49
-1.500000
  0
LTYPE
  2
PHANTOM2
 70
    64
  3
_____ _ _ _____ _ _ _____ _ _ _____ _ _ ____  
 72
    65
 73
     6
 40
36.000000
 49
27.000000
 49
-1.500000
 49
2.500000
 49
-1.000000
 49
2.500000
 49
-1.500000
  0
LTYPE
  2
PHANTOM3
 70
    64
  3
_____ _ _ _____ _ _ _____ _ _ _____ _ _ ____  
 72
    65
 73
     6
 40
78.000000
 49
64.000000
 49
-2.000000
 49
4.000000
 49
-2.000000
 49
4.000000
 49
-2.000000
  0
LTYPE
  2
CENTER1
 70
    64
  3
____ _ ____ _ ____ _ ____ _ ____ _ ____ _ ____
 72
    65
 73
     4
 40
19.000000
 49
14.000000
 49
-1.000000
 49
3.000000
 49
-1.000000
  0
LTYPE
  2
CENTER2
 70
    64
  3
____ _ ____ _ ____ _ ____ _ ____ _ ____ _ ____
 72
    65
 73
     4
 40
28.500000
 49
25.000000
 49
-1.000000
 49
1.500000
 49
-1.000000
  0
LTYPE
  2
CENTER3
 70
    64
  3
____ _ ____ _ ____ _ ____ _ ____ _ ____ _ ____
 72
    65
 73
     4
 40
31.500000
 49
27.000000
 49
-1.000000
 49
2.500000
 49
-1.000000
  0
LTYPE
  2
CENTER4
 70
    64
  3
____ _ ____ _ ____ _ ____ _ ____ _ ____ _ ____
 72
    65
 73
     4
 40
50.000000
 49
45.000000
 49
-1.000000
 49
3.000000
 49
-1.000000
  0
LTYPE
  2
CENTER5
 70
    64
  3
____ _ ____ _ ____ _ ____ _ ____ _ ____ _ ____
 72
    65
 73
     4
 40
100.000000
 49
92.000000
 49
-2.000000
 49
4.000000
 49
-2.000000
  0
LTYPE
  2
SBK1
 70
    64
  3
______ _ _ _ ______ _ _ _ ______ _ _ _ _____  
 72
    65
 73
     8
 40
60.500000
 49
45.000000
 49
-2.000000
 49
2.500000
 49
-2.000000
 49
2.500000
 49
-2.000000
 49
2.500000
 49
-2.000000
  0
LTYPE
  2
SBK2
 70
    64
  3
______ _ _ _ ______ _ _ _ ______ _ _ _ _____  
 72
    65
 73
     8
 40
84.000000
 49
64.000000
 49
-2.000000
 49
4.000000
 49
-2.000000
 49
4.000000
 49
-2.000000
 49
4.000000
 49
-2.000000
  0
LTYPE
  2
STCH
 70
    64
  3
__ __ __ __ __ __ __ __ __ __ __ __ __ __ __
 72
    65
 73
     2
 40
3.000000
 49
1.000000
 49
-2.000000
  0
LTYPE
  2
MTCH
 70
    64
  3
_____ _ _ _____ _ _ _____ _ _ _____ _ _ ____  
 72
    65
 73
     6
 40
80.000000
 49
66.000000
 49
-2.000000
 49
4.000000
 49
-2.000000
 49
4.000000
 49
-2.000000
  0
ENDTAB
  0
TABLE
  2
LAYER
 70
     1
  0
LAYER
  2
0
 70
     0
 62
     7
  6
CONTINUOUS
  0
ENDTAB
  0
TABLE
  2
STYLE
 70
     1
  0
STYLE
  2
STANDARD
 70
     0
 40
0.000000
 41
1.000000
 50
0.000000
 71
     0
 42
0.200000
  3
txt
  4
BIGFONT
  0
ENDTAB
  0
TABLE
  2
VIEW
 70
     0
  0
ENDTAB
  0
ENDSEC
  0
SECTION
  2
BLOCKS
  0
ENDSEC
  0
SECTION
  2
ENTITIES
  0
LINE
  8
0
 10
-615.439636
 20
260.602478
 11
-604.439636
 21
260.602478
  0
LINE
  8
0
 10
-615.439514
 20
324.602478
 11
-604.439514
 21
324.602478
  0
LINE
  8
0
 10
-604.439575
 20
324.602509
 11
-604.439575
 21
260.602478
  0
LINE
  8
0
 10
-615.439270
 20
324.602478
 11
-615.439270
 21
260.602539
  0
LINE
  8
0
  6
CENTER
 62
     2
 10
-609.439575
 20
290.602509
 11
-609.439575
 21
275.602509
  0
LINE
  8
0
  6
CENTER
 62
     2
 10
-616.939575
 20
283.102478
 11
-601.939575
 21
283.102478
  0
LINE
  8
0
  6
CENTER
 62
     2
 10
-616.939575
 20
302.102478
 11
-601.939575
 21
302.102478
  0
LINE
  8
0
  6
CENTER
 62
     2
 10
-609.439575
 20
309.602509
 11
-609.439575
 21
294.602509
  0
LINE
  8
0
 10
-421.811829
 20
324.502472
 11
-421.811829
 21
260.502472
  0
LINE
  8
0
 10
-421.811523
 20
324.502472
 11
-396.811523
 21
324.502472
  0
LINE
  8
0
 10
-396.811829
 20
324.502472
 11
-396.811829
 21
260.502472
  0
LINE
  8
0
 10
-421.811523
 20
260.502472
 11
-396.811523
 21
260.502472
  0
LINE
  8
0
 10
-615.439331
 20
99.909431
 11
-615.439331
 21
74.909492
  0
LINE
  8
0
 10
-615.439270
 20
99.909431
 11
-604.439453
 21
99.909431
  0
LINE
  8
0
 10
-604.439270
 20
99.909554
 11
-604.439270
 21
74.909554
  0
LINE
  8
0
 10
-615.439026
 20
74.909431
 11
-604.439209
 21
74.909431
  0
LINE
  8
0
 10
-615.439636
 20
-180.786392
 11
-615.439636
 21
-254.786392
  0
LINE
  8
0
 10
-626.439392
 20
-180.786392
 11
-626.439392
 21
-254.786392
  0
LINE
  8
0
  6
CENTER
 62
     2
 10
-627.939636
 20
-207.286392
 11
-612.939636
 21
-207.286392
  0
LINE
  8
0
  6
CENTER
 62
     2
 10
-620.439636
 20
-199.786392
 11
-620.439636
 21
-214.786392
  0
LINE
  8
0
 10
-626.439636
 20
-180.786392
 11
-615.439636
 21
-180.786392
  0
LINE
  8
0
 10
-626.439636
 20
-254.786392
 11
-615.439636
 21
-254.786392
  0
LINE
  8
0
  6
CENTER
 62
     2
 10
-620.439636
 20
-220.786392
 11
-620.439636
 21
-235.786392
  0
LINE
  8
0
  6
CENTER
 62
     2
 10
-627.939636
 20
-228.286392
 11
-612.939636
 21
-228.286392
  0
LINE
  8
0
 10
-399.564423
 20
-180.786407
 11
-399.564423
 21
-254.786407
  0
LINE
  8
0
 10
-428.563904
 20
-180.786407
 11
-399.563904
 21
-180.786407
  0
LINE
  8
0
 10
-428.564026
 20
-180.786407
 11
-428.564026
 21
-254.786407
  0
LINE
  8
0
 10
-428.563904
 20
-254.786407
 11
-399.563904
 21
-254.786407
  0
LINE
  8
0
 10
-626.439331
 20
-428.080170
 11
-626.439331
 21
-457.080170
  0
LINE
  8
0
 10
-626.439514
 20
-428.080170
 11
-615.439758
 21
-428.080170
  0
LINE
  8
0
 10
-615.439636
 20
-428.080109
 11
-615.439636
 21
-457.080109
  0
LINE
  8
0
 10
-626.439270
 20
-457.080170
 11
-615.439514
 21
-457.080170
  0
LINE
  8
0
  6
CENTER
 62
     2
 10
-106.990112
 20
279.129761
 11
-91.990112
 21
279.129761
  0
LINE
  8
0
  6
CENTER
 62
     2
 10
-99.490082
 20
286.629761
 11
-99.490082
 21
271.629761
  0
LINE
  8
0
  6
CENTER
 62
     2
 10
-99.490082
 20
311.629761
 11
-99.490082
 21
296.629761
  0
LINE
  8
0
  6
CENTER
 62
     2
 10
-106.990051
 20
304.129761
 11
-91.990051
 21
304.129761
  0
LINE
  8
0
 10
-105.989960
 20
333.629761
 11
-105.989960
 21
249.629776
  0
LINE
  8
0
 10
-105.989960
 20
333.629761
 11
-93.990082
 21
333.629761
  0
LINE
  8
0
 10
-93.990082
 20
333.629761
 11
-93.990082
 21
249.629776
  0
LINE
  8
0
 10
-105.989960
 20
249.629776
 11
-93.990082
 21
249.629776
  0
LINE
  8
0
 10
98.904648
 20
249.629776
 11
98.904648
 21
333.629791
  0
LINE
  8
0
 10
98.904602
 20
333.629791
 11
132.904663
 21
333.629791
  0
LINE
  8
0
 10
132.904709
 20
333.629791
 11
132.904709
 21
249.629776
  0
LINE
  8
0
 10
98.904602
 20
249.629776
 11
132.904663
 21
249.629776
  0
LINE
  8
0
 10
-93.990082
 20
116.562996
 11
-105.989960
 21
116.562996
  0
LINE
  8
0
 10
-105.989960
 20
116.562996
 11
-105.989960
 21
82.562996
  0
LINE
  8
0
 10
-93.990082
 20
116.562996
 11
-93.990082
 21
82.562996
  0
LINE
  8
0
 10
-93.990082
 20
82.562996
 11
-105.989960
 21
82.562996
  0
LINE
  8
0
 10
-85.990112
 20
-274.786438
 11
-85.990112
 21
-170.786484
  0
LINE
  8
0
 10
-99.989655
 20
-170.786362
 11
-85.989655
 21
-170.786362
  0
LINE
  8
0
 10
-99.989960
 20
-274.786316
 11
-99.989960
 21
-170.786331
  0
LINE
  8
0
 10
-99.990570
 20
-274.786316
 11
-85.990570
 21
-274.786316
  0
LINE
  8
0
  6
CENTER
 62
     2
 10
-99.990234
 20
-237.286362
 11
-84.990234
 21
-237.286362
  0
LINE
  8
0
  6
CENTER
 62
     2
 10
-92.490112
 20
-229.786423
 11
-92.490112
 21
-244.786423
  0
LINE
  8
0
  6
CENTER
 62
     2
 10
-92.490112
 20
-200.786423
 11
-92.490112
 21
-215.786423
  0
LINE
  8
0
  6
CENTER
 62
     2
 10
-99.989990
 20
-208.286362
 11
-84.989990
 21
-208.286362
  0
LINE
  8
0
 10
101.339478
 20
-170.786514
 11
142.339478
 21
-170.786514
  0
LINE
  8
0
 10
101.339279
 20
-170.786514
 11
101.339279
 21
-274.786377
  0
LINE
  8
0
 10
142.339279
 20
-170.786514
 11
142.339279
 21
-274.786377
  0
LINE
  8
0
 10
101.339478
 20
-274.786377
 11
142.339478
 21
-274.786377
  0
LINE
  8
0
 10
-99.989655
 20
-427.079987
 11
-85.989777
 21
-427.079987
  0
LINE
  8
0
 10
-99.989990
 20
-468.079987
 11
-99.989990
 21
-427.079987
  0
LINE
  8
0
 10
-85.990173
 20
-468.080231
 11
-85.990173
 21
-427.080231
  0
LINE
  8
0
 10
-99.990356
 20
-468.079987
 11
-85.990479
 21
-468.079987
  0
LINE
  8
0
 10
427.115906
 20
97.281998
 11
427.115906
 21
221.282013
  0
LINE
  8
0
 10
427.115967
 20
97.281967
 11
444.115967
 21
97.281967
  0
LINE
  8
0
 10
444.115967
 20
97.281998
 11
444.115967
 21
221.281982
  0
LINE
  8
0
 10
427.115845
 20
221.281982
 11
444.115845
 21
221.281982
  0
LINE
  8
0
  6
CENTER
 62
     2
 10
426.115906
 20
177.781967
 11
446.115906
 21
177.781967
  0
LINE
  8
0
  6
CENTER
 62
     2
 10
436.115967
 20
187.781982
 11
436.115967
 21
167.781982
  0
LINE
  8
0
  6
CENTER
 62
     2
 10
436.115967
 20
150.781982
 11
436.115967
 21
130.781982
  0
LINE
  8
0
  6
CENTER
 62
     2
 10
426.115967
 20
140.781967
 11
446.115967
 21
140.781967
  0
LINE
  8
0
 10
625.314697
 20
221.282242
 11
625.314697
 21
97.282227
  0
LINE
  8
0
 10
625.314697
 20
221.282242
 11
674.314697
 21
221.282242
  0
LINE
  8
0
 10
674.314697
 20
221.282242
 11
674.314697
 21
97.282227
  0
LINE
  8
0
 10
625.314697
 20
97.282227
 11
674.314697
 21
97.282227
  0
LINE
  8
0
 10
427.115906
 20
-64.516197
 11
427.115906
 21
-113.516205
  0
LINE
  8
0
 10
427.115906
 20
-64.516228
 11
444.115845
 21
-64.516228
  0
LINE
  8
0
 10
444.115723
 20
-113.516266
 11
444.115723
 21
-64.516258
  0
LINE
  8
0
 10
427.115784
 20
-113.516266
 11
444.115723
 21
-113.516266
  0
LINE
  8
0
 10
-820.500000
 20
-574.500000
 11
-820.500000
 21
574.500000
  0
LINE
  8
0
 10
820.500000
 20
-574.500000
 11
820.500000
 21
574.500000
  0
LINE
  8
0
 10
-820.500000
 20
574.500000
 11
820.500000
 21
574.500000
  0
LINE
  8
0
 10
-820.500000
 20
-574.500000
 11
820.500000
 21
-574.500000
  0
LINE
  8
0
 10
470.500000
 20
-574.500000
 11
470.500000
 21
-524.500000
  0
LINE
  8
0
 10
-470.500000
 20
524.500000
 11
-470.500000
 21
574.500000
  0
LINE
  8
0
 10
-820.500000
 20
524.500000
 11
-470.500000
 21
524.500000
  0
LINE
  8
0
 10
470.500000
 20
524.500000
 11
820.500000
 21
524.500000
  0
LINE
  8
0
 10
470.500000
 20
-524.500000
 11
820.500000
 21
-524.500000
  0
LINE
  8
0
 10
470.500000
 20
524.500000
 11
470.500000
 21
574.500000
  0
LINE
  8
0
 10
-820.500000
 20
0.000000
 11
273.500000
 21
0.000000
  0
LINE
  8
0
  6
PHANTOM
 62
     1
 10
-615.439270
 20
343.602539
 11
-615.439270
 21
324.602478
  0
LINE
  8
0
  6
PHANTOM
 62
     1
 10
-626.439270
 20
343.602539
 11
-626.439270
 21
324.602539
  0
LINE
  8
0
  6
CENTER
 62
     2
 10
-664.342224
 20
292.602539
 11
-550.439270
 21
292.602539
  0
LINE
  8
0
  6
PHANTOM
 62
     2
 10
-626.439270
 20
324.602539
 11
-615.439270
 21
324.602539
  0
LINE
  8
0
  6
PHANTOM
 62
     2
 10
-626.439270
 20
260.602539
 11
-615.439270
 21
260.602539
  0
LINE
  8
0
  6
PHANTOM
 62
     2
 10
-659.435669
 20
260.802551
 11
-626.439270
 21
260.802551
  0
LINE
  8
0
  6
PHANTOM
 62
     2
 10
-659.435669
 20
324.402588
 11
-626.439270
 21
324.402588
  0
LINE
  8
0
  6
PHANTOM
 62
     1
 10
-659.435669
 20
343.402588
 11
-626.439270
 21
343.402588
  0
LINE
  8
0
  6
PHANTOM
 62
     1
 10
-626.439270
 20
343.602539
 11
-615.439270
 21
343.602539
  0
LINE
  8
0
  6
CENTER
 62
     1
 10
-663.651489
 20
332.102539
 11
-611.084351
 21
332.102539
  0
LINE
  8
0
  6
PHANTOM
 62
     1
 10
-614.439270
 20
337.102600
 11
-614.439270
 21
327.102539
  0
LINE
  8
0
  6
PHANTOM
 62
     1
 10
-615.440613
 20
326.103729
 11
-614.440613
 21
327.103729
  0
LINE
  8
0
  6
PHANTOM
 62
     1
 10
-615.439270
 20
327.102539
 11
-614.439270
 21
327.102539
  0
LINE
  8
0
  6
CENTER
 62
     2
 10
-664.342224
 20
85.909485
 11
-550.439270
 21
85.909485
  0
LINE
  8
0
  6
PHANTOM
 62
     2
 10
-626.439270
 20
74.909485
 11
-615.439270
 21
74.909485
  0
LINE
  8
0
  6
PHANTOM
 62
     2
 10
-659.435669
 20
75.109497
 11
-626.439270
 21
75.109497
  0
LINE
  8
0
  6
PHANTOM
 62
     2
 10
-615.439270
 20
101.909500
 11
-615.439270
 21
99.909424
  0
LINE
  8
0
  6
PHANTOM
 62
     2
 10
-659.435669
 20
99.709488
 11
-626.439270
 21
99.709488
  0
LINE
  8
0
  6
PHANTOM
 62
     2
 10
-659.435669
 20
101.709488
 11
-626.439270
 21
101.709488
  0
LINE
  8
0
  6
PHANTOM
 62
     2
 10
-626.439270
 20
101.909500
 11
-615.439270
 21
101.909500
  0
LINE
  8
0
  6
PHANTOM
 62
     2
 10
-626.439270
 20
99.909500
 11
-615.439270
 21
99.909500
  0
LINE
  8
0
  6
PHANTOM
 62
     2
 10
-421.811584
 20
304.400787
 11
-423.810760
 21
302.401642
  0
LINE
  8
0
  6
PHANTOM
 62
     2
 10
-423.811737
 20
302.402557
 11
-423.811737
 21
282.602539
  0
LINE
  8
0
  6
PHANTOM
 62
     2
 10
-423.811615
 20
282.602722
 11
-421.811798
 21
280.602875
  0
LINE
  8
0
  6
PHANTOM
 62
     1
 10
-421.811523
 20
343.502563
 11
-396.811523
 21
343.502563
  0
LINE
  8
0
  6
PHANTOM
 62
     1
 10
-421.811523
 20
324.502472
 11
-421.811523
 21
343.502563
  0
LINE
  8
0
  6
PHANTOM
 62
     1
 10
-396.811523
 20
343.502563
 11
-396.811523
 21
324.502472
  0
LINE
  8
0
  6
CENTER
 62
     1
 10
-415.770142
 20
332.002563
 11
-401.881714
 21
332.002563
  0
LINE
  8
0
  6
CENTER
 62
     1
 10
-409.111511
 20
339.084106
 11
-409.111511
 21
325.009094
  0
LINE
  8
0
  6
PHANTOM
 62
     1
 10
-626.439270
 20
-159.786346
 11
-626.439270
 21
-180.786346
  0
LINE
  8
0
  6
PHANTOM
 62
     1
 10
-637.439270
 20
-159.786346
 11
-637.439270
 21
-180.786346
  0
LINE
  8
0
  6
PHANTOM
 62
     2
 10
-670.435669
 20
-180.986328
 11
-637.439270
 21
-180.986328
  0
LINE
  8
0
  6
PHANTOM
 62
     2
 10
-670.435669
 20
-254.586334
 11
-637.439270
 21
-254.586334
  0
LINE
  8
0
  6
PHANTOM
 62
     2
 10
-637.439270
 20
-180.786346
 11
-626.439270
 21
-180.786346
  0
LINE
  8
0
  6
PHANTOM
 62
     2
 10
-637.439270
 20
-254.786346
 11
-626.439270
 21
-254.786346
  0
LINE
  8
0
  6
CENTER
 62
     2
 10
-680.719543
 20
-217.786346
 11
-556.257813
 21
-217.786346
  0
LINE
  8
0
  6
PHANTOM
 62
     1
 10
-670.435669
 20
-159.986328
 11
-637.439270
 21
-159.986328
  0
LINE
  8
0
  6
PHANTOM
 62
     1
 10
-637.439270
 20
-159.786346
 11
-626.439270
 21
-159.786346
  0
LINE
  8
0
  6
CENTER
 62
     1
 10
-670.435669
 20
-172.786346
 11
-614.310974
 21
-172.786346
  0
LINE
  8
0
  6
PHANTOM
 62
     1
 10
-618.439270
 20
-166.786346
 11
-618.439270
 21
-178.786346
  0
LINE
  8
0
  6
PHANTOM
 62
     1
 10
-626.439270
 20
-165.786346
 11
-619.439270
 21
-165.786346
  0
LINE
  8
0
  6
PHANTOM
 62
     1
 10
-626.439270
 20
-179.786346
 11
-619.439270
 21
-179.786346
  0
LINE
  8
0
  6
PHANTOM
 62
     1
 10
-626.439270
 20
-166.786346
 11
-618.439270
 21
-166.786346
  0
LINE
  8
0
  6
PHANTOM
 62
     1
 10
-626.439270
 20
-178.786346
 11
-618.439270
 21
-178.786346
  0
LINE
  8
0
  6
PHANTOM
 62
     1
 10
-619.438782
 20
-165.785706
 11
-618.438782
 21
-166.785706
  0
LINE
  8
0
  6
PHANTOM
 62
     1
 10
-618.439087
 20
-178.786575
 11
-619.439026
 21
-179.786545
  0
LINE
  8
0
  6
PHANTOM
 62
     1
 10
-619.439270
 20
-179.786346
 11
-619.439270
 21
-165.786346
  0
LINE
  8
0
  6
CENTER
 62
     2
 10
-160.676361
 20
-222.786346
 11
-16.686279
 21
-222.786346
  0
LINE
  8
0
  6
PHANTOM
 62
     2
 10
-115.989929
 20
-170.786346
 11
-99.989929
 21
-170.786346
  0
LINE
  8
0
  6
PHANTOM
 62
     2
 10
-151.986511
 20
-170.986328
 11
-115.989929
 21
-170.986328
  0
LINE
  8
0
  6
PHANTOM
 62
     2
 10
-115.989929
 20
-274.786346
 11
-115.989929
 21
-170.786346
  0
LINE
  8
0
  6
PHANTOM
 62
     2
 10
-115.989929
 20
-274.786346
 11
-99.989929
 21
-274.786346
  0
LINE
  8
0
  6
PHANTOM
 62
     2
 10
-151.986511
 20
-274.586334
 11
-115.989929
 21
-274.586334
  0
LINE
  8
0
  6
PHANTOM
 62
     1
 10
-151.986511
 20
-141.986328
 11
-115.989929
 21
-141.986328
  0
LINE
  8
0
  6
PHANTOM
 62
     1
 10
-115.989929
 20
-141.786346
 11
-99.989929
 21
-141.786346
  0
LINE
  8
0
  6
PHANTOM
 62
     1
 10
-99.989929
 20
-168.786346
 11
-86.989929
 21
-168.786346
  0
LINE
  8
0
  6
PHANTOM
 62
     1
 10
-99.989929
 20
-148.786346
 11
-86.989929
 21
-148.786346
  0
LINE
  8
0
  6
PHANTOM
 62
     1
 10
-99.989929
 20
-167.786346
 11
-85.989929
 21
-167.786346
  0
LINE
  8
0
  6
PHANTOM
 62
     1
 10
-99.989929
 20
-149.786346
 11
-85.989929
 21
-149.786346
  0
LINE
  8
0
  6
PHANTOM
 62
     1
 10
-85.989929
 20
-167.786346
 11
-85.989929
 21
-149.786346
  0
LINE
  8
0
  6
PHANTOM
 62
     1
 10
-86.989845
 20
-148.786255
 11
-85.989876
 21
-149.786240
  0
LINE
  8
0
  6
PHANTOM
 62
     1
 10
-86.989929
 20
-168.786346
 11
-86.989929
 21
-148.786346
  0
LINE
  8
0
  6
PHANTOM
 62
     1
 10
411.115906
 20
252.281967
 11
411.115906
 21
221.281967
  0
LINE
  8
0
  6
PHANTOM
 62
     2
 10
411.115906
 20
221.281967
 11
427.115906
 21
221.281967
  0
LINE
  8
0
  6
PHANTOM
 62
     2
 10
371.115906
 20
221.081955
 11
411.115906
 21
221.081955
  0
LINE
  8
0
  6
CENTER
 62
     2
 10
357.484009
 20
159.281952
 11
523.496094
 21
159.281952
  0
LINE
  8
0
  6
PHANTOM
 62
     2
 10
411.115906
 20
97.281952
 11
427.115906
 21
97.281952
  0
LINE
  8
0
  6
PHANTOM
 62
     2
 10
371.115906
 20
97.481949
 11
411.115906
 21
97.481949
  0
LINE
  8
0
  6
PHANTOM
 62
     1
 10
371.115906
 20
252.081955
 11
411.115906
 21
252.081955
  0
LINE
  8
0
  6
PHANTOM
 62
     1
 10
411.115906
 20
252.281967
 11
427.115906
 21
252.281967
  0
LINE
  8
0
  6
CENTER
 62
     1
 10
368.940186
 20
234.281967
 11
455.031494
 21
234.281967
  0
LINE
  8
0
  6
PHANTOM
 62
     1
 10
427.115906
 20
223.281967
 11
443.115906
 21
223.281967
  0
LINE
  8
0
  6
PHANTOM
 62
     1
 10
427.115906
 20
245.281967
 11
443.115906
 21
245.281967
  0
LINE
  8
0
  6
PHANTOM
 62
     1
 10
427.115906
 20
224.281967
 11
444.115906
 21
224.281967
  0
LINE
  8
0
  6
PHANTOM
 62
     1
 10
427.115906
 20
244.281967
 11
444.115906
 21
244.281967
  0
LINE
  8
0
  6
PHANTOM
 62
     1
 10
444.115906
 20
244.281967
 11
444.115906
 21
224.281967
  0
LINE
  8
0
  6
PHANTOM
 62
     1
 10
443.113708
 20
245.279953
 11
444.113739
 21
244.279938
  0
LINE
  8
0
  6
PHANTOM
 62
     1
 10
444.115753
 20
224.282242
 11
443.115753
 21
223.282288
  0
LINE
  8
0
  6
PHANTOM
 62
     1
 10
443.115906
 20
223.281967
 11
443.115906
 21
245.281967
  0
LINE
  8
0
  6
CENTER
 62
     2
 10
-680.719543
 20
-444.080109
 11
-557.086731
 21
-444.080109
  0
LINE
  8
0
  6
PHANTOM
 62
     2
 10
-637.439270
 20
-426.080109
 11
-637.439270
 21
-457.080109
  0
LINE
  8
0
  6
PHANTOM
 62
     2
 10
-626.439270
 20
-426.080109
 11
-626.439270
 21
-428.080109
  0
LINE
  8
0
  6
PHANTOM
 62
     2
 10
-670.435669
 20
-428.280121
 11
-637.439270
 21
-428.280121
  0
LINE
  8
0
  6
PHANTOM
 62
     2
 10
-670.435669
 20
-456.880096
 11
-637.439270
 21
-456.880096
  0
LINE
  8
0
  6
PHANTOM
 62
     2
 10
-637.439270
 20
-457.080109
 11
-626.439270
 21
-457.080109
  0
LINE
  8
0
  6
PHANTOM
 62
     2
 10
-637.439270
 20
-428.080109
 11
-626.439270
 21
-428.080109
  0
LINE
  8
0
  6
PHANTOM
 62
     2
 10
-670.435669
 20
-426.280121
 11
-637.439270
 21
-426.280121
  0
LINE
  8
0
  6
PHANTOM
 62
     2
 10
-637.439270
 20
-426.080109
 11
-626.439270
 21
-426.080109
  0
LINE
  8
0
  6
CENTER
 62
     2
 10
-432.676819
 20
-217.786346
 11
-397.010437
 21
-217.786346
  0
LINE
  8
0
  6
CENTER
 62
     2
 10
-412.563904
 20
-178.734009
 11
-412.563904
 21
-257.572906
  0
LINE
  8
0
  6
PHANTOM
 62
     2
 10
-430.564148
 20
-207.786224
 11
-428.564178
 21
-205.786240
  0
LINE
  8
0
  6
PHANTOM
 62
     2
 10
-430.564789
 20
-227.787155
 11
-428.564758
 21
-229.787155
  0
LINE
  8
0
  6
PHANTOM
 62
     2
 10
-430.563904
 20
-227.786346
 11
-430.563904
 21
-207.786346
  0
LINE
  8
0
  6
PHANTOM
 62
     1
 10
-428.563904
 20
-159.786346
 11
-399.563904
 21
-159.786346
  0
LINE
  8
0
  6
PHANTOM
 62
     1
 10
-428.563904
 20
-159.786346
 11
-428.563904
 21
-180.786407
  0
LINE
  8
0
  6
PHANTOM
 62
     1
 10
-399.563904
 20
-180.786407
 11
-399.563904
 21
-159.786346
  0
LINE
  8
0
  6
CENTER
 62
     1
 10
-422.481720
 20
-172.786346
 11
-405.193939
 21
-172.786346
  0
LINE
  8
0
  6
CENTER
 62
     2
 10
95.552612
 20
-222.786346
 11
145.924438
 21
-222.786346
  0
LINE
  8
0
  6
CENTER
 62
     2
 10
123.339233
 20
-167.040131
 11
123.339233
 21
-282.173309
  0
LINE
  8
0
  6
PHANTOM
 62
     2
 10
99.339233
 20
-212.786407
 11
99.339233
 21
-232.786713
  0
LINE
  8
0
  6
PHANTOM
 62
     2
 10
99.339783
 20
-212.786957
 11
101.339775
 21
-210.786957
  0
LINE
  8
0
  6
PHANTOM
 62
     2
 10
99.339211
 20
-232.786575
 11
101.339264
 21
-234.786606
  0
LINE
  8
0
  6
PHANTOM
 62
     1
 10
101.339478
 20
-141.786346
 11
142.339478
 21
-141.786346
  0
LINE
  8
0
  6
PHANTOM
 62
     1
 10
142.339478
 20
-141.786346
 11
142.339478
 21
-170.786514
  0
LINE
  8
0
  6
PHANTOM
 62
     1
 10
101.339478
 20
-141.786346
 11
101.339478
 21
-170.786514
  0
LINE
  8
0
  6
CENTER
 62
     1
 10
-160.306641
 20
-158.786346
 11
-79.129944
 21
-158.786346
  0
LINE
  8
0
  6
CENTER
 62
     1
 10
122.039490
 20
-147.101715
 11
122.039490
 21
-170.364838
  0
LINE
  8
0
  6
PHANTOM
 62
     2
 10
-115.989929
 20
-425.080048
 11
-115.989929
 21
-468.080048
  0
LINE
  8
0
  6
CENTER
 62
     2
 10
-163.987946
 20
-449.080109
 11
-10.441956
 21
-449.080109
  0
LINE
  8
0
  6
PHANTOM
 62
     2
 10
-151.986511
 20
-427.280060
 11
-115.989929
 21
-427.280060
  0
LINE
  8
0
  6
PHANTOM
 62
     2
 10
-115.989929
 20
-427.080109
 11
-99.989929
 21
-427.080109
  0
LINE
  8
0
  6
PHANTOM
 62
     2
 10
-151.986511
 20
-425.280060
 11
-115.989929
 21
-425.280060
  0
LINE
  8
0
  6
PHANTOM
 62
     2
 10
-115.989929
 20
-425.080109
 11
-99.989929
 21
-425.080109
  0
LINE
  8
0
  6
PHANTOM
 62
     2
 10
623.314697
 20
169.081955
 11
623.314697
 21
149.481949
  0
LINE
  8
0
  6
PHANTOM
 62
     2
 10
623.315308
 20
169.081039
 11
625.315308
 21
171.081039
  0
LINE
  8
0
  6
PHANTOM
 62
     2
 10
623.313416
 20
149.480789
 11
625.313354
 21
147.480820
  0
LINE
  8
0
  6
PHANTOM
 62
     1
 10
625.314697
 20
252.281967
 11
674.314697
 21
252.281967
  0
LINE
  8
0
  6
PHANTOM
 62
     1
 10
625.314697
 20
252.281967
 11
625.314697
 21
221.282242
  0
LINE
  8
0
  6
PHANTOM
 62
     1
 10
674.314697
 20
252.281967
 11
674.314697
 21
221.282242
  0
LINE
  8
0
  6
CENTER
 62
     1
 10
636.155029
 20
234.281967
 11
664.049805
 21
234.281967
  0
LINE
  8
0
  6
CENTER
 62
     1
 10
650.014648
 20
247.571823
 11
650.014648
 21
221.913422
  0
LINE
  8
0
  6
PHANTOM
 62
     2
 10
411.115906
 20
-64.516266
 11
427.115906
 21
-64.516266
  0
LINE
  8
0
  6
PHANTOM
 62
     2
 10
427.115906
 20
-62.516266
 11
427.115906
 21
-64.516266
  0
LINE
  8
0
  6
PHANTOM
 62
     2
 10
411.115906
 20
-62.516266
 11
411.115906
 21
-113.516266
  0
LINE
  8
0
  6
CENTER
 62
     2
 10
355.979980
 20
-90.516266
 11
525.057251
 21
-90.516266
  0
LINE
  8
0
  6
PHANTOM
 62
     2
 10
411.115906
 20
-113.516266
 11
427.115906
 21
-113.516266
  0
LINE
  8
0
  6
PHANTOM
 62
     2
 10
371.115906
 20
-113.316315
 11
411.115906
 21
-113.316315
  0
LINE
  8
0
  6
PHANTOM
 62
     2
 10
371.115906
 20
-64.716278
 11
411.115906
 21
-64.716278
  0
LINE
  8
0
  6
PHANTOM
 62
     2
 10
371.115906
 20
-62.716278
 11
411.115906
 21
-62.716278
  0
LINE
  8
0
  6
PHANTOM
 62
     2
 10
411.115906
 20
-62.516266
 11
427.115906
 21
-62.516266
  0
LINE
  8
0
  6
PHANTOM
 62
     2
 10
-115.989929
 20
-468.080109
 11
-99.989929
 21
-468.080109
  0
LINE
  8
0
  6
PHANTOM
 62
     2
 10
-151.986511
 20
-467.880096
 11
-115.989929
 21
-467.880096
  0
LINE
  8
0
  6
PHANTOM
 62
     2
 10
-659.435669
 20
345.354004
 11
-659.435669
 21
256.518250
  0
LINE
  8
0
  6
PHANTOM
 62
     2
 10
-659.435669
 20
103.655487
 11
-659.435669
 21
73.607193
  0
LINE
  8
0
  6
PHANTOM
 62
     2
 10
-151.986511
 20
-138.009369
 11
-151.986511
 21
-281.290802
  0
LINE
  8
0
  6
PHANTOM
 62
     2
 10
-151.986511
 20
-417.068207
 11
-151.986511
 21
-474.468842
  0
LINE
  8
0
  6
PHANTOM
 62
     2
 10
-670.435669
 20
-155.383423
 11
-670.435669
 21
-263.701996
  0
LINE
  8
0
  6
PHANTOM
 62
     2
 10
-670.435669
 20
-418.333282
 11
-670.435669
 21
-469.999969
  0
LINE
  8
0
  6
PHANTOM
 62
     2
 10
371.115906
 20
256.114685
 11
371.115906
 21
89.738922
  0
LINE
  8
0
  6
PHANTOM
 62
     2
 10
371.115906
 20
-55.970276
 11
371.115906
 21
-119.994019
  0
LINE
  8
0
  6
CENTER
 62
     2
 10
-427.453491
 20
292.602539
 11
-392.911530
 21
292.602539
  0
LINE
  8
0
  6
CENTER
 62
     2
 10
-407.811676
 20
327.159607
 11
-407.811676
 21
259.131378
  0
LINE
  8
0
  6
CENTER
 62
     2
 10
619.865479
 20
159.282013
 11
681.198975
 21
159.282013
  0
LINE
  8
0
  6
CENTER
 62
     2
 10
651.314575
 20
223.382431
 11
651.314575
 21
89.527222
  0
LINE
  8
0
  6
PHANTOM
 62
     2
 10
-555.439270
 20
323.602539
 11
-555.439270
 21
261.602539
  0
LINE
  8
0
  6
PHANTOM
 62
     2
 10
-563.439270
 20
323.602539
 11
-563.439270
 21
261.602539
  0
LINE
  8
0
  6
PHANTOM
 62
     2
 10
-563.439270
 20
323.602539
 11
-555.439270
 21
323.602539
  0
LINE
  8
0
  6
PHANTOM
 62
     2
 10
-563.439270
 20
261.602539
 11
-555.439270
 21
261.602539
  0
LINE
  8
0
  6
PHANTOM
 62
     2
 10
-594.439270
 20
324.402588
 11
-594.439270
 21
260.602539
  0
LINE
  8
0
  6
PHANTOM
 62
     2
 10
-594.439270
 20
310.102539
 11
-563.439270
 21
310.102539
  0
LINE
  8
0
  6
PHANTOM
 62
     2
 10
-594.439270
 20
318.102539
 11
-563.439270
 21
318.102539
  0
LINE
  8
0
  6
PHANTOM
 62
     2
 10
-594.439270
 20
275.102539
 11
-563.439270
 21
275.102539
  0
LINE
  8
0
  6
PHANTOM
 62
     2
 10
-594.439270
 20
267.102539
 11
-563.439270
 21
267.102539
  0
LINE
  8
0
  6
PHANTOM
 62
     2
 10
-604.439270
 20
260.602539
 11
-594.439270
 21
260.602539
  0
LINE
  8
0
  6
PHANTOM
 62
     2
 10
-604.439270
 20
324.602539
 11
-594.439270
 21
324.602539
  0
LINE
  8
0
  6
PHANTOM
 62
     2
 10
-555.439270
 20
95.909485
 11
-555.439270
 21
75.909485
  0
LINE
  8
0
  6
PHANTOM
 62
     2
 10
-563.439270
 20
95.909485
 11
-563.439270
 21
75.909485
  0
LINE
  8
0
  6
PHANTOM
 62
     2
 10
-563.439270
 20
75.909485
 11
-555.439270
 21
75.909485
  0
LINE
  8
0
  6
PHANTOM
 62
     2
 10
-563.439270
 20
95.909485
 11
-555.439270
 21
95.909485
  0
LINE
  8
0
  6
PHANTOM
 62
     2
 10
-594.439270
 20
81.909485
 11
-563.439270
 21
81.909485
  0
LINE
  8
0
  6
PHANTOM
 62
     2
 10
-594.439270
 20
89.909485
 11
-563.439270
 21
89.909485
  0
LINE
  8
0
  6
PHANTOM
 62
     2
 10
-594.439270
 20
99.909500
 11
-594.439270
 21
74.909485
  0
LINE
  8
0
  6
PHANTOM
 62
     2
 10
-604.439392
 20
99.909500
 11
-594.439270
 21
99.909500
  0
LINE
  8
0
  6
PHANTOM
 62
     2
 10
-604.439392
 20
74.909485
 11
-594.439270
 21
74.909485
  0
LINE
  8
0
  6
PHANTOM
 62
     2
 10
-417.811737
 20
323.502441
 11
-417.811737
 21
261.502441
  0
LINE
  8
0
  6
PHANTOM
 62
     2
 10
-417.811737
 20
261.502441
 11
-397.811615
 21
261.502441
  0
LINE
  8
0
  6
PHANTOM
 62
     2
 10
-417.811737
 20
323.502441
 11
-397.811615
 21
323.502441
  0
LINE
  8
0
  6
PHANTOM
 62
     2
 10
-605.439514
 20
-180.786346
 11
-605.439514
 21
-254.786346
  0
LINE
  8
0
  6
PHANTOM
 62
     2
 10
-565.439514
 20
-181.786346
 11
-565.439514
 21
-253.786346
  0
LINE
  8
0
  6
PHANTOM
 62
     2
 10
-573.439514
 20
-253.786346
 11
-573.439514
 21
-181.786346
  0
LINE
  8
0
  6
PHANTOM
 62
     2
 10
-573.439514
 20
-198.286346
 11
-605.439514
 21
-198.286346
  0
LINE
  8
0
  6
PHANTOM
 62
     2
 10
-573.439514
 20
-188.286346
 11
-605.439514
 21
-188.286346
  0
LINE
  8
0
  6
PHANTOM
 62
     2
 10
-573.439514
 20
-247.286346
 11
-605.439514
 21
-247.286346
  0
LINE
  8
0
  6
PHANTOM
 62
     2
 10
-573.439514
 20
-237.286346
 11
-605.439514
 21
-237.286346
  0
LINE
  8
0
  6
PHANTOM
 62
     2
 10
-400.563904
 20
-181.786438
 11
-424.563904
 21
-181.786438
  0
LINE
  8
0
  6
PHANTOM
 62
     2
 10
-400.563904
 20
-253.786407
 11
-424.563904
 21
-253.786407
  0
LINE
  8
0
  6
PHANTOM
 62
     2
 10
-615.439514
 20
-180.786346
 11
-605.439514
 21
-180.786346
  0
LINE
  8
0
  6
PHANTOM
 62
     2
 10
-615.439514
 20
-254.786346
 11
-605.439514
 21
-254.786346
  0
LINE
  8
0
  6
PHANTOM
 62
     1
 10
-85.989899
 20
-167.786209
 11
-86.989899
 21
-168.786209
  0
LINE
  8
0
  6
PHANTOM
 62
     2
 10
-71.989899
 20
-274.786285
 11
-71.989899
 21
-170.786285
  0
LINE
  8
0
  6
PHANTOM
 62
     2
 10
-38.989868
 20
-171.786285
 11
-38.989868
 21
-273.786285
  0
LINE
  8
0
  6
PHANTOM
 62
     2
 10
141.339294
 20
-171.786285
 11
105.339294
 21
-171.786285
  0
LINE
  8
0
  6
PHANTOM
 62
     2
 10
-38.989868
 20
-180.286285
 11
-71.989899
 21
-180.286285
  0
LINE
  8
0
  6
PHANTOM
 62
     2
 10
-38.989868
 20
-196.286285
 11
-71.989899
 21
-196.286285
  0
LINE
  8
0
  6
PHANTOM
 62
     2
 10
141.339294
 20
-273.786285
 11
105.339294
 21
-273.786285
  0
LINE
  8
0
  6
PHANTOM
 62
     2
 10
-38.989868
 20
-265.286285
 11
-71.989899
 21
-265.286285
  0
LINE
  8
0
  6
PHANTOM
 62
     2
 10
-38.989868
 20
-249.286285
 11
-71.989899
 21
-249.286285
  0
LINE
  8
0
  6
PHANTOM
 62
     2
 10
-26.989868
 20
-467.080109
 11
-26.989868
 21
-431.080109
  0
LINE
  8
0
  6
PHANTOM
 62
     2
 10
-85.989899
 20
-170.786285
 11
-71.989899
 21
-170.786285
  0
LINE
  8
0
  6
PHANTOM
 62
     2
 10
-85.989899
 20
-274.786285
 11
-71.989899
 21
-274.786285
  0
LINE
  8
0
  6
PHANTOM
 62
     2
 10
458.115845
 20
-113.516266
 11
458.115845
 21
-64.516266
  0
LINE
  8
0
  6
PHANTOM
 62
     2
 10
508.115845
 20
-112.516266
 11
508.115845
 21
-68.516266
  0
LINE
  8
0
  6
PHANTOM
 62
     2
 10
493.115845
 20
220.281967
 11
493.115845
 21
98.281952
  0
LINE
  8
0
  6
PHANTOM
 62
     2
 10
673.314697
 20
220.281967
 11
629.314697
 21
220.281967
  0
LINE
  8
0
  6
PHANTOM
 62
     2
 10
493.115845
 20
211.281967
 11
458.115845
 21
211.281967
  0
LINE
  8
0
  6
PHANTOM
 62
     2
 10
493.115845
 20
191.281967
 11
458.115845
 21
191.281967
  0
LINE
  8
0
  6
PHANTOM
 62
     2
 10
673.314697
 20
98.281952
 11
629.314697
 21
98.281952
  0
LINE
  8
0
  6
PHANTOM
 62
     2
 10
493.115845
 20
107.281952
 11
458.115845
 21
107.281952
  0
LINE
  8
0
  6
PHANTOM
 62
     2
 10
493.115845
 20
127.281952
 11
458.115845
 21
127.281952
  0
LINE
  8
0
  6
PHANTOM
 62
     2
 10
444.115845
 20
97.281952
 11
458.115845
 21
97.281952
  0
LINE
  8
0
  6
PHANTOM
 62
     2
 10
444.115845
 20
221.281967
 11
458.115845
 21
221.281967
  0
LINE
  8
0
  6
PHANTOM
 62
     2
 10
-605.439514
 20
-449.080109
 11
-573.439514
 21
-449.080109
  0
LINE
  8
0
  6
PHANTOM
 62
     2
 10
-605.439514
 20
-439.080109
 11
-573.439514
 21
-439.080109
  0
LINE
  8
0
  6
PHANTOM
 62
     2
 10
-605.439514
 20
-428.080109
 11
-605.439514
 21
-457.080109
  0
LINE
  8
0
  6
PHANTOM
 62
     2
 10
-573.439514
 20
-432.080109
 11
-573.439514
 21
-456.080109
  0
LINE
  8
0
  6
PHANTOM
 62
     2
 10
-565.439514
 20
-432.080109
 11
-565.439514
 21
-456.080109
  0
LINE
  8
0
  6
PHANTOM
 62
     2
 10
-615.439514
 20
-457.080109
 11
-605.439514
 21
-457.080109
  0
LINE
  8
0
  6
PHANTOM
 62
     2
 10
-615.439514
 20
-428.080109
 11
-605.439514
 21
-428.080109
  0
LINE
  8
0
  6
PHANTOM
 62
     2
 10
-573.439514
 20
-456.080109
 11
-565.439514
 21
-456.080109
  0
LINE
  8
0
  6
PHANTOM
 62
     2
 10
-573.439514
 20
-432.080109
 11
-565.439514
 21
-432.080109
  0
LINE
  8
0
  6
PHANTOM
 62
     2
 10
-400.563904
 20
-253.786407
 11
-400.563904
 21
-181.786438
  0
LINE
  8
0
  6
PHANTOM
 62
     2
 10
-424.563904
 20
-253.786407
 11
-424.563904
 21
-181.786438
  0
LINE
  8
0
  6
PHANTOM
 62
     2
 10
-565.439514
 20
-181.786346
 11
-573.439514
 21
-181.786346
  0
LINE
  8
0
  6
PHANTOM
 62
     2
 10
-565.439514
 20
-253.786346
 11
-573.439514
 21
-253.786346
  0
LINE
  8
0
  6
CENTER
 62
     1
 10
106.934021
 20
-158.786346
 11
134.392944
 21
-158.786346
  0
LINE
  8
0
  6
PHANTOM
 62
     2
 10
-38.989868
 20
-431.080109
 11
-38.989868
 21
-467.080109
  0
LINE
  8
0
  6
PHANTOM
 62
     2
 10
-26.989868
 20
-273.786285
 11
-26.989868
 21
-171.786285
  0
LINE
  8
0
  6
PHANTOM
 62
     2
 10
-38.989868
 20
-467.080109
 11
-26.989868
 21
-467.080109
  0
LINE
  8
0
  6
PHANTOM
 62
     2
 10
-38.989868
 20
-431.080109
 11
-26.989868
 21
-431.080109
  0
LINE
  8
0
  6
PHANTOM
 62
     2
 10
-85.989899
 20
-468.080109
 11
-71.989899
 21
-468.080109
  0
LINE
  8
0
  6
PHANTOM
 62
     2
 10
-85.989899
 20
-427.080109
 11
-71.989899
 21
-427.080109
  0
LINE
  8
0
  6
PHANTOM
 62
     2
 10
-71.989899
 20
-427.080109
 11
-71.989899
 21
-468.080109
  0
LINE
  8
0
  6
PHANTOM
 62
     2
 10
-71.989899
 20
-441.080109
 11
-38.989868
 21
-441.080109
  0
LINE
  8
0
  6
PHANTOM
 62
     2
 10
-71.989899
 20
-457.080109
 11
-38.989868
 21
-457.080109
  0
LINE
  8
0
  6
PHANTOM
 62
     2
 10
141.339294
 20
-171.786285
 11
141.339294
 21
-273.786285
  0
LINE
  8
0
  6
PHANTOM
 62
     2
 10
105.339294
 20
-171.786285
 11
105.339294
 21
-273.786285
  0
LINE
  8
0
  6
PHANTOM
 62
     2
 10
-26.989868
 20
-273.786285
 11
-38.989868
 21
-273.786285
  0
LINE
  8
0
  6
PHANTOM
 62
     2
 10
-26.989868
 20
-171.786285
 11
-38.989868
 21
-171.786285
  0
LINE
  8
0
  6
PHANTOM
 62
     2
 10
458.115845
 20
97.281952
 11
458.115845
 21
221.281967
  0
LINE
  8
0
  6
PHANTOM
 62
     2
 10
493.115845
 20
-68.516266
 11
493.115845
 21
-112.516266
  0
LINE
  8
0
  6
PHANTOM
 62
     2
 10
508.115845
 20
98.281952
 11
508.115845
 21
220.281967
  0
LINE
  8
0
  6
PHANTOM
 62
     2
 10
493.115845
 20
-112.516266
 11
508.115845
 21
-112.516266
  0
LINE
  8
0
  6
PHANTOM
 62
     2
 10
493.115845
 20
-68.516266
 11
508.115845
 21
-68.516266
  0
LINE
  8
0
  6
PHANTOM
 62
     2
 10
458.115845
 20
-80.516266
 11
493.115845
 21
-80.516266
  0
LINE
  8
0
  6
PHANTOM
 62
     2
 10
458.115845
 20
-100.516266
 11
493.115845
 21
-100.516266
  0
LINE
  8
0
  6
PHANTOM
 62
     2
 10
444.115845
 20
-113.516266
 11
458.115845
 21
-113.516266
  0
LINE
  8
0
  6
PHANTOM
 62
     2
 10
444.115845
 20
-64.516266
 11
458.115845
 21
-64.516266
  0
LINE
  8
0
  6
PHANTOM
 62
     2
 10
508.115845
 20
220.281967
 11
493.115845
 21
220.281967
  0
LINE
  8
0
  6
PHANTOM
 62
     2
 10
508.115845
 20
98.281952
 11
493.115845
 21
98.281952
  0
LINE
  8
0
  6
PHANTOM
 62
     2
 10
673.314697
 20
220.281967
 11
673.314697
 21
98.281952
  0
LINE
  8
0
  6
PHANTOM
 62
     2
 10
629.314697
 20
220.281967
 11
629.314697
 21
98.281952
  0
LINE
  8
0
  6
CENTER
 62
     1
 10
-413.863922
 20
-163.886139
 11
-413.863922
 21
-180.286346
  0
LINE
  8
0
  6
PHANTOM
 62
     2
 10
-397.811615
 20
323.502441
 11
-397.811615
 21
261.502441
  0
LINE
  8
0
  6
CENTER
 62
     2
 10
-165.990112
 20
291.629761
 11
-36.990112
 21
291.629761
  0
LINE
  8
0
  6
CENTER
 62
     2
 10
117.404602
 20
337.296814
 11
117.404602
 21
246.014114
  0
LINE
  8
0
  6
CENTER
 62
     2
 10
94.171997
 20
291.629761
 11
135.697998
 21
291.629761
  0
LINE
  8
0
  6
CENTER
 62
     2
 10
-36.990112
 20
98.063004
 11
-165.990112
 21
98.063004
  0
LINE
  8
0
  6
PHANTOM
 62
     1
 10
-105.990112
 20
350.629761
 11
-95.989990
 21
350.629761
  0
LINE
  8
0
  6
PHANTOM
 62
     1
 10
-105.990112
 20
349.629456
 11
-94.989716
 21
349.629456
  0
LINE
  8
0
  6
PHANTOM
 62
     2
 10
-116.990234
 20
118.563019
 11
-105.990204
 21
118.563019
  0
LINE
  8
0
  6
PHANTOM
 62
     2
 10
-155.990112
 20
118.363022
 11
-116.990234
 21
118.363022
  0
LINE
  8
0
  6
PHANTOM
 62
     2
 10
-155.990112
 20
116.363022
 11
-116.990234
 21
116.363022
  0
LINE
  8
0
  6
PHANTOM
 62
     2
 10
-155.990112
 20
82.763031
 11
-116.990234
 21
82.763031
  0
LINE
  8
0
  6
PHANTOM
 62
     2
 10
-116.990234
 20
116.563019
 11
-105.990204
 21
116.563019
  0
LINE
  8
0
  6
PHANTOM
 62
     2
 10
-116.990234
 20
82.563019
 11
-105.990204
 21
82.563019
  0
LINE
  8
0
  6
PHANTOM
 62
     2
 10
-155.990112
 20
333.429810
 11
-116.990143
 21
333.429810
  0
LINE
  8
0
  6
PHANTOM
 62
     2
 10
-116.990112
 20
333.629822
 11
-105.990143
 21
333.629822
  0
LINE
  8
0
  6
PHANTOM
 62
     2
 10
-155.990112
 20
249.829803
 11
-116.990143
 21
249.829803
  0
LINE
  8
0
  6
PHANTOM
 62
     2
 10
-116.990112
 20
249.629807
 11
-105.990143
 21
249.629807
  0
LINE
  8
0
  6
PHANTOM
 62
     1
 10
-155.990112
 20
356.429871
 11
-116.990143
 21
356.429871
  0
LINE
  8
0
  6
PHANTOM
 62
     1
 10
-116.990112
 20
356.629883
 11
-105.990143
 21
356.629883
  0
LINE
  8
0
  6
PHANTOM
 62
     2
 10
-116.990112
 20
249.629807
 11
-116.990112
 21
333.629822
  0
LINE
  8
0
  6
PHANTOM
 62
     1
 10
-105.990082
 20
356.629883
 11
-105.990082
 21
333.629822
  0
LINE
  8
0
  6
PHANTOM
 62
     1
 10
-105.990112
 20
334.629822
 11
-95.989990
 21
334.629822
  0
LINE
  8
0
  6
PHANTOM
 62
     1
 10
-94.989685
 20
349.629578
 11
-94.989685
 21
335.630127
  0
LINE
  8
0
  6
PHANTOM
 62
     1
 10
-94.989906
 20
335.630402
 11
-95.990211
 21
334.630096
  0
LINE
  8
0
  6
PHANTOM
 62
     1
 10
-105.990112
 20
335.630127
 11
-94.989716
 21
335.630127
  0
LINE
  8
0
  6
PHANTOM
 62
     1
 10
-95.989960
 20
334.629822
 11
-95.989960
 21
350.629761
  0
LINE
  8
0
  6
PHANTOM
 62
     2
 10
-155.990112
 20
123.363022
 11
-155.990112
 21
77.763031
  0
LINE
  8
0
  6
PHANTOM
 62
     2
 10
-155.990112
 20
361.429871
 11
-155.990112
 21
244.829803
  0
LINE
  8
0
  6
PHANTOM
 62
     2
 10
-105.990204
 20
118.563019
 11
-105.990204
 21
116.563019
  0
LINE
  8
0
  6
PHANTOM
 62
     2
 10
-116.990234
 20
118.563019
 11
-116.990234
 21
82.563019
  0
LINE
  8
0
  6
PHANTOM
 62
     1
 10
-94.989449
 20
349.629669
 11
-95.989738
 21
350.629944
  0
LINE
  8
0
  6
CENTER
 62
     1
 10
-160.990112
 20
342.629822
 11
-89.514557
 21
342.629822
  0
LINE
  8
0
  6
CENTER
 62
     1
 10
104.950684
 20
342.629822
 11
126.553528
 21
342.629822
  0
LINE
  8
0
  6
CENTER
 62
     1
 10
115.904663
 20
352.353271
 11
115.904663
 21
334.016052
  0
LINE
  8
0
  6
PHANTOM
 62
     1
 10
98.904602
 20
356.629944
 11
132.904663
 21
356.629944
  0
LINE
  8
0
  6
PHANTOM
 62
     1
 10
132.904663
 20
356.629944
 11
132.904663
 21
333.629791
  0
LINE
  8
0
  6
PHANTOM
 62
     1
 10
98.904602
 20
356.629944
 11
98.904602
 21
333.629791
  0
LINE
  8
0
  6
PHANTOM
 62
     2
 10
96.904419
 20
281.629639
 11
98.904419
 21
279.629639
  0
LINE
  8
0
  6
PHANTOM
 62
     2
 10
96.904663
 20
301.629822
 11
96.904663
 21
281.629822
  0
LINE
  8
0
  6
PHANTOM
 62
     2
 10
96.904625
 20
301.629852
 11
98.904625
 21
303.629852
  0
LINE
  8
0
  6
PHANTOM
 62
     2
 10
-83.990082
 20
333.629761
 11
-83.990082
 21
249.629776
  0
LINE
  8
0
  6
PHANTOM
 62
     2
 10
-83.990082
 20
116.563004
 11
-83.990082
 21
82.563004
  0
LINE
  8
0
  6
PHANTOM
 62
     2
 10
-41.990112
 20
112.563004
 11
-41.990112
 21
83.563004
  0
LINE
  8
0
  6
PHANTOM
 62
     2
 10
-41.990112
 20
332.629761
 11
-41.990112
 21
250.629776
  0
LINE
  8
0
  6
PHANTOM
 62
     2
 10
-51.990112
 20
332.629761
 11
-41.990112
 21
332.629761
  0
LINE
  8
0
  6
PHANTOM
 62
     2
 10
-51.990112
 20
250.629776
 11
-41.990112
 21
250.629776
  0
LINE
  8
0
  6
PHANTOM
 62
     2
 10
102.904602
 20
332.629761
 11
131.904602
 21
332.629761
  0
LINE
  8
0
  6
PHANTOM
 62
     2
 10
-51.990112
 20
332.629761
 11
-51.990112
 21
250.629776
  0
LINE
  8
0
  6
PHANTOM
 62
     2
 10
-51.990112
 20
112.563004
 11
-51.990112
 21
83.563004
  0
LINE
  8
0
  6
PHANTOM
 62
     2
 10
102.904602
 20
332.629761
 11
102.904602
 21
250.629776
  0
LINE
  8
0
  6
PHANTOM
 62
     2
 10
131.904602
 20
332.629761
 11
131.904602
 21
250.629776
  0
LINE
  8
0
  6
PHANTOM
 62
     2
 10
-41.990112
 20
83.563004
 11
-51.990112
 21
83.563004
  0
LINE
  8
0
  6
PHANTOM
 62
     2
 10
-41.990112
 20
112.563004
 11
-51.990112
 21
112.563004
  0
LINE
  8
0
  6
PHANTOM
 62
     2
 10
-93.990082
 20
249.629776
 11
-83.990082
 21
249.629776
  0
LINE
  8
0
  6
PHANTOM
 62
     2
 10
-93.990082
 20
333.629761
 11
-83.990082
 21
333.629761
  0
LINE
  8
0
  6
PHANTOM
 62
     2
 10
-83.990082
 20
82.563004
 11
-93.990082
 21
82.563004
  0
LINE
  8
0
  6
PHANTOM
 62
     2
 10
-83.990082
 20
116.563004
 11
-93.990082
 21
116.563004
  0
LINE
  8
0
  6
PHANTOM
 62
     2
 10
-51.990112
 20
92.063004
 11
-83.990082
 21
92.063004
  0
LINE
  8
0
  6
PHANTOM
 62
     2
 10
-51.990112
 20
104.063004
 11
-83.990082
 21
104.063004
  0
LINE
  8
0
  6
PHANTOM
 62
     2
 10
-83.990082
 20
314.129761
 11
-51.990112
 21
314.129761
  0
LINE
  8
0
  6
PHANTOM
 62
     2
 10
-83.990082
 20
326.129761
 11
-51.990112
 21
326.129761
  0
LINE
  8
0
  6
PHANTOM
 62
     2
 10
-83.990082
 20
257.129761
 11
-51.990112
 21
257.129761
  0
LINE
  8
0
  6
PHANTOM
 62
     2
 10
-83.990082
 20
269.129761
 11
-51.990112
 21
269.129761
  0
LINE
  8
0
  6
PHANTOM
 62
     2
 10
-99.989929
 20
-427.080109
 11
-99.989929
 21
-425.080048
  0
LINE
  8
0
  6
PHANTOM
 62
     1
 10
-99.989929
 20
-170.786346
 11
-99.989929
 21
-141.786346
  0
LINE
  8
0
  6
PHANTOM
 62
     1
 10
427.115906
 20
221.281967
 11
427.115906
 21
252.281967
  0
LINE
  8
0
  6
PHANTOM
 62
     1
 10
-615.439270
 20
337.102539
 11
-614.439270
 21
337.102539
  0
LINE
  8
0
  6
PHANTOM
 62
     1
 10
-615.440491
 20
338.101349
 11
-614.440552
 21
337.101349
  0
LINE
  8
0
  6
PHANTOM
 62
     2
 10
102.904602
 20
250.629761
 11
131.904602
 21
250.629761
  0
LINE
  8
0
 10
-273.500000
 20
574.500000
 11
-273.500000
 21
-574.500000
  0
LINE
  8
0
 10
273.500000
 20
574.500000
 11
273.500000
 21
-574.500000
  0
LINE
  8
0
  6
PHANTOM
 62
     2
 10
-626.439270
 20
324.602539
 11
-626.439270
 21
260.602539
  0
LINE
  8
0
  6
PHANTOM
 62
     2
 10
-626.439270
 20
101.909500
 11
-626.439270
 21
74.909485
  0
LINE
  8
0
  6
PHANTOM
 62
     1
 10
-116.990112
 20
333.629822
 11
-116.990112
 21
356.629883
  0
LINE
  8
0
  6
PHANTOM
 62
     2
 10
-637.439270
 20
-180.786346
 11
-637.439270
 21
-254.786346
  0
LINE
  8
0
  6
PHANTOM
 62
     1
 10
-115.989929
 20
-170.786346
 11
-115.989929
 21
-141.786346
  0
LINE
  8
0
  6
PHANTOM
 62
     2
 10
411.115906
 20
221.281967
 11
411.115906
 21
97.281952
  0
CIRCLE
  8
0
 10
-609.439575
 20
283.102509
 40
4.000000
  0
CIRCLE
  8
0
 10
-609.439575
 20
283.102509
 40
2.250000
  0
CIRCLE
  8
0
 10
-609.439575
 20
302.102509
 40
4.000000
  0
CIRCLE
  8
0
 10
-609.439575
 20
302.102509
 40
2.250000
  0
CIRCLE
  8
0
 10
-620.439636
 20
-207.286392
 40
4.000000
  0
CIRCLE
  8
0
 10
-620.439636
 20
-207.286392
 40
2.250000
  0
CIRCLE
  8
0
 10
-620.439636
 20
-228.286392
 40
4.000000
  0
CIRCLE
  8
0
 10
-620.439636
 20
-228.286392
 40
2.250000
  0
CIRCLE
  8
0
 10
-99.490112
 20
279.129761
 40
4.750000
  0
CIRCLE
  8
0
 10
-99.490051
 20
304.129761
 40
4.750000
  0
CIRCLE
  8
0
 10
-99.490112
 20
279.129761
 40
2.750000
  0
CIRCLE
  8
0
 10
-99.490051
 20
304.129761
 40
2.750000
  0
CIRCLE
  8
0
 10
-92.490234
 20
-237.286423
 40
5.500000
  0
CIRCLE
  8
0
 10
-92.489990
 20
-208.286423
 40
3.300000
  0
CIRCLE
  8
0
 10
-92.490234
 20
-237.286423
 40
3.300000
  0
CIRCLE
  8
0
 10
-92.489990
 20
-208.286423
 40
5.500000
  0
CIRCLE
  8
0
 10
436.115906
 20
177.781982
 40
7.000000
  0
CIRCLE
  8
0
 10
436.115906
 20
177.781982
 40
4.500000
  0
CIRCLE
  8
0
 10
436.115967
 20
140.781982
 40
4.500000
  0
CIRCLE
  8
0
 10
436.115967
 20
140.781982
 40
7.000000
  0
CIRCLE
  8
0
  6
PHANTOM
 62
     1
 10
-409.111511
 20
332.002563
 40
6.000000
  0
CIRCLE
  8
0
  6
PHANTOM
 62
     1
 10
-409.111511
 20
332.002563
 40
5.000000
  0
CIRCLE
  8
0
  6
PHANTOM
 62
     1
 10
-413.863922
 20
-172.786346
 40
7.000000
  0
CIRCLE
  8
0
  6
PHANTOM
 62
     1
 10
-413.863922
 20
-172.786346
 40
6.000000
  0
CIRCLE
  8
0
  6
PHANTOM
 62
     1
 10
122.039368
 20
-158.786377
 40
9.000000
  0
CIRCLE
  8
0
  6
PHANTOM
 62
     1
 10
122.039368
 20
-158.786377
 40
10.000000
  0
CIRCLE
  8
0
  6
PHANTOM
 62
     1
 10
650.014648
 20
234.281967
 40
11.000000
  0
CIRCLE
  8
0
  6
PHANTOM
 62
     1
 10
650.014648
 20
234.281967
 40
10.000000
  0
CIRCLE
  8
0
  6
PHANTOM
 62
     1
 10
115.904663
 20
342.629822
 40
8.000011
  0
CIRCLE
  8
0
  6
PHANTOM
 62
     1
 10
115.904663
 20
342.629822
 40
6.999706
  0
TEXT
  8
0
 10
479.679657
 20
-571.000000
 40
25.000000
  1
KOGANEI CORP.
 50
0.000000
 41
1.052632
 51
0.000000
  7
STANDARD
  0
TEXT
  8
0
 10
571.179382
 20
534.299988
 40
18.000000
  1
Ver. 2.0
 50
0.000000
 41
1.052632
 51
0.000000
  7
STANDARD
  0
TEXT
  8
0
 10
-733.461121
 20
450.478302
 40
18.000000
  1
BORE: 16
 50
0.000000
 41
1.052632
 51
0.000000
  7
STANDARD
  0
TEXT
  8
0
 10
-208.578629
 20
-65.200005
 40
18.000000
  1
BORE: 32
 50
0.000000
 41
1.052632
 51
0.000000
  7
STANDARD
  0
TEXT
  8
0
 10
-733.461121
 20
-65.200005
 40
18.000000
  1
BORE: 20
 50
0.000000
 41
1.052632
 51
0.000000
  7
STANDARD
  0
TEXT
  8
0
 10
-208.578629
 20
450.478302
 40
18.000000
  1
BORE: 25
 50
0.000000
 41
1.052632
 51
0.000000
  7
STANDARD
  0
TEXT
  8
0
 10
305.911377
 20
450.478302
 40
18.000000
  1
BORE: 40
 50
0.000000
 41
1.052632
 51
0.000000
  7
STANDARD
  0
TEXT
  8
0
 10
-764.820618
 20
546.799988
 40
18.000000
  1
AXIS CYLINDER
 50
0.000000
 41
1.052632
 51
0.000000
  7
STANDARD
  0
TEXT
  8
0
 10
-710.820618
 20
521.799988
 40
18.000000
  1
BRACKET
 50
0.000000
 41
1.052632
 51
0.000000
  7
STANDARD
  0
ENDSEC
  0
EOF
