  0
SECTION
  2
HEADER
  9
$ACADVER
  1
AC1003
  9
$EXTMIN
 10
-1.94250000E+02
 20
-1.33500000E+02
  9
$EXTMAX
 10
1.94800003E+02
 20
1.32600006E+02
  9
$LIMMIN
 10
-1.94251000E+02
 20
-1.33501000E+02
  9
$LIMMAX
 10
1.94801003E+02
 20
1.32601006E+02
  9
$SNAPUNIT
 10
1
 20
1
  9
$SNAPBASE
 10
0
 20
0
  9
$GRIDMODE
 70
0
  9
$GRIDUNIT
 10
0
 20
0
  9
$LTSCALE
 40
6.48416672E+00
  9
$TEXTSIZE
 40
3.2
  9
$DIMTAD
 70
0
  9
$LUNITS
 70
2
  9
$LUPREC
 70
4
  9
$FILLETRAD
 40
0
  9
$AUNITS
 70
0
  9
$AUPREC
 70
0
  0
ENDSEC
  0
SECTION
  2
TABLES
  0
TABLE
  2
LTYPE
 70
2
  0
LTYPE
  2
CONTINUOUS
 70
64
  3
Solid-Line
 72
65
 73
0
 40
0
  0
LTYPE
  2
DASHED
 70
64
  3
DASHED
 72
65
 73
2
 40
.75
 49
.5
 49
-.25
  0
LTYPE
  2
HIDDEN
 70
64
  3
HIDDEN
 72
65
 73
2
 40
.375
 49
.25
 49
-.125
  0
LTYPE
  2
CENTER
 70
64
  3
CENTER
 72
65
 73
4
 40
2
 49
1.25
 49
-.25
 49
.25
 49
-.25
  0
LTYPE
  2
PHANTOM
 70
64
  3
PHANTOM
 72
65
 73
6
 40
2.5
 49
1.25
 49
-.25
 49
.25
 49
-.25
 49
.25
 49
-.25
  0
ENDTAB
  0
TABLE
  2
LAYER
 70
1
  0
LAYER
  2
0
 70
0
 62
7
  6
CONTINUOUS
 0
ENDTAB
  0
TABLE
  2
STYLE
 70
2
  0
STYLE
  2
MONOTXT
 70
0
 40
0
 41
1
 50
0
 71
0
 42
.2
  3
monotxt
  0
STYLE
  2
BIGFONT
 70
0
 40
0
 41
1
 50
0
 71
0
 42
.2
  3
txt
  4
bigfont
  0
ENDTAB
  0
ENDSEC
  0
SECTION
  2
BLOCKS
  0
BLOCK
  8
0
  2
ARROW
 70
10
 10
0
 20
0
  0
POLYLINE
  8
0
  6
CONTINUOUS
 62
0
 66
1
  0
VERTEX
  8
0
  6
CONTINUOUS
 62
0
 10
3.21880837E+00
 20
8.62477104E-01
  0
VERTEX
  8
0
  6
CONTINUOUS
 62
0
 10
0.0
 20
0.0
  0
VERTEX
  8
0
  6
CONTINUOUS
 62
0
 10
3.21880837E+00
 20
-8.62477104E-01
  0
SEQEND
  8
0
  0
ENDBLK
  8
0
  0
ENDSEC
  0
SECTION
  2
ENTITIES
  0
LINE
  8
0
  6
PHANTOM
 10
-1.77242278E+01
 20
1.47240853E+01
 11
-1.77242278E+01
 21
6.00222671E+01
  0
LINE
  8
0
 62
7
 10
-4.08776364E+01
 20
2.79740853E+01
 11
-4.08776364E+01
 21
2.24740853E+01
  0
LINE
  8
0
 62
7
 10
-3.78776364E+01
 20
2.87240853E+01
 11
-3.78776364E+01
 21
2.22240853E+01
  0
LINE
  8
0
 62
7
 10
-4.10776364E+01
 20
3.17240853E+01
 11
-3.50776364E+01
 21
3.17240853E+01
  0
LINE
  8
0
 62
7
 10
-4.08776364E+01
 20
2.24740853E+01
 11
-3.78776364E+01
 21
2.24740853E+01
  0
LINE
  8
0
 62
7
 10
-4.08776364E+01
 20
2.79740853E+01
 11
-3.78776364E+01
 21
2.79740853E+01
  0
LINE
  8
0
 62
7
 10
-4.10776364E+01
 20
2.87240853E+01
 11
-3.50776364E+01
 21
2.87240853E+01
  0
LINE
  8
0
 62
7
 10
-4.10776364E+01
 20
3.97240853E+01
 11
-3.50776364E+01
 21
3.97240853E+01
  0
LINE
  8
0
 62
7
 10
-4.10776364E+01
 20
3.67240853E+01
 11
-3.50776364E+01
 21
3.67240853E+01
  0
CIRCLE
  8
0
 62
7
 10
-2.45776364E+01
 20
4.17240853E+01
 40
1.22949982E+00
  0
CIRCLE
  8
0
 62
2
 10
-2.45776364E+01
 20
4.17240853E+01
 40
1.50000000E+00
  0
LINE
  8
0
  6
CENTER
 62
2
 10
-2.75776364E+01
 20
4.17240853E+01
 11
-2.15776364E+01
 21
4.17240853E+01
  0
LINE
  8
0
  6
CENTER
 62
2
 10
-2.45776364E+01
 20
4.47240853E+01
 11
-2.45776364E+01
 21
3.87240853E+01
  0
ARC
  8
0
 62
7
 10
7.92195661E+00
 20
2.62237440E+01
 40
2.99592219E+00
 50
2.03396551E+02
 51
5.65722887E+01
  0
CIRCLE
  8
0
 62
4
 10
1.42236356E+00
 20
2.67240853E+01
 40
3.14999962E+00
  0
ARC
  8
0
 62
7
 10
7.92295068E+00
 20
2.62247853E+01
 40
3.00067491E+00
 50
1.23600894E+02
 51
1.56442028E+02
  0
CIRCLE
  8
0
 62
7
 10
7.92236356E+00
 20
2.62240853E+01
 40
1.75000000E+00
  0
CIRCLE
  8
0
 62
7
 10
7.92236356E+00
 20
4.22240853E+01
 40
3.00000000E+00
  0
CIRCLE
  8
0
 62
7
 10
7.92236356E+00
 20
4.22240853E+01
 40
1.75000000E+00
  0
LINE
  8
0
 62
7
 10
5.17236356E+00
 20
2.22240853E+01
 11
6.19223636E+01
 21
2.22240853E+01
  0
LINE
  8
0
 62
7
 10
-4.10776364E+01
 20
4.62240853E+01
 11
6.19223636E+01
 21
4.62240853E+01
  0
LINE
  8
0
 62
4
 10
-1.08276364E+01
 20
2.87240853E+01
 11
-1.08276364E+01
 21
3.27240853E+01
  0
LINE
  8
0
 62
4
 10
4.42236356E+00
 20
2.76840853E+01
 11
4.42236356E+00
 21
3.27240853E+01
  0
LINE
  8
0
 62
4
 10
3.04236356E+00
 20
2.40240853E+01
 11
4.42236356E+00
 21
2.40240853E+01
  0
LINE
  8
0
 62
4
 10
-1.57763644E+00
 20
2.76840853E+01
 11
-1.57763644E+00
 21
3.27240853E+01
  0
LINE
  8
0
 62
4
 10
-2.32763644E+00
 20
3.35240853E+01
 11
5.17236356E+00
 21
3.35240853E+01
  0
LINE
  8
0
 62
4
 10
2.92236356E+00
 20
2.35240853E+01
 11
2.92236356E+00
 21
2.39540853E+01
  0
LINE
  8
0
 62
4
 10
-7.76364421E-02
 20
2.35240853E+01
 11
-7.76364421E-02
 21
2.39540853E+01
  0
LINE
  8
0
 62
4
 10
-7.76364421E-02
 20
2.35240853E+01
 11
2.92236356E+00
 21
2.35240853E+01
  0
LINE
  8
0
 62
4
 10
-1.57763644E+00
 20
2.40240853E+01
 11
-2.07636442E-01
 21
2.40240853E+01
  0
LINE
  8
0
 62
4
 10
-1.57763644E+00
 20
3.27240853E+01
 11
4.42236356E+00
 21
3.27240853E+01
  0
LINE
  8
0
 62
4
 10
-2.32763644E+00
 20
2.27240853E+01
 11
5.17236356E+00
 21
2.27240853E+01
  0
LINE
  8
0
 62
4
 10
-2.32763644E+00
 20
2.12240853E+01
 11
5.17236356E+00
 21
2.12240853E+01
  0
LINE
  8
0
 62
4
 10
5.17236356E+00
 20
2.87240853E+01
 11
1.01723636E+01
 21
2.87240853E+01
  0
LINE
  8
0
 62
4
 10
5.17236356E+00
 20
3.27240853E+01
 11
1.01723636E+01
 21
3.27240853E+01
  0
LINE
  8
0
 62
4
 10
4.42236356E+00
 20
2.40240853E+01
 11
4.42236356E+00
 21
2.57640853E+01
  0
LINE
  8
0
 62
4
 10
-1.57763644E+00
 20
2.40240853E+01
 11
-1.57763644E+00
 21
2.57640853E+01
  0
LINE
  8
0
 62
4
 10
-2.32763644E+00
 20
2.12240853E+01
 11
-2.32763644E+00
 21
3.35240853E+01
  0
LINE
  8
0
 62
4
 10
5.17236356E+00
 20
2.12240853E+01
 11
5.17236356E+00
 21
3.35240853E+01
  0
LINE
  8
0
 62
4
 10
1.01723636E+01
 20
3.22240853E+01
 11
1.68297851E+01
 21
3.22240853E+01
  0
LINE
  8
0
 62
4
 10
1.01723636E+01
 20
2.92240853E+01
 11
1.50977343E+01
 21
2.92240853E+01
  0
LINE
  8
0
 62
4
 10
1.01723636E+01
 20
2.87240853E+01
 11
1.01723636E+01
 21
3.27240853E+01
  0
LINE
  8
0
 62
4
 10
-1.18276364E+01
 20
2.87240853E+01
 11
-1.18276364E+01
 21
3.27240853E+01
  0
LINE
  8
0
 62
4
 10
-1.18276364E+01
 20
3.27240853E+01
 11
-2.32763644E+00
 21
3.27240853E+01
  0
LINE
  8
0
 62
4
 10
-1.18276364E+01
 20
2.87240853E+01
 11
-2.32763644E+00
 21
2.87240853E+01
  0
LINE
  8
0
  6
CENTER
 62
2
 10
7.92236356E+00
 20
2.17240853E+01
 11
7.92236356E+00
 21
3.07240853E+01
  0
LINE
  8
0
  6
CENTER
 62
2
 10
3.42236356E+00
 20
2.62240853E+01
 11
1.24223636E+01
 21
2.62240853E+01
  0
LINE
  8
0
  6
CENTER
 62
2
 10
7.92236356E+00
 20
4.67240853E+01
 11
7.92236356E+00
 21
3.77240853E+01
  0
LINE
  8
0
  6
CENTER
 62
2
 10
3.42236356E+00
 20
4.22240853E+01
 11
1.24223636E+01
 21
4.22240853E+01
  0
LINE
  8
0
 62
7
 10
6.19223636E+01
 20
4.62240853E+01
 11
6.19223636E+01
 21
2.22240853E+01
  0
LINE
  8
0
 62
4
 10
3.61703386E-01
 20
2.56634251E+01
 11
2.48302373E+00
 21
2.77847454E+01
  0
LINE
  8
0
 62
4
 10
3.61703386E-01
 20
2.77847454E+01
 11
2.48302373E+00
 21
2.56634251E+01
  0
LINE
  8
0
 62
6
 10
1.50977343E+01
 20
2.92240853E+01
 11
1.68297851E+01
 21
3.22240853E+01
  0
LINE
  8
0
  6
CENTER
 62
2
 10
-6.70776364E+01
 20
3.42240853E+01
 11
6.49223636E+01
 21
3.42240853E+01
  0
LINE
  8
0
 62
7
 10
-4.10776364E+01
 20
2.22240853E+01
 11
-2.32763644E+00
 21
2.22240853E+01
  0
LINE
  8
0
 62
7
 10
-4.10776364E+01
 20
4.62240853E+01
 11
-4.10776364E+01
 21
2.22240853E+01
  0
LINE
  8
0
 62
7
 10
-4.85776364E+01
 20
4.27240853E+01
 11
-4.25776364E+01
 21
4.27240853E+01
  0
LINE
  8
0
 62
7
 10
-4.85776364E+01
 20
2.27240853E+01
 11
-4.25776364E+01
 21
2.27240853E+01
  0
LINE
  8
0
 62
7
 10
-4.85776364E+01
 20
4.27240853E+01
 11
-4.85776364E+01
 21
2.27240853E+01
  0
LINE
  8
0
 62
7
 10
-4.25776364E+01
 20
4.27240853E+01
 11
-4.25776364E+01
 21
2.27240853E+01
  0
LINE
  8
0
 62
7
 10
-3.50776364E+01
 20
2.22240853E+01
 11
-3.50776364E+01
 21
4.62240853E+01
  0
LINE
  8
0
 62
7
 10
-4.25776364E+01
 20
2.67240853E+01
 11
-4.10776364E+01
 21
2.67240853E+01
  0
LINE
  8
0
 62
7
 10
-4.25776364E+01
 20
2.37240853E+01
 11
-4.10776364E+01
 21
2.37240853E+01
  0
LINE
  8
0
 62
4
 10
-5.25776364E+01
 20
3.62240853E+01
 11
-5.25776364E+01
 21
3.22240853E+01
  0
LINE
  8
0
 62
4
 10
-5.20776364E+01
 20
3.57240853E+01
 11
-4.85776364E+01
 21
3.57240853E+01
  0
LINE
  8
0
 62
4
 10
-5.20776364E+01
 20
3.27240853E+01
 11
-4.85776364E+01
 21
3.27240853E+01
  0
LINE
  8
0
 62
4
 10
-5.20776364E+01
 20
3.17240853E+01
 11
-4.85776364E+01
 21
3.17240853E+01
  0
LINE
  8
0
 62
4
 10
-5.20776364E+01
 20
3.67240853E+01
 11
-4.85776364E+01
 21
3.67240853E+01
  0
LINE
  8
0
 62
4
 10
-5.25776364E+01
 20
3.62240853E+01
 11
-5.20776364E+01
 21
3.67240853E+01
  0
LINE
  8
0
 62
4
 10
-5.25776364E+01
 20
3.22240853E+01
 11
-5.20776364E+01
 21
3.17240853E+01
  0
LINE
  8
0
 62
4
 10
-5.20776364E+01
 20
3.67240853E+01
 11
-5.20776364E+01
 21
3.57240853E+01
  0
LINE
  8
0
 62
4
 10
-5.20776364E+01
 20
3.27240853E+01
 11
-5.20776364E+01
 21
3.17240853E+01
  0
LINE
  8
0
 62
7
 10
-4.25776364E+01
 20
3.67240853E+01
 11
-4.20776364E+01
 21
3.67240853E+01
  0
LINE
  8
0
 62
7
 10
-4.25776364E+01
 20
3.17240853E+01
 11
-4.20776364E+01
 21
3.17240853E+01
  0
LINE
  8
0
 62
6
 10
-5.20776364E+01
 20
3.57240853E+01
 11
-4.85776364E+01
 21
3.27240853E+01
  0
LINE
  8
0
 62
6
 10
-5.20776364E+01
 20
3.27240853E+01
 11
-4.85776364E+01
 21
3.57240853E+01
  0
LINE
  8
0
 62
4
 10
-6.40776364E+01
 20
3.57240853E+01
 11
-6.40776364E+01
 21
3.27240853E+01
  0
LINE
  8
0
 62
4
 10
-5.40776364E+01
 20
3.62240853E+01
 11
-5.40776364E+01
 21
3.22240853E+01
  0
LINE
  8
0
 62
4
 10
-6.35776364E+01
 20
3.22240853E+01
 11
-5.94776364E+01
 21
3.22240853E+01
  0
LINE
  8
0
 62
4
 10
-6.35776364E+01
 20
3.62240853E+01
 11
-5.94776364E+01
 21
3.62240853E+01
  0
LINE
  8
0
 62
4
 10
-6.40776364E+01
 20
3.57240853E+01
 11
-6.35776364E+01
 21
3.62240853E+01
  0
LINE
  8
0
 62
4
 10
-6.40776364E+01
 20
3.27240853E+01
 11
-6.35776364E+01
 21
3.22240853E+01
  0
LINE
  8
0
 62
4
 10
-6.35776364E+01
 20
3.62240853E+01
 11
-6.35776364E+01
 21
3.22240853E+01
  0
LINE
  8
0
 62
6
 10
-6.39276364E+01
 20
3.58740853E+01
 11
-5.94776364E+01
 21
3.58740853E+01
  0
LINE
  8
0
 62
6
 10
-6.39276364E+01
 20
3.25740853E+01
 11
-5.94776364E+01
 21
3.25740853E+01
  0
LINE
  8
0
 62
6
 10
-5.40776364E+01
 20
3.58740853E+01
 11
-5.34776364E+01
 21
3.62240853E+01
  0
LINE
  8
0
 62
6
 10
-5.40776364E+01
 20
3.25740853E+01
 11
-5.34776364E+01
 21
3.22240853E+01
  0
LINE
  8
0
 62
4
 10
-5.50776364E+01
 20
3.62240853E+01
 11
-5.25776364E+01
 21
3.62240853E+01
  0
LINE
  8
0
 62
6
 10
-5.50776364E+01
 20
3.58740853E+01
 11
-5.40776364E+01
 21
3.58740853E+01
  0
LINE
  8
0
 62
6
 10
-5.50776364E+01
 20
3.25740853E+01
 11
-5.40776364E+01
 21
3.25740853E+01
  0
LINE
  8
0
 62
4
 10
-5.50776364E+01
 20
3.22240853E+01
 11
-5.25776364E+01
 21
3.22240853E+01
  0
LINE
  8
0
 62
4
 10
-5.91276364E+01
 20
3.92240853E+01
 11
-5.91276364E+01
 21
2.92240853E+01
  0
LINE
  8
0
 62
4
 10
-5.78276364E+01
 20
3.92240853E+01
 11
-5.78276364E+01
 21
2.92240853E+01
  0
LINE
  8
0
 62
4
 10
-5.91276364E+01
 20
3.92240853E+01
 11
-5.78276364E+01
 21
3.92240853E+01
  0
LINE
  8
0
 62
4
 10
-5.91276364E+01
 20
2.92240853E+01
 11
-5.78276364E+01
 21
2.92240853E+01
  0
LINE
  8
0
 62
4
 10
-5.71676364E+01
 20
3.82740853E+01
 11
-5.53976364E+01
 21
3.82740853E+01
  0
LINE
  8
0
 62
4
 10
-5.74776364E+01
 20
3.77240853E+01
 11
-5.71676364E+01
 21
3.82740853E+01
  0
LINE
  8
0
 62
4
 10
-5.74776364E+01
 20
3.77240853E+01
 11
-5.74776364E+01
 21
3.07240853E+01
  0
LINE
  8
0
 62
4
 10
-5.71676364E+01
 20
3.62540853E+01
 11
-5.53976364E+01
 21
3.62540853E+01
  0
LINE
  8
0
 62
4
 10
-5.71676364E+01
 20
3.22040853E+01
 11
-5.53976364E+01
 21
3.22040853E+01
  0
LINE
  8
0
 62
4
 10
-5.71676364E+01
 20
3.01840853E+01
 11
-5.53976364E+01
 21
3.01840853E+01
  0
LINE
  8
0
 62
4
 10
-5.74776364E+01
 20
3.07240853E+01
 11
-5.71676364E+01
 21
3.01840853E+01
  0
LINE
  8
0
 62
4
 10
-5.50776364E+01
 20
3.07240853E+01
 11
-5.53976364E+01
 21
3.01840853E+01
  0
LINE
  8
0
 62
4
 10
-5.50776364E+01
 20
3.77240853E+01
 11
-5.53976364E+01
 21
3.82740853E+01
  0
LINE
  8
0
 62
4
 10
-5.50776364E+01
 20
3.77240853E+01
 11
-5.50776364E+01
 21
3.07240853E+01
  0
LINE
  8
0
 62
7
 10
-4.17776364E+01
 20
3.82240853E+01
 11
-4.20776364E+01
 21
3.81440853E+01
  0
LINE
  8
0
 62
7
 10
-4.17776364E+01
 20
3.02240853E+01
 11
-4.20776364E+01
 21
3.03040853E+01
  0
LINE
  8
0
 62
7
 10
-4.20776364E+01
 20
3.81440853E+01
 11
-4.20776364E+01
 21
3.03040853E+01
  0
LINE
  8
0
 62
7
 10
-4.17776364E+01
 20
3.02240853E+01
 11
-4.10776364E+01
 21
3.02240853E+01
  0
LINE
  8
0
 62
7
 10
-4.17776364E+01
 20
3.82240853E+01
 11
-4.10776364E+01
 21
3.82240853E+01
  0
LINE
  8
0
  6
DASHED
 62
6
 10
-6.40776364E+01
 20
3.49740853E+01
 11
-5.91276364E+01
 21
3.49740853E+01
  0
LINE
  8
0
  6
DASHED
 62
6
 10
-6.40776364E+01
 20
3.34740853E+01
 11
-5.91276364E+01
 21
3.34740853E+01
  0
ARC
  8
0
 62
4
 10
-5.00776364E+01
 20
3.42240853E+01
 40
2.50000000E+00
 50
1.43130102E+02
 51
2.16869898E+02
  0
ARC
  8
0
 62
4
 10
-5.56893803E+01
 20
3.72658582E+01
 40
1.79134747E+00
 50
1.54605128E+02
 51
2.14389176E+02
  0
ARC
  8
0
 62
4
 10
-5.07902506E+01
 20
3.42290853E+01
 40
6.69116394E+00
 50
1.62383888E+02
 51
1.97616113E+02
  0
ARC
  8
0
 62
4
 10
-5.56886261E+01
 20
3.11922530E+01
 40
1.79200339E+00
 50
1.45622879E+02
 51
2.05382818E+02
  0
ARC
  8
0
 62
4
 10
-5.68667172E+01
 20
3.11930340E+01
 40
1.78337407E+00
 50
3.34457763E+02
 51
3.45365399E+01
  0
ARC
  8
0
 62
4
 10
-6.17650467E+01
 20
3.42290853E+01
 40
6.68165683E+00
 50
3.42357999E+02
 51
1.76420005E+01
  0
ARC
  8
0
 62
4
 10
-5.68659593E+01
 20
3.72650770E+01
 40
1.78271600E+00
 50
3.25451229E+02
 51
2.55544679E+01
  0
LINE
  8
0
 62
4
 10
-5.74776364E+01
 20
3.73740853E+01
 11
-5.74776364E+01
 21
3.10740853E+01
  0
LINE
  8
0
 62
4
 10
-5.78276364E+01
 20
3.77240853E+01
 11
-5.78276364E+01
 21
3.07240853E+01
  0
ARC
  8
0
 62
4
 10
-5.78276366E+01
 20
3.73740851E+01
 40
3.50000191E-01
 50
3.12237134E-05
 51
8.99999687E+01
  0
ARC
  8
0
 62
4
 10
-5.78276366E+01
 20
3.10740855E+01
 40
3.50000191E-01
 50
2.70000031E+02
 51
3.59999969E+02
  0
LINE
  8
0
 62
4
 10
-5.94776395E+01
 20
3.73740853E+01
 11
-5.94776395E+01
 21
3.10740853E+01
  0
LINE
  8
0
 62
4
 10
-5.91276395E+01
 20
3.77240853E+01
 11
-5.91276395E+01
 21
3.07240853E+01
  0
ARC
  8
0
 62
4
 10
-5.91276393E+01
 20
3.73740851E+01
 40
3.50000191E-01
 50
9.00000311E+01
 51
1.79999969E+02
  0
ARC
  8
0
 62
4
 10
-5.91276393E+01
 20
3.10740855E+01
 40
3.50000191E-01
 50
1.80000031E+02
 51
2.69999969E+02
  0
LINE
  8
0
  6
PHANTOM
 10
2.22757722E+01
 20
1.47240853E+01
 11
2.22757722E+01
 21
6.00222671E+01
  0
LINE
  8
0
 62
7
 10
-1.32077636E+02
 20
3.67240853E+01
 11
-1.32077636E+02
 21
3.17240853E+01
  0
LINE
  8
0
  6
CENTER
 62
2
 10
-1.19077636E+02
 20
4.92240853E+01
 11
-1.19077636E+02
 21
1.92240853E+01
  0
LINE
  8
0
 62
7
 10
-1.12077636E+02
 20
4.62240853E+01
 11
-1.12077636E+02
 21
3.97240853E+01
  0
LINE
  8
0
 62
7
 10
-1.26077636E+02
 20
4.62240853E+01
 11
-1.26077636E+02
 21
3.97240853E+01
  0
LINE
  8
0
 62
7
 10
-1.26077636E+02
 20
4.62240853E+01
 11
-1.12077636E+02
 21
4.62240853E+01
  0
LINE
  8
0
 62
7
 10
-1.12577636E+02
 20
4.27240853E+01
 11
-1.12577636E+02
 21
2.27240853E+01
  0
LINE
  8
0
 62
7
 10
-1.25577636E+02
 20
4.27240853E+01
 11
-1.25577636E+02
 21
2.27240853E+01
  0
LINE
  8
0
 62
7
 10
-1.25577636E+02
 20
2.27240853E+01
 11
-1.12577636E+02
 21
2.27240853E+01
  0
LINE
  8
0
  6
CENTER
 62
2
 10
-1.25577636E+02
 20
2.52240853E+01
 11
-1.20577636E+02
 21
2.52240853E+01
  0
LINE
  8
0
  6
CENTER
 62
2
 10
-1.23077636E+02
 20
2.77240853E+01
 11
-1.23077636E+02
 21
2.27240853E+01
  0
LINE
  8
0
 62
7
 10
-1.25577636E+02
 20
4.27240853E+01
 11
-1.12577636E+02
 21
4.27240853E+01
  0
LINE
  8
0
 62
7
 10
-1.12077636E+02
 20
2.87240853E+01
 11
-1.12577636E+02
 21
2.87240853E+01
  0
LINE
  8
0
 62
7
 10
-1.12077636E+02
 20
2.87240853E+01
 11
-1.12577636E+02
 21
2.87240853E+01
  0
LINE
  8
0
 62
7
 10
-1.24327636E+02
 20
4.39540853E+01
 11
-1.24327636E+02
 21
4.27240853E+01
  0
LINE
  8
0
 62
7
 10
-1.21827636E+02
 20
4.39540853E+01
 11
-1.21827636E+02
 21
4.27240853E+01
  0
LINE
  8
0
 62
7
 10
-1.24327636E+02
 20
4.39540853E+01
 11
-1.23077636E+02
 21
4.46640853E+01
  0
LINE
  8
0
 62
7
 10
-1.23077636E+02
 20
4.46640853E+01
 11
-1.21827636E+02
 21
4.39540853E+01
  0
LINE
  8
0
  6
CENTER
 62
2
 10
-1.23077636E+02
 20
4.77240853E+01
 11
-1.23077636E+02
 21
4.07240853E+01
  0
LINE
  8
0
  6
CENTER
 62
2
 10
-1.27577636E+02
 20
4.32240853E+01
 11
-1.18577636E+02
 21
4.32240853E+01
  0
LINE
  8
0
 62
4
 10
-1.06577636E+02
 20
2.27240853E+01
 11
-1.06577636E+02
 21
3.14740853E+01
  0
LINE
  8
0
 62
4
 10
-1.14077636E+02
 20
2.12240853E+01
 11
-1.10697636E+02
 21
2.12240853E+01
  0
LINE
  8
0
 62
4
 10
-1.06577636E+02
 20
2.27240853E+01
 11
-1.10697636E+02
 21
2.12240853E+01
  0
LINE
  8
0
 62
4
 10
-1.10677636E+02
 20
3.35240853E+01
 11
-1.07467636E+02
 21
3.35240853E+01
  0
LINE
  8
0
 62
4
 10
-1.12077636E+02
 20
2.87240853E+01
 11
-1.08077636E+02
 21
2.87240853E+01
  0
LINE
  8
0
 62
4
 10
-1.09977636E+02
 20
3.27240853E+01
 11
-1.08077636E+02
 21
3.27240853E+01
  0
LINE
  8
0
 62
4
 10
-1.08077636E+02
 20
2.87240853E+01
 11
-1.08077636E+02
 21
3.07240853E+01
  0
LINE
  8
0
 62
6
 10
-1.08077636E+02
 20
2.87240853E+01
 11
-1.09407636E+02
 21
3.00640853E+01
  0
LINE
  8
0
 62
4
 10
-1.06017636E+02
 20
2.35740853E+01
 11
-1.06577636E+02
 21
2.35740853E+01
  0
LINE
  8
0
 62
4
 10
-1.06017636E+02
 20
2.98740853E+01
 11
-1.06577636E+02
 21
2.98740853E+01
  0
LINE
  8
0
 62
7
 10
-1.19577636E+02
 20
4.62240853E+01
 11
-1.19577636E+02
 21
4.32240853E+01
  0
LINE
  8
0
 62
7
 10
-1.26077636E+02
 20
3.97240853E+01
 11
-1.25577636E+02
 21
3.97240853E+01
  0
LINE
  8
0
 62
7
 10
-1.26077636E+02
 20
2.22240853E+01
 11
-1.12077636E+02
 21
2.22240853E+01
  0
LINE
  8
0
 62
4
 10
-1.14077636E+02
 20
2.22240853E+01
 11
-1.14077636E+02
 21
2.12240853E+01
  0
LINE
  8
0
 62
7
 10
-1.18577636E+02
 20
2.27240853E+01
 11
-1.18577636E+02
 21
2.22240853E+01
  0
LINE
  8
0
 62
7
 10
-1.26077636E+02
 20
2.87240853E+01
 11
-1.26077636E+02
 21
2.22240853E+01
  0
LINE
  8
0
 62
7
 10
-1.12077636E+02
 20
2.87240853E+01
 11
-1.12077636E+02
 21
2.22240853E+01
  0
LINE
  8
0
  6
CENTER
 62
2
 10
-1.29077636E+02
 20
3.72240853E+01
 11
-1.29077636E+02
 21
3.12240853E+01
  0
LINE
  8
0
 62
7
 10
-1.06077636E+02
 20
3.67240853E+01
 11
-1.12077636E+02
 21
3.97240853E+01
  0
LINE
  8
0
 62
7
 10
-1.06077636E+02
 20
3.67240853E+01
 11
-1.06077636E+02
 21
3.17240853E+01
  0
LINE
  8
0
  6
CENTER
 62
2
 10
-1.09077636E+02
 20
3.72240853E+01
 11
-1.09077636E+02
 21
3.12240853E+01
  0
LINE
  8
0
 62
7
 10
-1.06077636E+02
 20
3.17240853E+01
 11
-1.12077636E+02
 21
2.87240853E+01
  0
CIRCLE
  8
0
 62
7
 10
-1.23077636E+02
 20
2.52240853E+01
 40
1.50000000E+00
  0
CIRCLE
  8
0
 62
4
 10
-1.19077636E+02
 20
3.42240853E+01
 40
2.00000000E+00
  0
CIRCLE
  8
0
 62
6
 10
-1.19077636E+02
 20
3.42240853E+01
 40
1.64999962E+00
  0
CIRCLE
  8
0
 62
4
 10
-1.19077636E+02
 20
3.42240853E+01
 40
1.00000000E+00
  0
CIRCLE
  8
0
 62
4
 10
-1.19077636E+02
 20
3.42240853E+01
 40
5.00000000E+00
  0
ARC
  8
0
 62
7
 10
-1.23073429E+02
 20
4.32246031E+01
 40
2.75169650E+00
 50
3.49519886E+02
 51
2.04486451E+02
  0
ARC
  8
0
 62
7
 10
-1.23072636E+02
 20
4.32240864E+01
 40
2.40749373E+00
 50
3.48013260E+02
 51
1.91986740E+02
  0
ARC
  8
0
 62
7
 10
-1.15072636E+02
 20
2.52241047E+01
 40
2.74974944E+00
 50
2.45392389E+02
 51
2.94607611E+02
  0
ARC
  8
0
 62
7
 10
-1.15077641E+02
 20
2.52290853E+01
 40
2.74973554E+00
 50
3.35392256E+02
 51
2.46077441E+01
  0
ARC
  8
0
 62
4
 10
-1.06027498E+02
 20
2.42402061E+01
 40
6.66193824E-01
 50
2.70848139E+02
 51
3.25626752E+02
  0
ARC
  8
0
 62
4
 10
-1.06021948E+02
 20
2.92050566E+01
 40
6.69042520E-01
 50
3.55540513E+01
 51
8.96307976E+01
  0
ARC
  8
0
 62
7
 10
-1.23080319E+02
 20
4.31833462E+01
 40
3.50291899E+00
 50
3.52466372E+02
 51
6.66367013E-01
  0
CIRCLE
  8
0
 62
7
 10
-1.29077636E+02
 20
3.42240853E+01
 40
1.75000000E+00
  0
CIRCLE
  8
0
 62
7
 10
-1.09077636E+02
 20
3.42240853E+01
 40
1.75000000E+00
  0
CIRCLE
  8
0
 62
4
 10
-1.19077636E+02
 20
3.42240853E+01
 40
3.50000000E+00
  0
CIRCLE
  8
0
 62
4
 10
-1.19077636E+02
 20
3.42240853E+01
 40
2.00000000E+00
  0
ARC
  8
0
 62
4
 10
-1.09577638E+02
 20
2.67290853E+01
 40
5.00182385E+00
 50
3.25054915E+02
 51
3.49450853E+01
  0
LINE
  8
0
 62
7
 10
-1.32077636E+02
 20
3.17240853E+01
 11
-1.26077636E+02
 21
2.87240853E+01
  0
LINE
  8
0
 62
7
 10
-1.32077636E+02
 20
3.67240853E+01
 11
-1.26077636E+02
 21
3.97240853E+01
  0
LINE
  8
0
  6
CENTER
 62
2
 10
-1.35077636E+02
 20
3.42240853E+01
 11
-1.03077636E+02
 21
3.42240853E+01
  0
LINE
  8
0
  6
CENTER
 62
2
 10
1.20922364E+02
 20
4.92240853E+01
 11
1.20922364E+02
 21
1.92240853E+01
  0
LINE
  8
0
 62
7
 10
1.13922364E+02
 20
4.62240853E+01
 11
1.13922364E+02
 21
2.22240853E+01
  0
LINE
  8
0
 62
7
 10
1.27922364E+02
 20
4.62240853E+01
 11
1.27922364E+02
 21
2.22240853E+01
  0
LINE
  8
0
 62
7
 10
1.13922364E+02
 20
2.22240853E+01
 11
1.27922364E+02
 21
2.22240853E+01
  0
LINE
  8
0
 62
7
 10
1.13922364E+02
 20
4.62240853E+01
 11
1.27922364E+02
 21
4.62240853E+01
  0
LINE
  8
0
 62
4
 10
1.08422364E+02
 20
2.27240853E+01
 11
1.08422364E+02
 21
3.14740853E+01
  0
LINE
  8
0
 62
4
 10
1.15922364E+02
 20
2.12240853E+01
 11
1.12542364E+02
 21
2.12240853E+01
  0
LINE
  8
0
 62
4
 10
1.08422364E+02
 20
2.27240853E+01
 11
1.12542364E+02
 21
2.12240853E+01
  0
LINE
  8
0
 62
4
 10
1.12522364E+02
 20
3.35240853E+01
 11
1.09312364E+02
 21
3.35240853E+01
  0
LINE
  8
0
 62
4
 10
1.13922364E+02
 20
2.87240853E+01
 11
1.09922364E+02
 21
2.87240853E+01
  0
LINE
  8
0
 62
4
 10
1.11822364E+02
 20
3.27240853E+01
 11
1.10020976E+02
 21
3.27240853E+01
  0
LINE
  8
0
 62
4
 10
1.09922364E+02
 20
2.87240853E+01
 11
1.09922364E+02
 21
3.07240853E+01
  0
LINE
  8
0
 62
4
 10
1.07862364E+02
 20
2.35740853E+01
 11
1.08422364E+02
 21
2.35740853E+01
  0
LINE
  8
0
 62
4
 10
1.07862364E+02
 20
2.98740853E+01
 11
1.08422364E+02
 21
2.98740853E+01
  0
LINE
  8
0
  6
CENTER
 62
2
 10
1.27922364E+02
 20
2.52240853E+01
 11
1.21922364E+02
 21
2.52240853E+01
  0
LINE
  8
0
  6
CENTER
 62
2
 10
1.24922364E+02
 20
2.22240853E+01
 11
1.24922364E+02
 21
2.82240853E+01
  0
LINE
  8
0
  6
CENTER
 62
2
 10
1.13922364E+02
 20
4.32240853E+01
 11
1.19922364E+02
 21
4.32240853E+01
  0
LINE
  8
0
  6
CENTER
 62
2
 10
1.16922364E+02
 20
4.62240853E+01
 11
1.16922364E+02
 21
4.02240853E+01
  0
LINE
  8
0
 62
7
 10
1.07922364E+02
 20
3.67240853E+01
 11
1.07922364E+02
 21
3.17240853E+01
  0
LINE
  8
0
 62
7
 10
1.33922364E+02
 20
3.67240853E+01
 11
1.33922364E+02
 21
3.17240853E+01
  0
LINE
  8
0
  6
CENTER
 62
2
 10
1.10922364E+02
 20
3.72240853E+01
 11
1.10922364E+02
 21
3.12240853E+01
  0
LINE
  8
0
  6
CENTER
 62
2
 10
1.30922364E+02
 20
3.72240853E+01
 11
1.30922364E+02
 21
3.12240853E+01
  0
LINE
  8
0
 62
7
 10
1.07922364E+02
 20
3.67240853E+01
 11
1.13922364E+02
 21
3.97240853E+01
  0
LINE
  8
0
 62
7
 10
1.33922364E+02
 20
3.17240853E+01
 11
1.27922364E+02
 21
2.87240853E+01
  0
LINE
  8
0
 62
7
 10
1.33922364E+02
 20
3.67240853E+01
 11
1.27922364E+02
 21
3.97240853E+01
  0
LINE
  8
0
 62
7
 10
1.07922364E+02
 20
3.17240853E+01
 11
1.13922364E+02
 21
2.87240853E+01
  0
LINE
  8
0
 62
4
 10
1.15922364E+02
 20
2.22240853E+01
 11
1.15922364E+02
 21
2.12240853E+01
  0
ARC
  8
0
 62
4
 10
1.07866675E+02
 20
2.92050566E+01
 40
6.69042520E-01
 50
9.03692022E+01
 51
1.44445949E+02
  0
ARC
  8
0
 62
4
 10
1.11422366E+02
 20
2.67290853E+01
 40
5.00182385E+00
 50
1.45054915E+02
 51
2.14945085E+02
  0
ARC
  8
0
 62
4
 10
1.07872225E+02
 20
2.42402061E+01
 40
6.66193824E-01
 50
2.14373248E+02
 51
2.69151861E+02
  0
ARC
  8
0
 62
4
 10
1.11914877E+02
 20
3.07278268E+01
 40
1.49594614E+00
 50
1.90154562E+02
 51
2.96928727E+02
  0
CIRCLE
  8
0
 62
2
 10
1.24922364E+02
 20
2.52240853E+01
 40
1.50000000E+00
  0
CIRCLE
  8
0
 62
7
 10
1.24922364E+02
 20
2.52240853E+01
 40
1.25000000E+00
  0
CIRCLE
  8
0
 62
7
 10
1.16922364E+02
 20
4.32240853E+01
 40
1.25000000E+00
  0
CIRCLE
  8
0
 62
2
 10
1.16922364E+02
 20
4.32240853E+01
 40
1.50000000E+00
  0
CIRCLE
  8
0
 62
7
 10
1.10922364E+02
 20
3.42240853E+01
 40
1.75000000E+00
  0
CIRCLE
  8
0
 62
7
 10
1.30922364E+02
 20
3.42240853E+01
 40
1.75000000E+00
  0
LINE
  8
0
  6
CENTER
 62
2
 10
1.04922364E+02
 20
3.42240853E+01
 11
1.36922364E+02
 21
3.42240853E+01
  0
ARC
  8
0
 62
4
 10
1.41736356E+00
 20
6.97240873E+01
 40
5.00182385E+00
 50
2.35054914E+02
 51
3.04945086E+02
  0
LINE
  8
0
  6
PHANTOM
 10
-1.77242278E+01
 20
5.00222671E+01
 11
-1.77242278E+01
 21
1.00320449E+02
  0
LINE
  8
0
 62
7
 10
-4.10776364E+01
 20
6.62240853E+01
 11
-3.50776364E+01
 21
6.62240853E+01
  0
LINE
  8
0
  6
DASHED
 62
2
 10
-4.10776364E+01
 20
6.74740853E+01
 11
-3.50776364E+01
 21
6.74740853E+01
  0
LINE
  8
0
  6
DASHED
 62
2
 10
-4.10776364E+01
 20
7.09740853E+01
 11
-3.50776364E+01
 21
7.09740853E+01
  0
LINE
  8
0
 62
2
 10
-4.30776364E+01
 20
6.92240853E+01
 11
-3.30776364E+01
 21
6.92240853E+01
  0
LINE
  8
0
 62
7
 10
-4.10776364E+01
 20
9.22240853E+01
 11
-3.50776364E+01
 21
9.22240853E+01
  0
LINE
  8
0
 62
2
 10
-4.30776364E+01
 20
8.92240853E+01
 11
-3.30776364E+01
 21
8.92240853E+01
  0
LINE
  8
0
  6
DASHED
 62
2
 10
-4.10776364E+01
 20
8.74740853E+01
 11
-3.50776364E+01
 21
8.74740853E+01
  0
LINE
  8
0
  6
DASHED
 62
2
 10
-4.10776364E+01
 20
9.09740853E+01
 11
-3.50776364E+01
 21
9.09740853E+01
  0
LINE
  8
0
 62
7
 10
-4.10776364E+01
 20
7.22240853E+01
 11
6.19223636E+01
 21
7.22240853E+01
  0
ARC
  8
0
 62
4
 10
3.90624272E+00
 20
6.61739465E+01
 40
6.66193824E-01
 50
3.04373248E+02
 51
3.59151860E+02
  0
ARC
  8
0
 62
4
 10
-1.05861380E+00
 20
6.61683933E+01
 40
6.69036508E-01
 50
1.80368939E+02
 51
2.34446212E+02
  0
CIRCLE
  8
0
 62
7
 10
4.19223636E+01
 20
7.92240853E+01
 40
2.09999943E+00
  0
CIRCLE
  8
0
 62
2
 10
4.19223636E+01
 20
7.92240853E+01
 40
2.50000000E+00
  0
CIRCLE
  8
0
 62
7
 10
-2.95776364E+01
 20
7.84240822E+01
 40
2.09999943E+00
  0
CIRCLE
  8
0
 62
2
 10
-2.95776364E+01
 20
7.84240822E+01
 40
2.50000000E+00
  0
CIRCLE
  8
0
 62
7
 10
1.39223636E+01
 20
7.92240853E+01
 40
2.09999943E+00
  0
CIRCLE
  8
0
 62
2
 10
1.39223636E+01
 20
7.92240853E+01
 40
2.50000000E+00
  0
LINE
  8
0
 62
4
 10
-2.32763644E+00
 20
7.08440853E+01
 11
5.17236356E+00
 21
7.08440853E+01
  0
LINE
  8
0
 62
4
 10
4.57236356E+00
 20
6.61640853E+01
 11
4.57236356E+00
 21
6.67240853E+01
  0
LINE
  8
0
 62
4
 10
-1.72763644E+00
 20
6.61640853E+01
 11
-1.72763644E+00
 21
6.67240853E+01
  0
LINE
  8
0
 62
4
 10
-2.32763644E+00
 20
6.67240853E+01
 11
5.17236356E+00
 21
6.67240853E+01
  0
LINE
  8
0
 62
4
 10
5.17236356E+00
 20
6.82240853E+01
 11
1.01723636E+01
 21
6.82240853E+01
  0
LINE
  8
0
 62
4
 10
1.01723636E+01
 20
6.82240853E+01
 11
1.01723636E+01
 21
7.22240853E+01
  0
LINE
  8
0
 62
4
 10
5.17236356E+00
 20
6.67240853E+01
 11
5.17236356E+00
 21
7.22240853E+01
  0
LINE
  8
0
 62
4
 10
-2.32763644E+00
 20
7.22240853E+01
 11
-2.32763644E+00
 21
6.67240853E+01
  0
LINE
  8
0
  6
CENTER
 62
2
 10
4.19223636E+01
 20
8.32240853E+01
 11
4.19223636E+01
 21
7.52240853E+01
  0
LINE
  8
0
  6
CENTER
 62
2
 10
-2.95776364E+01
 20
8.24240853E+01
 11
-2.95776364E+01
 21
7.44240853E+01
  0
LINE
  8
0
  6
CENTER
 62
2
 10
1.39223636E+01
 20
8.32240853E+01
 11
1.39223636E+01
 21
7.52240853E+01
  0
LINE
  8
0
 62
7
 10
6.19223636E+01
 20
8.62240853E+01
 11
6.19223636E+01
 21
7.22240853E+01
  0
LINE
  8
0
 62
6
 10
1.68297851E+01
 20
6.87240853E+01
 11
1.50977343E+01
 21
7.17240853E+01
  0
LINE
  8
0
 62
4
 10
1.01723636E+01
 20
7.17240853E+01
 11
1.50977343E+01
 21
7.17240853E+01
  0
LINE
  8
0
 62
4
 10
1.01723636E+01
 20
6.87240853E+01
 11
1.68297851E+01
 21
6.87240853E+01
  0
LINE
  8
0
 62
4
 10
-1.18276364E+01
 20
6.82240853E+01
 11
-2.32763644E+00
 21
6.82240853E+01
  0
LINE
  8
0
 62
4
 10
-1.08276364E+01
 20
7.22240853E+01
 11
-1.08276364E+01
 21
6.82240853E+01
  0
LINE
  8
0
 62
4
 10
-1.18276364E+01
 20
6.82240853E+01
 11
-1.18276364E+01
 21
7.22240853E+01
  0
LINE
  8
0
  6
CENTER
 62
2
 10
-3.35776364E+01
 20
7.84240853E+01
 11
-2.55776364E+01
 21
7.84240853E+01
  0
LINE
  8
0
 62
7
 10
-4.10776364E+01
 20
8.62240853E+01
 11
6.19223636E+01
 21
8.62240853E+01
  0
LINE
  8
0
  6
CENTER
 62
2
 10
-6.70776364E+01
 20
7.92240853E+01
 11
6.49223636E+01
 21
7.92240853E+01
  0
LINE
  8
0
 62
4
 10
-6.40776364E+01
 20
8.07240853E+01
 11
-6.40776364E+01
 21
7.77240853E+01
  0
LINE
  8
0
 62
7
 10
-4.20776364E+01
 20
8.31440853E+01
 11
-4.20776364E+01
 21
7.53040853E+01
  0
LINE
  8
0
 62
7
 10
-4.17776364E+01
 20
7.52240853E+01
 11
-4.10776364E+01
 21
7.52240853E+01
  0
LINE
  8
0
 62
7
 10
-4.17776364E+01
 20
8.32240853E+01
 11
-4.10776364E+01
 21
8.32240853E+01
  0
LINE
  8
0
 62
7
 10
-4.17776364E+01
 20
8.32240853E+01
 11
-4.20776364E+01
 21
8.31440853E+01
  0
LINE
  8
0
 62
7
 10
-4.17776364E+01
 20
7.52240853E+01
 11
-4.20776364E+01
 21
7.53040853E+01
  0
LINE
  8
0
 62
4
 10
-5.40776364E+01
 20
8.12240853E+01
 11
-5.40776364E+01
 21
7.72240853E+01
  0
LINE
  8
0
 62
4
 10
-6.35776364E+01
 20
7.72240853E+01
 11
-5.94776364E+01
 21
7.72240853E+01
  0
LINE
  8
0
 62
4
 10
-6.35776364E+01
 20
8.12240853E+01
 11
-5.94776364E+01
 21
8.12240853E+01
  0
LINE
  8
0
 62
4
 10
-6.40776364E+01
 20
8.07240853E+01
 11
-6.35776364E+01
 21
8.12240853E+01
  0
LINE
  8
0
 62
4
 10
-6.40776364E+01
 20
7.77240853E+01
 11
-6.35776364E+01
 21
7.72240853E+01
  0
LINE
  8
0
 62
4
 10
-6.35776364E+01
 20
8.12240853E+01
 11
-6.35776364E+01
 21
7.72240853E+01
  0
LINE
  8
0
 62
6
 10
-6.39276364E+01
 20
8.08740853E+01
 11
-5.94776364E+01
 21
8.08740853E+01
  0
LINE
  8
0
 62
6
 10
-6.39276364E+01
 20
7.75740853E+01
 11
-5.94776364E+01
 21
7.75740853E+01
  0
LINE
  8
0
 62
6
 10
-5.40776364E+01
 20
8.08740853E+01
 11
-5.34776364E+01
 21
8.12240853E+01
  0
LINE
  8
0
 62
6
 10
-5.40776364E+01
 20
7.75740853E+01
 11
-5.34776364E+01
 21
7.72240853E+01
  0
LINE
  8
0
 62
4
 10
-5.50776364E+01
 20
8.12240853E+01
 11
-4.85776364E+01
 21
8.12240853E+01
  0
LINE
  8
0
 62
6
 10
-5.50776364E+01
 20
8.08740853E+01
 11
-5.40776364E+01
 21
8.08740853E+01
  0
LINE
  8
0
 62
6
 10
-5.50776364E+01
 20
7.75740853E+01
 11
-5.40776364E+01
 21
7.75740853E+01
  0
LINE
  8
0
 62
4
 10
-5.50776364E+01
 20
7.72240853E+01
 11
-4.85776364E+01
 21
7.72240853E+01
  0
LINE
  8
0
 62
4
 10
-5.91276364E+01
 20
8.42240853E+01
 11
-5.91276364E+01
 21
7.42240853E+01
  0
LINE
  8
0
 62
4
 10
-5.78276364E+01
 20
8.42240853E+01
 11
-5.78276364E+01
 21
7.42240853E+01
  0
LINE
  8
0
 62
4
 10
-5.91276364E+01
 20
8.42240853E+01
 11
-5.78276364E+01
 21
8.42240853E+01
  0
LINE
  8
0
 62
4
 10
-5.91276364E+01
 20
7.42240853E+01
 11
-5.78276364E+01
 21
7.42240853E+01
  0
LINE
  8
0
 62
4
 10
-5.74776364E+01
 20
8.27240853E+01
 11
-5.74776364E+01
 21
7.57240853E+01
  0
LINE
  8
0
 62
4
 10
-5.50776364E+01
 20
8.27240853E+01
 11
-5.50776364E+01
 21
7.57240853E+01
  0
LINE
  8
0
 62
7
 10
-4.85776364E+01
 20
8.57240853E+01
 11
-4.85776364E+01
 21
7.27240853E+01
  0
LINE
  8
0
 62
7
 10
-4.25776364E+01
 20
8.57240853E+01
 11
-4.25776364E+01
 21
7.27240853E+01
  0
LINE
  8
0
 62
7
 10
-4.10776364E+01
 20
9.22240853E+01
 11
-4.10776364E+01
 21
6.62240853E+01
  0
LINE
  8
0
 62
7
 10
-3.50776364E+01
 20
9.22240853E+01
 11
-3.50776364E+01
 21
6.62240853E+01
  0
LINE
  8
0
 62
7
 10
-3.78776364E+01
 20
8.62240853E+01
 11
-3.78776364E+01
 21
7.97240853E+01
  0
LINE
  8
0
 62
7
 10
-4.10776364E+01
 20
7.97240853E+01
 11
-3.78776364E+01
 21
7.97240853E+01
  0
LINE
  8
0
 62
7
 10
-4.08776364E+01
 20
8.59740853E+01
 11
-3.78776364E+01
 21
8.59740853E+01
  0
LINE
  8
0
 62
7
 10
-4.08776364E+01
 20
8.59740853E+01
 11
-4.08776364E+01
 21
8.04740853E+01
  0
LINE
  8
0
 62
7
 10
-4.08776364E+01
 20
8.04740853E+01
 11
-3.78776364E+01
 21
8.04740853E+01
  0
LINE
  8
0
 62
7
 10
-4.85776364E+01
 20
7.27240853E+01
 11
-4.25776364E+01
 21
7.27240853E+01
  0
LINE
  8
0
 62
7
 10
-4.85776364E+01
 20
8.57240853E+01
 11
-4.25776364E+01
 21
8.57240853E+01
  0
LINE
  8
0
  6
CENTER
 62
2
 10
-4.55776364E+01
 20
8.17240853E+01
 11
-4.55776364E+01
 21
7.67240853E+01
  0
LINE
  8
0
 62
7
 10
-4.63276364E+01
 20
7.87840853E+01
 11
-4.55776364E+01
 21
7.83540853E+01
  0
LINE
  8
0
 62
7
 10
-4.55776364E+01
 20
7.83540853E+01
 11
-4.48276364E+01
 21
7.87840853E+01
  0
LINE
  8
0
 62
7
 10
-4.48276364E+01
 20
7.87840853E+01
 11
-4.48276364E+01
 21
7.96540853E+01
  0
LINE
  8
0
 62
7
 10
-4.48276364E+01
 20
7.96540853E+01
 11
-4.55776364E+01
 21
8.00840853E+01
  0
LINE
  8
0
 62
7
 10
-4.55776364E+01
 20
8.00840853E+01
 11
-4.63276364E+01
 21
7.96540853E+01
  0
LINE
  8
0
 62
7
 10
-4.63276364E+01
 20
7.96540853E+01
 11
-4.63276364E+01
 21
7.87840853E+01
  0
LINE
  8
0
 62
4
 10
-5.25776364E+01
 20
8.12240853E+01
 11
-5.25776364E+01
 21
7.72240853E+01
  0
LINE
  8
0
 62
4
 10
-5.20776364E+01
 20
8.12240853E+01
 11
-5.20776364E+01
 21
7.72240853E+01
  0
LINE
  8
0
 62
7
 10
-4.25776364E+01
 20
8.17240853E+01
 11
-4.20776364E+01
 21
8.17240853E+01
  0
LINE
  8
0
 62
7
 10
-4.25776364E+01
 20
7.67240853E+01
 11
-4.20776364E+01
 21
7.67240853E+01
  0
LINE
  8
0
 62
7
 10
-4.25776364E+01
 20
8.47240853E+01
 11
-4.10776364E+01
 21
8.47240853E+01
  0
LINE
  8
0
 62
4
 10
-5.74776364E+01
 20
7.57240853E+01
 11
-5.50776364E+01
 21
7.57240853E+01
  0
LINE
  8
0
 62
4
 10
-5.74776364E+01
 20
8.27240853E+01
 11
-5.50776364E+01
 21
8.27240853E+01
  0
LINE
  8
0
 62
4
 10
-5.71676364E+01
 20
7.92240853E+01
 11
-5.53976364E+01
 21
7.92240853E+01
  0
CIRCLE
  8
0
 62
7
 10
-4.55776364E+01
 20
7.92240853E+01
 40
1.50000000E+00
  0
CIRCLE
  8
0
 62
7
 10
-4.55776364E+01
 20
7.92240853E+01
 40
1.25000000E+00
  0
ARC
  8
0
 62
4
 10
-5.24230191E+01
 20
8.09740853E+01
 40
5.05706371E+00
 50
1.59754058E+02
 51
2.00245942E+02
  0
ARC
  8
0
 62
4
 10
-6.01322782E+01
 20
8.09740853E+01
 40
5.04770564E+00
 50
3.39714874E+02
 51
2.02851261E+01
  0
ARC
  8
0
 62
4
 10
-5.24230191E+01
 20
7.74740853E+01
 40
5.05706371E+00
 50
1.59754058E+02
 51
2.00245942E+02
  0
ARC
  8
0
 62
4
 10
-6.01322782E+01
 20
7.74740853E+01
 40
5.04770564E+00
 50
3.39714874E+02
 51
2.02851261E+01
  0
LINE
  8
0
 62
4
 10
-5.94776395E+01
 20
8.23740853E+01
 11
-5.94776395E+01
 21
7.60740853E+01
  0
LINE
  8
0
 62
4
 10
-5.91276395E+01
 20
8.27240853E+01
 11
-5.91276395E+01
 21
7.57240853E+01
  0
ARC
  8
0
 62
4
 10
-5.91276393E+01
 20
8.23740851E+01
 40
3.50000191E-01
 50
9.00000311E+01
 51
1.79999969E+02
  0
ARC
  8
0
 62
4
 10
-5.91276393E+01
 20
7.60740855E+01
 40
3.50000191E-01
 50
1.80000031E+02
 51
2.69999969E+02
  0
LINE
  8
0
 62
4
 10
-5.74776364E+01
 20
8.23740853E+01
 11
-5.74776364E+01
 21
7.60740853E+01
  0
LINE
  8
0
 62
4
 10
-5.78276364E+01
 20
8.27240853E+01
 11
-5.78276364E+01
 21
7.57240853E+01
  0
ARC
  8
0
 62
4
 10
-5.78276366E+01
 20
8.23740851E+01
 40
3.50000191E-01
 50
3.12237134E-05
 51
8.99999687E+01
  0
ARC
  8
0
 62
4
 10
-5.78276366E+01
 20
7.60740855E+01
 40
3.50000191E-01
 50
2.70000031E+02
 51
3.59999969E+02
  0
LINE
  8
0
  6
PHANTOM
 10
2.22757722E+01
 20
5.00222671E+01
 11
2.22757722E+01
 21
1.00320449E+02
  0
LINE
  8
0
  6
CENTER
 62
6
 10
-1.74374524E+02
 20
-8.01707492E+01
 11
-1.36636380E+02
 21
-8.01707492E+01
  0
LINE
  8
0
 62
6
 10
-1.52574524E+02
 20
-8.16707492E+01
 11
-1.49074524E+02
 21
-7.86707492E+01
  0
LINE
  8
0
 62
6
 10
-1.52574524E+02
 20
-7.86707492E+01
 11
-1.49074524E+02
 21
-8.16707492E+01
  0
LINE
  8
0
 62
4
 10
-1.52574524E+02
 20
-7.76707492E+01
 11
-1.49074524E+02
 21
-7.76707492E+01
  0
LINE
  8
0
 62
4
 10
-1.52574524E+02
 20
-8.26707492E+01
 11
-1.49074524E+02
 21
-8.26707492E+01
  0
LINE
  8
0
 62
4
 10
-1.52574524E+02
 20
-8.16707492E+01
 11
-1.49074524E+02
 21
-8.16707492E+01
  0
LINE
  8
0
 62
4
 10
-1.52574524E+02
 20
-7.86707492E+01
 11
-1.49074524E+02
 21
-7.86707492E+01
  0
LINE
  8
0
 62
4
 10
-1.57974524E+02
 20
-7.51707492E+01
 11
-1.57974524E+02
 21
-8.51707492E+01
  0
ARC
  8
0
 62
4
 10
-1.59274523E+02
 20
-8.33207490E+01
 40
3.50000191E-01
 50
2.53398427E+02
 51
2.69999969E+02
  0
ARC
  8
0
 62
4
 10
-1.59274523E+02
 20
-7.70207494E+01
 40
3.50000191E-01
 50
9.00000311E+01
 51
1.06601573E+02
  0
LINE
  8
0
 62
4
 10
-1.59274524E+02
 20
-7.51707492E+01
 11
-1.59274524E+02
 21
-8.51707492E+01
  0
LINE
  8
0
 62
4
 10
-1.53074524E+02
 20
-7.81707492E+01
 11
-1.53074524E+02
 21
-8.21707492E+01
  0
LINE
  8
0
 62
4
 10
-1.53074524E+02
 20
-7.81707492E+01
 11
-1.52574524E+02
 21
-7.76707492E+01
  0
LINE
  8
0
 62
4
 10
-1.53074524E+02
 20
-8.21707492E+01
 11
-1.52574524E+02
 21
-8.26707492E+01
  0
LINE
  8
0
 62
4
 10
-1.52574524E+02
 20
-7.76707492E+01
 11
-1.52574524E+02
 21
-7.86707492E+01
  0
LINE
  8
0
 62
4
 10
-1.52574524E+02
 20
-8.16707492E+01
 11
-1.52574524E+02
 21
-8.26707492E+01
  0
LINE
  8
0
 62
4
 10
-1.54574524E+02
 20
-7.81707492E+01
 11
-1.54574524E+02
 21
-8.21707492E+01
  0
LINE
  8
0
 62
6
 10
-1.54574524E+02
 20
-7.85207492E+01
 11
-1.53964524E+02
 21
-7.81707492E+01
  0
LINE
  8
0
 62
6
 10
-1.54574524E+02
 20
-8.18207492E+01
 11
-1.53964524E+02
 21
-8.21707492E+01
  0
LINE
  8
0
 62
4
 10
-1.55574524E+02
 20
-7.81707492E+01
 11
-1.53074524E+02
 21
-7.81707492E+01
  0
LINE
  8
0
 62
6
 10
-1.55574524E+02
 20
-7.85207492E+01
 11
-1.54574524E+02
 21
-7.85207492E+01
  0
LINE
  8
0
 62
6
 10
-1.55574524E+02
 20
-8.18207492E+01
 11
-1.54574524E+02
 21
-8.18207492E+01
  0
LINE
  8
0
 62
4
 10
-1.55574524E+02
 20
-8.21707492E+01
 11
-1.53074524E+02
 21
-8.21707492E+01
  0
LINE
  8
0
 62
4
 10
-1.59374524E+02
 20
-7.66853390E+01
 11
-1.59374524E+02
 21
-8.36707492E+01
  0
LINE
  8
0
 62
4
 10
-1.59274524E+02
 20
-7.51707492E+01
 11
-1.57974524E+02
 21
-7.51707492E+01
  0
LINE
  8
0
 62
4
 10
-1.59274524E+02
 20
-8.51707492E+01
 11
-1.57974524E+02
 21
-8.51707492E+01
  0
LINE
  8
0
 62
4
 10
-1.57654524E+02
 20
-7.61307492E+01
 11
-1.55884524E+02
 21
-7.61307492E+01
  0
LINE
  8
0
 62
4
 10
-1.57874524E+02
 20
-7.66707492E+01
 11
-1.57654524E+02
 21
-7.61307492E+01
  0
LINE
  8
0
 62
4
 10
-1.57654524E+02
 20
-7.81507492E+01
 11
-1.55884524E+02
 21
-7.81507492E+01
  0
LINE
  8
0
 62
4
 10
-1.57654524E+02
 20
-8.21907492E+01
 11
-1.55884524E+02
 21
-8.21907492E+01
  0
LINE
  8
0
 62
4
 10
-1.57654524E+02
 20
-8.42207492E+01
 11
-1.55884524E+02
 21
-8.42207492E+01
  0
LINE
  8
0
 62
4
 10
-1.57874524E+02
 20
-8.36707492E+01
 11
-1.57654524E+02
 21
-8.42207492E+01
  0
LINE
  8
0
 62
4
 10
-1.55574524E+02
 20
-8.36707492E+01
 11
-1.55884524E+02
 21
-8.42207492E+01
  0
LINE
  8
0
 62
4
 10
-1.55574524E+02
 20
-7.66707492E+01
 11
-1.55884524E+02
 21
-7.61307492E+01
  0
LINE
  8
0
 62
4
 10
-1.55574524E+02
 20
-7.66707492E+01
 11
-1.55574524E+02
 21
-8.36707492E+01
  0
LINE
  8
0
 62
4
 10
-1.69274524E+02
 20
-7.66707492E+01
 11
-1.69274524E+02
 21
-8.36707492E+01
  0
LINE
  8
0
 62
4
 10
-1.72574524E+02
 20
-7.89207492E+01
 11
-1.72574524E+02
 21
-8.14207492E+01
  0
LINE
  8
0
 62
4
 10
-1.71274524E+02
 20
-7.84207492E+01
 11
-1.71274524E+02
 21
-8.19207492E+01
  0
LINE
  8
0
 62
4
 10
-1.69274524E+02
 20
-8.19207492E+01
 11
-1.71274524E+02
 21
-8.19207492E+01
  0
LINE
  8
0
 62
4
 10
-1.69274524E+02
 20
-7.84207492E+01
 11
-1.71274524E+02
 21
-7.84207492E+01
  0
LINE
  8
0
 62
4
 10
-1.72574524E+02
 20
-7.89207492E+01
 11
-1.71824524E+02
 21
-7.93607492E+01
  0
LINE
  8
0
 62
4
 10
-1.72574524E+02
 20
-8.14207492E+01
 11
-1.71824524E+02
 21
-8.09907492E+01
  0
LINE
  8
0
 62
4
 10
-1.71274524E+02
 20
-7.84207492E+01
 11
-1.71814524E+02
 21
-7.93607492E+01
  0
LINE
  8
0
 62
4
 10
-1.71274524E+02
 20
-8.19207492E+01
 11
-1.71814524E+02
 21
-8.09907492E+01
  0
LINE
  8
0
 62
4
 10
-1.71814524E+02
 20
-7.93607492E+01
 11
-1.71814524E+02
 21
-8.09907492E+01
  0
LINE
  8
0
 62
4
 10
-1.68954524E+02
 20
-7.81507492E+01
 11
-1.59684524E+02
 21
-7.81507492E+01
  0
LINE
  8
0
 62
4
 10
-1.68954524E+02
 20
-7.61307492E+01
 11
-1.59684524E+02
 21
-7.61307492E+01
  0
LINE
  8
0
 62
4
 10
-1.69274524E+02
 20
-7.66707492E+01
 11
-1.68954524E+02
 21
-7.61307492E+01
  0
LINE
  8
0
 62
4
 10
-1.68954524E+02
 20
-8.21907492E+01
 11
-1.59684524E+02
 21
-8.21907492E+01
  0
LINE
  8
0
 62
4
 10
-1.69274524E+02
 20
-8.36707492E+01
 11
-1.68954524E+02
 21
-8.42207492E+01
  0
LINE
  8
0
 62
4
 10
-1.68954524E+02
 20
-8.42207492E+01
 11
-1.59684524E+02
 21
-8.42207492E+01
  0
LINE
  8
0
 62
4
 10
-1.59374524E+02
 20
-8.36707492E+01
 11
-1.59684524E+02
 21
-8.42207492E+01
  0
LINE
  8
0
 62
4
 10
-1.59374524E+02
 20
-7.66707492E+01
 11
-1.59684524E+02
 21
-7.61307492E+01
  0
ARC
  8
0
 62
4
 10
-1.57363199E+02
 20
-8.32068746E+01
 40
1.79415492E+00
 50
3.34447945E+02
 51
3.44963155E+01
  0
ARC
  8
0
 62
4
 10
-1.50574508E+02
 20
-8.01707492E+01
 40
2.50001221E+00
 50
1.43130312E+02
 51
2.16869688E+02
  0
ARC
  8
0
 62
4
 10
-1.62261917E+02
 20
-8.01707492E+01
 40
6.68965947E+00
 50
3.42424723E+02
 51
1.75752774E+01
  0
ARC
  8
0
 62
4
 10
-1.57363527E+02
 20
-7.71389174E+01
 40
1.79199759E+00
 50
3.25622773E+02
 51
2.53829241E+01
  0
ARC
  8
0
 62
4
 10
-1.56185768E+02
 20
-8.32060988E+01
 40
1.78554702E+00
 50
1.45343927E+02
 51
2.05711813E+02
  0
ARC
  8
0
 62
4
 10
-1.56185437E+02
 20
-7.71396974E+01
 40
1.78337882E+00
 50
1.54457851E+02
 51
2.14536452E+02
  0
ARC
  8
0
 62
4
 10
-1.51287124E+02
 20
-8.01707492E+01
 40
6.68013276E+00
 50
1.62398839E+02
 51
1.97601161E+02
  0
ARC
  8
0
 62
4
 10
-1.67485458E+02
 20
-7.71407492E+01
 40
1.78276594E+00
 50
1.45491021E+02
 51
2.14508980E+02
  0
ARC
  8
0
 62
4
 10
-1.62587143E+02
 20
-8.01707492E+01
 40
6.68011531E+00
 50
1.62398792E+02
 51
1.97601208E+02
  0
ARC
  8
0
 62
4
 10
-1.67485454E+02
 20
-8.32057492E+01
 40
1.78560603E+00
 50
1.45358872E+02
 51
2.14641128E+02
  0
ARC
  8
0
 62
4
 10
-1.61163568E+02
 20
-7.71407492E+01
 40
1.79099764E+00
 50
3.25671874E+02
 51
3.43281262E+01
  0
ARC
  8
0
 62
4
 10
-1.66061883E+02
 20
-8.01707492E+01
 40
6.68962747E+00
 50
3.42424636E+02
 51
1.75753642E+01
  0
ARC
  8
0
 62
4
 10
-1.61163571E+02
 20
-8.32057492E+01
 40
1.79382470E+00
 50
3.25540045E+02
 51
3.44599544E+01
  0
LINE
  8
0
 62
4
 10
-1.49074524E+02
 20
-7.76707492E+01
 11
-1.49074524E+02
 21
-8.26707492E+01
  0
LINE
  8
0
 62
4
 10
-5.65745235E+01
 20
-7.86707492E+01
 11
-5.30745235E+01
 21
-7.86707492E+01
  0
LINE
  8
0
 62
4
 10
-5.65745235E+01
 20
-8.16707492E+01
 11
-5.30745235E+01
 21
-8.16707492E+01
  0
LINE
  8
0
 62
4
 10
-5.65745235E+01
 20
-8.26707492E+01
 11
-5.30745235E+01
 21
-8.26707492E+01
  0
LINE
  8
0
 62
4
 10
-5.65745235E+01
 20
-7.76707492E+01
 11
-5.30745235E+01
 21
-7.76707492E+01
  0
LINE
  8
0
 62
6
 10
-5.65745235E+01
 20
-7.86707492E+01
 11
-5.30745235E+01
 21
-8.16707492E+01
  0
LINE
  8
0
 62
6
 10
-5.65745235E+01
 20
-8.16707492E+01
 11
-5.30745235E+01
 21
-7.86707492E+01
  0
LINE
  8
0
  6
CENTER
 62
6
 10
-7.78745235E+01
 20
-8.01707492E+01
 11
-4.07921642E+01
 21
-8.01707492E+01
  0
ARC
  8
0
 62
4
 10
-6.30745233E+01
 20
-8.33207490E+01
 40
3.50000191E-01
 50
2.53398427E+02
 51
2.69999969E+02
  0
ARC
  8
0
 62
4
 10
-6.30745233E+01
 20
-7.70207494E+01
 40
3.50000191E-01
 50
9.00000311E+01
 51
1.06601573E+02
  0
LINE
  8
0
 62
4
 10
-7.65745235E+01
 20
-7.83207492E+01
 11
-7.65745235E+01
 21
-8.20207492E+01
  0
LINE
  8
0
 62
4
 10
-7.30745235E+01
 20
-8.19207492E+01
 11
-7.50745235E+01
 21
-8.19207492E+01
  0
LINE
  8
0
 62
4
 10
-7.30745235E+01
 20
-7.84207492E+01
 11
-7.50745235E+01
 21
-7.84207492E+01
  0
LINE
  8
0
 62
4
 10
-7.53745235E+01
 20
-8.11707492E+01
 11
-7.58745235E+01
 21
-8.11707492E+01
  0
LINE
  8
0
 62
4
 10
-7.53745235E+01
 20
-7.91707492E+01
 11
-7.58745235E+01
 21
-7.91707492E+01
  0
LINE
  8
0
 62
4
 10
-7.64795235E+01
 20
-7.82707492E+01
 11
-7.58745235E+01
 21
-7.91707492E+01
  0
LINE
  8
0
 62
4
 10
-7.58745235E+01
 20
-8.11707492E+01
 11
-7.64795235E+01
 21
-8.20707492E+01
  0
LINE
  8
0
 62
4
 10
-7.64795235E+01
 20
-7.82707492E+01
 11
-7.65745235E+01
 21
-7.83207492E+01
  0
LINE
  8
0
 62
4
 10
-7.64795235E+01
 20
-8.20707492E+01
 11
-7.65745235E+01
 21
-8.20207492E+01
  0
LINE
  8
0
 62
4
 10
-7.50745235E+01
 20
-7.84207492E+01
 11
-7.53745235E+01
 21
-7.91707492E+01
  0
LINE
  8
0
 62
4
 10
-7.53745235E+01
 20
-8.11707492E+01
 11
-7.50745235E+01
 21
-8.19207492E+01
  0
LINE
  8
0
 62
4
 10
-7.50745235E+01
 20
-7.84207492E+01
 11
-7.50745235E+01
 21
-8.19207492E+01
  0
LINE
  8
0
 62
4
 10
-7.58745235E+01
 20
-7.91707492E+01
 11
-7.58745235E+01
 21
-8.11707492E+01
  0
LINE
  8
0
 62
4
 10
-7.53745235E+01
 20
-7.91707492E+01
 11
-7.53745235E+01
 21
-8.11707492E+01
  0
LINE
  8
0
 62
4
 10
-6.31745235E+01
 20
-7.66707492E+01
 11
-6.31745235E+01
 21
-8.36707492E+01
  0
ARC
  8
0
 62
4
 10
-6.49635712E+01
 20
-8.32057492E+01
 40
1.79382470E+00
 50
3.25540045E+02
 51
3.44599544E+01
  0
ARC
  8
0
 62
4
 10
-6.98618831E+01
 20
-8.01707492E+01
 40
6.68962747E+00
 50
3.42424636E+02
 51
1.75753642E+01
  0
ARC
  8
0
 62
4
 10
-6.49635680E+01
 20
-7.71407492E+01
 40
1.79099764E+00
 50
3.25671874E+02
 51
3.43281262E+01
  0
ARC
  8
0
 62
4
 10
-7.12854544E+01
 20
-8.32057492E+01
 40
1.78560603E+00
 50
1.45358872E+02
 51
2.14641128E+02
  0
ARC
  8
0
 62
4
 10
-6.63871425E+01
 20
-8.01707492E+01
 40
6.68011531E+00
 50
1.62398792E+02
 51
1.97601208E+02
  0
ARC
  8
0
 62
4
 10
-7.12854577E+01
 20
-7.71407492E+01
 40
1.78276594E+00
 50
1.45491021E+02
 51
2.14508980E+02
  0
ARC
  8
0
 62
4
 10
-5.50871242E+01
 20
-8.01707492E+01
 40
6.68013276E+00
 50
1.62398839E+02
 51
1.97601161E+02
  0
ARC
  8
0
 62
4
 10
-5.99854372E+01
 20
-7.71396974E+01
 40
1.78337882E+00
 50
1.54457851E+02
 51
2.14536452E+02
  0
ARC
  8
0
 62
4
 10
-5.99857678E+01
 20
-8.32060988E+01
 40
1.78554702E+00
 50
1.45343927E+02
 51
2.05711813E+02
  0
ARC
  8
0
 62
4
 10
-6.11635272E+01
 20
-7.71389174E+01
 40
1.79199759E+00
 50
3.25622773E+02
 51
2.53829241E+01
  0
ARC
  8
0
 62
4
 10
-6.60619167E+01
 20
-8.01707492E+01
 40
6.68965947E+00
 50
3.42424723E+02
 51
1.75752774E+01
  0
ARC
  8
0
 62
4
 10
-5.45745082E+01
 20
-8.01707492E+01
 40
2.50001221E+00
 50
1.43130312E+02
 51
2.16869688E+02
  0
ARC
  8
0
 62
4
 10
-6.11631989E+01
 20
-8.32068746E+01
 40
1.79415492E+00
 50
3.34447945E+02
 51
3.44963155E+01
  0
LINE
  8
0
 62
4
 10
-6.31745235E+01
 20
-7.66707492E+01
 11
-6.34845235E+01
 21
-7.61307492E+01
  0
LINE
  8
0
 62
4
 10
-6.31745235E+01
 20
-8.36707492E+01
 11
-6.34845235E+01
 21
-8.42207492E+01
  0
LINE
  8
0
 62
4
 10
-7.27545235E+01
 20
-8.42207492E+01
 11
-6.34845235E+01
 21
-8.42207492E+01
  0
LINE
  8
0
 62
4
 10
-7.30745235E+01
 20
-8.36707492E+01
 11
-7.27545235E+01
 21
-8.42207492E+01
  0
LINE
  8
0
 62
4
 10
-7.27545235E+01
 20
-8.21907492E+01
 11
-6.33845235E+01
 21
-8.21907492E+01
  0
LINE
  8
0
 62
4
 10
-7.30745235E+01
 20
-7.66707492E+01
 11
-7.27545235E+01
 21
-7.61307492E+01
  0
LINE
  8
0
 62
4
 10
-7.27545235E+01
 20
-7.61307492E+01
 11
-6.34845235E+01
 21
-7.61307492E+01
  0
LINE
  8
0
 62
4
 10
-7.27545235E+01
 20
-7.81507492E+01
 11
-6.33845235E+01
 21
-7.81507492E+01
  0
LINE
  8
0
 62
4
 10
-7.30745235E+01
 20
-7.66707492E+01
 11
-7.30745235E+01
 21
-8.36707492E+01
  0
LINE
  8
0
 62
4
 10
-5.93745235E+01
 20
-7.66707492E+01
 11
-5.93745235E+01
 21
-8.36707492E+01
  0
LINE
  8
0
 62
4
 10
-5.93745235E+01
 20
-7.66707492E+01
 11
-5.96845235E+01
 21
-7.61307492E+01
  0
LINE
  8
0
 62
4
 10
-5.93745235E+01
 20
-8.36707492E+01
 11
-5.96845235E+01
 21
-8.42207492E+01
  0
LINE
  8
0
 62
4
 10
-6.17745235E+01
 20
-8.36707492E+01
 11
-6.14545235E+01
 21
-8.42207492E+01
  0
LINE
  8
0
 62
4
 10
-6.14545235E+01
 20
-8.42207492E+01
 11
-5.96845235E+01
 21
-8.42207492E+01
  0
LINE
  8
0
 62
4
 10
-6.14545235E+01
 20
-8.21907492E+01
 11
-5.96845235E+01
 21
-8.21907492E+01
  0
LINE
  8
0
 62
4
 10
-6.14545235E+01
 20
-7.81507492E+01
 11
-5.96845235E+01
 21
-7.81507492E+01
  0
LINE
  8
0
 62
4
 10
-6.17745235E+01
 20
-7.66707492E+01
 11
-6.14545235E+01
 21
-7.61307492E+01
  0
LINE
  8
0
 62
4
 10
-6.14545235E+01
 20
-7.61307492E+01
 11
-5.96845235E+01
 21
-7.61307492E+01
  0
LINE
  8
0
 62
4
 10
-6.30745235E+01
 20
-8.51707492E+01
 11
-6.17745235E+01
 21
-8.51707492E+01
  0
LINE
  8
0
 62
4
 10
-6.30745235E+01
 20
-7.51707492E+01
 11
-6.17745235E+01
 21
-7.51707492E+01
  0
LINE
  8
0
 62
4
 10
-6.17745235E+01
 20
-7.51707492E+01
 11
-6.17745235E+01
 21
-8.51707492E+01
  0
LINE
  8
0
 62
4
 10
-6.30745235E+01
 20
-7.51707492E+01
 11
-6.30745235E+01
 21
-8.51707492E+01
  0
LINE
  8
0
 62
4
 10
-5.93745235E+01
 20
-8.21707492E+01
 11
-5.70745235E+01
 21
-8.21707492E+01
  0
LINE
  8
0
 62
6
 10
-5.93745235E+01
 20
-8.18207492E+01
 11
-5.85745235E+01
 21
-8.18207492E+01
  0
LINE
  8
0
 62
6
 10
-5.93745235E+01
 20
-7.85207492E+01
 11
-5.85745235E+01
 21
-7.85207492E+01
  0
LINE
  8
0
 62
4
 10
-5.93745235E+01
 20
-7.81707492E+01
 11
-5.70745235E+01
 21
-7.81707492E+01
  0
LINE
  8
0
 62
6
 10
-5.85745235E+01
 20
-8.18207492E+01
 11
-5.79645235E+01
 21
-8.21707492E+01
  0
LINE
  8
0
 62
6
 10
-5.85745235E+01
 20
-7.85207492E+01
 11
-5.79645235E+01
 21
-7.81707492E+01
  0
LINE
  8
0
 62
4
 10
-5.85745235E+01
 20
-7.81707492E+01
 11
-5.85745235E+01
 21
-8.21707492E+01
  0
LINE
  8
0
 62
4
 10
-5.65745235E+01
 20
-8.16707492E+01
 11
-5.65745235E+01
 21
-8.26707492E+01
  0
LINE
  8
0
 62
4
 10
-5.65745235E+01
 20
-7.76707492E+01
 11
-5.65745235E+01
 21
-7.86707492E+01
  0
LINE
  8
0
 62
4
 10
-5.70745235E+01
 20
-8.21707492E+01
 11
-5.65745235E+01
 21
-8.26707492E+01
  0
LINE
  8
0
 62
4
 10
-5.70745235E+01
 20
-7.81707492E+01
 11
-5.65745235E+01
 21
-7.76707492E+01
  0
LINE
  8
0
 62
4
 10
-5.70745235E+01
 20
-7.81707492E+01
 11
-5.70745235E+01
 21
-8.21707492E+01
  0
LINE
  8
0
 62
4
 10
-5.30745235E+01
 20
-7.76707492E+01
 11
-5.30745235E+01
 21
-8.26707492E+01
  0
LINE
  8
0
 62
4
 10
4.24254765E+01
 20
-7.86707492E+01
 11
4.59254765E+01
 21
-7.86707492E+01
  0
LINE
  8
0
 62
4
 10
4.24254765E+01
 20
-8.16707492E+01
 11
4.59254765E+01
 21
-8.16707492E+01
  0
LINE
  8
0
 62
4
 10
4.24254765E+01
 20
-8.26707492E+01
 11
4.59254765E+01
 21
-8.26707492E+01
  0
LINE
  8
0
 62
4
 10
4.24254765E+01
 20
-7.76707492E+01
 11
4.59254765E+01
 21
-7.76707492E+01
  0
LINE
  8
0
 62
6
 10
4.24254765E+01
 20
-7.86707492E+01
 11
4.59254765E+01
 21
-8.16707492E+01
  0
LINE
  8
0
 62
6
 10
4.24254765E+01
 20
-8.16707492E+01
 11
4.59254765E+01
 21
-7.86707492E+01
  0
LINE
  8
0
  6
CENTER
 62
6
 10
1.85320255E+01
 20
-8.01707492E+01
 11
5.79212774E+01
 21
-8.01707492E+01
  0
LINE
  8
0
 62
4
 10
3.58277444E+01
 20
-7.66853390E+01
 11
3.58277444E+01
 21
-8.36561593E+01
  0
ARC
  8
0
 62
4
 10
3.59277445E+01
 20
-8.33207490E+01
 40
3.50000191E-01
 50
2.53398427E+02
 51
2.69999969E+02
  0
ARC
  8
0
 62
4
 10
3.59277445E+01
 20
-7.70207494E+01
 40
3.50000191E-01
 50
9.00000311E+01
 51
1.06601573E+02
  0
LINE
  8
0
 62
4
 10
2.59254765E+01
 20
-8.21707492E+01
 11
2.51254765E+01
 21
-8.26707492E+01
  0
LINE
  8
0
 62
4
 10
1.99254765E+01
 20
-8.31707492E+01
 11
2.11254765E+01
 21
-8.19707492E+01
  0
LINE
  8
0
 62
4
 10
2.29254765E+01
 20
-8.26707492E+01
 11
2.11254765E+01
 21
-8.19707492E+01
  0
LINE
  8
0
 62
4
 10
2.51254765E+01
 20
-8.26707492E+01
 11
2.29254765E+01
 21
-8.26707492E+01
  0
LINE
  8
0
 62
4
 10
2.51254765E+01
 20
-7.76707492E+01
 11
2.29254765E+01
 21
-7.76707492E+01
  0
LINE
  8
0
 62
4
 10
1.99254765E+01
 20
-7.71707492E+01
 11
2.11254765E+01
 21
-7.83707492E+01
  0
LINE
  8
0
 62
4
 10
2.29254765E+01
 20
-7.76707492E+01
 11
2.11254765E+01
 21
-7.83707492E+01
  0
LINE
  8
0
 62
4
 10
2.51254765E+01
 20
-7.76707492E+01
 11
2.51254765E+01
 21
-8.26707492E+01
  0
LINE
  8
0
 62
4
 10
2.29254765E+01
 20
-7.76707492E+01
 11
2.29254765E+01
 21
-8.26707492E+01
  0
LINE
  8
0
 62
4
 10
2.11254765E+01
 20
-7.83707492E+01
 11
2.11254765E+01
 21
-8.19707492E+01
  0
LINE
  8
0
 62
4
 10
2.51254765E+01
 20
-7.76707492E+01
 11
2.59254765E+01
 21
-7.81707492E+01
  0
LINE
  8
0
 62
4
 10
1.99254765E+01
 20
-7.71707492E+01
 11
1.99254765E+01
 21
-8.31707492E+01
  0
LINE
  8
0
 62
4
 10
2.59254765E+01
 20
-7.66707492E+01
 11
2.59254765E+01
 21
-8.36707492E+01
  0
LINE
  8
0
 62
4
 10
4.19254765E+01
 20
-7.81707492E+01
 11
4.19254765E+01
 21
-8.21707492E+01
  0
LINE
  8
0
 62
4
 10
4.19254765E+01
 20
-7.81707492E+01
 11
4.24254765E+01
 21
-7.76707492E+01
  0
LINE
  8
0
 62
4
 10
4.19254765E+01
 20
-8.21707492E+01
 11
4.24254765E+01
 21
-8.26707492E+01
  0
LINE
  8
0
 62
4
 10
4.24254765E+01
 20
-7.76707492E+01
 11
4.24254765E+01
 21
-7.86707492E+01
  0
LINE
  8
0
 62
4
 10
4.24254765E+01
 20
-8.16707492E+01
 11
4.24254765E+01
 21
-8.26707492E+01
  0
LINE
  8
0
 62
4
 10
4.04254765E+01
 20
-7.81707492E+01
 11
4.04254765E+01
 21
-8.21707492E+01
  0
LINE
  8
0
 62
6
 10
4.04254765E+01
 20
-7.85207492E+01
 11
4.10354765E+01
 21
-7.81707492E+01
  0
LINE
  8
0
 62
6
 10
4.04254765E+01
 20
-8.18207492E+01
 11
4.10354765E+01
 21
-8.21707492E+01
  0
LINE
  8
0
 62
4
 10
3.96254765E+01
 20
-7.81707492E+01
 11
4.19254765E+01
 21
-7.81707492E+01
  0
LINE
  8
0
 62
6
 10
3.96254765E+01
 20
-7.85207492E+01
 11
4.04254765E+01
 21
-7.85207492E+01
  0
LINE
  8
0
 62
6
 10
3.96254765E+01
 20
-8.18207492E+01
 11
4.04254765E+01
 21
-8.18207492E+01
  0
LINE
  8
0
 62
4
 10
3.96254765E+01
 20
-8.21707492E+01
 11
4.19254765E+01
 21
-8.21707492E+01
  0
LINE
  8
0
 62
4
 10
3.59254765E+01
 20
-7.51707492E+01
 11
3.59254765E+01
 21
-8.51707492E+01
  0
LINE
  8
0
 62
4
 10
3.72254765E+01
 20
-7.51707492E+01
 11
3.72254765E+01
 21
-8.51707492E+01
  0
LINE
  8
0
 62
4
 10
3.59254765E+01
 20
-7.51707492E+01
 11
3.72254765E+01
 21
-7.51707492E+01
  0
LINE
  8
0
 62
4
 10
3.59254765E+01
 20
-8.51707492E+01
 11
3.72254765E+01
 21
-8.51707492E+01
  0
LINE
  8
0
 62
4
 10
3.75454765E+01
 20
-7.61307492E+01
 11
3.93154765E+01
 21
-7.61307492E+01
  0
LINE
  8
0
 62
4
 10
3.72254765E+01
 20
-7.66707492E+01
 11
3.75454765E+01
 21
-7.61307492E+01
  0
LINE
  8
0
 62
4
 10
3.75454765E+01
 20
-7.81507492E+01
 11
3.93154765E+01
 21
-7.81507492E+01
  0
LINE
  8
0
 62
4
 10
3.75454765E+01
 20
-8.21907492E+01
 11
3.93154765E+01
 21
-8.21907492E+01
  0
LINE
  8
0
 62
4
 10
3.75454765E+01
 20
-8.42207492E+01
 11
3.93154765E+01
 21
-8.42207492E+01
  0
LINE
  8
0
 62
4
 10
3.72254765E+01
 20
-8.36707492E+01
 11
3.75454765E+01
 21
-8.42207492E+01
  0
LINE
  8
0
 62
4
 10
3.96254765E+01
 20
-8.36707492E+01
 11
3.93154765E+01
 21
-8.42207492E+01
  0
LINE
  8
0
 62
4
 10
3.96254765E+01
 20
-7.66707492E+01
 11
3.93154765E+01
 21
-7.61307492E+01
  0
LINE
  8
0
 62
4
 10
3.96254765E+01
 20
-7.66707492E+01
 11
3.96254765E+01
 21
-8.36707492E+01
  0
LINE
  8
0
 62
4
 10
2.62454765E+01
 20
-7.81507492E+01
 11
3.55154765E+01
 21
-7.81507492E+01
  0
LINE
  8
0
 62
4
 10
2.62454765E+01
 20
-7.61307492E+01
 11
3.55154765E+01
 21
-7.61307492E+01
  0
LINE
  8
0
 62
4
 10
2.62454765E+01
 20
-8.21907492E+01
 11
3.55154765E+01
 21
-8.21907492E+01
  0
LINE
  8
0
 62
4
 10
2.62454765E+01
 20
-8.42207492E+01
 11
3.55154765E+01
 21
-8.42207492E+01
  0
LINE
  8
0
 62
4
 10
3.58254765E+01
 20
-8.36707492E+01
 11
3.55154765E+01
 21
-8.42207492E+01
  0
LINE
  8
0
 62
4
 10
3.58254765E+01
 20
-7.66707492E+01
 11
3.55154765E+01
 21
-7.61307492E+01
  0
ARC
  8
0
 62
4
 10
3.78368011E+01
 20
-8.32068746E+01
 40
1.79415492E+00
 50
3.34447945E+02
 51
3.44963155E+01
  0
ARC
  8
0
 62
4
 10
4.44254918E+01
 20
-8.01707492E+01
 40
2.50001221E+00
 50
1.43130312E+02
 51
2.16869688E+02
  0
ARC
  8
0
 62
4
 10
3.29380833E+01
 20
-8.01707492E+01
 40
6.68965947E+00
 50
3.42424723E+02
 51
1.75752774E+01
  0
ARC
  8
0
 62
4
 10
3.78364728E+01
 20
-7.71389174E+01
 40
1.79199759E+00
 50
3.25622773E+02
 51
2.53829241E+01
  0
ARC
  8
0
 62
4
 10
3.90142322E+01
 20
-8.32060988E+01
 40
1.78554702E+00
 50
1.45343927E+02
 51
2.05711813E+02
  0
ARC
  8
0
 62
4
 10
3.90145628E+01
 20
-7.71396974E+01
 40
1.78337882E+00
 50
1.54457851E+02
 51
2.14536452E+02
  0
ARC
  8
0
 62
4
 10
4.39128758E+01
 20
-8.01707492E+01
 40
6.68013276E+00
 50
1.62398839E+02
 51
1.97601161E+02
  0
ARC
  8
0
 62
4
 10
3.40364320E+01
 20
-7.71407492E+01
 40
1.79099764E+00
 50
3.25671874E+02
 51
3.43281262E+01
  0
ARC
  8
0
 62
4
 10
2.91381169E+01
 20
-8.01707492E+01
 40
6.68962747E+00
 50
3.42424636E+02
 51
1.75753642E+01
  0
ARC
  8
0
 62
4
 10
3.40364288E+01
 20
-8.32057492E+01
 40
1.79382470E+00
 50
3.25540045E+02
 51
3.44599544E+01
  0
LINE
  8
0
 62
4
 10
3.59254765E+01
 20
-7.68449245E+01
 11
3.59254765E+01
 21
-8.38449245E+01
  0
ARC
  8
0
 62
4
 10
2.77145456E+01
 20
-8.32057492E+01
 40
1.78560603E+00
 50
1.45358872E+02
 51
2.14641128E+02
  0
ARC
  8
0
 62
4
 10
3.26128575E+01
 20
-8.01707492E+01
 40
6.68011531E+00
 50
1.62398792E+02
 51
1.97601208E+02
  0
ARC
  8
0
 62
4
 10
2.77145423E+01
 20
-7.71407492E+01
 40
1.78276594E+00
 50
1.45491021E+02
 51
2.14508980E+02
  0
LINE
  8
0
 62
4
 10
2.59254765E+01
 20
-8.36707492E+01
 11
2.62454765E+01
 21
-8.42207492E+01
  0
LINE
  8
0
 62
4
 10
2.59254765E+01
 20
-7.66707492E+01
 11
2.62454765E+01
 21
-7.61307492E+01
  0
LINE
  8
0
 62
4
 10
4.59254765E+01
 20
-7.76707492E+01
 11
4.59254765E+01
 21
-8.26707492E+01
  0
LINE
  8
0
 62
4
 10
1.38425476E+02
 20
-7.86707492E+01
 11
1.41925476E+02
 21
-7.86707492E+01
  0
LINE
  8
0
 62
4
 10
1.38425476E+02
 20
-8.16707492E+01
 11
1.41925476E+02
 21
-8.16707492E+01
  0
LINE
  8
0
 62
4
 10
1.38425476E+02
 20
-8.26707492E+01
 11
1.41925476E+02
 21
-8.26707492E+01
  0
LINE
  8
0
 62
4
 10
1.38425476E+02
 20
-7.76707492E+01
 11
1.41925476E+02
 21
-7.76707492E+01
  0
LINE
  8
0
 62
6
 10
1.38425476E+02
 20
-7.86707492E+01
 11
1.41925476E+02
 21
-8.16707492E+01
  0
LINE
  8
0
 62
6
 10
1.38425476E+02
 20
-8.16707492E+01
 11
1.41925476E+02
 21
-7.86707492E+01
  0
LINE
  8
0
  6
CENTER
 62
6
 10
1.14653650E+02
 20
-8.01707492E+01
 11
1.54349002E+02
 21
-8.01707492E+01
  0
LINE
  8
0
 62
4
 10
1.31827744E+02
 20
-7.66853390E+01
 11
1.31827744E+02
 21
-8.36561593E+01
  0
ARC
  8
0
 62
4
 10
1.31927745E+02
 20
-8.33207490E+01
 40
3.50000191E-01
 50
2.53398427E+02
 51
2.69999969E+02
  0
ARC
  8
0
 62
4
 10
1.31927745E+02
 20
-7.70207494E+01
 40
3.50000191E-01
 50
9.00000311E+01
 51
1.06601573E+02
  0
LINE
  8
0
 62
4
 10
1.21425476E+02
 20
-8.29207492E+01
 11
1.18925476E+02
 21
-8.29207492E+01
  0
LINE
  8
0
 62
4
 10
1.18510476E+02
 20
-8.25057492E+01
 11
1.18925476E+02
 21
-8.29207492E+01
  0
LINE
  8
0
 62
4
 10
1.16675476E+02
 20
-8.43407492E+01
 11
1.18510476E+02
 21
-8.25057492E+01
  0
LINE
  8
0
 62
4
 10
1.16675476E+02
 20
-8.43407492E+01
 11
1.16425476E+02
 21
-8.41707492E+01
  0
LINE
  8
0
 62
4
 10
1.21425476E+02
 20
-8.29207492E+01
 11
1.21925476E+02
 21
-8.24207492E+01
  0
LINE
  8
0
 62
4
 10
1.21425476E+02
 20
-7.74207492E+01
 11
1.18925476E+02
 21
-7.74207492E+01
  0
LINE
  8
0
 62
4
 10
1.18925476E+02
 20
-7.74207492E+01
 11
1.18510476E+02
 21
-7.78357492E+01
  0
LINE
  8
0
 62
4
 10
1.16675476E+02
 20
-7.60007492E+01
 11
1.18510476E+02
 21
-7.78357492E+01
  0
LINE
  8
0
 62
4
 10
1.16675476E+02
 20
-7.60007492E+01
 11
1.16425476E+02
 21
-7.61707492E+01
  0
LINE
  8
0
 62
4
 10
1.16675476E+02
 20
-7.60007492E+01
 11
1.16675476E+02
 21
-8.43407492E+01
  0
LINE
  8
0
 62
4
 10
1.18925476E+02
 20
-7.74207492E+01
 11
1.18925476E+02
 21
-8.29207492E+01
  0
LINE
  8
0
 62
4
 10
1.21425476E+02
 20
-7.74207492E+01
 11
1.21425476E+02
 21
-8.29207492E+01
  0
LINE
  8
0
 62
4
 10
1.18510476E+02
 20
-7.78357492E+01
 11
1.18510476E+02
 21
-8.25057492E+01
  0
LINE
  8
0
 62
4
 10
1.21425476E+02
 20
-7.74207492E+01
 11
1.21925476E+02
 21
-7.79207492E+01
  0
LINE
  8
0
 62
4
 10
1.16425476E+02
 20
-7.61707492E+01
 11
1.16425476E+02
 21
-8.41707492E+01
  0
LINE
  8
0
 62
4
 10
1.21925476E+02
 20
-7.66707492E+01
 11
1.21925476E+02
 21
-8.36707492E+01
  0
LINE
  8
0
 62
4
 10
1.37925476E+02
 20
-7.81707492E+01
 11
1.37925476E+02
 21
-8.21707492E+01
  0
LINE
  8
0
 62
4
 10
1.37925476E+02
 20
-7.81707492E+01
 11
1.38425476E+02
 21
-7.76707492E+01
  0
LINE
  8
0
 62
4
 10
1.37925476E+02
 20
-8.21707492E+01
 11
1.38425476E+02
 21
-8.26707492E+01
  0
LINE
  8
0
 62
4
 10
1.38425476E+02
 20
-7.76707492E+01
 11
1.38425476E+02
 21
-7.86707492E+01
  0
LINE
  8
0
 62
4
 10
1.38425476E+02
 20
-8.16707492E+01
 11
1.38425476E+02
 21
-8.26707492E+01
  0
LINE
  8
0
 62
4
 10
1.36425476E+02
 20
-7.81707492E+01
 11
1.36425476E+02
 21
-8.21707492E+01
  0
LINE
  8
0
 62
6
 10
1.36425476E+02
 20
-7.85207492E+01
 11
1.37035476E+02
 21
-7.81707492E+01
  0
LINE
  8
0
 62
6
 10
1.36425476E+02
 20
-8.18207492E+01
 11
1.37035476E+02
 21
-8.21707492E+01
  0
LINE
  8
0
 62
4
 10
1.35625476E+02
 20
-7.81707492E+01
 11
1.37925476E+02
 21
-7.81707492E+01
  0
LINE
  8
0
 62
6
 10
1.35625476E+02
 20
-7.85207492E+01
 11
1.36425476E+02
 21
-7.85207492E+01
  0
LINE
  8
0
 62
6
 10
1.35625476E+02
 20
-8.18207492E+01
 11
1.36425476E+02
 21
-8.18207492E+01
  0
LINE
  8
0
 62
4
 10
1.35625476E+02
 20
-8.21707492E+01
 11
1.37925476E+02
 21
-8.21707492E+01
  0
LINE
  8
0
 62
4
 10
1.31925476E+02
 20
-7.51707492E+01
 11
1.31925476E+02
 21
-8.51707492E+01
  0
LINE
  8
0
 62
4
 10
1.33225476E+02
 20
-7.51707492E+01
 11
1.33225476E+02
 21
-8.51707492E+01
  0
LINE
  8
0
 62
4
 10
1.31925476E+02
 20
-7.51707492E+01
 11
1.33225476E+02
 21
-7.51707492E+01
  0
LINE
  8
0
 62
4
 10
1.31925476E+02
 20
-8.51707492E+01
 11
1.33225476E+02
 21
-8.51707492E+01
  0
LINE
  8
0
 62
4
 10
1.33545476E+02
 20
-7.61307492E+01
 11
1.35315476E+02
 21
-7.61307492E+01
  0
LINE
  8
0
 62
4
 10
1.33225476E+02
 20
-7.66707492E+01
 11
1.33545476E+02
 21
-7.61307492E+01
  0
LINE
  8
0
 62
4
 10
1.33545476E+02
 20
-7.81507492E+01
 11
1.35315476E+02
 21
-7.81507492E+01
  0
LINE
  8
0
 62
4
 10
1.33545476E+02
 20
-8.21907492E+01
 11
1.35315476E+02
 21
-8.21907492E+01
  0
LINE
  8
0
 62
4
 10
1.33545476E+02
 20
-8.42207492E+01
 11
1.35315476E+02
 21
-8.42207492E+01
  0
LINE
  8
0
 62
4
 10
1.33225476E+02
 20
-8.36707492E+01
 11
1.33545476E+02
 21
-8.42207492E+01
  0
LINE
  8
0
 62
4
 10
1.35625476E+02
 20
-8.36707492E+01
 11
1.35315476E+02
 21
-8.42207492E+01
  0
LINE
  8
0
 62
4
 10
1.35625476E+02
 20
-7.66707492E+01
 11
1.35315476E+02
 21
-7.61307492E+01
  0
LINE
  8
0
 62
4
 10
1.35625476E+02
 20
-7.66707492E+01
 11
1.35625476E+02
 21
-8.36707492E+01
  0
LINE
  8
0
 62
4
 10
1.22245476E+02
 20
-7.81507492E+01
 11
1.31515476E+02
 21
-7.81507492E+01
  0
LINE
  8
0
 62
4
 10
1.22245476E+02
 20
-7.61307492E+01
 11
1.31515476E+02
 21
-7.61307492E+01
  0
LINE
  8
0
 62
4
 10
1.22245476E+02
 20
-8.21907492E+01
 11
1.31515476E+02
 21
-8.21907492E+01
  0
LINE
  8
0
 62
4
 10
1.22245476E+02
 20
-8.42207492E+01
 11
1.31515476E+02
 21
-8.42207492E+01
  0
LINE
  8
0
 62
4
 10
1.31825476E+02
 20
-8.36707492E+01
 11
1.31515476E+02
 21
-8.42207492E+01
  0
LINE
  8
0
 62
4
 10
1.31825476E+02
 20
-7.66707492E+01
 11
1.31515476E+02
 21
-7.61307492E+01
  0
ARC
  8
0
 62
4
 10
1.33836801E+02
 20
-8.32068746E+01
 40
1.79415492E+00
 50
3.34447945E+02
 51
3.44963155E+01
  0
ARC
  8
0
 62
4
 10
1.40425492E+02
 20
-8.01707492E+01
 40
2.50001221E+00
 50
1.43130312E+02
 51
2.16869688E+02
  0
ARC
  8
0
 62
4
 10
1.28938083E+02
 20
-8.01707492E+01
 40
6.68965947E+00
 50
3.42424723E+02
 51
1.75752774E+01
  0
ARC
  8
0
 62
4
 10
1.33836473E+02
 20
-7.71389174E+01
 40
1.79199759E+00
 50
3.25622773E+02
 51
2.53829241E+01
  0
ARC
  8
0
 62
4
 10
1.35014232E+02
 20
-8.32060988E+01
 40
1.78554702E+00
 50
1.45343927E+02
 51
2.05711813E+02
  0
ARC
  8
0
 62
4
 10
1.35014563E+02
 20
-7.71396974E+01
 40
1.78337882E+00
 50
1.54457851E+02
 51
2.14536452E+02
  0
ARC
  8
0
 62
4
 10
1.39912876E+02
 20
-8.01707492E+01
 40
6.68013276E+00
 50
1.62398839E+02
 51
1.97601161E+02
  0
ARC
  8
0
 62
4
 10
1.30036432E+02
 20
-7.71407492E+01
 40
1.79099764E+00
 50
3.25671874E+02
 51
3.43281262E+01
  0
ARC
  8
0
 62
4
 10
1.25138117E+02
 20
-8.01707492E+01
 40
6.68962747E+00
 50
3.42424636E+02
 51
1.75753642E+01
  0
ARC
  8
0
 62
4
 10
1.30036429E+02
 20
-8.32057492E+01
 40
1.79382470E+00
 50
3.25540045E+02
 51
3.44599544E+01
  0
LINE
  8
0
 62
4
 10
1.31925476E+02
 20
-7.68449245E+01
 11
1.31925476E+02
 21
-8.38449245E+01
  0
ARC
  8
0
 62
4
 10
1.23714546E+02
 20
-8.32057492E+01
 40
1.78560603E+00
 50
1.45358872E+02
 51
2.14641128E+02
  0
ARC
  8
0
 62
4
 10
1.28612857E+02
 20
-8.01707492E+01
 40
6.68011531E+00
 50
1.62398792E+02
 51
1.97601208E+02
  0
ARC
  8
0
 62
4
 10
1.23714542E+02
 20
-7.71407492E+01
 40
1.78276594E+00
 50
1.45491021E+02
 51
2.14508980E+02
  0
LINE
  8
0
 62
4
 10
1.21925476E+02
 20
-8.36707492E+01
 11
1.22245476E+02
 21
-8.42207492E+01
  0
LINE
  8
0
 62
4
 10
1.21925476E+02
 20
-7.66707492E+01
 11
1.22245476E+02
 21
-7.61307492E+01
  0
LINE
  8
0
 62
4
 10
1.41925476E+02
 20
-7.76707492E+01
 11
1.41925476E+02
 21
-8.26707492E+01
  0
TEXT
  8
0
 62
7
 10
-5.59000000E+01
 20
-2.75000000E+01
 40
3.20000005E+00
  1
0
 41
1.00000000E+00
  7
MONOTXT
  0
TEXT
  8
0
 62
7
 10
-7.49000000E+01
 20
-2.75000000E+01
 40
3.20000005E+00
  1
0
 41
1.00000000E+00
  7
MONOTXT
  0
TEXT
  8
0
 62
7
 10
-9.39000000E+01
 20
-2.75000000E+01
 40
3.20000005E+00
  1
0
 41
1.00000000E+00
  7
MONOTXT
  0
TEXT
  8
0
 62
7
 10
-1.14500000E+02
 20
-2.75000000E+01
 40
3.20000005E+00
  1
-5
 41
1.00000000E+00
  7
MONOTXT
  0
TEXT
  8
0
 62
7
 10
-1.35100000E+02
 20
-2.75000000E+01
 40
3.20000005E+00
  1
-10
 41
1.00000000E+00
  7
MONOTXT
  0
TEXT
  8
0
 62
7
 10
-1.54100000E+02
 20
-2.75000000E+01
 40
3.20000005E+00
  1
-12
 41
1.00000000E+00
  7
MONOTXT
  0
TEXT
  8
0
 62
7
 10
-1.75500000E+02
 20
-2.23000000E+01
 40
3.20000005E+00
  1
A
 41
1.00000000E+00
  7
MONOTXT
  0
TEXT
  8
0
 62
7
 10
-1.87587501E+02
 20
-1.15059304E+01
 40
3.20000005E+00
  1
STRETCH
 41
1.00000000E+00
  7
MONOTXT
  0
TEXT
  8
0
 62
7
 10
-1.87587501E+02
 20
-1.67059302E+01
 40
3.20000005E+00
  1
  PLACE
 41
1.20689655E+00
  7
MONOTXT
  0
LINE
  8
0
 62
7
 10
-1.65218991E+02
 20
-7.70000000E+00
 11
-1.59250000E+02
 21
-1.81000000E+01
  0
LINE
  8
0
 62
7
 10
-1.89250000E+02
 20
-7.70000000E+00
 11
-1.65218991E+02
 21
-7.70000000E+00
  0
LINE
  8
0
 62
7
 10
-1.89250000E+02
 20
-1.81000000E+01
 11
-4.52500000E+01
 21
-1.81000000E+01
  0
TEXT
  8
0
 62
7
 10
-1.87587502E+02
 20
-6.42692442E+00
 40
3.20000005E+00
  1
STROKE
 41
1.20000010E+00
  7
MONOTXT
  0
TEXT
  8
0
 62
7
 10
-1.75500000E+02
 20
-2.75000000E+01
 40
3.20000005E+00
  1
B
 41
1.00000000E+00
  7
MONOTXT
  0
TEXT
  8
0
 62
7
 10
-5.59000000E+01
 20
-2.23000000E+01
 40
3.20000005E+00
  1
0
 41
1.00000000E+00
  7
MONOTXT
  0
TEXT
  8
0
 62
7
 10
-5.75000000E+01
 20
-1.19000000E+01
 40
3.20000005E+00
  1
30
 41
1.00000000E+00
  7
MONOTXT
  0
TEXT
  8
0
 62
7
 10
-7.65000000E+01
 20
-2.23000000E+01
 40
3.20000005E+00
  1
-5
 41
1.00000000E+00
  7
MONOTXT
  0
TEXT
  8
0
 62
7
 10
-7.65000000E+01
 20
-1.19000000E+01
 40
3.20000005E+00
  1
25
 41
1.00000000E+00
  7
MONOTXT
  0
TEXT
  8
0
 62
7
 10
-9.71000001E+01
 20
-2.23000000E+01
 40
3.20000005E+00
  1
-10
 41
1.00000000E+00
  7
MONOTXT
  0
TEXT
  8
0
 62
7
 10
-9.55000000E+01
 20
-1.19000000E+01
 40
3.20000005E+00
  1
20
 41
1.00000000E+00
  7
MONOTXT
  0
LINE
  8
0
 62
7
 10
-6.42500000E+01
 20
-2.50000000E+00
 11
-6.42500000E+01
 21
-2.85000000E+01
  0
LINE
  8
0
 62
7
 10
-8.32500000E+01
 20
-2.50000000E+00
 11
-8.32500000E+01
 21
-2.85000000E+01
  0
LINE
  8
0
 62
7
 10
-1.02250000E+02
 20
-2.50000000E+00
 11
-1.02250000E+02
 21
-2.85000000E+01
  0
TEXT
  8
0
 62
7
 10
-1.14500000E+02
 20
-1.19000000E+01
 40
3.20000005E+00
  1
15
 41
1.00000000E+00
  7
MONOTXT
  0
TEXT
  8
0
 62
7
 10
-1.33500000E+02
 20
-1.19000000E+01
 40
3.20000005E+00
  1
10
 41
1.00000000E+00
  7
MONOTXT
  0
TEXT
  8
0
 62
7
 10
-1.50900000E+02
 20
-1.19000000E+01
 40
3.20000005E+00
  1
5
 41
1.00000000E+00
  7
MONOTXT
  0
LINE
  8
0
 62
7
 10
-4.52500000E+01
 20
-2.50000000E+00
 11
-4.52500000E+01
 21
-2.85000000E+01
  0
LINE
  8
0
 62
7
 10
-1.21250000E+02
 20
-2.50000000E+00
 11
-1.21250000E+02
 21
-2.85000000E+01
  0
LINE
  8
0
 62
7
 10
-1.40250000E+02
 20
-2.50000000E+00
 11
-1.40250000E+02
 21
-2.85000000E+01
  0
LINE
  8
0
 62
7
 10
-1.59250000E+02
 20
-2.50000000E+00
 11
-1.59250000E+02
 21
-2.85000000E+01
  0
LINE
  8
0
 62
7
 10
-1.89250000E+02
 20
-2.50000000E+00
 11
-1.89250000E+02
 21
-2.85000000E+01
  0
LINE
  8
0
 62
7
 10
-1.89250000E+02
 20
-2.33000000E+01
 11
-4.52500000E+01
 21
-2.33000000E+01
  0
LINE
  8
0
 62
7
 10
-1.89250000E+02
 20
-2.50000000E+00
 11
-4.52500000E+01
 21
-2.50000000E+00
  0
LINE
  8
0
 62
7
 10
-1.89250000E+02
 20
-2.85000000E+01
 11
-4.52500000E+01
 21
-2.85000000E+01
  0
TEXT
  8
0
 62
7
 10
-1.35100000E+02
 20
-2.23000000E+01
 40
3.20000005E+00
  1
-20
 41
1.00000000E+00
  7
MONOTXT
  0
TEXT
  8
0
 62
7
 10
-1.16100000E+02
 20
-2.23000000E+01
 40
3.20000005E+00
  1
-15
 41
1.00000000E+00
  7
MONOTXT
  0
TEXT
  8
0
 62
7
 10
-1.54100000E+02
 20
-2.23000000E+01
 40
3.20000005E+00
  1
-25
 41
1.00000000E+00
  7
MONOTXT
  0
TEXT
  8
0
 62
7
 10
-5.65000001E+01
 20
8.99999975E-01
 40
3.20000005E+00
  1
(mm)
 41
1.00000000E+00
  7
MONOTXT
  0
TEXT
  8
0
 62
7
 10
-1.36700000E+02
 20
8.99999975E-01
 40
3.20000005E+00
  1
STRETCH LIST
 41
1.05263158E+00
  7
MONOTXT
  0
TEXT
  8
0
 10
1.30760787E+01
 20
1.03135674E+02
 40
3.20000005E+00
  1
STRETCH LINE B
 41
1.09375000E+00
  7
MONOTXT
  0
TEXT
  8
0
 10
-4.19239213E+01
 20
1.03135674E+02
 40
3.20000005E+00
  1
STRETCH LINE A
 41
1.09375000E+00
  7
MONOTXT
  0
TEXT
  8
0
 62
6
 10
1.63648906E+02
 20
-9.61167700E+01
 40
3.20000005E+00
  1
LEVER
 41
1.00000000E+00
  7
MONOTXT
  0
INSERT
  8
0
  2
ARROW
  6
BYBLOCK
 62
6
 10
1.51925476E+02
 20
-8.01707492E+01
 41
1.00000000E+00
 42
1.00000000E+00
 50
3.00000000E+02
  0
POLYLINE
  8
0
 62
6
 66
1
  0
VERTEX
  8
0
 62
6
 10
1.51925476E+02
 20
-8.01707492E+01
  0
VERTEX
  8
0
 62
6
 10
1.62286616E+02
 20
-9.81167699E+01
  0
VERTEX
  8
0
 62
6
 10
1.79298906E+02
 20
-9.81167699E+01
  0
SEQEND
  8
0
  0
LINE
  8
0
 62
7
 10
1.41925476E+02
 20
-9.16707492E+01
 11
1.44398937E+02
 21
-9.16707492E+01
  0
LINE
  8
0
 62
2
 10
1.47925476E+02
 20
-7.16707492E+01
 11
1.44398937E+02
 21
-9.16707492E+01
  0
LINE
  8
0
 62
7
 10
1.41925476E+02
 20
-7.16707492E+01
 11
1.47925476E+02
 21
-7.16707492E+01
  0
TEXT
  8
0
 62
7
 10
1.43738550E+02
 20
-1.08717720E+02
 40
4.50000000E+00
  1
D-8
 41
1.00000000E+00
  7
MONOTXT
  0
TEXT
  8
0
 62
6
 10
1.14502668E+02
 20
-5.90946491E+01
 40
3.20000005E+00
  1
PIVOT
 41
1.00000000E+00
  7
MONOTXT
  0
INSERT
  8
0
  2
ARROW
  6
BYBLOCK
 62
6
 10
1.41925476E+02
 20
-8.01707492E+01
 41
1.00000000E+00
 42
1.00000000E+00
 50
1.19999999E+02
  0
POLYLINE
  8
0
 62
6
 66
1
  0
VERTEX
  8
0
 62
6
 10
1.41925476E+02
 20
-8.01707492E+01
  0
VERTEX
  8
0
 62
6
 10
1.30911885E+02
 20
-6.10946490E+01
  0
VERTEX
  8
0
 62
6
 10
1.14152668E+02
 20
-6.10946490E+01
  0
SEQEND
  8
0
  0
LINE
  8
0
 62
7
 10
1.41925476E+02
 20
-7.16707492E+01
 11
1.41925476E+02
 21
-9.16707492E+01
  0
TEXT
  8
0
 62
6
 10
6.76489057E+01
 20
-9.61167700E+01
 40
3.20000005E+00
  1
LEVER
 41
1.00000000E+00
  7
MONOTXT
  0
INSERT
  8
0
  2
ARROW
  6
BYBLOCK
 62
6
 10
5.59254765E+01
 20
-8.01707492E+01
 41
1.00000000E+00
 42
1.00000000E+00
 50
3.00000000E+02
  0
POLYLINE
  8
0
 62
6
 66
1
  0
VERTEX
  8
0
 62
6
 10
5.59254765E+01
 20
-8.01707492E+01
  0
VERTEX
  8
0
 62
6
 10
6.62866164E+01
 20
-9.81167699E+01
  0
VERTEX
  8
0
 62
6
 10
8.32989059E+01
 20
-9.81167699E+01
  0
SEQEND
  8
0
  0
LINE
  8
0
 62
2
 10
5.19254765E+01
 20
-7.16707492E+01
 11
4.83989369E+01
 21
-9.16707492E+01
  0
TEXT
  8
0
 62
7
 10
4.67385495E+01
 20
-1.08717720E+02
 40
4.50000000E+00
  1
D-7
 41
1.00000000E+00
  7
MONOTXT
  0
TEXT
  8
0
 62
6
 10
1.85026677E+01
 20
-5.90946491E+01
 40
3.20000005E+00
  1
PIVOT
 41
1.00000000E+00
  7
MONOTXT
  0
INSERT
  8
0
  2
ARROW
  6
BYBLOCK
 62
6
 10
4.59254765E+01
 20
-8.01707492E+01
 41
1.00000000E+00
 42
1.00000000E+00
 50
1.20000000E+02
  0
POLYLINE
  8
0
 62
6
 66
1
  0
VERTEX
  8
0
 62
6
 10
4.59254765E+01
 20
-8.01707492E+01
  0
VERTEX
  8
0
 62
6
 10
3.49118849E+01
 20
-6.10946490E+01
  0
VERTEX
  8
0
 62
6
 10
1.81526677E+01
 20
-6.10946490E+01
  0
SEQEND
  8
0
  0
LINE
  8
0
 62
7
 10
4.59254765E+01
 20
-7.16707492E+01
 11
5.19254765E+01
 21
-7.16707492E+01
  0
LINE
  8
0
 62
7
 10
4.59254765E+01
 20
-9.16707492E+01
 11
4.83989369E+01
 21
-9.16707492E+01
  0
LINE
  8
0
 62
7
 10
4.59254765E+01
 20
-7.16707492E+01
 11
4.59254765E+01
 21
-9.16707492E+01
  0
TEXT
  8
0
 62
6
 10
-3.13510943E+01
 20
-9.61167700E+01
 40
3.20000005E+00
  1
LEVER
 41
1.00000000E+00
  7
MONOTXT
  0
INSERT
  8
0
  2
ARROW
  6
BYBLOCK
 62
6
 10
-4.30745235E+01
 20
-8.01707492E+01
 41
1.00000000E+00
 42
1.00000000E+00
 50
3.00000000E+02
  0
POLYLINE
  8
0
 62
6
 66
1
  0
VERTEX
  8
0
 62
6
 10
-4.30745235E+01
 20
-8.01707492E+01
  0
VERTEX
  8
0
 62
6
 10
-3.27133836E+01
 20
-9.81167699E+01
  0
VERTEX
  8
0
 62
6
 10
-1.57010941E+01
 20
-9.81167699E+01
  0
SEQEND
  8
0
  0
LINE
  8
0
 62
7
 10
-5.30745235E+01
 20
-9.16707492E+01
 11
-5.06010631E+01
 21
-9.16707492E+01
  0
LINE
  8
0
 62
2
 10
-4.70745235E+01
 20
-7.16707492E+01
 11
-5.06010631E+01
 21
-9.16707492E+01
  0
LINE
  8
0
 62
7
 10
-5.30745235E+01
 20
-7.16707492E+01
 11
-4.70745235E+01
 21
-7.16707492E+01
  0
TEXT
  8
0
 62
7
 10
-5.22614505E+01
 20
-1.08717720E+02
 40
4.50000000E+00
  1
D-6
 41
1.00000000E+00
  7
MONOTXT
  0
TEXT
  8
0
 62
6
 10
-8.04973323E+01
 20
-5.90946491E+01
 40
3.20000005E+00
  1
PIVOT
 41
1.00000000E+00
  7
MONOTXT
  0
INSERT
  8
0
  2
ARROW
  6
BYBLOCK
 62
6
 10
-5.30745235E+01
 20
-8.01707492E+01
 41
1.00000000E+00
 42
1.00000000E+00
 50
1.20000000E+02
  0
POLYLINE
  8
0
 62
6
 66
1
  0
VERTEX
  8
0
 62
6
 10
-5.30745235E+01
 20
-8.01707492E+01
  0
VERTEX
  8
0
 62
6
 10
-6.40881151E+01
 20
-6.10946490E+01
  0
VERTEX
  8
0
 62
6
 10
-8.08473323E+01
 20
-6.10946490E+01
  0
SEQEND
  8
0
  0
LINE
  8
0
 62
7
 10
-5.30745235E+01
 20
-7.16707492E+01
 11
-5.30745235E+01
 21
-9.16707492E+01
  0
TEXT
  8
0
 62
6
 10
-1.27351094E+02
 20
-9.61167700E+01
 40
3.20000005E+00
  1
LEVER
 41
1.00000000E+00
  7
MONOTXT
  0
INSERT
  8
0
  2
ARROW
  6
BYBLOCK
 62
6
 10
-1.39074524E+02
 20
-8.01707492E+01
 41
1.00000000E+00
 42
1.00000000E+00
 50
3.00000000E+02
  0
POLYLINE
  8
0
 62
6
 66
1
  0
VERTEX
  8
0
 62
6
 10
-1.39074524E+02
 20
-8.01707492E+01
  0
VERTEX
  8
0
 62
6
 10
-1.28713384E+02
 20
-9.81167699E+01
  0
VERTEX
  8
0
 62
6
 10
-1.11701094E+02
 20
-9.81167699E+01
  0
SEQEND
  8
0
  0
LINE
  8
0
 62
7
 10
-1.49074524E+02
 20
-9.16707492E+01
 11
-1.46601063E+02
 21
-9.16707492E+01
  0
LINE
  8
0
 62
2
 10
-1.43074524E+02
 20
-7.16707492E+01
 11
-1.46601063E+02
 21
-9.16707492E+01
  0
LINE
  8
0
 62
7
 10
-1.49074524E+02
 20
-7.16707492E+01
 11
-1.43074524E+02
 21
-7.16707492E+01
  0
TEXT
  8
0
 62
7
 10
-1.48261450E+02
 20
-1.08717720E+02
 40
4.50000000E+00
  1
D-5
 41
1.00000000E+00
  7
MONOTXT
  0
TEXT
  8
0
 62
6
 10
-1.76497332E+02
 20
-5.90946491E+01
 40
3.20000005E+00
  1
PIVOT
 41
1.00000000E+00
  7
MONOTXT
  0
INSERT
  8
0
  2
ARROW
  6
BYBLOCK
 62
6
 10
-1.49074524E+02
 20
-8.01707492E+01
 41
1.00000000E+00
 42
1.00000000E+00
 50
1.19999999E+02
  0
POLYLINE
  8
0
 62
6
 66
1
  0
VERTEX
  8
0
 62
6
 10
-1.49074524E+02
 20
-8.01707492E+01
  0
VERTEX
  8
0
 62
6
 10
-1.60088115E+02
 20
-6.10946490E+01
  0
VERTEX
  8
0
 62
6
 10
-1.76847332E+02
 20
-6.10946490E+01
  0
SEQEND
  8
0
  0
LINE
  8
0
 62
7
 10
-1.49074524E+02
 20
-7.16707492E+01
 11
-1.49074524E+02
 21
-9.16707492E+01
  0
TEXT
  8
0
 62
7
 10
-3.45727863E-01
 20
5.58635382E+01
 40
4.50000000E+00
  1
D-4
 41
1.00000000E+00
  7
MONOTXT
  0
TEXT
  8
0
 62
2
 10
7.68590394E+01
 20
1.41354432E+01
 40
3.20000005E+00
  1
LEVER
 41
1.00000000E+00
  7
MONOTXT
  0
INSERT
  8
0
  2
ARROW
  6
BYBLOCK
 62
2
 10
6.19223636E+01
 20
3.42240853E+01
 41
1.00000000E+00
 42
1.00000000E+00
 50
3.00000000E+02
  0
POLYLINE
  8
0
 62
2
 66
1
  0
VERTEX
  8
0
 62
2
 10
6.19223636E+01
 20
3.42240853E+01
  0
VERTEX
  8
0
 62
2
 10
7.46752470E+01
 20
1.21354433E+01
  0
VERTEX
  8
0
 62
2
 10
9.25090397E+01
 20
1.21354433E+01
  0
SEQEND
  8
0
  0
TEXT
  8
0
 62
2
 10
7.68590394E+01
 20
5.91354432E+01
 40
3.20000005E+00
  1
LEVER
 41
1.00000000E+00
  7
MONOTXT
  0
INSERT
  8
0
  2
ARROW
  6
BYBLOCK
 62
2
 10
6.19223636E+01
 20
7.92240853E+01
 41
1.00000000E+00
 42
1.00000000E+00
 50
3.00000000E+02
  0
POLYLINE
  8
0
 62
2
 66
1
  0
VERTEX
  8
0
 62
2
 10
6.19223636E+01
 20
7.92240853E+01
  0
VERTEX
  8
0
 62
2
 10
7.46752470E+01
 20
5.71354433E+01
  0
VERTEX
  8
0
 62
2
 10
9.25090397E+01
 20
5.71354433E+01
  0
SEQEND
  8
0
  0
TEXT
  8
0
 62
7
 10
1.14609168E+02
 20
1.11044524E+01
 40
4.50000000E+00
  1
D-3
 41
1.00000000E+00
  7
MONOTXT
  0
TEXT
  8
0
 62
7
 10
-1.25390832E+02
 20
1.11044524E+01
 40
4.50000000E+00
  1
D-2
 41
1.00000000E+00
  7
MONOTXT
  0
TEXT
  8
0
 62
7
 10
6.09168443E-01
 20
1.11044524E+01
 40
4.50000000E+00
  1
D-1
 41
1.00000000E+00
  7
MONOTXT
  0
TEXT
  8
0
 62
2
 10
1.48859039E+02
 20
1.41354432E+01
 40
3.20000005E+00
  1
LEVER
 41
1.00000000E+00
  7
MONOTXT
  0
INSERT
  8
0
  2
ARROW
  6
BYBLOCK
 62
2
 10
1.33922364E+02
 20
3.42240853E+01
 41
1.00000000E+00
 42
1.00000000E+00
 50
2.99999999E+02
  0
POLYLINE
  8
0
 62
2
 66
1
  0
VERTEX
  8
0
 62
2
 10
1.33922364E+02
 20
3.42240853E+01
  0
VERTEX
  8
0
 62
2
 10
1.46675247E+02
 20
1.21354433E+01
  0
VERTEX
  8
0
 62
2
 10
1.64509040E+02
 20
1.21354433E+01
  0
SEQEND
  8
0
  0
TEXT
  8
0
 62
2
 10
1.37676659E+02
 20
6.08727821E+01
 40
3.20000005E+00
  1
PIVOT
 41
1.00000000E+00
  7
MONOTXT
  0
INSERT
  8
0
  2
ARROW
  6
BYBLOCK
 62
2
 10
1.20922364E+02
 20
3.42240853E+01
 41
1.00000000E+00
 42
1.00000000E+00
 50
6.00000014E+01
  0
POLYLINE
  8
0
 62
2
 66
1
  0
VERTEX
  8
0
 62
2
 10
1.20922364E+02
 20
3.42240853E+01
  0
VERTEX
  8
0
 62
2
 10
1.35153295E+02
 20
5.88727822E+01
  0
VERTEX
  8
0
 62
2
 10
1.53326660E+02
 20
5.88727822E+01
  0
SEQEND
  8
0
  0
TEXT
  8
0
 62
2
 10
-7.95577335E+01
 20
1.05872782E+02
 40
3.20000005E+00
  1
PIVOT
 41
1.00000000E+00
  7
MONOTXT
  0
INSERT
  8
0
  2
ARROW
  6
BYBLOCK
 62
2
 10
-4.85776364E+01
 20
7.92240853E+01
 41
1.00000000E+00
 42
1.00000000E+00
 50
1.20000000E+02
  0
POLYLINE
  8
0
 62
2
 66
1
  0
VERTEX
  8
0
 62
2
 10
-4.85776364E+01
 20
7.92240853E+01
  0
VERTEX
  8
0
 62
2
 10
-6.28085683E+01
 20
1.03872782E+02
  0
VERTEX
  8
0
 62
2
 10
-7.99077335E+01
 20
1.03872782E+02
  0
SEQEND
  8
0
  0
TEXT
  8
0
 62
2
 10
-7.95577335E+01
 20
6.08727821E+01
 40
3.20000005E+00
  1
PIVOT
 41
1.00000000E+00
  7
MONOTXT
  0
INSERT
  8
0
  2
ARROW
  6
BYBLOCK
 62
2
 10
-4.85776364E+01
 20
3.42240853E+01
 41
1.00000000E+00
 42
1.00000000E+00
 50
1.20000000E+02
  0
POLYLINE
  8
0
 62
2
 66
1
  0
VERTEX
  8
0
 62
2
 10
-4.85776364E+01
 20
3.42240853E+01
  0
VERTEX
  8
0
 62
2
 10
-6.28085683E+01
 20
5.88727822E+01
  0
VERTEX
  8
0
 62
2
 10
-7.99077335E+01
 20
5.88727822E+01
  0
SEQEND
  8
0
  0
TEXT
  8
0
 62
2
 10
-9.11409606E+01
 20
1.41354432E+01
 40
3.20000005E+00
  1
LEVER
 41
1.00000000E+00
  7
MONOTXT
  0
INSERT
  8
0
  2
ARROW
  6
BYBLOCK
 62
2
 10
-1.06077636E+02
 20
3.42240853E+01
 41
1.00000000E+00
 42
1.00000000E+00
 50
2.99999999E+02
  0
POLYLINE
  8
0
 62
2
 66
1
  0
VERTEX
  8
0
 62
2
 10
-1.06077636E+02
 20
3.42240853E+01
  0
VERTEX
  8
0
 62
2
 10
-9.33247530E+01
 20
1.21354433E+01
  0
VERTEX
  8
0
 62
2
 10
-7.54909603E+01
 20
1.21354433E+01
  0
SEQEND
  8
0
  0
TEXT
  8
0
 62
2
 10
-1.50057733E+02
 20
6.08727821E+01
 40
3.20000005E+00
  1
PIVOT
 41
1.00000000E+00
  7
MONOTXT
  0
INSERT
  8
0
  2
ARROW
  6
BYBLOCK
 62
2
 10
-1.19077636E+02
 20
3.42240853E+01
 41
1.00000000E+00
 42
1.00000000E+00
 50
1.20000000E+02
  0
POLYLINE
  8
0
 62
2
 66
1
  0
VERTEX
  8
0
 62
2
 10
-1.19077636E+02
 20
3.42240853E+01
  0
VERTEX
  8
0
 62
2
 10
-1.33308568E+02
 20
5.88727822E+01
  0
VERTEX
  8
0
 62
2
 10
-1.50407733E+02
 20
5.88727822E+01
  0
SEQEND
  8
0
  0
TEXT
  8
0
 62
7
 10
1.43318753E+02
 20
-3.76000000E+01
 40
3.20000005E+00
  1
P8
 41
1.00000000E+00
  7
MONOTXT
  0
TEXT
  8
0
 62
7
 10
4.60562519E+01
 20
-3.76000000E+01
 40
3.20000005E+00
  1
P6
 41
1.00000000E+00
  7
MONOTXT
  0
TEXT
  8
0
 62
7
 10
-5.44062490E+01
 20
-3.76000000E+01
 40
3.20000005E+00
  1
P3.5
 41
1.00000000E+00
  7
MONOTXT
  0
TEXT
  8
0
 62
7
 10
-1.48468750E+02
 20
-3.76000000E+01
 40
3.20000005E+00
  1
P2
 41
1.00000000E+00
  7
MONOTXT
  0
LINE
  8
0
 62
7
 10
9.75375023E+01
 20
-3.35000000E+01
 11
9.75375023E+01
 21
-1.33500000E+02
  0
LINE
  8
0
 62
7
 10
-9.69874992E+01
 20
-3.35000000E+01
 11
-9.69874992E+01
 21
-1.33500000E+02
  0
LINE
  8
0
 62
7
 10
2.75001526E-01
 20
-3.35000000E+01
 11
2.75001526E-01
 21
-1.33500000E+02
  0
LINE
  8
0
 62
7
 10
-1.94250000E+02
 20
-3.85000000E+01
 11
1.94800003E+02
 21
-3.85000000E+01
  0
LINE
  8
0
 62
7
 10
-1.94250000E+02
 20
-3.35000000E+01
 11
1.94800003E+02
 21
-3.35000000E+01
  0
TEXT
  8
0
 62
7
 10
-1.85214688E+02
 20
1.05350006E+02
 40
4.50000000E+00
  1
MODEL:BDAVS10*ST(30)-3B
 41
1.00000000E+00
  7
MONOTXT
  0
LINE
  8
0
 62
7
 10
-1.94250000E+02
 20
1.32600006E+02
 11
1.94800003E+02
 21
1.32600006E+02
  0
LINE
  8
0
 62
7
 10
1.94800003E+02
 20
1.32600006E+02
 11
1.94800003E+02
 21
-1.33500000E+02
  0
LINE
  8
0
 62
7
 10
-1.94250000E+02
 20
1.32600006E+02
 11
-1.94250000E+02
 21
-1.33500000E+02
  0
LINE
  8
0
 62
7
 10
-1.94250000E+02
 20
-1.33500000E+02
 11
1.94800003E+02
 21
-1.33500000E+02
  0
LINE
  8
0
 62
7
 10
1.09800003E+02
 20
-1.18500000E+02
 11
1.09800003E+02
 21
-1.33500000E+02
  0
LINE
  8
0
 62
7
 10
1.09800003E+02
 20
-1.18500000E+02
 11
1.94800003E+02
 21
-1.18500000E+02
  0
LINE
  8
0
 62
7
 10
1.09800003E+02
 20
1.32600006E+02
 11
1.09800003E+02
 21
1.17600006E+02
  0
LINE
  8
0
 62
7
 10
1.09800003E+02
 20
1.17600006E+02
 11
1.94800003E+02
 21
1.17600006E+02
  0
LINE
  8
0
 62
7
 10
-1.94250000E+02
 20
1.17600006E+02
 11
-1.09250000E+02
 21
1.17600006E+02
  0
LINE
  8
0
 62
7
 10
-1.09250000E+02
 20
1.32600006E+02
 11
-1.09250000E+02
 21
1.17600006E+02
  0
TEXT
  8
0
 62
7
 10
1.34942863E+02
 20
1.22850006E+02
 40
4.50000000E+00
  1
Ver. 1.0
 41
1.08108085E+00
  7
MONOTXT
  0
TEXT
  8
0
 62
7
 10
1.15249739E+02
 20
-1.29150000E+02
 40
6.29999924E+00
  1
KOGANEI CORP.
 41
1.04838678E+00
  7
MONOTXT
  0
TEXT
  8
0
 62
7
 10
-1.91178750E+02
 20
1.22850006E+02
 40
4.50000000E+00
  1
MULTI MOUNT CYLINDER
 41
9.45626478E-01
  7
MONOTXT
  0
ENDSEC
  0
EOF
