  0
SECTION
  2
HEADER
  9
$ACADVER
  1
AC1003
  9
$EXTMIN
 10
-1.94250000E+02
 20
-1.33500000E+02
  9
$EXTMAX
 10
1.94800003E+02
 20
1.32600006E+02
  9
$LIMMIN
 10
-1.94251000E+02
 20
-1.33501000E+02
  9
$LIMMAX
 10
1.94801003E+02
 20
1.32601006E+02
  9
$SNAPUNIT
 10
1
 20
1
  9
$SNAPBASE
 10
0
 20
0
  9
$GRIDMODE
 70
0
  9
$GRIDUNIT
 10
0
 20
0
  9
$LTSCALE
 40
6.48416672E+00
  9
$TEXTSIZE
 40
3.2
  9
$DIMTAD
 70
0
  9
$LUNITS
 70
2
  9
$LUPREC
 70
4
  9
$FILLETRAD
 40
0
  9
$AUNITS
 70
0
  9
$AUPREC
 70
0
  0
ENDSEC
  0
SECTION
  2
TABLES
  0
TABLE
  2
LTYPE
 70
2
  0
LTYPE
  2
CONTINUOUS
 70
64
  3
Solid-Line
 72
65
 73
0
 40
0
  0
LTYPE
  2
DASHED
 70
64
  3
DASHED
 72
65
 73
2
 40
.75
 49
.5
 49
-.25
  0
LTYPE
  2
HIDDEN
 70
64
  3
HIDDEN
 72
65
 73
2
 40
.375
 49
.25
 49
-.125
  0
LTYPE
  2
CENTER
 70
64
  3
CENTER
 72
65
 73
4
 40
2
 49
1.25
 49
-.25
 49
.25
 49
-.25
  0
LTYPE
  2
PHANTOM
 70
64
  3
PHANTOM
 72
65
 73
6
 40
2.5
 49
1.25
 49
-.25
 49
.25
 49
-.25
 49
.25
 49
-.25
  0
ENDTAB
  0
TABLE
  2
LAYER
 70
1
  0
LAYER
  2
0
 70
0
 62
7
  6
CONTINUOUS
 0
ENDTAB
  0
TABLE
  2
STYLE
 70
2
  0
STYLE
  2
MONOTXT
 70
0
 40
0
 41
1
 50
0
 71
0
 42
.2
  3
monotxt
  0
STYLE
  2
BIGFONT
 70
0
 40
0
 41
1
 50
0
 71
0
 42
.2
  3
txt
  4
bigfont
  0
ENDTAB
  0
ENDSEC
  0
SECTION
  2
BLOCKS
  0
BLOCK
  8
0
  2
ARROW
 70
10
 10
0
 20
0
  0
POLYLINE
  8
0
  6
CONTINUOUS
 62
0
 66
1
  0
VERTEX
  8
0
  6
CONTINUOUS
 62
0
 10
3.22131950E+00
 20
8.63149958E-01
  0
VERTEX
  8
0
  6
CONTINUOUS
 62
0
 10
0.0
 20
0.0
  0
VERTEX
  8
0
  6
CONTINUOUS
 62
0
 10
3.22131950E+00
 20
-8.63149958E-01
  0
SEQEND
  8
0
  0
ENDBLK
  8
0
  0
ENDSEC
  0
SECTION
  2
ENTITIES
  0
LINE
  8
0
 62
7
 10
-3.42809268E+01
 20
4.18772786E+01
 11
-3.42809268E+01
 21
1.28772786E+01
  0
LINE
  8
0
 62
7
 10
-4.12809268E+01
 20
5.48772786E+01
 11
-4.12809268E+01
 21
1.28772786E+01
  0
LINE
  8
0
  6
PHANTOM
 10
-1.06361902E+01
 20
6.39229669E+01
 11
-1.06361902E+01
 21
1.08694308E+01
  0
ARC
  8
0
 62
4
 10
-5.88309300E+01
 20
3.47272788E+01
 40
3.50000191E-01
 50
2.70000031E+02
 51
3.59999969E+02
  0
ARC
  8
0
 62
4
 10
-5.88309300E+01
 20
4.20272784E+01
 40
3.50000191E-01
 50
3.12237134E-05
 51
8.99999687E+01
  0
LINE
  8
0
 62
4
 10
-5.84809298E+01
 20
4.20272786E+01
 11
-5.84809298E+01
 21
3.47272786E+01
  0
LINE
  8
0
 62
4
 10
-5.88309298E+01
 20
4.23772786E+01
 11
-5.88309298E+01
 21
3.43772786E+01
  0
ARC
  8
0
 62
4
 10
-6.01309327E+01
 20
3.47272788E+01
 40
3.50000191E-01
 50
1.80000031E+02
 51
2.69999969E+02
  0
ARC
  8
0
 62
4
 10
-6.01309327E+01
 20
4.20272784E+01
 40
3.50000191E-01
 50
9.00000311E+01
 51
1.79999969E+02
  0
LINE
  8
0
 62
4
 10
-6.04809329E+01
 20
4.20272786E+01
 11
-6.04809329E+01
 21
3.47272786E+01
  0
LINE
  8
0
 62
4
 10
-6.01309329E+01
 20
4.23772786E+01
 11
-6.01309329E+01
 21
3.43772786E+01
  0
LINE
  8
0
 62
7
 10
-4.12809268E+01
 20
2.13772786E+01
 11
-3.70809268E+01
 21
2.13772786E+01
  0
LINE
  8
0
  6
DASHED
 62
2
 10
-4.12809268E+01
 20
1.51272786E+01
 11
-3.42809268E+01
 21
1.51272786E+01
  0
LINE
  8
0
 62
2
 10
-4.32809268E+01
 20
1.73772786E+01
 11
-3.22809268E+01
 21
1.73772786E+01
  0
LINE
  8
0
  6
DASHED
 62
2
 10
-4.12809268E+01
 20
1.96272786E+01
 11
-3.42809268E+01
 21
1.96272786E+01
  0
LINE
  8
0
 62
6
 10
1.21756575E+01
 20
3.13772786E+01
 11
1.39077083E+01
 21
3.43772786E+01
  0
LINE
  8
0
 62
4
 10
2.15341307E+00
 20
2.99429388E+01
 11
4.27473342E+00
 21
2.78216184E+01
  0
LINE
  8
0
 62
4
 10
-2.33465869E+01
 20
4.89429388E+01
 11
-2.12252666E+01
 21
4.68216184E+01
  0
LINE
  8
0
 62
4
 10
-2.33465869E+01
 20
4.68216184E+01
 11
-2.12252666E+01
 21
4.89429388E+01
  0
LINE
  8
0
 62
4
 10
2.15341307E+00
 20
2.78216184E+01
 11
4.27473342E+00
 21
2.99429388E+01
  0
LINE
  8
0
 62
6
 10
-1.33243425E+01
 20
4.23772786E+01
 11
-1.15922917E+01
 21
4.53772786E+01
  0
LINE
  8
0
  6
CENTER
 62
2
 10
-6.92809268E+01
 20
3.83772786E+01
 11
6.67190732E+01
 21
3.83772786E+01
  0
LINE
  8
0
 62
7
 10
-3.42809268E+01
 20
5.48772786E+01
 11
-3.42809268E+01
 21
4.58772786E+01
  0
LINE
  8
0
 62
7
 10
6.37190732E+01
 20
5.48772786E+01
 11
6.37190732E+01
 21
2.18772786E+01
  0
LINE
  8
0
 62
7
 10
-3.70809268E+01
 20
3.03772786E+01
 11
-3.70809268E+01
 21
2.13772786E+01
  0
LINE
  8
0
 62
7
 10
-4.12809268E+01
 20
5.48772786E+01
 11
-2.60309268E+01
 21
5.48772786E+01
  0
LINE
  8
0
 62
7
 10
-3.42809268E+01
 20
2.18772786E+01
 11
-5.30926756E-01
 21
2.18772786E+01
  0
LINE
  8
0
 62
7
 10
-4.12809268E+01
 20
3.03772786E+01
 11
-3.70809268E+01
 21
3.03772786E+01
  0
LINE
  8
0
 62
7
 10
-4.10809268E+01
 20
2.93772786E+01
 11
-3.70809268E+01
 21
2.93772786E+01
  0
LINE
  8
0
 62
7
 10
-4.10809268E+01
 20
2.93772786E+01
 11
-4.10809268E+01
 21
2.23772786E+01
  0
LINE
  8
0
 62
7
 10
-4.10809268E+01
 20
2.23772786E+01
 11
-3.70809268E+01
 21
2.23772786E+01
  0
LINE
  8
0
  6
CENTER
 62
2
 10
5.21907324E+00
 20
5.03772786E+01
 11
1.62190732E+01
 21
5.03772786E+01
  0
LINE
  8
0
  6
CENTER
 62
2
 10
1.07190732E+01
 20
5.58772786E+01
 11
1.07190732E+01
 21
4.48772786E+01
  0
LINE
  8
0
  6
CENTER
 62
2
 10
1.07190732E+01
 20
2.08772786E+01
 11
1.07190732E+01
 21
3.18772786E+01
  0
LINE
  8
0
  6
CENTER
 62
2
 10
5.21907324E+00
 20
2.63772786E+01
 11
1.62190732E+01
 21
2.63772786E+01
  0
LINE
  8
0
 62
7
 10
-4.87809268E+01
 20
4.73772786E+01
 11
-4.87809268E+01
 21
2.23772786E+01
  0
LINE
  8
0
 62
7
 10
-4.27809268E+01
 20
4.73772786E+01
 11
-4.27809268E+01
 21
2.23772786E+01
  0
LINE
  8
0
 62
7
 10
-4.87809268E+01
 20
4.73772786E+01
 11
-4.27809268E+01
 21
4.73772786E+01
  0
LINE
  8
0
 62
7
 10
-4.87809268E+01
 20
2.23772786E+01
 11
-4.27809268E+01
 21
2.23772786E+01
  0
LINE
  8
0
 62
7
 10
-4.27809268E+01
 20
2.78772786E+01
 11
-4.12809268E+01
 21
2.78772786E+01
  0
LINE
  8
0
 62
7
 10
-4.27809268E+01
 20
2.38772786E+01
 11
-4.12809268E+01
 21
2.38772786E+01
  0
LINE
  8
0
 62
4
 10
-5.27809268E+01
 20
4.08772786E+01
 11
-5.27809268E+01
 21
3.58772786E+01
  0
LINE
  8
0
 62
4
 10
-5.22809268E+01
 20
4.13772786E+01
 11
-4.87809268E+01
 21
4.13772786E+01
  0
LINE
  8
0
 62
4
 10
-5.22809268E+01
 20
3.53772786E+01
 11
-4.87809268E+01
 21
3.53772786E+01
  0
LINE
  8
0
 62
4
 10
-5.27809268E+01
 20
4.08772786E+01
 11
-5.22809268E+01
 21
4.13772786E+01
  0
LINE
  8
0
 62
4
 10
-5.27809268E+01
 20
3.58772786E+01
 11
-5.22809268E+01
 21
3.53772786E+01
  0
LINE
  8
0
 62
4
 10
-5.22809268E+01
 20
4.00372786E+01
 11
-4.87809268E+01
 21
4.00372786E+01
  0
LINE
  8
0
 62
4
 10
-5.22809268E+01
 20
3.67272786E+01
 11
-4.87809268E+01
 21
3.67272786E+01
  0
LINE
  8
0
 62
4
 10
-5.22809268E+01
 20
4.13772786E+01
 11
-5.22809268E+01
 21
4.00372786E+01
  0
LINE
  8
0
 62
4
 10
-5.22809268E+01
 20
3.67272786E+01
 11
-5.22809268E+01
 21
3.53772786E+01
  0
LINE
  8
0
 62
6
 10
-5.22809268E+01
 20
4.00372786E+01
 11
-4.87809268E+01
 21
3.67272786E+01
  0
LINE
  8
0
 62
6
 10
-4.87809268E+01
 20
4.00372786E+01
 11
-5.22809268E+01
 21
3.67272786E+01
  0
LINE
  8
0
 62
7
 10
-4.19809268E+01
 20
4.33772786E+01
 11
-4.12809268E+01
 21
4.33772786E+01
  0
LINE
  8
0
 62
7
 10
-4.19809268E+01
 20
4.33772786E+01
 11
-4.22809268E+01
 21
4.32972786E+01
  0
LINE
  8
0
 62
7
 10
-4.22809268E+01
 20
4.32972786E+01
 11
-4.22809268E+01
 21
3.34572786E+01
  0
LINE
  8
0
 62
7
 10
-4.19809268E+01
 20
3.33772786E+01
 11
-4.22809268E+01
 21
3.34572786E+01
  0
LINE
  8
0
 62
7
 10
-4.19809268E+01
 20
3.33772786E+01
 11
-4.12809268E+01
 21
3.33772786E+01
  0
LINE
  8
0
 62
7
 10
-4.27809268E+01
 20
3.53772786E+01
 11
-4.22809268E+01
 21
3.53772786E+01
  0
LINE
  8
0
 62
7
 10
-4.27809268E+01
 20
4.13772786E+01
 11
-4.22809268E+01
 21
4.13772786E+01
  0
LINE
  8
0
 62
4
 10
-6.62809268E+01
 20
4.03772786E+01
 11
-6.62809268E+01
 21
3.63772786E+01
  0
LINE
  8
0
 62
4
 10
-5.42809268E+01
 20
4.08772786E+01
 11
-5.42809268E+01
 21
3.58772786E+01
  0
LINE
  8
0
 62
4
 10
-6.57809268E+01
 20
4.08772786E+01
 11
-6.04809268E+01
 21
4.08772786E+01
  0
LINE
  8
0
 62
4
 10
-6.57809268E+01
 20
3.58772786E+01
 11
-6.04809268E+01
 21
3.58772786E+01
  0
LINE
  8
0
 62
4
 10
-6.62809268E+01
 20
4.03772786E+01
 11
-6.57809268E+01
 21
4.08772786E+01
  0
LINE
  8
0
 62
4
 10
-6.62809268E+01
 20
3.63772786E+01
 11
-6.57809268E+01
 21
3.58772786E+01
  0
LINE
  8
0
 62
4
 10
-6.57809268E+01
 20
4.08772786E+01
 11
-6.57809268E+01
 21
3.58772786E+01
  0
LINE
  8
0
 62
6
 10
-6.61809268E+01
 20
4.04772786E+01
 11
-6.04809268E+01
 21
4.04772786E+01
  0
LINE
  8
0
 62
6
 10
-6.61809268E+01
 20
3.62772786E+01
 11
-6.04809268E+01
 21
3.62772786E+01
  0
LINE
  8
0
 62
6
 10
-5.42809268E+01
 20
4.04772786E+01
 11
-5.35909268E+01
 21
4.08772786E+01
  0
LINE
  8
0
 62
6
 10
-5.42809268E+01
 20
3.62772786E+01
 11
-5.35909268E+01
 21
3.58772786E+01
  0
LINE
  8
0
 62
4
 10
-5.52809268E+01
 20
4.08772786E+01
 11
-5.27809268E+01
 21
4.08772786E+01
  0
LINE
  8
0
 62
6
 10
-5.52809268E+01
 20
4.04772786E+01
 11
-5.42809268E+01
 21
4.04772786E+01
  0
LINE
  8
0
 62
6
 10
-5.52809268E+01
 20
3.62772786E+01
 11
-5.42809268E+01
 21
3.62772786E+01
  0
LINE
  8
0
 62
4
 10
-5.52809268E+01
 20
3.58772786E+01
 11
-5.27809268E+01
 21
3.58772786E+01
  0
LINE
  8
0
 62
4
 10
-6.01309268E+01
 20
4.46272786E+01
 11
-5.88309268E+01
 21
4.46272786E+01
  0
LINE
  8
0
 62
4
 10
-6.01309268E+01
 20
3.21272786E+01
 11
-5.88309268E+01
 21
3.21272786E+01
  0
LINE
  8
0
 62
4
 10
-5.88309268E+01
 20
4.46272786E+01
 11
-5.88309268E+01
 21
3.21272786E+01
  0
LINE
  8
0
 62
4
 10
-6.01309268E+01
 20
4.46272786E+01
 11
-6.01309268E+01
 21
3.21272786E+01
  0
LINE
  8
0
 62
4
 10
-5.81309268E+01
 20
4.29972786E+01
 11
-5.56409268E+01
 21
4.29972786E+01
  0
LINE
  8
0
 62
4
 10
-5.84809268E+01
 20
4.23772786E+01
 11
-5.81309268E+01
 21
4.29972786E+01
  0
LINE
  8
0
 62
4
 10
-5.84809268E+01
 20
4.23772786E+01
 11
-5.84809268E+01
 21
3.43772786E+01
  0
LINE
  8
0
 62
4
 10
-5.81309268E+01
 20
4.06872786E+01
 11
-5.56409268E+01
 21
4.06872786E+01
  0
LINE
  8
0
 62
4
 10
-5.81309268E+01
 20
3.60772786E+01
 11
-5.56409268E+01
 21
3.60772786E+01
  0
LINE
  8
0
 62
4
 10
-5.81309268E+01
 20
3.37672786E+01
 11
-5.56409268E+01
 21
3.37672786E+01
  0
LINE
  8
0
 62
4
 10
-5.84809268E+01
 20
3.43772786E+01
 11
-5.81309268E+01
 21
3.37672786E+01
  0
LINE
  8
0
 62
4
 10
-5.52809268E+01
 20
3.43772786E+01
 11
-5.56409268E+01
 21
3.37672786E+01
  0
LINE
  8
0
 62
4
 10
-5.52809268E+01
 20
4.23772786E+01
 11
-5.52809268E+01
 21
3.43772786E+01
  0
LINE
  8
0
 62
4
 10
-5.52809268E+01
 20
4.23772786E+01
 11
-5.56409268E+01
 21
4.29972786E+01
  0
LINE
  8
0
 62
4
 10
-3.55309268E+01
 20
4.58772786E+01
 11
-2.60309268E+01
 21
4.58772786E+01
  0
LINE
  8
0
 62
4
 10
-3.55309268E+01
 20
4.18772786E+01
 11
-2.60309268E+01
 21
4.18772786E+01
  0
LINE
  8
0
 62
4
 10
-2.60309268E+01
 20
4.10772786E+01
 11
-1.85309268E+01
 21
4.10772786E+01
  0
LINE
  8
0
 62
4
 10
-2.60309268E+01
 20
5.58772786E+01
 11
-1.85309268E+01
 21
5.58772786E+01
  0
LINE
  8
0
 62
4
 10
-2.60309268E+01
 20
5.18772786E+01
 11
-1.85309268E+01
 21
5.18772786E+01
  0
LINE
  8
0
 62
4
 10
-3.55309268E+01
 20
4.58772786E+01
 11
-3.55309268E+01
 21
4.18772786E+01
  0
LINE
  8
0
 62
4
 10
-1.35309268E+01
 20
4.58772786E+01
 11
-1.35309268E+01
 21
4.18772786E+01
  0
LINE
  8
0
 62
4
 10
-1.85309268E+01
 20
5.58772786E+01
 11
-1.85309268E+01
 21
4.10772786E+01
  0
LINE
  8
0
 62
4
 10
-1.85309268E+01
 20
4.58772786E+01
 11
-1.35309268E+01
 21
4.58772786E+01
  0
LINE
  8
0
 62
4
 10
-1.85309268E+01
 20
4.18772786E+01
 11
-1.35309268E+01
 21
4.18772786E+01
  0
LINE
  8
0
 62
4
 10
-2.60309268E+01
 20
5.58772786E+01
 11
-2.60309268E+01
 21
4.10772786E+01
  0
LINE
  8
0
 62
4
 10
-2.52809268E+01
 20
5.05772786E+01
 11
-2.52809268E+01
 21
4.88372786E+01
  0
LINE
  8
0
 62
4
 10
-1.92809268E+01
 20
5.05772786E+01
 11
-1.92809268E+01
 21
4.88372786E+01
  0
LINE
  8
0
 62
4
 10
-2.52809268E+01
 20
5.05772786E+01
 11
-2.39109268E+01
 21
5.05772786E+01
  0
LINE
  8
0
 62
4
 10
-2.52809268E+01
 20
4.18772786E+01
 11
-1.92809268E+01
 21
4.18772786E+01
  0
LINE
  8
0
 62
4
 10
-2.37809268E+01
 20
5.10772786E+01
 11
-2.07809268E+01
 21
5.10772786E+01
  0
LINE
  8
0
 62
4
 10
-2.37809268E+01
 20
5.10772786E+01
 11
-2.37809268E+01
 21
5.06472786E+01
  0
LINE
  8
0
 62
4
 10
-2.07809268E+01
 20
5.10772786E+01
 11
-2.07809268E+01
 21
5.06472786E+01
  0
LINE
  8
0
 62
4
 10
-2.52809268E+01
 20
4.69172786E+01
 11
-2.52809268E+01
 21
4.18772786E+01
  0
LINE
  8
0
 62
4
 10
-2.06609268E+01
 20
5.05772786E+01
 11
-1.92809268E+01
 21
5.05772786E+01
  0
LINE
  8
0
 62
4
 10
-1.92809268E+01
 20
4.69172786E+01
 11
-1.92809268E+01
 21
4.18772786E+01
  0
LINE
  8
0
 62
4
 10
-1.00309268E+01
 20
3.08772786E+01
 11
-5.30926756E-01
 21
3.08772786E+01
  0
LINE
  8
0
 62
4
 10
-1.00309268E+01
 20
3.48772786E+01
 11
-5.30926756E-01
 21
3.48772786E+01
  0
LINE
  8
0
 62
4
 10
-5.30926756E-01
 20
3.56772786E+01
 11
6.96907324E+00
 21
3.56772786E+01
  0
LINE
  8
0
 62
4
 10
-5.30926756E-01
 20
2.08772786E+01
 11
6.96907324E+00
 21
2.08772786E+01
  0
LINE
  8
0
 62
4
 10
-5.30926756E-01
 20
2.48772786E+01
 11
6.96907324E+00
 21
2.48772786E+01
  0
LINE
  8
0
 62
4
 10
-1.00309268E+01
 20
3.08772786E+01
 11
-1.00309268E+01
 21
3.48772786E+01
  0
LINE
  8
0
 62
4
 10
1.19690732E+01
 20
3.08772786E+01
 11
1.19690732E+01
 21
3.48772786E+01
  0
LINE
  8
0
 62
4
 10
1.19690732E+01
 20
3.43772786E+01
 11
1.39077083E+01
 21
3.43772786E+01
  0
LINE
  8
0
 62
4
 10
1.19690732E+01
 20
3.13772786E+01
 11
1.21756575E+01
 21
3.13772786E+01
  0
LINE
  8
0
 62
4
 10
6.96907324E+00
 20
2.08772786E+01
 11
6.96907324E+00
 21
3.56772786E+01
  0
LINE
  8
0
 62
4
 10
6.96907324E+00
 20
3.08772786E+01
 11
1.19690732E+01
 21
3.08772786E+01
  0
LINE
  8
0
 62
4
 10
6.96907324E+00
 20
3.48772786E+01
 11
1.19690732E+01
 21
3.48772786E+01
  0
LINE
  8
0
 62
4
 10
-5.30926756E-01
 20
2.08772786E+01
 11
-5.30926756E-01
 21
3.56772786E+01
  0
LINE
  8
0
 62
4
 10
2.19073244E-01
 20
2.61772786E+01
 11
2.19073244E-01
 21
2.79172786E+01
  0
LINE
  8
0
 62
4
 10
6.21907324E+00
 20
2.61772786E+01
 11
6.21907324E+00
 21
2.79172786E+01
  0
LINE
  8
0
 62
4
 10
2.19073244E-01
 20
2.61772786E+01
 11
1.58907324E+00
 21
2.61772786E+01
  0
LINE
  8
0
 62
4
 10
2.19073244E-01
 20
3.48772786E+01
 11
6.21907324E+00
 21
3.48772786E+01
  0
LINE
  8
0
 62
4
 10
1.71907324E+00
 20
2.56772786E+01
 11
4.71907324E+00
 21
2.56772786E+01
  0
LINE
  8
0
 62
4
 10
1.71907324E+00
 20
2.56772786E+01
 11
1.71907324E+00
 21
2.61072786E+01
  0
LINE
  8
0
 62
4
 10
4.71907324E+00
 20
2.56772786E+01
 11
4.71907324E+00
 21
2.61072786E+01
  0
LINE
  8
0
 62
4
 10
2.19073244E-01
 20
2.98372786E+01
 11
2.19073244E-01
 21
3.48772786E+01
  0
LINE
  8
0
 62
4
 10
4.83907324E+00
 20
2.61772786E+01
 11
6.21907324E+00
 21
2.61772786E+01
  0
LINE
  8
0
 62
4
 10
6.21907324E+00
 20
2.98372786E+01
 11
6.21907324E+00
 21
3.48772786E+01
  0
LINE
  8
0
 62
4
 10
-1.35309268E+01
 20
4.23772786E+01
 11
-1.33243425E+01
 21
4.23772786E+01
  0
LINE
  8
0
 62
4
 10
-1.35309268E+01
 20
4.53772786E+01
 11
-1.15922917E+01
 21
4.53772786E+01
  0
LINE
  8
0
 62
4
 10
-3.45309268E+01
 20
4.58772786E+01
 11
-3.45309268E+01
 21
4.18772786E+01
  0
LINE
  8
0
 62
4
 10
-9.03092676E+00
 20
3.08772786E+01
 11
-9.03092676E+00
 21
3.48772786E+01
  0
LINE
  8
0
 62
7
 10
-1.85309268E+01
 20
5.48772786E+01
 11
6.37190732E+01
 21
5.48772786E+01
  0
LINE
  8
0
 62
7
 10
6.96907324E+00
 20
2.18772786E+01
 11
6.37190732E+01
 21
2.18772786E+01
  0
LINE
  8
0
  6
DASHED
 62
6
 10
-6.62809268E+01
 20
3.73772786E+01
 11
-6.01309268E+01
 21
3.73772786E+01
  0
LINE
  8
0
  6
DASHED
 62
6
 10
-6.62809268E+01
 20
3.93772786E+01
 11
-6.01309268E+01
 21
3.93772786E+01
  0
CIRCLE
  8
0
 62
7
 10
1.07190732E+01
 20
5.03772786E+01
 40
2.25000000E+00
  0
CIRCLE
  8
0
 62
7
 10
1.07190732E+01
 20
5.03772786E+01
 40
3.79999924E+00
  0
CIRCLE
  8
0
 62
7
 10
1.07190732E+01
 20
2.63772786E+01
 40
2.25000000E+00
  0
ARC
  8
0
 62
7
 10
1.07190765E+01
 20
2.63822786E+01
 40
3.80009860E+00
 50
1.89313591E+02
 51
1.70686409E+02
  0
ARC
  8
0
 62
4
 10
-4.97809233E+01
 20
3.83822786E+01
 40
2.99817317E+00
 50
1.46495477E+02
 51
2.13504523E+02
  0
ARC
  8
0
 62
4
 10
-5.64359819E+01
 20
4.18374216E+01
 40
2.04833272E+00
 50
1.54250976E+02
 51
2.14159738E+02
  0
ARC
  8
0
 62
4
 10
-5.08381914E+01
 20
3.83822786E+01
 40
7.64833403E+00
 50
1.62459924E+02
 51
1.97540077E+02
  0
ARC
  8
0
 62
4
 10
-5.64352135E+01
 20
3.49270791E+01
 40
2.04900033E+00
 50
1.45851020E+02
 51
2.05738266E+02
  0
ARC
  8
0
 62
4
 10
-5.73267105E+01
 20
3.49278092E+01
 40
2.04037904E+00
 50
3.34122180E+02
 51
3.42885335E+01
  0
ARC
  8
0
 62
4
 10
-6.29236743E+01
 20
3.83822786E+01
 40
7.63881120E+00
 50
3.42437346E+02
 51
1.75626538E+01
  0
ARC
  8
0
 62
4
 10
-5.73259389E+01
 20
4.18366912E+01
 40
2.03970960E+00
 50
3.25700573E+02
 51
2.58887134E+01
  0
CIRCLE
  8
0
 62
4
 10
-2.22809268E+01
 20
4.78772786E+01
 40
3.14999962E+00
  0
CIRCLE
  8
0
 62
4
 10
3.21907324E+00
 20
2.88772786E+01
 40
3.14999962E+00
  0
LINE
  8
0
 62
7
 10
-4.12809268E+01
 20
1.28772786E+01
 11
-3.42809268E+01
 21
1.28772786E+01
  0
LINE
  8
0
  6
PHANTOM
 10
2.93638098E+01
 20
6.39229669E+01
 11
2.93638098E+01
 21
1.08694308E+01
  0
LINE
  8
0
  6
CENTER
 62
2
 10
-1.16280927E+02
 20
5.78772786E+01
 11
-1.16280927E+02
 21
9.87727858E+00
  0
CIRCLE
  8
0
 62
4
 10
-1.16280927E+02
 20
3.83772786E+01
 40
2.50000000E+00
  0
CIRCLE
  8
0
 62
4
 10
-1.16280927E+02
 20
3.83772786E+01
 40
4.00000000E+00
  0
LINE
  8
0
 62
7
 10
-1.06280927E+02
 20
5.48772786E+01
 11
-1.06280927E+02
 21
1.28772786E+01
  0
LINE
  8
0
 62
7
 10
-1.26280927E+02
 20
5.48772786E+01
 11
-1.26280927E+02
 21
1.28772786E+01
  0
LINE
  8
0
 62
7
 10
-1.26280927E+02
 20
5.48772786E+01
 11
-1.06280927E+02
 21
5.48772786E+01
  0
LINE
  8
0
 62
7
 10
-1.25780927E+02
 20
2.23772786E+01
 11
-1.06780927E+02
 21
2.23772786E+01
  0
LINE
  8
0
 62
7
 10
-1.25780927E+02
 20
4.73772786E+01
 11
-1.06780927E+02
 21
4.73772786E+01
  0
LINE
  8
0
 62
7
 10
-1.25780927E+02
 20
4.73772786E+01
 11
-1.25780927E+02
 21
2.23772786E+01
  0
LINE
  8
0
 62
7
 10
-1.06780927E+02
 20
4.73772786E+01
 11
-1.06780927E+02
 21
2.23772786E+01
  0
LINE
  8
0
  6
CENTER
 62
2
 10
-1.25780927E+02
 20
2.58772786E+01
 11
-1.18780927E+02
 21
2.58772786E+01
  0
LINE
  8
0
  6
CENTER
 62
2
 10
-1.22280927E+02
 20
2.93772786E+01
 11
-1.22280927E+02
 21
2.23772786E+01
  0
LINE
  8
0
 62
7
 10
-1.06280927E+02
 20
3.03772786E+01
 11
-1.06780927E+02
 21
3.03772786E+01
  0
LINE
  8
0
 62
7
 10
-1.26280927E+02
 20
4.63772786E+01
 11
-1.25780927E+02
 21
4.63772786E+01
  0
LINE
  8
0
 62
7
 10
-1.17780927E+02
 20
5.48772786E+01
 11
-1.17780927E+02
 21
5.08772786E+01
  0
LINE
  8
0
 62
7
 10
-1.23780927E+02
 20
5.17372786E+01
 11
-1.23780927E+02
 21
5.00072786E+01
  0
LINE
  8
0
 62
7
 10
-1.20780927E+02
 20
5.17372786E+01
 11
-1.20780927E+02
 21
5.00072786E+01
  0
LINE
  8
0
 62
7
 10
-1.23780927E+02
 20
5.17372786E+01
 11
-1.22280927E+02
 21
5.26072786E+01
  0
LINE
  8
0
 62
7
 10
-1.22280927E+02
 20
4.91372786E+01
 11
-1.20780927E+02
 21
5.00072786E+01
  0
LINE
  8
0
 62
7
 10
-1.22280927E+02
 20
5.26072786E+01
 11
-1.20780927E+02
 21
5.17372786E+01
  0
LINE
  8
0
 62
7
 10
-1.23780927E+02
 20
5.00072786E+01
 11
-1.22280927E+02
 21
4.91372786E+01
  0
LINE
  8
0
  6
CENTER
 62
2
 10
-1.28280927E+02
 20
5.08772786E+01
 11
-1.16280927E+02
 21
5.08772786E+01
  0
LINE
  8
0
  6
CENTER
 62
2
 10
-1.22280927E+02
 20
5.68772786E+01
 11
-1.22280927E+02
 21
4.48772786E+01
  0
LINE
  8
0
 62
4
 10
-1.08280927E+02
 20
5.58772786E+01
 11
-1.04780927E+02
 21
5.58772786E+01
  0
LINE
  8
0
 62
4
 10
-1.05780927E+02
 20
4.10772786E+01
 11
-1.00780927E+02
 21
4.10772786E+01
  0
LINE
  8
0
 62
4
 10
-1.00780927E+02
 20
5.18772786E+01
 11
-1.00780927E+02
 21
4.10772786E+01
  0
LINE
  8
0
 62
4
 10
-1.08280927E+02
 20
5.58772786E+01
 11
-1.08280927E+02
 21
5.48772786E+01
  0
LINE
  8
0
 62
4
 10
-1.05780927E+02
 20
4.18772786E+01
 11
-1.05780927E+02
 21
4.10772786E+01
  0
LINE
  8
0
 62
4
 10
-1.00780927E+02
 20
5.18772786E+01
 11
-1.04780927E+02
 21
5.58772786E+01
  0
LINE
  8
0
 62
4
 10
-1.06280927E+02
 20
4.58772786E+01
 11
-1.02280927E+02
 21
4.58772786E+01
  0
LINE
  8
0
 62
4
 10
-1.06280927E+02
 20
4.18772786E+01
 11
-1.02280927E+02
 21
4.18772786E+01
  0
LINE
  8
0
 62
4
 10
-1.02280927E+02
 20
4.58772786E+01
 11
-1.02280927E+02
 21
4.18772786E+01
  0
LINE
  8
0
 62
6
 10
-1.02280927E+02
 20
4.58772786E+01
 11
-1.06280927E+02
 21
4.18772786E+01
  0
LINE
  8
0
 62
6
 10
-1.06280927E+02
 20
4.58772786E+01
 11
-1.02280927E+02
 21
4.18772786E+01
  0
LINE
  8
0
 62
4
 10
-1.00220927E+02
 20
4.47272786E+01
 11
-1.00780927E+02
 21
4.47272786E+01
  0
LINE
  8
0
 62
4
 10
-1.00220927E+02
 20
5.10272786E+01
 11
-1.00780927E+02
 21
5.10272786E+01
  0
LINE
  8
0
 62
4
 10
-1.06280927E+02
 20
2.08772786E+01
 11
-1.04780927E+02
 21
2.08772786E+01
  0
LINE
  8
0
 62
4
 10
-1.05780927E+02
 20
3.56772786E+01
 11
-1.00780927E+02
 21
3.56772786E+01
  0
LINE
  8
0
 62
4
 10
-1.00780927E+02
 20
2.48772786E+01
 11
-1.00780927E+02
 21
3.56772786E+01
  0
LINE
  8
0
 62
4
 10
-1.05780927E+02
 20
3.48772786E+01
 11
-1.05780927E+02
 21
3.56772786E+01
  0
LINE
  8
0
 62
4
 10
-1.00780927E+02
 20
2.48772786E+01
 11
-1.04780927E+02
 21
2.08772786E+01
  0
LINE
  8
0
 62
4
 10
-1.06280927E+02
 20
3.08772786E+01
 11
-1.02280927E+02
 21
3.08772786E+01
  0
LINE
  8
0
 62
4
 10
-1.06280927E+02
 20
3.48772786E+01
 11
-1.02280927E+02
 21
3.48772786E+01
  0
LINE
  8
0
 62
4
 10
-1.02280927E+02
 20
3.08772786E+01
 11
-1.02280927E+02
 21
3.48772786E+01
  0
LINE
  8
0
 62
6
 10
-1.02280927E+02
 20
3.08772786E+01
 11
-1.06280927E+02
 21
3.48772786E+01
  0
LINE
  8
0
 62
6
 10
-1.06280927E+02
 20
3.08772786E+01
 11
-1.02280927E+02
 21
3.48772786E+01
  0
LINE
  8
0
 62
4
 10
-1.00220927E+02
 20
3.20272786E+01
 11
-1.00780927E+02
 21
3.20272786E+01
  0
LINE
  8
0
 62
4
 10
-1.00220927E+02
 20
2.57272786E+01
 11
-1.00780927E+02
 21
2.57272786E+01
  0
LINE
  8
0
 62
7
 10
-1.26280927E+02
 20
1.28772786E+01
 11
-1.06280927E+02
 21
1.28772786E+01
  0
LINE
  8
0
  6
CENTER
 62
2
 10
-1.26280927E+02
 20
1.73772786E+01
 11
-1.18280927E+02
 21
1.73772786E+01
  0
LINE
  8
0
  6
CENTER
 62
2
 10
-1.22280927E+02
 20
2.13772786E+01
 11
-1.22280927E+02
 21
1.33772786E+01
  0
LINE
  8
0
  6
CENTER
 62
2
 10
-1.10280927E+02
 20
2.13772786E+01
 11
-1.10280927E+02
 21
1.33772786E+01
  0
LINE
  8
0
  6
CENTER
 62
2
 10
-1.06280927E+02
 20
1.73772786E+01
 11
-1.14280927E+02
 21
1.73772786E+01
  0
LINE
  8
0
 62
7
 10
-1.10280927E+02
 20
2.13772786E+01
 11
-1.06280927E+02
 21
2.13772786E+01
  0
CIRCLE
  8
0
 62
7
 10
-1.22280927E+02
 20
2.58772786E+01
 40
2.00000000E+00
  0
ARC
  8
0
 62
7
 10
-1.22281421E+02
 20
5.08762430E+01
 40
4.50049439E+00
 50
3.08971197E+02
 51
1.31841020E-02
  0
CIRCLE
  8
0
 62
7
 10
-1.22280927E+02
 20
5.08772786E+01
 40
3.50000000E+00
  0
CIRCLE
  8
0
 62
7
 10
-1.22280927E+02
 20
5.08772786E+01
 40
2.98038483E+00
  0
CIRCLE
  8
0
 62
4
 10
-1.16280927E+02
 20
3.83772786E+01
 40
6.25000000E+00
  0
CIRCLE
  8
0
 62
4
 10
-1.16280927E+02
 20
3.83772786E+01
 40
2.50000000E+00
  0
CIRCLE
  8
0
 62
6
 10
-1.16280927E+02
 20
3.83772786E+01
 40
2.09999943E+00
  0
CIRCLE
  8
0
 62
4
 10
-1.16280927E+02
 20
3.83772786E+01
 40
1.00000000E+00
  0
ARC
  8
0
 62
4
 10
-1.03780929E+02
 20
4.78722786E+01
 40
5.00182385E+00
 50
3.25054915E+02
 51
3.49450853E+01
  0
ARC
  8
0
 62
4
 10
-1.00225236E+02
 20
4.53963042E+01
 40
6.69039514E-01
 50
2.70369071E+02
 51
3.24446080E+02
  0
ARC
  8
0
 62
4
 10
-1.00230783E+02
 20
5.03611666E+01
 40
6.66184865E-01
 50
3.43728490E+01
 51
8.91522599E+01
  0
ARC
  8
0
 62
4
 10
-1.03780929E+02
 20
2.88822786E+01
 40
5.00182385E+00
 50
3.25054915E+02
 51
3.49450853E+01
  0
ARC
  8
0
 62
4
 10
-1.00225236E+02
 20
3.13582529E+01
 40
6.69039514E-01
 50
3.55539199E+01
 51
8.96309294E+01
  0
ARC
  8
0
 62
4
 10
-1.00230788E+02
 20
2.63933994E+01
 40
6.66193824E-01
 50
2.70848139E+02
 51
3.25626752E+02
  0
CIRCLE
  8
0
 62
7
 10
-1.22280927E+02
 20
1.73772786E+01
 40
2.25000000E+00
  0
CIRCLE
  8
0
 62
7
 10
-1.10280927E+02
 20
1.73772786E+01
 40
2.25000000E+00
  0
ARC
  8
0
 62
7
 10
-1.10273428E+02
 20
2.58746263E+01
 40
4.49735400E+00
 50
2.31045516E+02
 51
2.69904461E+02
  0
LINE
  8
0
  6
CENTER
 62
2
 10
-1.29280927E+02
 20
3.83772786E+01
 11
-1.03280927E+02
 21
3.83772786E+01
  0
LINE
  8
0
  6
CENTER
 62
2
 10
1.23719073E+02
 20
5.78772786E+01
 11
1.23719073E+02
 21
9.87727858E+00
  0
LINE
  8
0
  6
CENTER
 62
2
 10
1.10719073E+02
 20
3.83772786E+01
 11
1.36719073E+02
 21
3.83772786E+01
  0
LINE
  8
0
 62
7
 10
1.13719073E+02
 20
5.48772786E+01
 11
1.13719073E+02
 21
1.28772786E+01
  0
LINE
  8
0
 62
7
 10
1.33719073E+02
 20
5.48772786E+01
 11
1.33719073E+02
 21
1.28772786E+01
  0
LINE
  8
0
 62
7
 10
1.13719073E+02
 20
5.48772786E+01
 11
1.33719073E+02
 21
5.48772786E+01
  0
LINE
  8
0
 62
7
 10
1.13719073E+02
 20
2.18772786E+01
 11
1.33719073E+02
 21
2.18772786E+01
  0
LINE
  8
0
 62
4
 10
1.07659073E+02
 20
3.20272786E+01
 11
1.08219073E+02
 21
3.20272786E+01
  0
LINE
  8
0
 62
4
 10
1.07659073E+02
 20
2.57272786E+01
 11
1.08219073E+02
 21
2.57272786E+01
  0
LINE
  8
0
 62
4
 10
1.15719073E+02
 20
5.58772786E+01
 11
1.12219073E+02
 21
5.58772786E+01
  0
LINE
  8
0
 62
4
 10
1.13219073E+02
 20
4.10772786E+01
 11
1.08219073E+02
 21
4.10772786E+01
  0
LINE
  8
0
 62
4
 10
1.08219073E+02
 20
5.18772786E+01
 11
1.08219073E+02
 21
4.10772786E+01
  0
LINE
  8
0
 62
4
 10
1.15719073E+02
 20
5.58772786E+01
 11
1.15719073E+02
 21
5.48772786E+01
  0
LINE
  8
0
 62
4
 10
1.13219073E+02
 20
4.18772786E+01
 11
1.13219073E+02
 21
4.10772786E+01
  0
LINE
  8
0
 62
4
 10
1.08219073E+02
 20
5.18772786E+01
 11
1.12219073E+02
 21
5.58772786E+01
  0
LINE
  8
0
 62
4
 10
1.13719073E+02
 20
4.58772786E+01
 11
1.09719073E+02
 21
4.58772786E+01
  0
LINE
  8
0
 62
4
 10
1.13719073E+02
 20
4.18772786E+01
 11
1.09719073E+02
 21
4.18772786E+01
  0
LINE
  8
0
 62
4
 10
1.09719073E+02
 20
4.58772786E+01
 11
1.09719073E+02
 21
4.18772786E+01
  0
LINE
  8
0
 62
4
 10
1.07659073E+02
 20
4.47272786E+01
 11
1.08219073E+02
 21
4.47272786E+01
  0
LINE
  8
0
 62
4
 10
1.07659073E+02
 20
5.10272786E+01
 11
1.08219073E+02
 21
5.10272786E+01
  0
LINE
  8
0
 62
4
 10
1.13719073E+02
 20
2.08772786E+01
 11
1.12219073E+02
 21
2.08772786E+01
  0
LINE
  8
0
 62
4
 10
1.13219073E+02
 20
3.56772786E+01
 11
1.08219073E+02
 21
3.56772786E+01
  0
LINE
  8
0
 62
4
 10
1.08219073E+02
 20
2.48772786E+01
 11
1.08219073E+02
 21
3.56772786E+01
  0
LINE
  8
0
 62
4
 10
1.13219073E+02
 20
3.48772786E+01
 11
1.13219073E+02
 21
3.56772786E+01
  0
LINE
  8
0
 62
4
 10
1.08219073E+02
 20
2.48772786E+01
 11
1.12219073E+02
 21
2.08772786E+01
  0
LINE
  8
0
 62
4
 10
1.13719073E+02
 20
3.08772786E+01
 11
1.09719073E+02
 21
3.08772786E+01
  0
LINE
  8
0
 62
4
 10
1.13719073E+02
 20
3.48772786E+01
 11
1.09719073E+02
 21
3.48772786E+01
  0
LINE
  8
0
 62
4
 10
1.09719073E+02
 20
3.08772786E+01
 11
1.09719073E+02
 21
3.48772786E+01
  0
LINE
  8
0
  6
CENTER
 62
2
 10
1.33219073E+02
 20
2.58772786E+01
 11
1.26219073E+02
 21
2.58772786E+01
  0
LINE
  8
0
  6
CENTER
 62
2
 10
1.29719073E+02
 20
2.23772786E+01
 11
1.29719073E+02
 21
2.93772786E+01
  0
LINE
  8
0
  6
CENTER
 62
2
 10
1.14219073E+02
 20
5.08772786E+01
 11
1.21219073E+02
 21
5.08772786E+01
  0
LINE
  8
0
  6
CENTER
 62
2
 10
1.17719073E+02
 20
5.43772786E+01
 11
1.17719073E+02
 21
4.73772786E+01
  0
LINE
  8
0
  6
CENTER
 62
2
 10
1.17719073E+02
 20
2.13772786E+01
 11
1.17719073E+02
 21
1.33772786E+01
  0
LINE
  8
0
  6
CENTER
 62
2
 10
1.13719073E+02
 20
1.73772786E+01
 11
1.21719073E+02
 21
1.73772786E+01
  0
LINE
  8
0
 62
7
 10
1.13719073E+02
 20
1.28772786E+01
 11
1.33719073E+02
 21
1.28772786E+01
  0
LINE
  8
0
  6
CENTER
 62
2
 10
1.29719073E+02
 20
2.13772786E+01
 11
1.29719073E+02
 21
1.33772786E+01
  0
LINE
  8
0
  6
CENTER
 62
2
 10
1.33719073E+02
 20
1.73772786E+01
 11
1.25719073E+02
 21
1.73772786E+01
  0
ARC
  8
0
 62
4
 10
1.07668930E+02
 20
5.03611666E+01
 40
6.66184865E-01
 50
9.08477399E+01
 51
1.45627151E+02
  0
ARC
  8
0
 62
4
 10
1.11219075E+02
 20
4.78722786E+01
 40
5.00182385E+00
 50
1.45054915E+02
 51
2.14945085E+02
  0
ARC
  8
0
 62
4
 10
1.07663383E+02
 20
3.13582529E+01
 40
6.69039514E-01
 50
9.03690709E+01
 51
1.44446080E+02
  0
ARC
  8
0
 62
4
 10
1.07663383E+02
 20
4.53963042E+01
 40
6.69039514E-01
 50
2.15553920E+02
 51
2.69630929E+02
  0
ARC
  8
0
 62
4
 10
1.11219075E+02
 20
2.88822786E+01
 40
5.00182385E+00
 50
1.45054915E+02
 51
2.14945085E+02
  0
ARC
  8
0
 62
4
 10
1.07668934E+02
 20
2.63933994E+01
 40
6.66193824E-01
 50
2.14373248E+02
 51
2.69151861E+02
  0
CIRCLE
  8
0
 62
4
 10
1.11719073E+02
 20
4.38772805E+01
 40
1.50000000E+00
  0
CIRCLE
  8
0
 62
4
 10
1.11719073E+02
 20
3.28772805E+01
 40
1.50000000E+00
  0
CIRCLE
  8
0
 62
2
 10
1.29719073E+02
 20
2.58772786E+01
 40
2.00000000E+00
  0
CIRCLE
  8
0
 62
7
 10
1.29719073E+02
 20
2.58772786E+01
 40
1.64999962E+00
  0
CIRCLE
  8
0
 62
2
 10
1.17719073E+02
 20
5.08772786E+01
 40
2.00000000E+00
  0
CIRCLE
  8
0
 62
7
 10
1.17719073E+02
 20
5.08772786E+01
 40
1.64999962E+00
  0
CIRCLE
  8
0
 62
7
 10
1.17719073E+02
 20
1.73772786E+01
 40
2.25000000E+00
  0
CIRCLE
  8
0
 62
7
 10
1.29719073E+02
 20
1.73772786E+01
 40
2.25000000E+00
  0
LINE
  8
0
  6
PHANTOM
 10
-1.06361902E+01
 20
1.10976503E+02
 11
-1.06361902E+01
 21
5.39229669E+01
  0
ARC
  8
0
 62
4
 10
-5.88309300E+01
 20
8.07272788E+01
 40
3.50000191E-01
 50
2.70000031E+02
 51
3.59999969E+02
  0
ARC
  8
0
 62
4
 10
-5.88309300E+01
 20
8.80272784E+01
 40
3.50000191E-01
 50
3.12237134E-05
 51
8.99999687E+01
  0
LINE
  8
0
 62
4
 10
-5.84809298E+01
 20
8.80272786E+01
 11
-5.84809298E+01
 21
8.07272786E+01
  0
LINE
  8
0
 62
4
 10
-5.88309298E+01
 20
8.83772786E+01
 11
-5.88309298E+01
 21
8.03772786E+01
  0
ARC
  8
0
 62
4
 10
-6.01309327E+01
 20
8.07272788E+01
 40
3.50000191E-01
 50
1.80000031E+02
 51
2.69999969E+02
  0
ARC
  8
0
 62
4
 10
-6.01309327E+01
 20
8.80272784E+01
 40
3.50000191E-01
 50
9.00000311E+01
 51
1.79999969E+02
  0
LINE
  8
0
 62
4
 10
-6.04809329E+01
 20
8.80272786E+01
 11
-6.04809329E+01
 21
8.07272786E+01
  0
LINE
  8
0
 62
4
 10
-6.01309329E+01
 20
8.83772786E+01
 11
-6.01309329E+01
 21
8.03772786E+01
  0
LINE
  8
0
 62
4
 10
-1.85309268E+01
 20
7.28772786E+01
 11
-2.60309268E+01
 21
7.28772786E+01
  0
LINE
  8
0
 62
4
 10
1.19690732E+01
 20
7.38772786E+01
 11
1.21756575E+01
 21
7.38772786E+01
  0
LINE
  8
0
 62
4
 10
1.19690732E+01
 20
7.08772786E+01
 11
1.39077083E+01
 21
7.08772786E+01
  0
LINE
  8
0
 62
6
 10
1.39077083E+01
 20
7.08772786E+01
 11
1.21756575E+01
 21
7.38772786E+01
  0
LINE
  8
0
 62
4
 10
1.19690732E+01
 20
7.43772786E+01
 11
1.19690732E+01
 21
7.03772786E+01
  0
LINE
  8
0
 62
4
 10
6.96907324E+00
 20
7.03772786E+01
 11
1.19690732E+01
 21
7.03772786E+01
  0
LINE
  8
0
 62
4
 10
-1.00309268E+01
 20
7.43772786E+01
 11
-1.00309268E+01
 21
7.03772786E+01
  0
LINE
  8
0
 62
4
 10
-1.00309268E+01
 20
7.03772786E+01
 11
-5.30926756E-01
 21
7.03772786E+01
  0
LINE
  8
0
 62
4
 10
-9.03092676E+00
 20
7.43772786E+01
 11
-9.03092676E+00
 21
7.03772786E+01
  0
LINE
  8
0
 62
6
 10
-1.15922917E+01
 20
7.08772786E+01
 11
-1.33243425E+01
 21
7.38772786E+01
  0
LINE
  8
0
  6
CENTER
 62
2
 10
-6.92809268E+01
 20
8.43772786E+01
 11
6.67190732E+01
 21
8.43772786E+01
  0
LINE
  8
0
 62
4
 10
-6.62809268E+01
 20
8.63772786E+01
 11
-6.62809268E+01
 21
8.23772786E+01
  0
LINE
  8
0
 62
7
 10
-4.19809268E+01
 20
7.93772786E+01
 11
-4.12809268E+01
 21
7.93772786E+01
  0
LINE
  8
0
 62
7
 10
-4.19809268E+01
 20
8.93772786E+01
 11
-4.12809268E+01
 21
8.93772786E+01
  0
LINE
  8
0
 62
7
 10
-4.19809268E+01
 20
8.93772786E+01
 11
-4.22809268E+01
 21
8.92972786E+01
  0
LINE
  8
0
 62
7
 10
-4.19809268E+01
 20
7.93772786E+01
 11
-4.22809268E+01
 21
7.94572786E+01
  0
LINE
  8
0
 62
7
 10
-4.22809268E+01
 20
8.92972786E+01
 11
-4.22809268E+01
 21
7.94572786E+01
  0
LINE
  8
0
 62
4
 10
-5.42809268E+01
 20
8.68772786E+01
 11
-5.42809268E+01
 21
8.18772786E+01
  0
LINE
  8
0
 62
4
 10
-6.57809268E+01
 20
8.68772786E+01
 11
-6.04809268E+01
 21
8.68772786E+01
  0
LINE
  8
0
 62
4
 10
-6.57809268E+01
 20
8.18772786E+01
 11
-6.04809268E+01
 21
8.18772786E+01
  0
LINE
  8
0
 62
4
 10
-6.62809268E+01
 20
8.63772786E+01
 11
-6.57809268E+01
 21
8.68772786E+01
  0
LINE
  8
0
 62
4
 10
-6.62809268E+01
 20
8.23772786E+01
 11
-6.57809268E+01
 21
8.18772786E+01
  0
LINE
  8
0
 62
4
 10
-6.57809268E+01
 20
8.68772786E+01
 11
-6.57809268E+01
 21
8.18772786E+01
  0
LINE
  8
0
 62
7
 10
-4.27809268E+01
 20
8.73772786E+01
 11
-4.22809268E+01
 21
8.73772786E+01
  0
LINE
  8
0
 62
7
 10
-4.27809268E+01
 20
8.13772786E+01
 11
-4.22809268E+01
 21
8.13772786E+01
  0
LINE
  8
0
 62
6
 10
-6.61809268E+01
 20
8.64772786E+01
 11
-6.04809268E+01
 21
8.64772786E+01
  0
LINE
  8
0
 62
6
 10
-6.61809268E+01
 20
8.22772786E+01
 11
-6.04809268E+01
 21
8.22772786E+01
  0
LINE
  8
0
 62
6
 10
-5.42809268E+01
 20
8.64772786E+01
 11
-5.35909268E+01
 21
8.68772786E+01
  0
LINE
  8
0
 62
6
 10
-5.42809268E+01
 20
8.22772786E+01
 11
-5.35909268E+01
 21
8.18772786E+01
  0
LINE
  8
0
 62
4
 10
-5.52809268E+01
 20
8.68772786E+01
 11
-4.87809268E+01
 21
8.68772786E+01
  0
LINE
  8
0
 62
6
 10
-5.52809268E+01
 20
8.64772786E+01
 11
-5.42809268E+01
 21
8.64772786E+01
  0
LINE
  8
0
 62
6
 10
-5.52809268E+01
 20
8.22772786E+01
 11
-5.42809268E+01
 21
8.22772786E+01
  0
LINE
  8
0
 62
4
 10
-5.52809268E+01
 20
8.18772786E+01
 11
-4.87809268E+01
 21
8.18772786E+01
  0
LINE
  8
0
 62
4
 10
-6.01309268E+01
 20
9.06272786E+01
 11
-5.88309268E+01
 21
9.06272786E+01
  0
LINE
  8
0
 62
4
 10
-6.01309268E+01
 20
7.81272786E+01
 11
-5.88309268E+01
 21
7.81272786E+01
  0
LINE
  8
0
 62
4
 10
-5.88309268E+01
 20
9.06272786E+01
 11
-5.88309268E+01
 21
7.81272786E+01
  0
LINE
  8
0
 62
4
 10
-6.01309268E+01
 20
9.06272786E+01
 11
-6.01309268E+01
 21
7.81272786E+01
  0
LINE
  8
0
 62
4
 10
-5.84809268E+01
 20
8.83772786E+01
 11
-5.84809268E+01
 21
8.03772786E+01
  0
LINE
  8
0
 62
4
 10
-5.52809268E+01
 20
8.83772786E+01
 11
-5.52809268E+01
 21
8.03772786E+01
  0
LINE
  8
0
 62
7
 10
-4.12809268E+01
 20
9.43772786E+01
 11
-4.12809268E+01
 21
7.43772786E+01
  0
LINE
  8
0
 62
7
 10
-3.42809268E+01
 20
9.43772786E+01
 11
-3.42809268E+01
 21
7.43772786E+01
  0
LINE
  8
0
 62
7
 10
-4.12809268E+01
 20
7.43772786E+01
 11
-2.60309268E+01
 21
7.43772786E+01
  0
LINE
  8
0
 62
7
 10
-4.12809268E+01
 20
9.43772786E+01
 11
6.37190732E+01
 21
9.43772786E+01
  0
LINE
  8
0
 62
7
 10
-3.70809268E+01
 20
9.43772786E+01
 11
-3.70809268E+01
 21
8.58772786E+01
  0
LINE
  8
0
 62
7
 10
-4.12809268E+01
 20
8.58772786E+01
 11
-3.70809268E+01
 21
8.58772786E+01
  0
LINE
  8
0
 62
7
 10
-4.10809268E+01
 20
9.38772786E+01
 11
-3.70809268E+01
 21
9.38772786E+01
  0
LINE
  8
0
 62
7
 10
-4.10809268E+01
 20
9.38772786E+01
 11
-4.10809268E+01
 21
8.68772786E+01
  0
LINE
  8
0
 62
7
 10
-4.10809268E+01
 20
8.68772786E+01
 11
-3.70809268E+01
 21
8.68772786E+01
  0
LINE
  8
0
  6
CENTER
 62
2
 10
-3.27809268E+01
 20
8.35772786E+01
 11
-2.47809268E+01
 21
8.35772786E+01
  0
LINE
  8
0
  6
CENTER
 62
2
 10
4.50992054E+01
 20
8.83772786E+01
 11
4.50992054E+01
 21
8.03772786E+01
  0
LINE
  8
0
  6
CENTER
 62
2
 10
-2.87809268E+01
 20
8.75772786E+01
 11
-2.87809268E+01
 21
7.95772786E+01
  0
LINE
  8
0
  6
CENTER
 62
2
 10
1.70992054E+01
 20
8.84971464E+01
 11
1.70992054E+01
 21
8.04971464E+01
  0
LINE
  8
0
 62
7
 10
-4.87809268E+01
 20
9.38772786E+01
 11
-4.87809268E+01
 21
7.48772786E+01
  0
LINE
  8
0
 62
7
 10
-4.27809268E+01
 20
9.38772786E+01
 11
-4.27809268E+01
 21
7.48772786E+01
  0
LINE
  8
0
 62
4
 10
-5.27809268E+01
 20
8.68772786E+01
 11
-5.27809268E+01
 21
8.18772786E+01
  0
LINE
  8
0
 62
4
 10
-5.22809268E+01
 20
8.68772786E+01
 11
-5.22809268E+01
 21
8.18772786E+01
  0
LINE
  8
0
 62
4
 10
-5.84809268E+01
 20
8.03772786E+01
 11
-5.52809268E+01
 21
8.03772786E+01
  0
LINE
  8
0
 62
4
 10
-5.84809268E+01
 20
8.83772786E+01
 11
-5.52809268E+01
 21
8.83772786E+01
  0
LINE
  8
0
 62
4
 10
-5.81309268E+01
 20
8.43772786E+01
 11
-5.56409268E+01
 21
8.43772786E+01
  0
LINE
  8
0
 62
7
 10
-4.87809268E+01
 20
9.38772786E+01
 11
-4.27809268E+01
 21
9.38772786E+01
  0
LINE
  8
0
 62
7
 10
-4.87809268E+01
 20
7.48772786E+01
 11
-4.27809268E+01
 21
7.48772786E+01
  0
LINE
  8
0
  6
CENTER
 62
2
 10
-4.57809268E+01
 20
8.73772786E+01
 11
-4.57809268E+01
 21
8.13772786E+01
  0
LINE
  8
0
 62
7
 10
-4.67809268E+01
 20
8.37972786E+01
 11
-4.57809268E+01
 21
8.32172786E+01
  0
LINE
  8
0
 62
7
 10
-4.57809268E+01
 20
8.32172786E+01
 11
-4.47809268E+01
 21
8.37972786E+01
  0
LINE
  8
0
 62
7
 10
-4.47809268E+01
 20
8.37972786E+01
 11
-4.47809268E+01
 21
8.49472786E+01
  0
LINE
  8
0
 62
7
 10
-4.47809268E+01
 20
8.49472786E+01
 11
-4.57809268E+01
 21
8.55272786E+01
  0
LINE
  8
0
 62
7
 10
-4.57809268E+01
 20
8.55272786E+01
 11
-4.67809268E+01
 21
8.49472786E+01
  0
LINE
  8
0
 62
7
 10
-4.67809268E+01
 20
8.49472786E+01
 11
-4.67809268E+01
 21
8.37972786E+01
  0
LINE
  8
0
 62
7
 10
-4.27809268E+01
 20
9.23772786E+01
 11
-4.12809268E+01
 21
9.23772786E+01
  0
LINE
  8
0
 62
7
 10
-4.27809268E+01
 20
8.83772786E+01
 11
-4.22809268E+01
 21
8.83772786E+01
  0
LINE
  8
0
 62
4
 10
-1.35309268E+01
 20
7.08772786E+01
 11
-1.15922917E+01
 21
7.08772786E+01
  0
LINE
  8
0
 62
4
 10
-1.35309268E+01
 20
7.38772786E+01
 11
-1.33243425E+01
 21
7.38772786E+01
  0
LINE
  8
0
 62
4
 10
-3.55309268E+01
 20
7.43772786E+01
 11
-3.55309268E+01
 21
7.03772786E+01
  0
LINE
  8
0
 62
4
 10
-1.35309268E+01
 20
7.43772786E+01
 11
-1.35309268E+01
 21
7.03772786E+01
  0
LINE
  8
0
 62
4
 10
-1.85309268E+01
 20
7.63772786E+01
 11
-1.85309268E+01
 21
6.88772786E+01
  0
LINE
  8
0
 62
4
 10
-2.60309268E+01
 20
7.63772786E+01
 11
-2.60309268E+01
 21
6.88772786E+01
  0
LINE
  8
0
 62
4
 10
-3.55309268E+01
 20
7.03772786E+01
 11
-2.60309268E+01
 21
7.03772786E+01
  0
LINE
  8
0
 62
4
 10
-2.60309268E+01
 20
7.63772786E+01
 11
-1.85309268E+01
 21
7.63772786E+01
  0
LINE
  8
0
 62
4
 10
-2.60309268E+01
 20
6.88772786E+01
 11
-1.85309268E+01
 21
6.88772786E+01
  0
LINE
  8
0
 62
4
 10
-1.85309268E+01
 20
7.03772786E+01
 11
-1.35309268E+01
 21
7.03772786E+01
  0
LINE
  8
0
 62
4
 10
6.96907324E+00
 20
7.28772786E+01
 11
-5.30926756E-01
 21
7.28772786E+01
  0
LINE
  8
0
 62
4
 10
-2.54309268E+01
 20
6.83172786E+01
 11
-2.54309268E+01
 21
6.88772786E+01
  0
LINE
  8
0
 62
4
 10
-1.91309268E+01
 20
6.83172786E+01
 11
-1.91309268E+01
 21
6.88772786E+01
  0
LINE
  8
0
 62
4
 10
-3.45309268E+01
 20
7.43772786E+01
 11
-3.45309268E+01
 21
7.03772786E+01
  0
LINE
  8
0
 62
7
 10
-1.85309268E+01
 20
7.43772786E+01
 11
6.37190732E+01
 21
7.43772786E+01
  0
LINE
  8
0
 62
4
 10
-5.30926756E-01
 20
7.43772786E+01
 11
-5.30926756E-01
 21
6.88772786E+01
  0
LINE
  8
0
 62
4
 10
-5.30926756E-01
 20
6.88772786E+01
 11
6.96907324E+00
 21
6.88772786E+01
  0
LINE
  8
0
 62
4
 10
6.36907324E+00
 20
6.83172786E+01
 11
6.36907324E+00
 21
6.88772786E+01
  0
LINE
  8
0
 62
4
 10
6.90732440E-02
 20
6.83172786E+01
 11
6.90732440E-02
 21
6.88772786E+01
  0
LINE
  8
0
 62
4
 10
6.96907324E+00
 20
7.43772786E+01
 11
6.96907324E+00
 21
6.88772786E+01
  0
LINE
  8
0
 62
7
 10
6.37190732E+01
 20
9.43772786E+01
 11
6.37190732E+01
 21
7.43772786E+01
  0
CIRCLE
  8
0
 62
2
 10
4.50992085E+01
 20
8.43772786E+01
 40
2.50000000E+00
  0
CIRCLE
  8
0
 62
7
 10
4.50992085E+01
 20
8.43772786E+01
 40
2.09999943E+00
  0
CIRCLE
  8
0
 62
7
 10
-2.87809268E+01
 20
8.35772755E+01
 40
2.09999943E+00
  0
CIRCLE
  8
0
 62
2
 10
-2.87809268E+01
 20
8.35772755E+01
 40
2.50000000E+00
  0
CIRCLE
  8
0
 62
2
 10
1.70992085E+01
 20
8.44971464E+01
 40
2.50000000E+00
  0
CIRCLE
  8
0
 62
7
 10
1.70992085E+01
 20
8.44971464E+01
 40
2.09999943E+00
  0
ARC
  8
0
 62
4
 10
-5.27042819E+01
 20
8.63772786E+01
 40
5.78346564E+00
 50
1.59768543E+02
 51
2.00231458E+02
  0
ARC
  8
0
 62
4
 10
-6.10575839E+01
 20
8.63772786E+01
 40
5.77409510E+00
 50
3.39734270E+02
 51
2.02657304E+01
  0
ARC
  8
0
 62
4
 10
-5.27042819E+01
 20
8.23772786E+01
 40
5.78346564E+00
 50
1.59768543E+02
 51
2.00231458E+02
  0
ARC
  8
0
 62
4
 10
-6.10575839E+01
 20
8.23772786E+01
 40
5.77409510E+00
 50
3.39734270E+02
 51
2.02657304E+01
  0
CIRCLE
  8
0
 62
7
 10
-4.57809268E+01
 20
8.43772786E+01
 40
2.00000000E+00
  0
CIRCLE
  8
0
 62
7
 10
-4.57809268E+01
 20
8.43772786E+01
 40
1.64999962E+00
  0
ARC
  8
0
 62
4
 10
-2.22859268E+01
 20
7.18772806E+01
 40
5.00182385E+00
 50
2.35054914E+02
 51
3.04945086E+02
  0
ARC
  8
0
 62
4
 10
-2.47619041E+01
 20
6.83215866E+01
 40
6.69036508E-01
 50
1.80368939E+02
 51
2.34446212E+02
  0
ARC
  8
0
 62
4
 10
-1.97970476E+01
 20
6.83271398E+01
 40
6.66193824E-01
 50
3.04373248E+02
 51
3.59151860E+02
  0
ARC
  8
0
 62
4
 10
3.21407324E+00
 20
7.18772806E+01
 40
5.00182385E+00
 50
2.35054914E+02
 51
3.04945086E+02
  0
ARC
  8
0
 62
4
 10
5.70295241E+00
 20
6.83271398E+01
 40
6.66193824E-01
 50
3.04373248E+02
 51
3.59151860E+02
  0
ARC
  8
0
 62
4
 10
7.38095882E-01
 20
6.83215866E+01
 40
6.69036508E-01
 50
1.80368939E+02
 51
2.34446212E+02
  0
LINE
  8
0
  6
PHANTOM
 10
2.93638098E+01
 20
1.10976503E+02
 11
2.93638098E+01
 21
5.39229669E+01
  0
LINE
  8
0
 62
4
 10
-1.47270880E+02
 20
-7.15379354E+01
 11
-1.47270880E+02
 21
-7.75379354E+01
  0
LINE
  8
0
 62
4
 10
-1.68910880E+02
 20
-7.22279354E+01
 11
-1.58130880E+02
 21
-7.22279354E+01
  0
LINE
  8
0
 62
4
 10
-1.68910880E+02
 20
-7.68479354E+01
 11
-1.58130880E+02
 21
-7.68479354E+01
  0
ARC
  8
0
 62
4
 10
-1.67226199E+02
 20
-7.10779354E+01
 40
2.03976725E+00
 50
1.45681704E+02
 51
2.14318296E+02
  0
ARC
  8
0
 62
4
 10
-1.61628058E+02
 20
-7.45379354E+01
 40
7.64039267E+00
 50
1.62401768E+02
 51
1.97598232E+02
  0
ARC
  8
0
 62
4
 10
-1.67226202E+02
 20
-7.80029354E+01
 40
2.04258772E+00
 50
1.45565816E+02
 51
2.14434185E+02
  0
LINE
  8
0
 62
4
 10
-1.51270880E+02
 20
-7.20379354E+01
 11
-1.51270880E+02
 21
-7.70379354E+01
  0
LINE
  8
0
 62
4
 10
-1.51270880E+02
 20
-7.20379354E+01
 11
-1.50770880E+02
 21
-7.15379354E+01
  0
LINE
  8
0
 62
4
 10
-1.51270880E+02
 20
-7.70379354E+01
 11
-1.50770880E+02
 21
-7.75379354E+01
  0
LINE
  8
0
 62
4
 10
-1.50770880E+02
 20
-7.15379354E+01
 11
-1.50770880E+02
 21
-7.28879354E+01
  0
LINE
  8
0
 62
4
 10
-1.50770880E+02
 20
-7.61979354E+01
 11
-1.50770880E+02
 21
-7.75379354E+01
  0
LINE
  8
0
 62
4
 10
-1.52770880E+02
 20
-7.20379354E+01
 11
-1.52770880E+02
 21
-7.70379354E+01
  0
LINE
  8
0
 62
6
 10
-1.52770880E+02
 20
-7.24379354E+01
 11
-1.52070880E+02
 21
-7.20379354E+01
  0
LINE
  8
0
 62
6
 10
-1.52770880E+02
 20
-7.66379354E+01
 11
-1.52070880E+02
 21
-7.70379354E+01
  0
LINE
  8
0
 62
4
 10
-1.53270880E+02
 20
-7.20379354E+01
 11
-1.51270880E+02
 21
-7.20379354E+01
  0
LINE
  8
0
 62
6
 10
-1.53270880E+02
 20
-7.24379354E+01
 11
-1.52770880E+02
 21
-7.24379354E+01
  0
LINE
  8
0
 62
6
 10
-1.53270880E+02
 20
-7.66379354E+01
 11
-1.52770880E+02
 21
-7.66379354E+01
  0
LINE
  8
0
 62
4
 10
-1.53270880E+02
 20
-7.70379354E+01
 11
-1.51270880E+02
 21
-7.70379354E+01
  0
LINE
  8
0
 62
4
 10
-1.57770880E+02
 20
-6.82879354E+01
 11
-1.56470880E+02
 21
-6.82879354E+01
  0
LINE
  8
0
 62
4
 10
-1.57770880E+02
 20
-8.07879354E+01
 11
-1.56470880E+02
 21
-8.07879354E+01
  0
LINE
  8
0
 62
4
 10
-1.56470880E+02
 20
-6.82879354E+01
 11
-1.56470880E+02
 21
-8.07879354E+01
  0
LINE
  8
0
 62
4
 10
-1.57770880E+02
 20
-6.82879354E+01
 11
-1.57770880E+02
 21
-8.07879354E+01
  0
LINE
  8
0
 62
4
 10
-1.56110880E+02
 20
-6.99279354E+01
 11
-1.53620880E+02
 21
-6.99279354E+01
  0
LINE
  8
0
 62
4
 10
-1.56470880E+02
 20
-7.05379354E+01
 11
-1.56110880E+02
 21
-6.99279354E+01
  0
LINE
  8
0
 62
4
 10
-1.56110880E+02
 20
-7.22279354E+01
 11
-1.53620880E+02
 21
-7.22279354E+01
  0
LINE
  8
0
 62
4
 10
-1.56110880E+02
 20
-7.68479354E+01
 11
-1.53620880E+02
 21
-7.68479354E+01
  0
LINE
  8
0
 62
4
 10
-1.56110880E+02
 20
-7.91579354E+01
 11
-1.53620880E+02
 21
-7.91579354E+01
  0
LINE
  8
0
 62
4
 10
-1.56470880E+02
 20
-7.85379354E+01
 11
-1.56110880E+02
 21
-7.91579354E+01
  0
LINE
  8
0
 62
4
 10
-1.53270880E+02
 20
-7.85379354E+01
 11
-1.53620880E+02
 21
-7.91579354E+01
  0
LINE
  8
0
 62
4
 10
-1.53270880E+02
 20
-7.05379354E+01
 11
-1.53270880E+02
 21
-7.85379354E+01
  0
LINE
  8
0
 62
4
 10
-1.53270880E+02
 20
-7.05379354E+01
 11
-1.53620880E+02
 21
-6.99279354E+01
  0
LINE
  8
0
 62
4
 10
-1.57770880E+02
 20
-7.85379354E+01
 11
-1.58120880E+02
 21
-7.91579354E+01
  0
ARC
  8
0
 62
4
 10
-1.54425865E+02
 20
-7.79973483E+01
 40
2.03971273E+00
 50
1.45700623E+02
 51
2.05888662E+02
  0
ARC
  8
0
 62
4
 10
-1.48828147E+02
 20
-7.45379354E+01
 40
7.64030831E+00
 50
1.62401567E+02
 51
1.97598433E+02
  0
ARC
  8
0
 62
4
 10
-1.55315838E+02
 20
-7.79980793E+01
 40
2.04834377E+00
 50
3.34251154E+02
 51
3.41595596E+01
  0
ARC
  8
0
 62
4
 10
-1.54425532E+02
 20
-7.10828604E+01
 40
2.03754654E+00
 50
1.54258661E+02
 51
2.14193335E+02
  0
ARC
  8
0
 62
4
 10
-1.48270877E+02
 20
-7.45429354E+01
 40
2.99817317E+00
 50
1.46495477E+02
 51
2.13504523E+02
  0
ARC
  8
0
 62
4
 10
-1.55316169E+02
 20
-7.10821259E+01
 40
2.04618712E+00
 50
3.25946071E+02
 51
2.56019322E+01
  0
ARC
  8
0
 62
4
 10
-1.60913611E+02
 20
-7.45379354E+01
 40
7.64983799E+00
 50
3.42424205E+02
 51
1.75757949E+01
  0
LINE
  8
0
 62
4
 10
-1.74070880E+02
 20
-7.63379354E+01
 11
-1.72270880E+02
 21
-7.70379354E+01
  0
LINE
  8
0
 62
4
 10
-1.74070880E+02
 20
-7.27379354E+01
 11
-1.72270880E+02
 21
-7.20379354E+01
  0
LINE
  8
0
 62
4
 10
-1.75270880E+02
 20
-7.75379354E+01
 11
-1.74070880E+02
 21
-7.63379354E+01
  0
LINE
  8
0
 62
4
 10
-1.75270880E+02
 20
-7.15379354E+01
 11
-1.74070880E+02
 21
-7.27379354E+01
  0
LINE
  8
0
 62
4
 10
-1.69270880E+02
 20
-7.65379354E+01
 11
-1.70070880E+02
 21
-7.70379354E+01
  0
LINE
  8
0
 62
4
 10
-1.70070880E+02
 20
-7.20379354E+01
 11
-1.69270880E+02
 21
-7.25379354E+01
  0
LINE
  8
0
 62
4
 10
-1.70070880E+02
 20
-7.20379354E+01
 11
-1.72270880E+02
 21
-7.20379354E+01
  0
LINE
  8
0
 62
4
 10
-1.70070880E+02
 20
-7.70379354E+01
 11
-1.72270880E+02
 21
-7.70379354E+01
  0
LINE
  8
0
 62
4
 10
-1.75270880E+02
 20
-7.15379354E+01
 11
-1.75270880E+02
 21
-7.75379354E+01
  0
LINE
  8
0
 62
4
 10
-1.69270880E+02
 20
-7.05379354E+01
 11
-1.68910880E+02
 21
-6.99229354E+01
  0
LINE
  8
0
 62
4
 10
-1.57770880E+02
 20
-7.85379354E+01
 11
-1.58130880E+02
 21
-7.91579354E+01
  0
LINE
  8
0
 62
4
 10
-1.69270880E+02
 20
-7.85379354E+01
 11
-1.68910880E+02
 21
-7.91579354E+01
  0
LINE
  8
0
 62
4
 10
-1.57770880E+02
 20
-7.05379354E+01
 11
-1.58130880E+02
 21
-6.99229354E+01
  0
LINE
  8
0
 62
4
 10
-1.58130880E+02
 20
-7.91579354E+01
 11
-1.68910880E+02
 21
-7.91579354E+01
  0
LINE
  8
0
 62
4
 10
-1.58130880E+02
 20
-6.99229354E+01
 11
-1.68910880E+02
 21
-6.99229354E+01
  0
LINE
  8
0
 62
4
 10
-1.69270880E+02
 20
-7.85379354E+01
 11
-1.69270880E+02
 21
-7.05379354E+01
  0
LINE
  8
0
 62
4
 10
-1.57770880E+02
 20
-7.05379354E+01
 11
-1.57770880E+02
 21
-7.85379354E+01
  0
LINE
  8
0
 62
4
 10
-1.74070880E+02
 20
-7.27379354E+01
 11
-1.74070880E+02
 21
-7.63379354E+01
  0
LINE
  8
0
 62
4
 10
-1.72270880E+02
 20
-7.20379354E+01
 11
-1.72270880E+02
 21
-7.70379354E+01
  0
LINE
  8
0
 62
4
 10
-1.70070880E+02
 20
-7.20379354E+01
 11
-1.70070880E+02
 21
-7.70379354E+01
  0
ARC
  8
0
 62
4
 10
-1.59815561E+02
 20
-7.10779354E+01
 40
2.03976725E+00
 50
3.25681704E+02
 51
3.43182961E+01
  0
ARC
  8
0
 62
4
 10
-1.65413703E+02
 20
-7.45379354E+01
 40
7.64039267E+00
 50
3.42401768E+02
 51
1.75982322E+01
  0
ARC
  8
0
 62
4
 10
-1.59815558E+02
 20
-7.80029354E+01
 40
2.04258772E+00
 50
3.25565815E+02
 51
3.44341844E+01
  0
LINE
  8
0
 62
6
 10
-1.47270880E+02
 20
-7.28879354E+01
 11
-1.50770880E+02
 21
-7.61979354E+01
  0
LINE
  8
0
 62
6
 10
-1.50770880E+02
 20
-7.28879354E+01
 11
-1.47270880E+02
 21
-7.61979354E+01
  0
LINE
  8
0
 62
4
 10
-1.50770880E+02
 20
-7.61979354E+01
 11
-1.47270880E+02
 21
-7.61979354E+01
  0
LINE
  8
0
 62
4
 10
-1.50770880E+02
 20
-7.28879354E+01
 11
-1.47270880E+02
 21
-7.28879354E+01
  0
LINE
  8
0
 62
4
 10
-1.50770880E+02
 20
-7.75379354E+01
 11
-1.47270880E+02
 21
-7.75379354E+01
  0
LINE
  8
0
 62
4
 10
-1.50770880E+02
 20
-7.15379354E+01
 11
-1.47270880E+02
 21
-7.15379354E+01
  0
LINE
  8
0
  6
CENTER
 62
6
 10
-1.78646313E+02
 20
-7.45379354E+01
 11
-1.35669836E+02
 21
-7.45379354E+01
  0
LINE
  8
0
 62
4
 10
-5.22708804E+01
 20
-7.15379354E+01
 11
-5.22708804E+01
 21
-7.75379354E+01
  0
LINE
  8
0
 62
4
 10
-5.62708804E+01
 20
-7.20379354E+01
 11
-5.62708804E+01
 21
-7.70379354E+01
  0
LINE
  8
0
 62
4
 10
-5.62708804E+01
 20
-7.20379354E+01
 11
-5.57708804E+01
 21
-7.15379354E+01
  0
LINE
  8
0
 62
4
 10
-5.62708804E+01
 20
-7.70379354E+01
 11
-5.57708804E+01
 21
-7.75379354E+01
  0
LINE
  8
0
 62
4
 10
-5.57708804E+01
 20
-7.15379354E+01
 11
-5.57708804E+01
 21
-7.28879354E+01
  0
LINE
  8
0
 62
4
 10
-5.57708804E+01
 20
-7.61979354E+01
 11
-5.57708804E+01
 21
-7.75379354E+01
  0
LINE
  8
0
 62
4
 10
-5.77708804E+01
 20
-7.20379354E+01
 11
-5.77708804E+01
 21
-7.70379354E+01
  0
LINE
  8
0
 62
6
 10
-5.77708804E+01
 20
-7.24379354E+01
 11
-5.70708804E+01
 21
-7.20379354E+01
  0
LINE
  8
0
 62
6
 10
-5.77708804E+01
 20
-7.66379354E+01
 11
-5.70708804E+01
 21
-7.70379354E+01
  0
LINE
  8
0
 62
4
 10
-5.82708804E+01
 20
-7.20379354E+01
 11
-5.62708804E+01
 21
-7.20379354E+01
  0
LINE
  8
0
 62
6
 10
-5.82708804E+01
 20
-7.24379354E+01
 11
-5.77708804E+01
 21
-7.24379354E+01
  0
LINE
  8
0
 62
6
 10
-5.82708804E+01
 20
-7.66379354E+01
 11
-5.77708804E+01
 21
-7.66379354E+01
  0
LINE
  8
0
 62
4
 10
-5.82708804E+01
 20
-7.70379354E+01
 11
-5.62708804E+01
 21
-7.70379354E+01
  0
LINE
  8
0
 62
4
 10
-6.27708804E+01
 20
-6.82879354E+01
 11
-6.14708804E+01
 21
-6.82879354E+01
  0
LINE
  8
0
 62
4
 10
-6.27708804E+01
 20
-8.07879354E+01
 11
-6.14708804E+01
 21
-8.07879354E+01
  0
LINE
  8
0
 62
4
 10
-6.14708804E+01
 20
-6.82879354E+01
 11
-6.14708804E+01
 21
-8.07879354E+01
  0
LINE
  8
0
 62
4
 10
-6.27708804E+01
 20
-6.82879354E+01
 11
-6.27708804E+01
 21
-8.07879354E+01
  0
LINE
  8
0
 62
4
 10
-6.11108804E+01
 20
-6.99279354E+01
 11
-5.86208804E+01
 21
-6.99279354E+01
  0
LINE
  8
0
 62
4
 10
-6.14708804E+01
 20
-7.05379354E+01
 11
-6.11108804E+01
 21
-6.99279354E+01
  0
LINE
  8
0
 62
4
 10
-6.11108804E+01
 20
-7.22279354E+01
 11
-5.86208804E+01
 21
-7.22279354E+01
  0
LINE
  8
0
 62
4
 10
-6.11108804E+01
 20
-7.68479354E+01
 11
-5.86208804E+01
 21
-7.68479354E+01
  0
LINE
  8
0
 62
4
 10
-6.11108804E+01
 20
-7.91579354E+01
 11
-5.86208804E+01
 21
-7.91579354E+01
  0
LINE
  8
0
 62
4
 10
-6.14708804E+01
 20
-7.85379354E+01
 11
-6.11108804E+01
 21
-7.91579354E+01
  0
LINE
  8
0
 62
4
 10
-5.82708804E+01
 20
-7.85379354E+01
 11
-5.86208804E+01
 21
-7.91579354E+01
  0
LINE
  8
0
 62
4
 10
-5.82708804E+01
 20
-7.05379354E+01
 11
-5.82708804E+01
 21
-7.85379354E+01
  0
LINE
  8
0
 62
4
 10
-5.82708804E+01
 20
-7.05379354E+01
 11
-5.86208804E+01
 21
-6.99279354E+01
  0
LINE
  8
0
 62
4
 10
-6.27708804E+01
 20
-7.85379354E+01
 11
-6.31208804E+01
 21
-7.91579354E+01
  0
LINE
  8
0
 62
4
 10
-6.27708804E+01
 20
-7.05379354E+01
 11
-6.31208804E+01
 21
-6.99279354E+01
  0
ARC
  8
0
 62
4
 10
-5.94258646E+01
 20
-7.79973483E+01
 40
2.03971273E+00
 50
1.45700623E+02
 51
2.05888662E+02
  0
ARC
  8
0
 62
4
 10
-5.38281466E+01
 20
-7.45379354E+01
 40
7.64030831E+00
 50
1.62401567E+02
 51
1.97598433E+02
  0
ARC
  8
0
 62
4
 10
-6.03158379E+01
 20
-7.79980793E+01
 40
2.04834377E+00
 50
3.34251154E+02
 51
3.41595596E+01
  0
ARC
  8
0
 62
4
 10
-5.94255320E+01
 20
-7.10828604E+01
 40
2.03754654E+00
 50
1.54258661E+02
 51
2.14193335E+02
  0
ARC
  8
0
 62
4
 10
-5.32708769E+01
 20
-7.45429354E+01
 40
2.99817317E+00
 50
1.46495477E+02
 51
2.13504523E+02
  0
ARC
  8
0
 62
4
 10
-6.03161686E+01
 20
-7.10821259E+01
 40
2.04618712E+00
 50
3.25946071E+02
 51
2.56019322E+01
  0
ARC
  8
0
 62
4
 10
-6.59136111E+01
 20
-7.45379354E+01
 40
7.64983799E+00
 50
3.42424205E+02
 51
1.75757949E+01
  0
ARC
  8
0
 62
4
 10
-7.04137026E+01
 20
-7.45379354E+01
 40
7.64992527E+00
 50
3.42424412E+02
 51
1.75755878E+01
  0
ARC
  8
0
 62
4
 10
-6.48155583E+01
 20
-7.80029354E+01
 40
2.05084328E+00
 50
3.25723792E+02
 51
3.42762081E+01
  0
ARC
  8
0
 62
4
 10
-6.48155615E+01
 20
-7.10779354E+01
 40
2.04803419E+00
 50
3.25839430E+02
 51
3.41605702E+01
  0
LINE
  8
0
 62
4
 10
-6.31237774E+01
 20
-7.91579354E+01
 11
-7.39037774E+01
 21
-7.91579354E+01
  0
LINE
  8
0
 62
4
 10
-7.42637774E+01
 20
-7.05379354E+01
 11
-7.39037774E+01
 21
-6.99229354E+01
  0
LINE
  8
0
 62
4
 10
-7.72637774E+01
 20
-7.72879354E+01
 11
-7.76787774E+01
 21
-7.68729354E+01
  0
LINE
  8
0
 62
4
 10
-7.72637774E+01
 20
-7.17879354E+01
 11
-7.76787774E+01
 21
-7.22029354E+01
  0
LINE
  8
0
 62
4
 10
-7.47637774E+01
 20
-7.72879354E+01
 11
-7.42637774E+01
 21
-7.67879354E+01
  0
LINE
  8
0
 62
4
 10
-7.47637774E+01
 20
-7.17879354E+01
 11
-7.42637774E+01
 21
-7.22879354E+01
  0
LINE
  8
0
 62
4
 10
-7.47637774E+01
 20
-7.17879354E+01
 11
-7.72637774E+01
 21
-7.17879354E+01
  0
LINE
  8
0
 62
4
 10
-7.47637774E+01
 20
-7.72879354E+01
 11
-7.72637774E+01
 21
-7.72879354E+01
  0
LINE
  8
0
 62
4
 10
-7.76787774E+01
 20
-7.68729354E+01
 11
-7.95137774E+01
 21
-7.87079354E+01
  0
LINE
  8
0
 62
4
 10
-7.95137774E+01
 20
-7.03679354E+01
 11
-7.76787774E+01
 21
-7.22029354E+01
  0
LINE
  8
0
 62
4
 10
-7.95137774E+01
 20
-7.87079354E+01
 11
-7.97637774E+01
 21
-7.85379354E+01
  0
LINE
  8
0
 62
4
 10
-7.95137774E+01
 20
-7.03679354E+01
 11
-7.97637774E+01
 21
-7.05379354E+01
  0
LINE
  8
0
 62
4
 10
-7.97637774E+01
 20
-7.05379354E+01
 11
-7.97637774E+01
 21
-7.85379354E+01
  0
LINE
  8
0
 62
4
 10
-7.42637774E+01
 20
-7.85379354E+01
 11
-7.39037774E+01
 21
-7.91579354E+01
  0
LINE
  8
0
 62
4
 10
-7.42637774E+01
 20
-7.85379354E+01
 11
-7.42637774E+01
 21
-7.05379354E+01
  0
LINE
  8
0
 62
4
 10
-6.27637774E+01
 20
-7.85379354E+01
 11
-6.31237774E+01
 21
-7.91579354E+01
  0
LINE
  8
0
 62
4
 10
-6.27637774E+01
 20
-7.05379354E+01
 11
-6.31237774E+01
 21
-6.99229354E+01
  0
LINE
  8
0
 62
4
 10
-6.31237774E+01
 20
-6.99229354E+01
 11
-7.39037774E+01
 21
-6.99229354E+01
  0
LINE
  8
0
 62
4
 10
-6.27637774E+01
 20
-7.05379354E+01
 11
-6.27637774E+01
 21
-7.85379354E+01
  0
LINE
  8
0
 62
4
 10
-7.95137774E+01
 20
-7.03679354E+01
 11
-7.95137774E+01
 21
-7.87079354E+01
  0
LINE
  8
0
 62
4
 10
-7.76787774E+01
 20
-7.22029354E+01
 11
-7.76787774E+01
 21
-7.68729354E+01
  0
LINE
  8
0
 62
4
 10
-7.72637774E+01
 20
-7.17879354E+01
 11
-7.72637774E+01
 21
-7.72879354E+01
  0
LINE
  8
0
 62
4
 10
-7.47637774E+01
 20
-7.17879354E+01
 11
-7.47637774E+01
 21
-7.72879354E+01
  0
ARC
  8
0
 62
4
 10
-7.22119933E+01
 20
-7.10779354E+01
 40
2.04803419E+00
 50
1.45839430E+02
 51
2.14160570E+02
  0
ARC
  8
0
 62
4
 10
-6.66138521E+01
 20
-7.45379354E+01
 40
7.64992527E+00
 50
1.62424412E+02
 51
1.97575588E+02
  0
ARC
  8
0
 62
4
 10
-7.22119965E+01
 20
-7.80029354E+01
 40
2.05084328E+00
 50
1.45723792E+02
 51
2.14276208E+02
  0
LINE
  8
0
 62
4
 10
-7.39066744E+01
 20
-7.22279354E+01
 11
-6.31208804E+01
 21
-7.22279354E+01
  0
LINE
  8
0
 62
4
 10
-7.39066744E+01
 20
-7.68479354E+01
 11
-6.31208804E+01
 21
-7.68479354E+01
  0
LINE
  8
0
 62
6
 10
-5.22708804E+01
 20
-7.28879354E+01
 11
-5.57708804E+01
 21
-7.61979354E+01
  0
LINE
  8
0
 62
6
 10
-5.57708804E+01
 20
-7.28879354E+01
 11
-5.22708804E+01
 21
-7.61979354E+01
  0
LINE
  8
0
 62
4
 10
-5.57708804E+01
 20
-7.61979354E+01
 11
-5.22708804E+01
 21
-7.61979354E+01
  0
LINE
  8
0
 62
4
 10
-5.57708804E+01
 20
-7.28879354E+01
 11
-5.22708804E+01
 21
-7.28879354E+01
  0
LINE
  8
0
 62
4
 10
-5.57708804E+01
 20
-7.75379354E+01
 11
-5.22708804E+01
 21
-7.75379354E+01
  0
LINE
  8
0
 62
4
 10
-5.57708804E+01
 20
-7.15379354E+01
 11
-5.22708804E+01
 21
-7.15379354E+01
  0
LINE
  8
0
  6
CENTER
 62
6
 10
-8.25847668E+01
 20
-7.45379354E+01
 11
-3.91867156E+01
 21
-7.45379354E+01
  0
LINE
  8
0
 62
4
 10
4.87291196E+01
 20
-7.15379354E+01
 11
4.87291196E+01
 21
-7.75379354E+01
  0
LINE
  8
0
 62
4
 10
4.47291196E+01
 20
-7.20379354E+01
 11
4.47291196E+01
 21
-7.70379354E+01
  0
LINE
  8
0
 62
4
 10
4.47291196E+01
 20
-7.20379354E+01
 11
4.52291196E+01
 21
-7.15379354E+01
  0
LINE
  8
0
 62
4
 10
4.47291196E+01
 20
-7.70379354E+01
 11
4.52291196E+01
 21
-7.75379354E+01
  0
LINE
  8
0
 62
4
 10
4.52291196E+01
 20
-7.15379354E+01
 11
4.52291196E+01
 21
-7.28879354E+01
  0
LINE
  8
0
 62
4
 10
4.52291196E+01
 20
-7.61979354E+01
 11
4.52291196E+01
 21
-7.75379354E+01
  0
LINE
  8
0
 62
4
 10
4.32291196E+01
 20
-7.20379354E+01
 11
4.32291196E+01
 21
-7.70379354E+01
  0
LINE
  8
0
 62
6
 10
4.32291196E+01
 20
-7.24379354E+01
 11
4.39291196E+01
 21
-7.20379354E+01
  0
LINE
  8
0
 62
6
 10
4.32291196E+01
 20
-7.66379354E+01
 11
4.39291196E+01
 21
-7.70379354E+01
  0
LINE
  8
0
 62
4
 10
4.27291196E+01
 20
-7.20379354E+01
 11
4.47291196E+01
 21
-7.20379354E+01
  0
LINE
  8
0
 62
6
 10
4.27291196E+01
 20
-7.24379354E+01
 11
4.32291196E+01
 21
-7.24379354E+01
  0
LINE
  8
0
 62
6
 10
4.27291196E+01
 20
-7.66379354E+01
 11
4.32291196E+01
 21
-7.66379354E+01
  0
LINE
  8
0
 62
4
 10
4.27291196E+01
 20
-7.70379354E+01
 11
4.47291196E+01
 21
-7.70379354E+01
  0
LINE
  8
0
 62
4
 10
3.82291196E+01
 20
-6.82879354E+01
 11
3.95291196E+01
 21
-6.82879354E+01
  0
LINE
  8
0
 62
4
 10
3.82291196E+01
 20
-8.07879354E+01
 11
3.95291196E+01
 21
-8.07879354E+01
  0
LINE
  8
0
 62
4
 10
3.95291196E+01
 20
-6.82879354E+01
 11
3.95291196E+01
 21
-8.07879354E+01
  0
LINE
  8
0
 62
4
 10
3.82291196E+01
 20
-6.82879354E+01
 11
3.82291196E+01
 21
-8.07879354E+01
  0
LINE
  8
0
 62
4
 10
3.98891196E+01
 20
-6.99279354E+01
 11
4.23791196E+01
 21
-6.99279354E+01
  0
LINE
  8
0
 62
4
 10
3.95291196E+01
 20
-7.05379354E+01
 11
3.98891196E+01
 21
-6.99279354E+01
  0
LINE
  8
0
 62
4
 10
3.98891196E+01
 20
-7.22279354E+01
 11
4.23791196E+01
 21
-7.22279354E+01
  0
LINE
  8
0
 62
4
 10
3.98891196E+01
 20
-7.68479354E+01
 11
4.23791196E+01
 21
-7.68479354E+01
  0
LINE
  8
0
 62
4
 10
3.98891196E+01
 20
-7.91579354E+01
 11
4.23791196E+01
 21
-7.91579354E+01
  0
LINE
  8
0
 62
4
 10
3.95291196E+01
 20
-7.85379354E+01
 11
3.98891196E+01
 21
-7.91579354E+01
  0
LINE
  8
0
 62
4
 10
4.27291196E+01
 20
-7.85379354E+01
 11
4.23791196E+01
 21
-7.91579354E+01
  0
LINE
  8
0
 62
4
 10
4.27291196E+01
 20
-7.05379354E+01
 11
4.27291196E+01
 21
-7.85379354E+01
  0
LINE
  8
0
 62
4
 10
4.27291196E+01
 20
-7.05379354E+01
 11
4.23791196E+01
 21
-6.99279354E+01
  0
LINE
  8
0
 62
4
 10
3.82291196E+01
 20
-7.85379354E+01
 11
3.78791196E+01
 21
-7.91579354E+01
  0
LINE
  8
0
 62
4
 10
3.82291196E+01
 20
-7.05379354E+01
 11
3.78791196E+01
 21
-6.99279354E+01
  0
ARC
  8
0
 62
4
 10
4.15741354E+01
 20
-7.79973483E+01
 40
2.03971273E+00
 50
1.45700623E+02
 51
2.05888662E+02
  0
ARC
  8
0
 62
4
 10
4.71718534E+01
 20
-7.45379354E+01
 40
7.64030831E+00
 50
1.62401567E+02
 51
1.97598433E+02
  0
ARC
  8
0
 62
4
 10
4.06841621E+01
 20
-7.79980793E+01
 40
2.04834377E+00
 50
3.34251154E+02
 51
3.41595596E+01
  0
ARC
  8
0
 62
4
 10
4.15744680E+01
 20
-7.10828604E+01
 40
2.03754654E+00
 50
1.54258661E+02
 51
2.14193335E+02
  0
ARC
  8
0
 62
4
 10
4.77291231E+01
 20
-7.45429354E+01
 40
2.99817317E+00
 50
1.46495477E+02
 51
2.13504523E+02
  0
ARC
  8
0
 62
4
 10
4.06838314E+01
 20
-7.10821259E+01
 40
2.04618712E+00
 50
3.25946071E+02
 51
2.56019322E+01
  0
ARC
  8
0
 62
4
 10
3.50863889E+01
 20
-7.45379354E+01
 40
7.64983799E+00
 50
3.42424205E+02
 51
1.75757949E+01
  0
ARC
  8
0
 62
4
 10
3.05862974E+01
 20
-7.45379354E+01
 40
7.64992527E+00
 50
3.42424412E+02
 51
1.75755878E+01
  0
ARC
  8
0
 62
4
 10
3.61844417E+01
 20
-7.80029354E+01
 40
2.05084328E+00
 50
3.25723792E+02
 51
3.42762081E+01
  0
ARC
  8
0
 62
4
 10
3.61844385E+01
 20
-7.10779354E+01
 40
2.04803419E+00
 50
3.25839430E+02
 51
3.41605702E+01
  0
LINE
  8
0
 62
4
 10
1.72291196E+01
 20
-7.95379354E+01
 11
1.87691196E+01
 21
-7.85379354E+01
  0
LINE
  8
0
 62
4
 10
1.72291196E+01
 20
-6.95379354E+01
 11
1.87691196E+01
 21
-7.05379354E+01
  0
LINE
  8
0
 62
4
 10
1.97291196E+01
 20
-7.85379354E+01
 11
2.16291196E+01
 21
-7.95379354E+01
  0
LINE
  8
0
 62
4
 10
1.97291196E+01
 20
-7.05379354E+01
 11
2.16291196E+01
 21
-6.95379354E+01
  0
LINE
  8
0
 62
4
 10
1.97291196E+01
 20
-7.05379354E+01
 11
1.87291196E+01
 21
-7.05379354E+01
  0
LINE
  8
0
 62
4
 10
1.97291196E+01
 20
-7.85379354E+01
 11
1.87291196E+01
 21
-7.85379354E+01
  0
LINE
  8
0
 62
4
 10
2.52291196E+01
 20
-7.90379354E+01
 11
2.47291196E+01
 21
-7.95379354E+01
  0
LINE
  8
0
 62
4
 10
2.47291196E+01
 20
-6.95379354E+01
 11
2.52291196E+01
 21
-7.00379354E+01
  0
LINE
  8
0
 62
4
 10
2.47291196E+01
 20
-6.95379354E+01
 11
2.16291196E+01
 21
-6.95379354E+01
  0
LINE
  8
0
 62
4
 10
2.47291196E+01
 20
-7.95379354E+01
 11
2.16291196E+01
 21
-7.95379354E+01
  0
LINE
  8
0
 62
4
 10
1.72291196E+01
 20
-6.95379354E+01
 11
1.72291196E+01
 21
-7.95379354E+01
  0
LINE
  8
0
 62
4
 10
2.52291196E+01
 20
-7.05379354E+01
 11
2.55891196E+01
 21
-6.99229354E+01
  0
LINE
  8
0
 62
4
 10
3.82291196E+01
 20
-7.85379354E+01
 11
3.78691196E+01
 21
-7.91579354E+01
  0
LINE
  8
0
 62
4
 10
2.52291196E+01
 20
-7.85379354E+01
 11
2.55891196E+01
 21
-7.91579354E+01
  0
LINE
  8
0
 62
4
 10
3.82291196E+01
 20
-7.05379354E+01
 11
3.78691196E+01
 21
-6.99229354E+01
  0
LINE
  8
0
 62
4
 10
3.78691196E+01
 20
-7.91579354E+01
 11
2.55891196E+01
 21
-7.91579354E+01
  0
LINE
  8
0
 62
4
 10
3.78691196E+01
 20
-6.99229354E+01
 11
2.55891196E+01
 21
-6.99229354E+01
  0
LINE
  8
0
 62
4
 10
2.52291196E+01
 20
-7.90379354E+01
 11
2.52291196E+01
 21
-7.00379354E+01
  0
LINE
  8
0
 62
4
 10
3.82291196E+01
 20
-7.05379354E+01
 11
3.82291196E+01
 21
-7.85379354E+01
  0
LINE
  8
0
 62
4
 10
1.87291196E+01
 20
-7.05379354E+01
 11
1.87291196E+01
 21
-7.85379354E+01
  0
LINE
  8
0
 62
4
 10
1.97291196E+01
 20
-7.05379354E+01
 11
1.97291196E+01
 21
-7.85379354E+01
  0
LINE
  8
0
 62
4
 10
2.16291196E+01
 20
-6.95379354E+01
 11
2.16291196E+01
 21
-7.95379354E+01
  0
LINE
  8
0
 62
4
 10
2.47291196E+01
 20
-6.95379354E+01
 11
2.47291196E+01
 21
-7.95379354E+01
  0
ARC
  8
0
 62
4
 10
2.72738007E+01
 20
-7.10779354E+01
 40
2.04803419E+00
 50
1.45839430E+02
 51
2.14160570E+02
  0
ARC
  8
0
 62
4
 10
3.28719419E+01
 20
-7.45379354E+01
 40
7.64992527E+00
 50
1.62424412E+02
 51
1.97575588E+02
  0
ARC
  8
0
 62
4
 10
2.72737975E+01
 20
-7.80029354E+01
 40
2.05084328E+00
 50
1.45723792E+02
 51
2.14276208E+02
  0
LINE
  8
0
 62
4
 10
2.55791196E+01
 20
-7.22279354E+01
 11
3.78791196E+01
 21
-7.22279354E+01
  0
LINE
  8
0
 62
4
 10
2.55791196E+01
 20
-7.68479354E+01
 11
3.78791196E+01
 21
-7.68479354E+01
  0
LINE
  8
0
 62
6
 10
4.87291196E+01
 20
-7.28879354E+01
 11
4.52291196E+01
 21
-7.61979354E+01
  0
LINE
  8
0
 62
6
 10
4.52291196E+01
 20
-7.28879354E+01
 11
4.87291196E+01
 21
-7.61979354E+01
  0
LINE
  8
0
 62
4
 10
4.52291196E+01
 20
-7.61979354E+01
 11
4.87291196E+01
 21
-7.61979354E+01
  0
LINE
  8
0
 62
4
 10
4.52291196E+01
 20
-7.28879354E+01
 11
4.87291196E+01
 21
-7.28879354E+01
  0
LINE
  8
0
 62
4
 10
4.52291196E+01
 20
-7.75379354E+01
 11
4.87291196E+01
 21
-7.75379354E+01
  0
LINE
  8
0
 62
4
 10
4.52291196E+01
 20
-7.15379354E+01
 11
4.87291196E+01
 21
-7.15379354E+01
  0
LINE
  8
0
  6
CENTER
 62
6
 10
1.42291196E+01
 20
-7.45379354E+01
 11
6.06523331E+01
 21
-7.45379354E+01
  0
LINE
  8
0
 62
4
 10
1.47729120E+02
 20
-7.15379354E+01
 11
1.47729120E+02
 21
-7.75379354E+01
  0
ARC
  8
0
 62
4
 10
1.35184439E+02
 20
-7.10779354E+01
 40
2.04803419E+00
 50
3.25839430E+02
 51
3.41605702E+01
  0
ARC
  8
0
 62
4
 10
1.35184442E+02
 20
-7.80029354E+01
 40
2.05084328E+00
 50
3.25723792E+02
 51
3.42762081E+01
  0
ARC
  8
0
 62
4
 10
1.29586297E+02
 20
-7.45379354E+01
 40
7.64992527E+00
 50
3.42424412E+02
 51
1.75755878E+01
  0
ARC
  8
0
 62
4
 10
1.26273798E+02
 20
-7.80029354E+01
 40
2.04258772E+00
 50
1.45565816E+02
 51
2.14434185E+02
  0
ARC
  8
0
 62
4
 10
1.31871942E+02
 20
-7.45379354E+01
 40
7.64039267E+00
 50
1.62401768E+02
 51
1.97598232E+02
  0
ARC
  8
0
 62
4
 10
1.26273801E+02
 20
-7.10779354E+01
 40
2.03976725E+00
 50
1.45681704E+02
 51
2.14318296E+02
  0
ARC
  8
0
 62
4
 10
1.34086389E+02
 20
-7.45379354E+01
 40
7.64983799E+00
 50
3.42424205E+02
 51
1.75757949E+01
  0
ARC
  8
0
 62
4
 10
1.39683831E+02
 20
-7.10821259E+01
 40
2.04618712E+00
 50
3.25946071E+02
 51
2.56019322E+01
  0
ARC
  8
0
 62
4
 10
1.46729123E+02
 20
-7.45429354E+01
 40
2.99817317E+00
 50
1.46495477E+02
 51
2.13504523E+02
  0
ARC
  8
0
 62
4
 10
1.40574468E+02
 20
-7.10828604E+01
 40
2.03754654E+00
 50
1.54258661E+02
 51
2.14193335E+02
  0
ARC
  8
0
 62
4
 10
1.39684162E+02
 20
-7.79980793E+01
 40
2.04834377E+00
 50
3.34251154E+02
 51
3.41595596E+01
  0
ARC
  8
0
 62
4
 10
1.46171853E+02
 20
-7.45379354E+01
 40
7.64030831E+00
 50
1.62401567E+02
 51
1.97598433E+02
  0
ARC
  8
0
 62
4
 10
1.40574135E+02
 20
-7.79973483E+01
 40
2.03971273E+00
 50
1.45700623E+02
 51
2.05888662E+02
  0
LINE
  8
0
 62
4
 10
1.24589120E+02
 20
-7.91579354E+01
 11
1.36879120E+02
 21
-7.91579354E+01
  0
LINE
  8
0
 62
4
 10
1.37229120E+02
 20
-7.05379354E+01
 11
1.36879120E+02
 21
-6.99279354E+01
  0
LINE
  8
0
 62
4
 10
1.37229120E+02
 20
-7.85379354E+01
 11
1.36879120E+02
 21
-7.91579354E+01
  0
LINE
  8
0
 62
4
 10
1.24229120E+02
 20
-7.85379354E+01
 11
1.24589120E+02
 21
-7.91579354E+01
  0
LINE
  8
0
 62
4
 10
1.24229120E+02
 20
-7.05379354E+01
 11
1.24589120E+02
 21
-6.99279354E+01
  0
LINE
  8
0
 62
4
 10
1.24589120E+02
 20
-7.68479354E+01
 11
1.36879120E+02
 21
-7.68479354E+01
  0
LINE
  8
0
 62
4
 10
1.24589120E+02
 20
-7.22279354E+01
 11
1.36879120E+02
 21
-7.22279354E+01
  0
LINE
  8
0
 62
4
 10
1.24589120E+02
 20
-6.99279354E+01
 11
1.36879120E+02
 21
-6.99279354E+01
  0
LINE
  8
0
 62
4
 10
1.20229120E+02
 20
-8.00379354E+01
 11
1.19229120E+02
 21
-7.93479354E+01
  0
LINE
  8
0
 62
4
 10
1.20229120E+02
 20
-6.90379354E+01
 11
1.19229120E+02
 21
-6.97379354E+01
  0
LINE
  8
0
 62
4
 10
1.18229120E+02
 20
-7.93479354E+01
 11
1.19229120E+02
 21
-7.93479354E+01
  0
LINE
  8
0
 62
4
 10
1.18229120E+02
 20
-6.97379354E+01
 11
1.19229120E+02
 21
-6.97379354E+01
  0
LINE
  8
0
 62
4
 10
1.19229120E+02
 20
-6.97379354E+01
 11
1.19229120E+02
 21
-7.93479354E+01
  0
LINE
  8
0
 62
4
 10
1.16479120E+02
 20
-6.70379354E+01
 11
1.18229120E+02
 21
-6.97379354E+01
  0
LINE
  8
0
 62
4
 10
1.16479120E+02
 20
-8.20379354E+01
 11
1.18229120E+02
 21
-7.93479354E+01
  0
LINE
  8
0
 62
4
 10
1.16229120E+02
 20
-8.17879354E+01
 11
1.16479120E+02
 21
-8.20379354E+01
  0
LINE
  8
0
 62
4
 10
1.16229120E+02
 20
-6.72879354E+01
 11
1.16479120E+02
 21
-6.70379354E+01
  0
LINE
  8
0
 62
4
 10
1.18229120E+02
 20
-6.97379354E+01
 11
1.18229120E+02
 21
-7.93479354E+01
  0
LINE
  8
0
 62
4
 10
1.24229120E+02
 20
-7.90379354E+01
 11
1.23229120E+02
 21
-8.00379354E+01
  0
LINE
  8
0
 62
4
 10
1.24229120E+02
 20
-7.00379354E+01
 11
1.23229120E+02
 21
-6.90379354E+01
  0
LINE
  8
0
 62
4
 10
1.23229120E+02
 20
-8.00379354E+01
 11
1.20229120E+02
 21
-8.00379354E+01
  0
LINE
  8
0
 62
4
 10
1.23229120E+02
 20
-6.90379354E+01
 11
1.20229120E+02
 21
-6.90379354E+01
  0
LINE
  8
0
 62
4
 10
1.20229120E+02
 20
-6.90379354E+01
 11
1.20229120E+02
 21
-8.00379354E+01
  0
LINE
  8
0
 62
4
 10
1.23229120E+02
 20
-6.90379354E+01
 11
1.23229120E+02
 21
-8.00379354E+01
  0
LINE
  8
0
 62
4
 10
1.16229120E+02
 20
-6.72879354E+01
 11
1.16229120E+02
 21
-8.17879354E+01
  0
LINE
  8
0
 62
4
 10
1.24229120E+02
 20
-7.00379354E+01
 11
1.24229120E+02
 21
-7.90379354E+01
  0
LINE
  8
0
 62
4
 10
1.41729120E+02
 20
-7.05379354E+01
 11
1.41379120E+02
 21
-6.99279354E+01
  0
LINE
  8
0
 62
4
 10
1.41729120E+02
 20
-7.05379354E+01
 11
1.41729120E+02
 21
-7.85379354E+01
  0
LINE
  8
0
 62
4
 10
1.41729120E+02
 20
-7.85379354E+01
 11
1.41379120E+02
 21
-7.91579354E+01
  0
LINE
  8
0
 62
4
 10
1.38529120E+02
 20
-7.85379354E+01
 11
1.38889120E+02
 21
-7.91579354E+01
  0
LINE
  8
0
 62
4
 10
1.38889120E+02
 20
-7.91579354E+01
 11
1.41379120E+02
 21
-7.91579354E+01
  0
LINE
  8
0
 62
4
 10
1.38889120E+02
 20
-7.68479354E+01
 11
1.41379120E+02
 21
-7.68479354E+01
  0
LINE
  8
0
 62
4
 10
1.38889120E+02
 20
-7.22279354E+01
 11
1.41379120E+02
 21
-7.22279354E+01
  0
LINE
  8
0
 62
4
 10
1.38529120E+02
 20
-7.05379354E+01
 11
1.38889120E+02
 21
-6.99279354E+01
  0
LINE
  8
0
 62
4
 10
1.38889120E+02
 20
-6.99279354E+01
 11
1.41379120E+02
 21
-6.99279354E+01
  0
LINE
  8
0
 62
4
 10
1.37229120E+02
 20
-6.82879354E+01
 11
1.37229120E+02
 21
-8.07879354E+01
  0
LINE
  8
0
 62
4
 10
1.38529120E+02
 20
-6.82879354E+01
 11
1.38529120E+02
 21
-8.07879354E+01
  0
LINE
  8
0
 62
4
 10
1.37229120E+02
 20
-8.07879354E+01
 11
1.38529120E+02
 21
-8.07879354E+01
  0
LINE
  8
0
 62
4
 10
1.37229120E+02
 20
-6.82879354E+01
 11
1.38529120E+02
 21
-6.82879354E+01
  0
LINE
  8
0
 62
4
 10
1.41729120E+02
 20
-7.70379354E+01
 11
1.43729120E+02
 21
-7.70379354E+01
  0
LINE
  8
0
 62
6
 10
1.41729120E+02
 20
-7.66379354E+01
 11
1.42229120E+02
 21
-7.66379354E+01
  0
LINE
  8
0
 62
6
 10
1.41729120E+02
 20
-7.24379354E+01
 11
1.42229120E+02
 21
-7.24379354E+01
  0
LINE
  8
0
 62
4
 10
1.41729120E+02
 20
-7.20379354E+01
 11
1.43729120E+02
 21
-7.20379354E+01
  0
LINE
  8
0
 62
6
 10
1.42229120E+02
 20
-7.66379354E+01
 11
1.42929120E+02
 21
-7.70379354E+01
  0
LINE
  8
0
 62
6
 10
1.42229120E+02
 20
-7.24379354E+01
 11
1.42929120E+02
 21
-7.20379354E+01
  0
LINE
  8
0
 62
4
 10
1.42229120E+02
 20
-7.20379354E+01
 11
1.42229120E+02
 21
-7.70379354E+01
  0
LINE
  8
0
 62
4
 10
1.44229120E+02
 20
-7.61979354E+01
 11
1.44229120E+02
 21
-7.75379354E+01
  0
LINE
  8
0
 62
4
 10
1.44229120E+02
 20
-7.15379354E+01
 11
1.44229120E+02
 21
-7.28879354E+01
  0
LINE
  8
0
 62
4
 10
1.43729120E+02
 20
-7.70379354E+01
 11
1.44229120E+02
 21
-7.75379354E+01
  0
LINE
  8
0
 62
4
 10
1.43729120E+02
 20
-7.20379354E+01
 11
1.44229120E+02
 21
-7.15379354E+01
  0
LINE
  8
0
 62
4
 10
1.43729120E+02
 20
-7.20379354E+01
 11
1.43729120E+02
 21
-7.70379354E+01
  0
LINE
  8
0
  6
CENTER
 62
6
 10
1.13229120E+02
 20
-7.45379354E+01
 11
1.60410793E+02
 21
-7.45379354E+01
  0
LINE
  8
0
 62
4
 10
1.44229120E+02
 20
-7.15379354E+01
 11
1.47729120E+02
 21
-7.15379354E+01
  0
LINE
  8
0
 62
4
 10
1.44229120E+02
 20
-7.75379354E+01
 11
1.47729120E+02
 21
-7.75379354E+01
  0
LINE
  8
0
 62
4
 10
1.44229120E+02
 20
-7.28879354E+01
 11
1.47729120E+02
 21
-7.28879354E+01
  0
LINE
  8
0
 62
4
 10
1.44229120E+02
 20
-7.61979354E+01
 11
1.47729120E+02
 21
-7.61979354E+01
  0
LINE
  8
0
 62
6
 10
1.44229120E+02
 20
-7.28879354E+01
 11
1.47729120E+02
 21
-7.61979354E+01
  0
LINE
  8
0
 62
6
 10
1.47729120E+02
 20
-7.28879354E+01
 11
1.44229120E+02
 21
-7.61979354E+01
  0
TEXT
  8
0
 62
6
 10
1.20306311E+02
 20
-5.34618353E+01
 40
3.20000005E+00
  1
PIVOT
 41
1.00000000E+00
  7
MONOTXT
  0
INSERT
  8
0
  2
ARROW
  6
BYBLOCK
 62
6
 10
1.47729120E+02
 20
-7.45379354E+01
 41
1.00000000E+00
 42
1.00000000E+00
 50
1.20000001E+02
  0
POLYLINE
  8
0
 62
6
 66
1
  0
VERTEX
  8
0
 62
6
 10
1.47729120E+02
 20
-7.45379354E+01
  0
VERTEX
  8
0
 62
6
 10
1.36715528E+02
 20
-5.54618352E+01
  0
VERTEX
  8
0
 62
6
 10
1.19956311E+02
 20
-5.54618352E+01
  0
SEQEND
  8
0
  0
TEXT
  8
0
 62
7
 10
1.41738550E+02
 20
-1.08717720E+02
 40
4.50000000E+00
  1
D-8
 41
1.00000000E+00
  7
MONOTXT
  0
LINE
  8
0
 62
7
 10
1.47729120E+02
 20
-6.55379354E+01
 11
1.47729120E+02
 21
-9.05379354E+01
  0
LINE
  8
0
 62
7
 10
1.47729120E+02
 20
-6.55379354E+01
 11
1.53729120E+02
 21
-6.55379354E+01
  0
LINE
  8
0
 62
2
 10
1.53729120E+02
 20
-6.55379354E+01
 11
1.49320945E+02
 21
-9.05379354E+01
  0
LINE
  8
0
 62
7
 10
1.47729120E+02
 20
-9.05379354E+01
 11
1.49320945E+02
 21
-9.05379354E+01
  0
TEXT
  8
0
 62
6
 10
1.69452549E+02
 20
-9.04839562E+01
 40
3.20000005E+00
  1
LEVER
 41
1.00000000E+00
  7
MONOTXT
  0
INSERT
  8
0
  2
ARROW
  6
BYBLOCK
 62
6
 10
1.57729120E+02
 20
-7.45379354E+01
 41
1.00000000E+00
 42
1.00000000E+00
 50
3.00000000E+02
  0
POLYLINE
  8
0
 62
6
 66
1
  0
VERTEX
  8
0
 62
6
 10
1.57729120E+02
 20
-7.45379354E+01
  0
VERTEX
  8
0
 62
6
 10
1.68090260E+02
 20
-9.24839561E+01
  0
VERTEX
  8
0
 62
6
 10
1.85102549E+02
 20
-9.24839561E+01
  0
SEQEND
  8
0
  0
TEXT
  8
0
 62
6
 10
2.13063108E+01
 20
-5.34618353E+01
 40
3.20000005E+00
  1
PIVOT
 41
1.00000000E+00
  7
MONOTXT
  0
INSERT
  8
0
  2
ARROW
  6
BYBLOCK
 62
6
 10
4.87291196E+01
 20
-7.45379354E+01
 41
1.00000000E+00
 42
1.00000000E+00
 50
1.20000000E+02
  0
POLYLINE
  8
0
 62
6
 66
1
  0
VERTEX
  8
0
 62
6
 10
4.87291196E+01
 20
-7.45379354E+01
  0
VERTEX
  8
0
 62
6
 10
3.77155281E+01
 20
-5.54618352E+01
  0
VERTEX
  8
0
 62
6
 10
2.09563108E+01
 20
-5.54618352E+01
  0
SEQEND
  8
0
  0
TEXT
  8
0
 62
7
 10
4.37385495E+01
 20
-1.08717720E+02
 40
4.50000000E+00
  1
D-7
 41
1.00000000E+00
  7
MONOTXT
  0
LINE
  8
0
 62
7
 10
4.87291196E+01
 20
-6.55379354E+01
 11
4.87291196E+01
 21
-9.05379354E+01
  0
TEXT
  8
0
 62
6
 10
7.04525488E+01
 20
-9.04839562E+01
 40
3.20000005E+00
  1
LEVER
 41
1.00000000E+00
  7
MONOTXT
  0
INSERT
  8
0
  2
ARROW
  6
BYBLOCK
 62
6
 10
5.87291196E+01
 20
-7.45379354E+01
 41
1.00000000E+00
 42
1.00000000E+00
 50
3.00000000E+02
  0
POLYLINE
  8
0
 62
6
 66
1
  0
VERTEX
  8
0
 62
6
 10
5.87291196E+01
 20
-7.45379354E+01
  0
VERTEX
  8
0
 62
6
 10
6.90902596E+01
 20
-9.24839561E+01
  0
VERTEX
  8
0
 62
6
 10
8.61025491E+01
 20
-9.24839561E+01
  0
SEQEND
  8
0
  0
LINE
  8
0
 62
7
 10
4.87291196E+01
 20
-6.55379354E+01
 11
5.47291196E+01
 21
-6.55379354E+01
  0
LINE
  8
0
 62
2
 10
5.47291196E+01
 20
-6.55379354E+01
 11
5.03209451E+01
 21
-9.05379354E+01
  0
LINE
  8
0
 62
7
 10
4.87291196E+01
 20
-9.05379354E+01
 11
5.03209451E+01
 21
-9.05379354E+01
  0
TEXT
  8
0
 62
6
 10
-7.96936892E+01
 20
-5.34618353E+01
 40
3.20000005E+00
  1
PIVOT
 41
1.00000000E+00
  7
MONOTXT
  0
INSERT
  8
0
  2
ARROW
  6
BYBLOCK
 62
6
 10
-5.22708804E+01
 20
-7.45379354E+01
 41
1.00000000E+00
 42
1.00000000E+00
 50
1.20000000E+02
  0
POLYLINE
  8
0
 62
6
 66
1
  0
VERTEX
  8
0
 62
6
 10
-5.22708804E+01
 20
-7.45379354E+01
  0
VERTEX
  8
0
 62
6
 10
-6.32844719E+01
 20
-5.54618352E+01
  0
VERTEX
  8
0
 62
6
 10
-8.00436892E+01
 20
-5.54618352E+01
  0
SEQEND
  8
0
  0
TEXT
  8
0
 62
7
 10
-5.62614505E+01
 20
-1.08717720E+02
 40
4.50000000E+00
  1
D-6
 41
1.00000000E+00
  7
MONOTXT
  0
LINE
  8
0
 62
7
 10
-5.22708804E+01
 20
-6.55379354E+01
 11
-5.22708804E+01
 21
-9.05379354E+01
  0
TEXT
  8
0
 62
6
 10
-3.05474512E+01
 20
-9.04839562E+01
 40
3.20000005E+00
  1
LEVER
 41
1.00000000E+00
  7
MONOTXT
  0
INSERT
  8
0
  2
ARROW
  6
BYBLOCK
 62
6
 10
-4.22708804E+01
 20
-7.45379354E+01
 41
1.00000000E+00
 42
1.00000000E+00
 50
3.00000000E+02
  0
POLYLINE
  8
0
 62
6
 66
1
  0
VERTEX
  8
0
 62
6
 10
-4.22708804E+01
 20
-7.45379354E+01
  0
VERTEX
  8
0
 62
6
 10
-3.19097404E+01
 20
-9.24839561E+01
  0
VERTEX
  8
0
 62
6
 10
-1.48974509E+01
 20
-9.24839561E+01
  0
SEQEND
  8
0
  0
LINE
  8
0
 62
7
 10
-5.22708804E+01
 20
-6.55379354E+01
 11
-4.62708804E+01
 21
-6.55379354E+01
  0
LINE
  8
0
 62
2
 10
-4.62708804E+01
 20
-6.55379354E+01
 11
-5.06790549E+01
 21
-9.05379354E+01
  0
LINE
  8
0
 62
7
 10
-5.22708804E+01
 20
-9.05379354E+01
 11
-5.06790549E+01
 21
-9.05379354E+01
  0
TEXT
  8
0
 62
6
 10
-1.74693689E+02
 20
-5.34618353E+01
 40
3.20000005E+00
  1
PIVOT
 41
1.00000000E+00
  7
MONOTXT
  0
INSERT
  8
0
  2
ARROW
  6
BYBLOCK
 62
6
 10
-1.47270880E+02
 20
-7.45379354E+01
 41
1.00000000E+00
 42
1.00000000E+00
 50
1.20000001E+02
  0
POLYLINE
  8
0
 62
6
 66
1
  0
VERTEX
  8
0
 62
6
 10
-1.47270880E+02
 20
-7.45379354E+01
  0
VERTEX
  8
0
 62
6
 10
-1.58284472E+02
 20
-5.54618352E+01
  0
VERTEX
  8
0
 62
6
 10
-1.75043689E+02
 20
-5.54618352E+01
  0
SEQEND
  8
0
  0
TEXT
  8
0
 62
6
 10
-1.25547451E+02
 20
-9.04839562E+01
 40
3.20000005E+00
  1
LEVER
 41
1.00000000E+00
  7
MONOTXT
  0
INSERT
  8
0
  2
ARROW
  6
BYBLOCK
 62
6
 10
-1.37270880E+02
 20
-7.45379354E+01
 41
1.00000000E+00
 42
1.00000000E+00
 50
3.00000000E+02
  0
POLYLINE
  8
0
 62
6
 66
1
  0
VERTEX
  8
0
 62
6
 10
-1.37270880E+02
 20
-7.45379354E+01
  0
VERTEX
  8
0
 62
6
 10
-1.26909740E+02
 20
-9.24839561E+01
  0
VERTEX
  8
0
 62
6
 10
-1.09897451E+02
 20
-9.24839561E+01
  0
SEQEND
  8
0
  0
TEXT
  8
0
 62
7
 10
-1.52261450E+02
 20
-1.08717720E+02
 40
4.50000000E+00
  1
D-5
 41
1.00000000E+00
  7
MONOTXT
  0
LINE
  8
0
 62
7
 10
-1.47270880E+02
 20
-6.55379354E+01
 11
-1.47270880E+02
 21
-9.05379354E+01
  0
LINE
  8
0
 62
7
 10
-1.47270880E+02
 20
-6.55379354E+01
 11
-1.41270880E+02
 21
-6.55379354E+01
  0
LINE
  8
0
 62
7
 10
-1.47270880E+02
 20
-9.05379354E+01
 11
-1.45679055E+02
 21
-9.05379354E+01
  0
LINE
  8
0
 62
2
 10
-1.41270880E+02
 20
-6.55379354E+01
 11
-1.45679055E+02
 21
-9.05379354E+01
  0
TEXT
  8
0
 10
1.30760787E+01
 20
1.14135674E+02
 40
3.20000005E+00
  1
STRETCH LINE B
 41
1.09375000E+00
  7
MONOTXT
  0
TEXT
  8
0
 10
-4.19239213E+01
 20
1.14135674E+02
 40
3.20000005E+00
  1
STRETCH LINE A
 41
1.09375000E+00
  7
MONOTXT
  0
TEXT
  8
0
 62
7
 10
-5.59000000E+01
 20
-2.75000000E+01
 40
3.20000005E+00
  1
0
 41
1.00000000E+00
  7
MONOTXT
  0
TEXT
  8
0
 62
7
 10
-7.49000000E+01
 20
-2.75000000E+01
 40
3.20000005E+00
  1
0
 41
1.00000000E+00
  7
MONOTXT
  0
TEXT
  8
0
 62
7
 10
-9.39000000E+01
 20
-2.75000000E+01
 40
3.20000005E+00
  1
0
 41
1.00000000E+00
  7
MONOTXT
  0
TEXT
  8
0
 62
7
 10
-1.14500000E+02
 20
-2.75000000E+01
 40
3.20000005E+00
  1
-5
 41
1.00000000E+00
  7
MONOTXT
  0
TEXT
  8
0
 62
7
 10
-1.35100000E+02
 20
-2.75000000E+01
 40
3.20000005E+00
  1
-10
 41
1.00000000E+00
  7
MONOTXT
  0
TEXT
  8
0
 62
7
 10
-1.54100000E+02
 20
-2.75000000E+01
 40
3.20000005E+00
  1
-12
 41
1.00000000E+00
  7
MONOTXT
  0
TEXT
  8
0
 62
7
 10
-1.75500000E+02
 20
-2.23000000E+01
 40
3.20000005E+00
  1
A
 41
1.00000000E+00
  7
MONOTXT
  0
TEXT
  8
0
 62
7
 10
-1.87587501E+02
 20
-1.15059304E+01
 40
3.20000005E+00
  1
STRETCH
 41
1.00000000E+00
  7
MONOTXT
  0
TEXT
  8
0
 62
7
 10
-1.87587501E+02
 20
-1.67059302E+01
 40
3.20000005E+00
  1
  PLACE
 41
1.20689655E+00
  7
MONOTXT
  0
LINE
  8
0
 62
7
 10
-1.65218991E+02
 20
-7.70000000E+00
 11
-1.59250000E+02
 21
-1.81000000E+01
  0
LINE
  8
0
 62
7
 10
-1.89250000E+02
 20
-7.70000000E+00
 11
-1.65218991E+02
 21
-7.70000000E+00
  0
LINE
  8
0
 62
7
 10
-1.89250000E+02
 20
-1.81000000E+01
 11
-4.52500000E+01
 21
-1.81000000E+01
  0
TEXT
  8
0
 62
7
 10
-1.87587502E+02
 20
-6.42692442E+00
 40
3.20000005E+00
  1
STROKE
 41
1.20000010E+00
  7
MONOTXT
  0
TEXT
  8
0
 62
7
 10
-1.75500000E+02
 20
-2.75000000E+01
 40
3.20000005E+00
  1
B
 41
1.00000000E+00
  7
MONOTXT
  0
TEXT
  8
0
 62
7
 10
-5.59000000E+01
 20
-2.23000000E+01
 40
3.20000005E+00
  1
0
 41
1.00000000E+00
  7
MONOTXT
  0
TEXT
  8
0
 62
7
 10
-5.75000000E+01
 20
-1.19000000E+01
 40
3.20000005E+00
  1
30
 41
1.00000000E+00
  7
MONOTXT
  0
TEXT
  8
0
 62
7
 10
-7.65000000E+01
 20
-2.23000000E+01
 40
3.20000005E+00
  1
-5
 41
1.00000000E+00
  7
MONOTXT
  0
TEXT
  8
0
 62
7
 10
-7.65000000E+01
 20
-1.19000000E+01
 40
3.20000005E+00
  1
25
 41
1.00000000E+00
  7
MONOTXT
  0
TEXT
  8
0
 62
7
 10
-9.71000001E+01
 20
-2.23000000E+01
 40
3.20000005E+00
  1
-10
 41
1.00000000E+00
  7
MONOTXT
  0
TEXT
  8
0
 62
7
 10
-9.55000000E+01
 20
-1.19000000E+01
 40
3.20000005E+00
  1
20
 41
1.00000000E+00
  7
MONOTXT
  0
LINE
  8
0
 62
7
 10
-6.42500000E+01
 20
-2.50000000E+00
 11
-6.42500000E+01
 21
-2.85000000E+01
  0
LINE
  8
0
 62
7
 10
-8.32500000E+01
 20
-2.50000000E+00
 11
-8.32500000E+01
 21
-2.85000000E+01
  0
LINE
  8
0
 62
7
 10
-1.02250000E+02
 20
-2.50000000E+00
 11
-1.02250000E+02
 21
-2.85000000E+01
  0
TEXT
  8
0
 62
7
 10
-1.14500000E+02
 20
-1.19000000E+01
 40
3.20000005E+00
  1
15
 41
1.00000000E+00
  7
MONOTXT
  0
TEXT
  8
0
 62
7
 10
-1.33500000E+02
 20
-1.19000000E+01
 40
3.20000005E+00
  1
10
 41
1.00000000E+00
  7
MONOTXT
  0
TEXT
  8
0
 62
7
 10
-1.50900000E+02
 20
-1.19000000E+01
 40
3.20000005E+00
  1
5
 41
1.00000000E+00
  7
MONOTXT
  0
LINE
  8
0
 62
7
 10
-4.52500000E+01
 20
-2.50000000E+00
 11
-4.52500000E+01
 21
-2.85000000E+01
  0
LINE
  8
0
 62
7
 10
-1.21250000E+02
 20
-2.50000000E+00
 11
-1.21250000E+02
 21
-2.85000000E+01
  0
LINE
  8
0
 62
7
 10
-1.40250000E+02
 20
-2.50000000E+00
 11
-1.40250000E+02
 21
-2.85000000E+01
  0
LINE
  8
0
 62
7
 10
-1.59250000E+02
 20
-2.50000000E+00
 11
-1.59250000E+02
 21
-2.85000000E+01
  0
LINE
  8
0
 62
7
 10
-1.89250000E+02
 20
-2.50000000E+00
 11
-1.89250000E+02
 21
-2.85000000E+01
  0
LINE
  8
0
 62
7
 10
-1.89250000E+02
 20
-2.33000000E+01
 11
-4.52500000E+01
 21
-2.33000000E+01
  0
LINE
  8
0
 62
7
 10
-1.89250000E+02
 20
-2.50000000E+00
 11
-4.52500000E+01
 21
-2.50000000E+00
  0
LINE
  8
0
 62
7
 10
-1.89250000E+02
 20
-2.85000000E+01
 11
-4.52500000E+01
 21
-2.85000000E+01
  0
TEXT
  8
0
 62
7
 10
-1.35100000E+02
 20
-2.23000000E+01
 40
3.20000005E+00
  1
-20
 41
1.00000000E+00
  7
MONOTXT
  0
TEXT
  8
0
 62
7
 10
-1.16100000E+02
 20
-2.23000000E+01
 40
3.20000005E+00
  1
-15
 41
1.00000000E+00
  7
MONOTXT
  0
TEXT
  8
0
 62
7
 10
-1.54100000E+02
 20
-2.23000000E+01
 40
3.20000005E+00
  1
-25
 41
1.00000000E+00
  7
MONOTXT
  0
TEXT
  8
0
 62
7
 10
-5.65000001E+01
 20
8.99999975E-01
 40
3.20000005E+00
  1
(mm)
 41
1.00000000E+00
  7
MONOTXT
  0
TEXT
  8
0
 62
7
 10
-1.36700000E+02
 20
8.99999975E-01
 40
3.20000005E+00
  1
STRETCH LIST
 41
1.05263158E+00
  7
MONOTXT
  0
TEXT
  8
0
 62
2
 10
1.39985522E+02
 20
6.50259754E+01
 40
3.20000005E+00
  1
PIVOT
 41
1.00000000E+00
  7
MONOTXT
  0
INSERT
  8
0
  2
ARROW
  6
BYBLOCK
 62
2
 10
1.23719073E+02
 20
3.83772786E+01
 41
1.00000000E+00
 42
1.00000000E+00
 50
5.99999996E+01
  0
POLYLINE
  8
0
 62
2
 66
1
  0
VERTEX
  8
0
 62
2
 10
1.23719073E+02
 20
3.83772786E+01
  0
VERTEX
  8
0
 62
2
 10
1.37950005E+02
 20
6.30259755E+01
  0
VERTEX
  8
0
 62
2
 10
1.55635522E+02
 20
6.30259755E+01
  0
SEQEND
  8
0
  0
TEXT
  8
0
 62
7
 10
-3.45727863E-01
 20
6.08635382E+01
 40
4.50000000E+00
  1
D-4
 41
1.00000000E+00
  7
MONOTXT
  0
TEXT
  8
0
 62
2
 10
7.86557491E+01
 20
1.82886365E+01
 40
3.20000005E+00
  1
LEVER
 41
1.00000000E+00
  7
MONOTXT
  0
INSERT
  8
0
  2
ARROW
  6
BYBLOCK
 62
2
 10
6.37190732E+01
 20
3.83772786E+01
 41
1.00000000E+00
 42
1.00000000E+00
 50
3.00000000E+02
  0
POLYLINE
  8
0
 62
2
 66
1
  0
VERTEX
  8
0
 62
2
 10
6.37190732E+01
 20
3.83772786E+01
  0
VERTEX
  8
0
 62
2
 10
7.64719567E+01
 20
1.62886366E+01
  0
VERTEX
  8
0
 62
2
 10
9.43057493E+01
 20
1.62886366E+01
  0
SEQEND
  8
0
  0
TEXT
  8
0
 62
2
 10
7.86557491E+01
 20
6.42886365E+01
 40
3.20000005E+00
  1
LEVER
 41
1.00000000E+00
  7
MONOTXT
  0
INSERT
  8
0
  2
ARROW
  6
BYBLOCK
 62
2
 10
6.37190732E+01
 20
8.43772786E+01
 41
1.00000000E+00
 42
1.00000000E+00
 50
3.00000000E+02
  0
POLYLINE
  8
0
 62
2
 66
1
  0
VERTEX
  8
0
 62
2
 10
6.37190732E+01
 20
8.43772786E+01
  0
VERTEX
  8
0
 62
2
 10
7.64719567E+01
 20
6.22886366E+01
  0
VERTEX
  8
0
 62
2
 10
9.43057493E+01
 20
6.22886366E+01
  0
SEQEND
  8
0
  0
TEXT
  8
0
 62
7
 10
1.17809168E+02
 20
5.10445239E+00
 40
4.50000000E+00
  1
D-3
 41
1.00000000E+00
  7
MONOTXT
  0
TEXT
  8
0
 62
7
 10
-1.22090831E+02
 20
5.10445239E+00
 40
4.50000000E+00
  1
D-2
 41
1.00000000E+00
  7
MONOTXT
  0
TEXT
  8
0
 62
7
 10
6.09168443E-01
 20
5.10445239E+00
 40
4.50000000E+00
  1
D-1
 41
1.00000000E+00
  7
MONOTXT
  0
TEXT
  8
0
 62
2
 10
1.48655749E+02
 20
1.82886365E+01
 40
3.20000005E+00
  1
LEVER
 41
1.00000000E+00
  7
MONOTXT
  0
INSERT
  8
0
  2
ARROW
  6
BYBLOCK
 62
2
 10
1.33719073E+02
 20
3.83772786E+01
 41
1.00000000E+00
 42
1.00000000E+00
 50
3.00000001E+02
  0
POLYLINE
  8
0
 62
2
 66
1
  0
VERTEX
  8
0
 62
2
 10
1.33719073E+02
 20
3.83772786E+01
  0
VERTEX
  8
0
 62
2
 10
1.46471957E+02
 20
1.62886366E+01
  0
VERTEX
  8
0
 62
2
 10
1.64305749E+02
 20
1.62886366E+01
  0
SEQEND
  8
0
  0
TEXT
  8
0
 62
2
 10
-7.97610238E+01
 20
1.11025975E+02
 40
3.20000005E+00
  1
PIVOT
 41
1.00000000E+00
  7
MONOTXT
  0
INSERT
  8
0
  2
ARROW
  6
BYBLOCK
 62
2
 10
-4.87809268E+01
 20
8.43772786E+01
 41
1.00000000E+00
 42
1.00000000E+00
 50
1.20000000E+02
  0
POLYLINE
  8
0
 62
2
 66
1
  0
VERTEX
  8
0
 62
2
 10
-4.87809268E+01
 20
8.43772786E+01
  0
VERTEX
  8
0
 62
2
 10
-6.30118586E+01
 20
1.09025976E+02
  0
VERTEX
  8
0
 62
2
 10
-8.01110238E+01
 20
1.09025976E+02
  0
SEQEND
  8
0
  0
TEXT
  8
0
 62
2
 10
-7.97610238E+01
 20
6.50259754E+01
 40
3.20000005E+00
  1
PIVOT
 41
1.00000000E+00
  7
MONOTXT
  0
INSERT
  8
0
  2
ARROW
  6
BYBLOCK
 62
2
 10
-4.87809268E+01
 20
3.83772786E+01
 41
1.00000000E+00
 42
1.00000000E+00
 50
1.20000000E+02
  0
POLYLINE
  8
0
 62
2
 66
1
  0
VERTEX
  8
0
 62
2
 10
-4.87809268E+01
 20
3.83772786E+01
  0
VERTEX
  8
0
 62
2
 10
-6.30118586E+01
 20
6.30259755E+01
  0
VERTEX
  8
0
 62
2
 10
-8.01110238E+01
 20
6.30259755E+01
  0
SEQEND
  8
0
  0
TEXT
  8
0
 62
2
 10
-8.58442509E+01
 20
1.82886365E+01
 40
3.20000005E+00
  1
LEVER
 41
1.00000000E+00
  7
MONOTXT
  0
INSERT
  8
0
  2
ARROW
  6
BYBLOCK
 62
2
 10
-1.00780927E+02
 20
3.83772786E+01
 41
1.00000000E+00
 42
1.00000000E+00
 50
3.00000001E+02
  0
POLYLINE
  8
0
 62
2
 66
1
  0
VERTEX
  8
0
 62
2
 10
-1.00780927E+02
 20
3.83772786E+01
  0
VERTEX
  8
0
 62
2
 10
-8.80280433E+01
 20
1.62886366E+01
  0
VERTEX
  8
0
 62
2
 10
-7.01942507E+01
 20
1.62886366E+01
  0
SEQEND
  8
0
  0
TEXT
  8
0
 62
2
 10
-1.47261024E+02
 20
6.50259754E+01
 40
3.20000005E+00
  1
PIVOT
 41
1.00000000E+00
  7
MONOTXT
  0
INSERT
  8
0
  2
ARROW
  6
BYBLOCK
 62
2
 10
-1.16280927E+02
 20
3.83772786E+01
 41
1.00000000E+00
 42
1.00000000E+00
 50
1.20000000E+02
  0
POLYLINE
  8
0
 62
2
 66
1
  0
VERTEX
  8
0
 62
2
 10
-1.16280927E+02
 20
3.83772786E+01
  0
VERTEX
  8
0
 62
2
 10
-1.30511859E+02
 20
6.30259755E+01
  0
VERTEX
  8
0
 62
2
 10
-1.47611024E+02
 20
6.30259755E+01
  0
SEQEND
  8
0
  0
TEXT
  8
0
 62
7
 10
1.41718753E+02
 20
-3.76000000E+01
 40
3.20000005E+00
  1
P15
 41
1.00000000E+00
  7
MONOTXT
  0
TEXT
  8
0
 62
7
 10
4.44562518E+01
 20
-3.76000000E+01
 40
3.20000005E+00
  1
P10
 41
1.00000000E+00
  7
MONOTXT
  0
TEXT
  8
0
 62
7
 10
-5.12062489E+01
 20
-3.76000000E+01
 40
3.20000005E+00
  1
P8
 41
1.00000000E+00
  7
MONOTXT
  0
TEXT
  8
0
 62
7
 10
-1.48468750E+02
 20
-3.76000000E+01
 40
3.20000005E+00
  1
P6
 41
1.00000000E+00
  7
MONOTXT
  0
LINE
  8
0
 62
7
 10
9.75375023E+01
 20
-3.35000000E+01
 11
9.75375023E+01
 21
-1.33500000E+02
  0
LINE
  8
0
 62
7
 10
-9.69874992E+01
 20
-3.35000000E+01
 11
-9.69874992E+01
 21
-1.33500000E+02
  0
LINE
  8
0
 62
7
 10
2.75001526E-01
 20
-3.35000000E+01
 11
2.75001526E-01
 21
-1.33500000E+02
  0
LINE
  8
0
 62
7
 10
-1.94250000E+02
 20
-3.85000000E+01
 11
1.94800003E+02
 21
-3.85000000E+01
  0
LINE
  8
0
 62
7
 10
-1.94250000E+02
 20
-3.35000000E+01
 11
1.94800003E+02
 21
-3.35000000E+01
  0
TEXT
  8
0
 62
7
 10
-1.85214688E+02
 20
1.05350006E+02
 40
4.50000000E+00
  1
MODEL:BDAVS16*ST(30)-3A
 41
1.00000000E+00
  7
MONOTXT
  0
LINE
  8
0
 62
7
 10
-1.94250000E+02
 20
1.32600006E+02
 11
1.94800003E+02
 21
1.32600006E+02
  0
LINE
  8
0
 62
7
 10
1.94800003E+02
 20
1.32600006E+02
 11
1.94800003E+02
 21
-1.33500000E+02
  0
LINE
  8
0
 62
7
 10
-1.94250000E+02
 20
1.32600006E+02
 11
-1.94250000E+02
 21
-1.33500000E+02
  0
LINE
  8
0
 62
7
 10
-1.94250000E+02
 20
-1.33500000E+02
 11
1.94800003E+02
 21
-1.33500000E+02
  0
LINE
  8
0
 62
7
 10
1.09800003E+02
 20
-1.18500000E+02
 11
1.09800003E+02
 21
-1.33500000E+02
  0
LINE
  8
0
 62
7
 10
1.09800003E+02
 20
-1.18500000E+02
 11
1.94800003E+02
 21
-1.18500000E+02
  0
LINE
  8
0
 62
7
 10
1.09800003E+02
 20
1.32600006E+02
 11
1.09800003E+02
 21
1.17600006E+02
  0
LINE
  8
0
 62
7
 10
1.09800003E+02
 20
1.17600006E+02
 11
1.94800003E+02
 21
1.17600006E+02
  0
LINE
  8
0
 62
7
 10
-1.94250000E+02
 20
1.17600006E+02
 11
-1.09250000E+02
 21
1.17600006E+02
  0
LINE
  8
0
 62
7
 10
-1.09250000E+02
 20
1.32600006E+02
 11
-1.09250000E+02
 21
1.17600006E+02
  0
TEXT
  8
0
 62
7
 10
1.34942863E+02
 20
1.22850006E+02
 40
4.50000000E+00
  1
Ver. 1.0
 41
1.08108085E+00
  7
MONOTXT
  0
TEXT
  8
0
 62
7
 10
1.15249739E+02
 20
-1.29150000E+02
 40
6.29999924E+00
  1
KOGANEI CORP.
 41
1.04838678E+00
  7
MONOTXT
  0
TEXT
  8
0
 62
7
 10
-1.91178750E+02
 20
1.22850006E+02
 40
4.50000000E+00
  1
MULTI MOUNT CYLINDER
 41
9.45626478E-01
  7
MONOTXT
  0
ENDSEC
  0
EOF
