  0
SECTION
  2
HEADER
  0
ENDSEC
  0
SECTION
  2
TABLES
  0
TABLE
  2
LTYPE
 70
     4
  0
LTYPE
  2
CONTINUOUS
 70
    64
  3
Solid line
 72
    65
 73
     0
 40
0.000000
  0
LTYPE
  2
DASHED
 70
    64
  3
__ __ __ __ __ __ __ __ __ __ __ __ __ __ __
 72
    65
 73
     2
 40
3.500000
 49
2.000000
 49
-1.500000
  0
LTYPE
  2
CENTER
 70
    64
  3
____ _ ____ _ ____ _ ____ _ ____ _ ____ _ ____
 72
    65
 73
     4
 40
17.500000
 49
13.000000
 49
-1.500000
 49
1.500000
 49
-1.500000
  0
LTYPE
  2
PHANTOM
 70
    64
  3
_____ _ _ _____ _ _ _____ _ _ _____ _ _ ____  
 72
    65
 73
     6
 40
15.500000
 49
8.000000
 49
-1.500000
 49
1.500000
 49
-1.500000
 49
1.500000
 49
-1.500000
  0
LTYPE
  2
DASHED1
 70
    64
  3
__ __ __ __ __ __ __ __ __ __ __ __ __ __ __
 72
    65
 73
     2
 40
1.500000
 49
1.000000
 49
-0.500000
  0
LTYPE
  2
DASHED2
 70
    64
  3
__ __ __ __ __ __ __ __ __ __ __ __ __ __ __
 72
    65
 73
     2
 40
3.500000
 49
2.500000
 49
-1.000000
  0
LTYPE
  2
DASHED3
 70
    64
  3
__ __ __ __ __ __ __ __ __ __ __ __ __ __ __
 72
    65
 73
     2
 40
6.000000
 49
4.000000
 49
-2.000000
  0
LTYPE
  2
DASHED4
 70
    64
  3
__ __ __ __ __ __ __ __ __ __ __ __ __ __ __
 72
    65
 73
     2
 40
12.000000
 49
10.000000
 49
-2.000000
  0
LTYPE
  2
DASHED5
 70
    64
  3
__ __ __ __ __ __ __ __ __ __ __ __ __ __ __
 72
    65
 73
     2
 40
17.000000
 49
15.000000
 49
-2.000000
  0
LTYPE
  2
DASHED6
 70
    64
  3
__ __ __ __ __ __ __ __ __ __ __ __ __ __ __
 72
    65
 73
     2
 40
29.000000
 49
27.000000
 49
-2.000000
  0
LTYPE
  2
PHANTOM1
 70
    64
  3
_____ _ _ _____ _ _ _____ _ _ _____ _ _ ____  
 72
    65
 73
     6
 40
31.000000
 49
25.000000
 49
-1.500000
 49
1.000000
 49
-1.000000
 49
1.000000
 49
-1.500000
  0
LTYPE
  2
PHANTOM2
 70
    64
  3
_____ _ _ _____ _ _ _____ _ _ _____ _ _ ____  
 72
    65
 73
     6
 40
36.000000
 49
27.000000
 49
-1.500000
 49
2.500000
 49
-1.000000
 49
2.500000
 49
-1.500000
  0
LTYPE
  2
PHANTOM3
 70
    64
  3
_____ _ _ _____ _ _ _____ _ _ _____ _ _ ____  
 72
    65
 73
     6
 40
78.000000
 49
64.000000
 49
-2.000000
 49
4.000000
 49
-2.000000
 49
4.000000
 49
-2.000000
  0
LTYPE
  2
CENTER1
 70
    64
  3
____ _ ____ _ ____ _ ____ _ ____ _ ____ _ ____
 72
    65
 73
     4
 40
19.000000
 49
14.000000
 49
-1.000000
 49
3.000000
 49
-1.000000
  0
LTYPE
  2
CENTER2
 70
    64
  3
____ _ ____ _ ____ _ ____ _ ____ _ ____ _ ____
 72
    65
 73
     4
 40
28.500000
 49
25.000000
 49
-1.000000
 49
1.500000
 49
-1.000000
  0
LTYPE
  2
CENTER3
 70
    64
  3
____ _ ____ _ ____ _ ____ _ ____ _ ____ _ ____
 72
    65
 73
     4
 40
31.500000
 49
27.000000
 49
-1.000000
 49
2.500000
 49
-1.000000
  0
LTYPE
  2
CENTER4
 70
    64
  3
____ _ ____ _ ____ _ ____ _ ____ _ ____ _ ____
 72
    65
 73
     4
 40
50.000000
 49
45.000000
 49
-1.000000
 49
3.000000
 49
-1.000000
  0
LTYPE
  2
CENTER5
 70
    64
  3
____ _ ____ _ ____ _ ____ _ ____ _ ____ _ ____
 72
    65
 73
     4
 40
100.000000
 49
92.000000
 49
-2.000000
 49
4.000000
 49
-2.000000
  0
LTYPE
  2
SBK1
 70
    64
  3
______ _ _ _ ______ _ _ _ ______ _ _ _ _____  
 72
    65
 73
     8
 40
60.500000
 49
45.000000
 49
-2.000000
 49
2.500000
 49
-2.000000
 49
2.500000
 49
-2.000000
 49
2.500000
 49
-2.000000
  0
LTYPE
  2
SBK2
 70
    64
  3
______ _ _ _ ______ _ _ _ ______ _ _ _ _____  
 72
    65
 73
     8
 40
84.000000
 49
64.000000
 49
-2.000000
 49
4.000000
 49
-2.000000
 49
4.000000
 49
-2.000000
 49
4.000000
 49
-2.000000
  0
LTYPE
  2
STCH
 70
    64
  3
__ __ __ __ __ __ __ __ __ __ __ __ __ __ __
 72
    65
 73
     2
 40
3.000000
 49
1.000000
 49
-2.000000
  0
LTYPE
  2
MTCH
 70
    64
  3
_____ _ _ _____ _ _ _____ _ _ _____ _ _ ____  
 72
    65
 73
     6
 40
80.000000
 49
66.000000
 49
-2.000000
 49
4.000000
 49
-2.000000
 49
4.000000
 49
-2.000000
  0
ENDTAB
  0
TABLE
  2
LAYER
 70
     1
  0
LAYER
  2
0
 70
     0
 62
     7
  6
CONTINUOUS
  0
ENDTAB
  0
TABLE
  2
STYLE
 70
     1
  0
STYLE
  2
STANDARD
 70
     0
 40
0.000000
 41
1.000000
 50
0.000000
 71
     0
 42
0.200000
  3
txt
  4
BIGFONT
  0
ENDTAB
  0
TABLE
  2
VIEW
 70
     0
  0
ENDTAB
  0
ENDSEC
  0
SECTION
  2
BLOCKS
  0
ENDSEC
  0
SECTION
  2
ENTITIES
  0
LINE
  8
0
 10
-297.000000
 20
210.000000
 11
297.000000
 21
210.000000
  0
LINE
  8
0
 10
-297.000000
 20
-210.000000
 11
297.000000
 21
-210.000000
  0
LINE
  8
0
 10
297.000000
 20
210.000000
 11
297.000000
 21
-210.000000
  0
LINE
  8
0
 10
-297.000000
 20
210.000000
 11
-297.000000
 21
-210.000000
  0
LINE
  8
0
 10
-281.250000
 20
195.500000
 11
282.099976
 21
195.500000
  0
LINE
  8
0
 10
-281.250000
 20
195.500000
 11
-281.250000
 21
-195.000000
  0
LINE
  8
0
 10
282.099976
 20
195.500000
 11
282.099976
 21
-195.000000
  0
LINE
  8
0
 10
-281.250000
 20
-195.000000
 11
282.099976
 21
-195.000000
  0
LINE
  8
0
 10
162.099976
 20
-175.000000
 11
162.099976
 21
-195.000000
  0
LINE
  8
0
 10
162.099976
 20
-175.000000
 11
282.099976
 21
-175.000000
  0
LINE
  8
0
 10
162.099976
 20
175.500000
 11
282.099976
 21
175.500000
  0
LINE
  8
0
 10
-281.250000
 20
175.500000
 11
-161.250000
 21
175.500000
  0
LINE
  8
0
 10
162.099976
 20
195.500000
 11
162.099976
 21
175.500000
  0
LINE
  8
0
 10
-161.250000
 20
195.500000
 11
-161.250000
 21
175.500000
  0
TEXT
  8
0
 10
174.200241
 20
180.830002
 40
6.300000
  1
DATE: SEP ,1992
 50
0.000000
 41
1.052632
 51
0.000000
  7
STANDARD
  0
TEXT
  8
0
 10
167.564667
 20
-192.100006
 40
9.000000
  1
KOGANEI CORP.
 50
0.000000
 41
1.052632
 51
0.000000
  7
STANDARD
  0
TEXT
  8
0
 10
-269.149719
 20
180.830002
 40
6.300000
  1
FRL COMBINATION
 50
0.000000
 41
1.052632
 51
0.000000
  7
STANDARD
  0
TEXT
  8
0
 10
-256.000000
 20
157.720001
 40
6.300000
  1
MODEL : C150-01-BG-F1
 50
0.000000
 41
1.052632
 51
0.000000
  7
STANDARD
  0
POINT
  8
0
 10
-149.999985
 20
-40.000008
  0
POINT
  8
0
 10
-13.999985
 20
-40.000008
  0
LINE
  8
0
 10
-148.999985
 20
-30.000000
 11
-110.999985
 21
-30.000000
  0
LINE
  8
0
 10
-148.999985
 20
-63.000000
 11
-110.999985
 21
-63.000000
  0
LINE
  8
0
 10
-109.999985
 20
-49.000034
 11
-109.999985
 21
-62.000000
  0
LINE
  8
0
 10
-149.999985
 20
-31.000000
 11
-149.999985
 21
-62.000000
  0
LINE
  8
0
 10
-149.999924
 20
-31.000053
 11
-148.999939
 21
-30.000061
  0
LINE
  8
0
 10
-110.999954
 20
-29.999981
 11
-109.999985
 21
-30.999960
  0
LINE
  8
0
 10
-149.999985
 20
-50.000000
 11
-109.999985
 21
-50.000000
  0
LINE
  8
0
 10
-121.860580
 20
-33.000000
 11
-121.860580
 21
-49.000000
  0
LINE
  8
0
 10
-138.139389
 20
-33.000000
 11
-138.139389
 21
-49.000000
  0
LINE
  8
0
 10
-136.184616
 20
-32.000031
 11
-123.815353
 21
-32.000031
  0
LINE
  8
0
 10
-138.139389
 20
-33.000000
 11
-121.860580
 21
-33.000000
  0
LINE
  8
0
 10
-136.184692
 20
-31.999907
 11
-138.139435
 21
-32.999901
  0
LINE
  8
0
 10
-123.815399
 20
-32.000011
 11
-121.860657
 21
-33.000008
  0
LINE
  8
0
 10
-144.730881
 20
-49.000000
 11
-115.269089
 21
-49.000000
  0
LINE
  8
0
 10
-144.730957
 20
-48.999969
 11
-146.000031
 21
-49.999969
  0
LINE
  8
0
 10
-115.269081
 20
-49.000004
 11
-114.000000
 21
-50.000000
  0
LINE
  8
0
 10
-147.499985
 20
-29.500031
 11
-142.005051
 21
-29.500031
  0
LINE
  8
0
 10
-147.499985
 20
-29.500000
 11
-147.499985
 21
-30.000000
  0
LINE
  8
0
 10
-142.004990
 20
-29.500000
 11
-142.004990
 21
-30.000000
  0
LINE
  8
0
 10
-149.999985
 20
-31.000000
 11
-114.699997
 21
-31.000000
  0
LINE
  8
0
 10
-149.999954
 20
-61.999962
 11
-148.999939
 21
-62.999985
  0
LINE
  8
0
 10
-110.999969
 20
-63.000053
 11
-109.999969
 21
-62.000061
  0
LINE
  8
0
 10
-149.999985
 20
-62.000031
 11
-109.999985
 21
-62.000031
  0
LINE
  8
0
 10
-147.999985
 20
-33.000000
 11
-147.999985
 21
-47.000000
  0
LINE
  8
0
 10
-144.999985
 20
-33.000000
 11
-144.999985
 21
-47.000000
  0
LINE
  8
0
 10
-114.999985
 20
-33.000000
 11
-114.999985
 21
-47.000000
  0
LINE
  8
0
 10
-147.999985
 20
-33.000000
 11
-144.999985
 21
-33.000000
  0
LINE
  8
0
 10
-147.999985
 20
-47.000031
 11
-144.999985
 21
-47.000031
  0
LINE
  8
0
 10
-114.999985
 20
-33.000000
 11
-114.699997
 21
-33.000000
  0
LINE
  8
0
 10
-114.999985
 20
-47.000031
 11
-114.699997
 21
-47.000031
  0
LINE
  8
0
 10
-148.999985
 20
-30.000000
 11
-148.999985
 21
-50.000000
  0
LINE
  8
0
 10
-110.999985
 20
-30.000000
 11
-110.999985
 21
-31.000008
  0
LINE
  8
0
 10
-132.499985
 20
-72.999992
 11
-127.499985
 21
-72.999992
  0
LINE
  8
0
 10
-129.999985
 20
-26.374203
 11
-129.999985
 21
-151.669617
  0
LINE
  8
0
 10
-138.399994
 20
-124.500000
 11
-121.599991
 21
-124.500000
  0
LINE
  8
0
 10
-147.849991
 20
-63.000000
 11
-147.849991
 21
-110.000000
  0
LINE
  8
0
 10
-112.149986
 20
-63.000000
 11
-112.149986
 21
-110.000000
  0
LINE
  8
0
 10
-141.499985
 20
-118.000000
 11
-141.499985
 21
-118.000000
  0
LINE
  8
0
 10
-121.599991
 20
-121.100006
 11
-121.599991
 21
-124.500000
  0
LINE
  8
0
 10
-138.399994
 20
-121.100006
 11
-138.399994
 21
-124.500000
  0
LINE
  8
0
 10
-142.177032
 20
-117.654259
 11
-140.598328
 21
-118.134216
  0
LINE
  8
0
 10
-117.822968
 20
-117.654221
 11
-119.401642
 21
-118.134171
  0
LINE
  8
0
 10
-132.499985
 20
-108.000000
 11
-127.499985
 21
-108.000000
  0
LINE
  8
0
 10
-125.999985
 20
-74.499992
 11
-125.999985
 21
-106.500000
  0
LINE
  8
0
 10
-133.999985
 20
-74.499992
 11
-133.999985
 21
-106.500000
  0
LINE
  8
0
 10
-136.218048
 20
-118.000000
 11
-123.888329
 21
-118.000000
  0
LINE
  8
0
 10
-97.299988
 20
-49.000034
 11
-114.700012
 21
-49.000034
  0
LINE
  8
0
 10
-97.299973
 20
-76.000031
 11
-97.299973
 21
-73.000008
  0
LINE
  8
0
 10
-114.699997
 20
-49.000034
 11
-114.699997
 21
-31.000008
  0
LINE
  8
0
 10
-97.299988
 20
-31.000008
 11
-114.700012
 21
-31.000008
  0
LINE
  8
0
 10
-99.898056
 20
-45.224030
 11
-99.898056
 21
-34.775970
  0
LINE
  8
0
 10
-112.101913
 20
-45.224030
 11
-112.101913
 21
-34.775970
  0
LINE
  8
0
 10
-105.999985
 20
-81.151215
 11
-105.999985
 21
-27.651215
  0
LINE
  8
0
 10
-99.898071
 20
-45.224037
 11
-112.101929
 21
-45.224037
  0
LINE
  8
0
 10
-99.898071
 20
-34.775978
 11
-112.101929
 21
-34.775978
  0
LINE
  8
0
 10
-99.897995
 20
-45.224007
 11
-97.299911
 21
-48.999962
  0
LINE
  8
0
 10
-112.101959
 20
-45.224045
 11
-114.700043
 21
-48.999992
  0
LINE
  8
0
 10
-112.101982
 20
-34.775928
 11
-114.700066
 21
-30.999973
  0
LINE
  8
0
 10
-99.898102
 20
-34.775940
 11
-97.300026
 21
-30.999994
  0
LINE
  8
0
 10
-104.499985
 20
-40.866028
 11
-104.499985
 21
-39.134003
  0
LINE
  8
0
 10
-107.499985
 20
-40.866028
 11
-107.499985
 21
-39.134003
  0
LINE
  8
0
 10
-104.499954
 20
-40.866039
 11
-105.999985
 21
-41.732082
  0
LINE
  8
0
 10
-106.000031
 20
-38.267982
 11
-107.500061
 21
-39.134026
  0
LINE
  8
0
 10
-104.500015
 20
-39.133995
 11
-106.000015
 21
-38.267967
  0
LINE
  8
0
 10
-105.999954
 20
-41.732117
 11
-107.500015
 21
-40.866058
  0
LINE
  8
0
 10
-101.499985
 20
-50.000004
 11
-109.999985
 21
-50.000004
  0
LINE
  8
0
 10
-100.999985
 20
-30.000008
 11
-110.999931
 21
-30.000008
  0
LINE
  8
0
 10
-100.299995
 20
-79.000031
 11
-111.700020
 21
-79.000031
  0
LINE
  8
0
 10
-97.300140
 20
-75.999847
 11
-100.300148
 21
-78.999847
  0
LINE
  8
0
 10
-111.700012
 20
-78.999992
 11
-112.150002
 21
-78.550003
  0
LINE
  8
0
 10
-98.300034
 20
-75.585785
 11
-98.300034
 21
-73.000008
  0
LINE
  8
0
 10
-98.300179
 20
-75.585632
 11
-100.714386
 21
-77.999840
  0
LINE
  8
0
 10
-100.714241
 20
-78.000000
 11
-111.285774
 21
-78.000000
  0
LINE
  8
0
 10
-111.285797
 20
-78.000038
 11
-112.150002
 21
-77.135834
  0
LINE
  8
0
 10
-97.299896
 20
-76.000008
 11
-98.299850
 21
-75.585815
  0
LINE
  8
0
 10
-100.300064
 20
-79.000076
 11
-100.714279
 21
-78.000076
  0
LINE
  8
0
 10
-111.700058
 20
-79.000000
 11
-111.285843
 21
-77.999992
  0
LINE
  8
0
 10
-100.299988
 20
-71.000031
 11
-111.700012
 21
-71.000031
  0
LINE
  8
0
 10
-109.999985
 20
-62.000000
 11
-101.499985
 21
-62.000000
  0
LINE
  8
0
 10
-49.299988
 20
-49.000034
 11
-66.700012
 21
-49.000034
  0
LINE
  8
0
 10
-49.299973
 20
-49.000034
 11
-49.299973
 21
-31.000000
  0
LINE
  8
0
 10
-66.699997
 20
-76.000031
 11
-66.699997
 21
-73.000008
  0
LINE
  8
0
 10
-49.299988
 20
-31.000008
 11
-66.700012
 21
-31.000008
  0
LINE
  8
0
 10
-51.898056
 20
-45.224030
 11
-51.898056
 21
-34.775970
  0
LINE
  8
0
 10
-64.101913
 20
-45.224030
 11
-64.101913
 21
-34.775970
  0
LINE
  8
0
 10
-57.999985
 20
-81.151215
 11
-57.999985
 21
-27.651215
  0
LINE
  8
0
 10
-51.898071
 20
-45.224037
 11
-64.101929
 21
-45.224037
  0
LINE
  8
0
 10
-51.898071
 20
-34.775978
 11
-64.101929
 21
-34.775978
  0
LINE
  8
0
 10
-51.897972
 20
-45.223991
 11
-49.299889
 21
-48.999950
  0
LINE
  8
0
 10
-64.101929
 20
-45.224056
 11
-66.700005
 21
-49.000004
  0
LINE
  8
0
 10
-64.101997
 20
-34.775944
 11
-66.700081
 21
-30.999992
  0
LINE
  8
0
 10
-51.898079
 20
-34.775955
 11
-49.300003
 21
-31.000010
  0
LINE
  8
0
 10
-56.499985
 20
-40.866028
 11
-56.499985
 21
-39.134003
  0
LINE
  8
0
 10
-59.499985
 20
-40.866028
 11
-59.499985
 21
-39.134003
  0
LINE
  8
0
 10
-56.499969
 20
-40.866039
 11
-58.000000
 21
-41.732082
  0
LINE
  8
0
 10
-58.000023
 20
-38.267998
 11
-59.500053
 21
-39.134041
  0
LINE
  8
0
 10
-56.500015
 20
-39.133984
 11
-58.000015
 21
-38.267956
  0
LINE
  8
0
 10
-57.999947
 20
-41.732101
 11
-59.500008
 21
-40.866043
  0
LINE
  8
0
 10
-53.999985
 20
-50.000004
 11
-62.499985
 21
-50.000004
  0
LINE
  8
0
 10
-52.999985
 20
-30.000008
 11
-62.999954
 21
-30.000008
  0
LINE
  8
0
 10
-52.299995
 20
-79.000031
 11
-63.700020
 21
-79.000031
  0
LINE
  8
0
 10
-51.850006
 20
-78.549683
 11
-52.300156
 21
-78.999832
  0
LINE
  8
0
 10
-63.699982
 20
-78.999954
 11
-66.699966
 21
-75.999969
  0
LINE
  8
0
 10
-65.700058
 20
-75.585785
 11
-65.700058
 21
-73.000008
  0
LINE
  8
0
 10
-51.850006
 20
-77.135437
 11
-52.714394
 21
-77.999825
  0
LINE
  8
0
 10
-52.714241
 20
-78.000000
 11
-63.285774
 21
-78.000000
  0
LINE
  8
0
 10
-63.285774
 20
-78.000015
 11
-65.700012
 21
-75.585770
  0
LINE
  8
0
 10
-52.300102
 20
-79.000084
 11
-52.714310
 21
-78.000076
  0
LINE
  8
0
 10
-63.700073
 20
-78.999985
 11
-63.285858
 21
-77.999977
  0
LINE
  8
0
 10
-66.700050
 20
-75.999870
 11
-65.700050
 21
-75.585648
  0
LINE
  8
0
 10
-52.299988
 20
-71.000031
 11
-63.700012
 21
-71.000031
  0
LINE
  8
0
 10
-62.499985
 20
-62.000000
 11
-50.300049
 21
-62.000000
  0
LINE
  8
0
 10
-152.909698
 20
-40.000008
 11
-11.912827
 21
-40.000008
  0
LINE
  8
0
 10
-92.999985
 20
-26.500008
 11
-70.999985
 21
-26.500008
  0
LINE
  8
0
 10
-100.999985
 20
-30.000008
 11
-62.999985
 21
-30.000008
  0
LINE
  8
0
 10
-97.299973
 20
-31.000008
 11
-66.699997
 21
-31.000008
  0
LINE
  8
0
 10
-100.999985
 20
-64.000008
 11
-62.999985
 21
-64.000008
  0
LINE
  8
0
 10
-101.499985
 20
-63.500008
 11
-84.699997
 21
-63.500008
  0
LINE
  8
0
 10
-70.999985
 20
-26.500008
 11
-70.999985
 21
-30.000008
  0
LINE
  8
0
 10
-92.999985
 20
-26.500008
 11
-92.999985
 21
-30.000008
  0
LINE
  8
0
 10
-62.499985
 20
-49.500008
 11
-62.499985
 21
-63.500008
  0
LINE
  8
0
 10
-101.499985
 20
-49.500008
 11
-101.499985
 21
-63.500008
  0
LINE
  8
0
 10
-100.999832
 20
-30.000179
 11
-101.999825
 21
-31.000172
  0
LINE
  8
0
 10
-62.999985
 20
-30.000013
 11
-61.999962
 21
-31.000036
  0
LINE
  8
0
 10
-101.500015
 20
-63.499969
 11
-101.000023
 21
-63.999962
  0
LINE
  8
0
 10
-62.499931
 20
-63.500050
 11
-62.999916
 21
-64.000038
  0
LINE
  8
0
 10
-61.999924
 20
-49.000050
 11
-62.499931
 21
-49.500050
  0
LINE
  8
0
 10
-101.999985
 20
-49.000011
 11
-101.499954
 21
-49.500046
  0
LINE
  8
0
 10
-97.170395
 20
-48.800026
 11
-82.749741
 21
-48.800026
  0
LINE
  8
0
 10
-62.999954
 20
-50.000046
 11
-62.499954
 21
-49.500046
  0
LINE
  8
0
 10
-101.499992
 20
-49.499977
 11
-101.000000
 21
-49.999969
  0
LINE
  8
0
 10
-100.999985
 20
-30.000008
 11
-100.999985
 21
-31.000008
  0
LINE
  8
0
 10
-62.999954
 20
-30.000008
 11
-62.999954
 21
-31.000008
  0
LINE
  8
0
 10
-96.999985
 20
-33.000008
 11
-96.999985
 21
-47.000008
  0
LINE
  8
0
 10
-66.999985
 20
-33.000008
 11
-66.999985
 21
-47.000008
  0
LINE
  8
0
 10
-97.299973
 20
-33.000008
 11
-96.999985
 21
-33.000008
  0
LINE
  8
0
 10
-97.299973
 20
-47.000008
 11
-96.999985
 21
-47.000008
  0
LINE
  8
0
 10
-66.999985
 20
-33.000008
 11
-66.699997
 21
-33.000008
  0
LINE
  8
0
 10
-66.999985
 20
-47.000008
 11
-66.699997
 21
-47.000008
  0
LINE
  8
0
 10
-77.999985
 20
-16.991646
 11
-77.999985
 21
-63.602364
  0
LINE
  8
0
 10
-101.499985
 20
-50.000008
 11
-98.101181
 21
-50.000008
  0
LINE
  8
0
 10
-98.101044
 20
-50.000141
 11
-97.370232
 21
-49.000137
  0
LINE
  8
0
 10
-65.898697
 20
-49.999981
 11
-66.629532
 21
-48.999954
  0
LINE
  8
0
 10
-97.370392
 20
-49.000038
 11
-97.170395
 21
-48.800041
  0
LINE
  8
0
 10
-66.629601
 20
-48.999977
 11
-66.829559
 21
-48.800026
  0
LINE
  8
0
 10
-65.898758
 20
-50.000008
 11
-62.999985
 21
-50.000008
  0
LINE
  8
0
 10
-97.955063
 20
-49.799995
 11
-66.044907
 21
-49.799995
  0
LINE
  8
0
 10
-73.250259
 20
-48.800026
 11
-66.829544
 21
-48.800026
  0
LINE
  8
0
 10
-70.999985
 20
-26.500038
 11
-92.999985
 21
-26.500038
  0
LINE
  8
0
 10
-71.999985
 20
-22.500008
 11
-91.999985
 21
-22.500008
  0
LINE
  8
0
 10
-93.000046
 20
-26.500008
 11
-93.000046
 21
-23.500008
  0
LINE
  8
0
 10
-71.000046
 20
-26.500008
 11
-71.000046
 21
-23.500008
  0
LINE
  8
0
 10
-71.000023
 20
-23.500004
 11
-72.000000
 21
-22.500023
  0
LINE
  8
0
 10
-91.999931
 20
-22.500093
 11
-92.999931
 21
-23.500093
  0
LINE
  8
0
 10
-70.999985
 20
-25.500038
 11
-71.472977
 21
-25.500038
  0
LINE
  8
0
 10
-79.500046
 20
-25.500008
 11
-79.500046
 21
-23.500008
  0
LINE
  8
0
 10
-84.500046
 20
-25.500008
 11
-84.500046
 21
-23.500008
  0
LINE
  8
0
 10
-84.499985
 20
-25.500038
 11
-90.026962
 21
-25.500038
  0
LINE
  8
0
 10
-92.527092
 20
-25.226738
 11
-93.000092
 21
-25.499825
  0
LINE
  8
0
 10
-70.999985
 20
-25.500010
 11
-71.473015
 21
-25.226910
  0
LINE
  8
0
 10
-74.747391
 20
-25.095863
 11
-74.747391
 21
-22.800026
  0
LINE
  8
0
 10
-73.973007
 20
-25.500008
 11
-73.973007
 21
-23.500038
  0
LINE
  8
0
 10
-71.473007
 20
-25.500008
 11
-71.473007
 21
-23.500008
  0
LINE
  8
0
 10
-89.252670
 20
-25.095863
 11
-89.252670
 21
-22.799995
  0
LINE
  8
0
 10
-90.027023
 20
-25.500008
 11
-90.027023
 21
-23.500008
  0
LINE
  8
0
 10
-92.527023
 20
-25.500008
 11
-92.527023
 21
-23.500008
  0
LINE
  8
0
 10
-71.699997
 20
-22.800056
 11
-72.039841
 21
-22.800056
  0
LINE
  8
0
 10
-79.500069
 20
-25.500002
 11
-79.292587
 21
-25.095860
  0
LINE
  8
0
 10
-79.500008
 20
-23.500010
 11
-79.292519
 21
-22.800013
  0
LINE
  8
0
 10
-84.499977
 20
-25.499985
 11
-84.707458
 21
-25.095852
  0
LINE
  8
0
 10
-84.500000
 20
-23.499987
 11
-84.707489
 21
-22.799990
  0
LINE
  8
0
 10
-73.973068
 20
-25.500000
 11
-74.747421
 21
-25.095856
  0
LINE
  8
0
 10
-73.972992
 20
-23.499981
 11
-74.747330
 21
-22.800003
  0
LINE
  8
0
 10
-90.026970
 20
-25.499983
 11
-89.252609
 21
-25.095840
  0
LINE
  8
0
 10
-90.026749
 20
-23.500229
 11
-89.252388
 21
-22.800232
  0
LINE
  8
0
 10
-84.707504
 20
-25.095863
 11
-84.707504
 21
-22.800026
  0
LINE
  8
0
 10
-79.292526
 20
-25.095863
 11
-79.292526
 21
-22.800026
  0
LINE
  8
0
 10
-79.499985
 20
-23.500038
 11
-84.499985
 21
-23.500038
  0
LINE
  8
0
 10
-74.747360
 20
-25.095863
 11
-79.292526
 21
-25.095863
  0
LINE
  8
0
 10
-89.252609
 20
-25.095863
 11
-84.707443
 21
-25.095863
  0
LINE
  8
0
 10
-90.026962
 20
-23.500038
 11
-92.526962
 21
-23.500038
  0
LINE
  8
0
 10
-84.707443
 20
-22.800026
 11
-89.252609
 21
-22.800026
  0
LINE
  8
0
 10
-71.473007
 20
-23.499992
 11
-72.039879
 21
-22.799984
  0
LINE
  8
0
 10
-92.527031
 20
-23.499968
 11
-91.960167
 21
-22.799978
  0
LINE
  8
0
 10
-74.747330
 20
-22.800026
 11
-79.292526
 21
-22.800026
  0
LINE
  8
0
 10
-91.960068
 20
-22.799995
 11
-92.299973
 21
-22.799995
  0
LINE
  8
0
 10
-73.972977
 20
-25.500038
 11
-79.499985
 21
-25.500038
  0
LINE
  8
0
 10
-92.526962
 20
-25.500008
 11
-92.999985
 21
-25.500008
  0
LINE
  8
0
 10
-71.472977
 20
-23.500008
 11
-73.972977
 21
-23.500008
  0
LINE
  8
0
 10
-71.699997
 20
-22.800026
 11
-71.699997
 21
-23.219734
  0
LINE
  8
0
 10
-92.299973
 20
-22.799995
 11
-92.299973
 21
-23.219704
  0
LINE
  8
0
 10
-100.999985
 20
-64.000008
 11
-62.999985
 21
-64.000008
  0
LINE
  8
0
 10
-99.999985
 20
-73.000008
 11
-63.999985
 21
-73.000008
  0
LINE
  8
0
 10
-62.999954
 20
-66.000008
 11
-62.999954
 21
-72.000008
  0
LINE
  8
0
 10
-100.999985
 20
-66.000008
 11
-100.999985
 21
-72.000008
  0
LINE
  8
0
 10
-100.999985
 20
-72.000023
 11
-100.834763
 21
-72.000023
  0
LINE
  8
0
 10
-100.999985
 20
-68.000008
 11
-100.992416
 21
-68.000008
  0
LINE
  8
0
 10
-100.999863
 20
-71.999924
 11
-99.999878
 21
-72.999901
  0
LINE
  8
0
 10
-62.999924
 20
-72.000061
 11
-63.999931
 21
-73.000061
  0
LINE
  8
0
 10
-100.100204
 20
-68.700020
 11
-99.561386
 21
-68.700020
  0
LINE
  8
0
 10
-84.499985
 20
-68.000008
 11
-84.499985
 21
-72.000008
  0
LINE
  8
0
 10
-84.499886
 20
-68.000031
 11
-84.696724
 21
-68.700035
  0
LINE
  8
0
 10
-84.499901
 20
-72.000053
 11
-84.696739
 21
-72.700058
  0
LINE
  8
0
 10
-89.252281
 20
-68.000000
 11
-88.714508
 21
-68.700005
  0
LINE
  8
0
 10
-89.252312
 20
-72.000031
 11
-88.714539
 21
-72.700027
  0
LINE
  8
0
 10
-84.696823
 20
-68.700020
 11
-84.696823
 21
-72.700020
  0
LINE
  8
0
 10
-88.714523
 20
-68.700020
 11
-88.714523
 21
-72.700020
  0
LINE
  8
0
 10
-89.252304
 20
-68.000008
 11
-89.252304
 21
-72.000008
  0
LINE
  8
0
 10
-93.582443
 20
-68.000008
 11
-93.582443
 21
-72.000008
  0
LINE
  8
0
 10
-93.582314
 20
-71.999962
 11
-93.385468
 21
-72.699982
  0
LINE
  8
0
 10
-97.061554
 20
-68.000084
 11
-96.326897
 21
-68.700119
  0
LINE
  8
0
 10
-97.061478
 20
-72.000122
 11
-96.326866
 21
-72.700119
  0
LINE
  8
0
 10
-96.326767
 20
-72.700020
 11
-96.326767
 21
-68.700020
  0
LINE
  8
0
 10
-97.061386
 20
-68.000008
 11
-97.061386
 21
-72.000008
  0
LINE
  8
0
 10
-99.561386
 20
-68.000008
 11
-99.561386
 21
-72.000008
  0
LINE
  8
0
 10
-99.561432
 20
-72.000107
 11
-99.023682
 21
-72.700089
  0
LINE
  8
0
 10
-100.834824
 20
-68.000000
 11
-100.100174
 21
-68.700027
  0
LINE
  8
0
 10
-100.834885
 20
-72.000015
 11
-100.100281
 21
-72.700012
  0
LINE
  8
0
 10
-88.714523
 20
-68.700020
 11
-84.696823
 21
-68.700020
  0
LINE
  8
0
 10
-89.252304
 20
-68.000008
 11
-84.499985
 21
-68.000008
  0
LINE
  8
0
 10
-97.061386
 20
-68.000008
 11
-93.582443
 21
-68.000008
  0
LINE
  8
0
 10
-96.326828
 20
-68.700020
 11
-93.582443
 21
-68.700020
  0
LINE
  8
0
 10
-84.696823
 20
-72.700020
 11
-88.714523
 21
-72.700020
  0
LINE
  8
0
 10
-93.385605
 20
-72.700020
 11
-96.326828
 21
-72.700020
  0
LINE
  8
0
 10
-99.023666
 20
-72.700020
 11
-100.100204
 21
-72.700020
  0
LINE
  8
0
 10
-93.582443
 20
-72.000023
 11
-89.252304
 21
-72.000023
  0
LINE
  8
0
 10
-99.561386
 20
-72.000023
 11
-97.061386
 21
-72.000023
  0
LINE
  8
0
 10
-100.100204
 20
-68.700020
 11
-100.100204
 21
-72.700020
  0
LINE
  8
0
 10
-100.834763
 20
-68.000008
 11
-100.834763
 21
-72.000008
  0
LINE
  8
0
 10
-100.834763
 20
-68.000008
 11
-99.561386
 21
-68.000008
  0
LINE
  8
0
 10
-84.499985
 20
-72.000023
 11
-81.999985
 21
-72.000023
  0
LINE
  8
0
 10
-62.999985
 20
-72.000023
 11
-63.165176
 21
-72.000023
  0
LINE
  8
0
 10
-62.999985
 20
-68.000008
 11
-63.007553
 21
-68.000008
  0
LINE
  8
0
 10
-63.899765
 20
-68.700020
 11
-64.438583
 21
-68.700020
  0
LINE
  8
0
 10
-79.499985
 20
-68.000008
 11
-79.499985
 21
-72.000008
  0
LINE
  8
0
 10
-79.499992
 20
-67.999969
 11
-79.303146
 21
-68.699997
  0
LINE
  8
0
 10
-79.499908
 20
-71.999992
 11
-79.303070
 21
-72.699982
  0
LINE
  8
0
 10
-74.747627
 20
-68.000023
 11
-75.285393
 21
-68.700020
  0
LINE
  8
0
 10
-74.747673
 20
-71.999954
 11
-75.285446
 21
-72.699951
  0
LINE
  8
0
 10
-79.303146
 20
-68.700020
 11
-79.303146
 21
-72.700020
  0
LINE
  8
0
 10
-75.285416
 20
-68.700020
 11
-75.285416
 21
-72.700020
  0
LINE
  8
0
 10
-74.747665
 20
-68.000008
 11
-74.747665
 21
-72.000008
  0
LINE
  8
0
 10
-70.417526
 20
-68.000008
 11
-70.417526
 21
-72.000008
  0
LINE
  8
0
 10
-70.417458
 20
-72.000046
 11
-70.614296
 21
-72.700050
  0
LINE
  8
0
 10
-66.938599
 20
-67.999969
 11
-67.673203
 21
-68.699966
  0
LINE
  8
0
 10
-66.938446
 20
-72.000145
 11
-67.673050
 21
-72.700134
  0
LINE
  8
0
 10
-67.673172
 20
-72.700020
 11
-67.673172
 21
-68.700020
  0
LINE
  8
0
 10
-66.938553
 20
-68.000008
 11
-66.938553
 21
-72.000008
  0
LINE
  8
0
 10
-64.438553
 20
-68.000008
 11
-64.438553
 21
-72.000008
  0
LINE
  8
0
 10
-64.438629
 20
-71.999969
 11
-64.976402
 21
-72.699966
  0
LINE
  8
0
 10
-63.165184
 20
-68.000061
 11
-63.899788
 21
-68.700058
  0
LINE
  8
0
 10
-63.165131
 20
-72.000076
 11
-63.899742
 21
-72.700081
  0
LINE
  8
0
 10
-75.285446
 20
-68.700020
 11
-79.303146
 21
-68.700020
  0
LINE
  8
0
 10
-74.747665
 20
-68.000008
 11
-79.499985
 21
-68.000008
  0
LINE
  8
0
 10
-66.938583
 20
-68.000008
 11
-70.417526
 21
-68.000008
  0
LINE
  8
0
 10
-67.673172
 20
-68.700020
 11
-70.417526
 21
-68.700020
  0
LINE
  8
0
 10
-79.303146
 20
-72.700020
 11
-75.285446
 21
-72.700020
  0
LINE
  8
0
 10
-70.614365
 20
-72.700020
 11
-67.673172
 21
-72.700020
  0
LINE
  8
0
 10
-64.976334
 20
-72.700020
 11
-63.899765
 21
-72.700020
  0
LINE
  8
0
 10
-70.417526
 20
-72.000023
 11
-74.747665
 21
-72.000023
  0
LINE
  8
0
 10
-64.438583
 20
-72.000023
 11
-66.938583
 21
-72.000023
  0
LINE
  8
0
 10
-63.899765
 20
-68.700020
 11
-63.899765
 21
-72.700020
  0
LINE
  8
0
 10
-63.165176
 20
-68.000008
 11
-63.165176
 21
-72.000008
  0
LINE
  8
0
 10
-63.165176
 20
-68.000008
 11
-64.438583
 21
-68.000008
  0
LINE
  8
0
 10
-79.499985
 20
-72.000023
 11
-81.999985
 21
-72.000023
  0
LINE
  8
0
 10
-70.999954
 20
-74.500008
 11
-70.999954
 21
-76.500008
  0
LINE
  8
0
 10
-92.999985
 20
-74.500008
 11
-92.999985
 21
-76.500008
  0
LINE
  8
0
 10
-95.699997
 20
-74.000008
 11
-68.300003
 21
-74.000008
  0
LINE
  8
0
 10
-72.568375
 20
-74.000008
 11
-72.568375
 21
-76.500008
  0
LINE
  8
0
 10
-80.431564
 20
-74.000008
 11
-80.431564
 21
-76.500008
  0
LINE
  8
0
 10
-83.568344
 20
-74.000023
 11
-83.568344
 21
-76.500023
  0
LINE
  8
0
 10
-91.431564
 20
-74.000008
 11
-91.431564
 21
-76.500008
  0
LINE
  8
0
 10
-67.799973
 20
-64.000008
 11
-67.799973
 21
-66.000008
  0
LINE
  8
0
 10
-96.199936
 20
-64.000008
 11
-96.199936
 21
-66.000008
  0
LINE
  8
0
 10
-95.699997
 20
-76.500008
 11
-68.300003
 21
-76.500008
  0
LINE
  8
0
 10
-93.599960
 20
-101.500008
 11
-70.399979
 21
-101.500008
  0
LINE
  8
0
 10
-69.399986
 20
-99.500015
 11
-68.400024
 21
-98.922684
  0
LINE
  8
0
 10
-95.599930
 20
-98.922592
 11
-94.599915
 21
-99.499954
  0
LINE
  8
0
 10
-94.599960
 20
-99.500008
 11
-94.599960
 21
-100.500008
  0
LINE
  8
0
 10
-69.399948
 20
-99.500008
 11
-69.399948
 21
-100.500008
  0
LINE
  8
0
 10
-67.812965
 20
-76.986969
 11
-68.399933
 21
-98.922638
  0
LINE
  8
0
 10
-96.186798
 20
-76.986969
 11
-95.599823
 21
-98.922646
  0
LINE
  8
0
 10
-95.699951
 20
-76.500046
 11
-96.186905
 21
-76.987000
  0
LINE
  8
0
 10
-68.299980
 20
-76.499939
 11
-67.812981
 21
-76.986938
  0
LINE
  8
0
 10
-79.000076
 20
-79.000031
 11
-79.533180
 21
-98.922668
  0
LINE
  8
0
 10
-85.000031
 20
-79.000015
 11
-84.466934
 21
-98.922661
  0
LINE
  8
0
 10
-95.599960
 20
-98.922661
 11
-95.372910
 21
-98.922661
  0
LINE
  8
0
 10
-95.811020
 20
-79.000008
 11
-93.887192
 21
-79.000008
  0
LINE
  8
0
 10
-94.599960
 20
-99.500023
 11
-94.293015
 21
-99.500023
  0
LINE
  8
0
 10
-96.186935
 20
-76.986977
 11
-67.813004
 21
-76.986977
  0
LINE
  8
0
 10
-78.999985
 20
-79.000008
 11
-74.355453
 21
-79.000008
  0
LINE
  8
0
 10
-94.953415
 20
-79.452141
 11
-93.871689
 21
-79.452141
  0
LINE
  8
0
 10
-78.770187
 20
-79.452141
 11
-75.124374
 21
-79.452141
  0
LINE
  8
0
 10
-84.474800
 20
-98.922653
 11
-84.764153
 21
-99.500008
  0
LINE
  8
0
 10
-88.737900
 20
-99.500061
 11
-89.706078
 21
-98.922707
  0
LINE
  8
0
 10
-93.205994
 20
-98.922668
 11
-92.647034
 21
-99.500000
  0
LINE
  8
0
 10
-94.293015
 20
-99.500015
 11
-95.372910
 21
-98.922646
  0
LINE
  8
0
 10
-89.644531
 20
-78.999954
 11
-88.875633
 21
-79.452057
  0
LINE
  8
0
 10
-95.811020
 20
-79.000008
 11
-94.953415
 21
-79.452118
  0
LINE
  8
0
 10
-85.000099
 20
-78.999954
 11
-85.229889
 21
-79.452087
  0
LINE
  8
0
 10
-85.229881
 20
-79.452148
 11
-84.764305
 21
-99.500038
  0
LINE
  8
0
 10
-88.875618
 20
-79.452148
 11
-88.737900
 21
-99.500031
  0
LINE
  8
0
 10
-89.644485
 20
-79.000031
 11
-89.706039
 21
-98.922668
  0
LINE
  8
0
 10
-93.205872
 20
-98.922638
 11
-93.886978
 21
-79.000000
  0
LINE
  8
0
 10
-94.293266
 20
-99.500000
 11
-94.953629
 21
-79.452126
  0
LINE
  8
0
 10
-95.811035
 20
-78.999985
 11
-95.372925
 21
-98.922623
  0
LINE
  8
0
 10
-78.770180
 20
-79.452148
 11
-79.235756
 21
-99.500015
  0
LINE
  8
0
 10
-79.525101
 20
-98.922699
 11
-79.235764
 21
-99.500038
  0
LINE
  8
0
 10
-79.000008
 20
-78.999969
 11
-78.770218
 21
-79.452103
  0
LINE
  8
0
 10
-75.124290
 20
-79.452156
 11
-75.262009
 21
-99.500038
  0
LINE
  8
0
 10
-74.355431
 20
-79.000008
 11
-74.293892
 21
-98.922653
  0
LINE
  8
0
 10
-70.793724
 20
-98.922646
 11
-70.112610
 21
-79.000015
  0
LINE
  8
0
 10
-69.707092
 20
-99.500015
 11
-69.046730
 21
-79.452148
  0
LINE
  8
0
 10
-68.188972
 20
-79.000031
 11
-68.627083
 21
-98.922684
  0
LINE
  8
0
 10
-68.188950
 20
-79.000061
 11
-69.046585
 21
-79.452194
  0
LINE
  8
0
 10
-74.355377
 20
-79.000076
 11
-75.124306
 21
-79.452202
  0
LINE
  8
0
 10
-75.262077
 20
-99.500000
 11
-74.293900
 21
-98.922653
  0
LINE
  8
0
 10
-70.793915
 20
-98.922676
 11
-71.352890
 21
-99.500023
  0
LINE
  8
0
 10
-69.706978
 20
-99.500061
 11
-68.627113
 21
-98.922707
  0
LINE
  8
0
 10
-84.474838
 20
-98.922661
 11
-79.525131
 21
-98.922661
  0
LINE
  8
0
 10
-74.293869
 20
-98.922661
 11
-70.793900
 21
-98.922661
  0
LINE
  8
0
 10
-68.627060
 20
-98.922661
 11
-68.399979
 21
-98.922661
  0
LINE
  8
0
 10
-93.206100
 20
-98.922661
 11
-89.706039
 21
-98.922661
  0
LINE
  8
0
 10
-88.875595
 20
-79.452141
 11
-85.229782
 21
-79.452141
  0
LINE
  8
0
 10
-89.644516
 20
-79.000008
 11
-84.999985
 21
-79.000008
  0
LINE
  8
0
 10
-70.128281
 20
-79.452141
 11
-69.046555
 21
-79.452141
  0
LINE
  8
0
 10
-70.112778
 20
-79.000008
 11
-68.188950
 21
-79.000008
  0
LINE
  8
0
 10
-84.764206
 20
-99.500023
 11
-79.235764
 21
-99.500023
  0
LINE
  8
0
 10
-75.262070
 20
-99.500023
 11
-71.352890
 21
-99.500023
  0
LINE
  8
0
 10
-69.706924
 20
-99.500023
 11
-69.399948
 21
-99.500023
  0
LINE
  8
0
 10
-92.647079
 20
-99.500023
 11
-88.737900
 21
-99.500023
  0
LINE
  8
0
 10
-66.999985
 20
-64.000008
 11
-66.999985
 21
-66.000008
  0
LINE
  8
0
 10
-96.999985
 20
-64.000008
 11
-96.999985
 21
-66.000008
  0
LINE
  8
0
 10
-96.199936
 20
-73.000008
 11
-96.199936
 21
-73.500008
  0
LINE
  8
0
 10
-67.799973
 20
-73.000008
 11
-67.799973
 21
-73.500008
  0
LINE
  8
0
 10
-79.299973
 20
-61.500008
 11
-79.299973
 21
-64.000008
  0
LINE
  8
0
 10
-84.699997
 20
-61.500008
 11
-84.699997
 21
-64.000008
  0
LINE
  8
0
 10
-79.299973
 20
-61.500008
 11
-84.699997
 21
-61.500008
  0
LINE
  8
0
 10
-79.299973
 20
-63.500008
 11
-62.499985
 21
-63.500008
  0
LINE
  8
0
 10
-99.499985
 20
-29.500008
 11
-94.005051
 21
-29.500008
  0
LINE
  8
0
 10
-99.499985
 20
-29.500008
 11
-99.499985
 21
-30.000008
  0
LINE
  8
0
 10
-94.004990
 20
-29.500008
 11
-94.004990
 21
-30.000008
  0
LINE
  8
0
 10
-100.999985
 20
-64.000008
 11
-62.999985
 21
-64.000008
  0
LINE
  8
0
 10
-62.999985
 20
-66.000008
 11
-100.999985
 21
-66.000008
  0
LINE
  8
0
 10
-81.999985
 20
-19.788094
 11
-81.999985
 21
-105.376610
  0
LINE
  8
0
 10
-52.999985
 20
-30.000000
 11
-33.999985
 21
-30.000000
  0
LINE
  8
0
 10
-52.999985
 20
-63.000000
 11
-14.999985
 21
-63.000000
  0
LINE
  8
0
 10
-53.999985
 20
-49.000034
 11
-53.999985
 21
-62.000000
  0
LINE
  8
0
 10
-13.999985
 20
-31.000000
 11
-13.999985
 21
-62.000000
  0
LINE
  8
0
 10
-53.999985
 20
-50.000000
 11
-13.999985
 21
-50.000000
  0
LINE
  8
0
 10
-52.999962
 20
-30.000042
 11
-53.999962
 21
-31.000042
  0
LINE
  8
0
 10
-53.999977
 20
-31.000008
 11
-52.999977
 21
-30.000008
  0
LINE
  8
0
 10
-15.000061
 20
-30.000036
 11
-14.000061
 21
-31.000038
  0
LINE
  8
0
 10
-49.299973
 20
-31.000000
 11
-48.499985
 21
-31.000000
  0
LINE
  8
0
 10
-54.000000
 20
-61.999989
 11
-53.000000
 21
-62.999989
  0
LINE
  8
0
 10
-15.000046
 20
-62.999954
 11
-14.000046
 21
-61.999954
  0
LINE
  8
0
 10
-53.999985
 20
-62.000000
 11
-13.999985
 21
-62.000000
  0
LINE
  8
0
 10
-52.999985
 20
-30.000000
 11
-52.999985
 21
-31.000000
  0
LINE
  8
0
 10
-14.999985
 20
-30.000000
 11
-14.999985
 21
-50.000000
  0
LINE
  8
0
 10
-42.499985
 20
-49.000000
 11
-18.999985
 21
-49.000000
  0
LINE
  8
0
 10
-49.999985
 20
-50.000000
 11
-49.999985
 21
-50.000000
  0
LINE
  8
0
 10
-17.999985
 20
-50.000000
 11
-17.999985
 21
-50.000000
  0
LINE
  8
0
 10
-48.999985
 20
-33.000000
 11
-48.999985
 21
-47.000000
  0
LINE
  8
0
 10
-15.999985
 20
-33.000000
 11
-15.999985
 21
-47.000000
  0
LINE
  8
0
 10
-18.999985
 20
-33.000000
 11
-18.999985
 21
-47.000000
  0
LINE
  8
0
 10
-49.299973
 20
-33.000000
 11
-48.999985
 21
-33.000000
  0
LINE
  8
0
 10
-49.299973
 20
-47.000000
 11
-48.999985
 21
-47.000000
  0
LINE
  8
0
 10
-18.999985
 20
-33.000000
 11
-15.999985
 21
-33.000000
  0
LINE
  8
0
 10
-18.999985
 20
-47.000000
 11
-15.999985
 21
-47.000000
  0
LINE
  8
0
 10
-51.499985
 20
-29.500000
 11
-51.499985
 21
-30.000000
  0
LINE
  8
0
 10
-45.999985
 20
-29.500000
 11
-45.999985
 21
-30.000000
  0
LINE
  8
0
 10
-51.499985
 20
-29.500000
 11
-45.999985
 21
-29.500000
  0
LINE
  8
0
 10
-36.499985
 20
-72.999992
 11
-31.499985
 21
-72.999992
  0
LINE
  8
0
 10
-48.499985
 20
-30.000000
 11
-48.499985
 21
-50.000000
  0
LINE
  8
0
 10
-18.999954
 20
-49.000000
 11
-17.267899
 21
-50.000000
  0
LINE
  8
0
 10
-44.232033
 20
-50.000015
 11
-42.499977
 21
-49.000015
  0
LINE
  8
0
 10
-33.999985
 20
-46.000000
 11
-24.999985
 21
-46.000000
  0
LINE
  8
0
 10
-24.999985
 20
-46.000000
 11
-24.999985
 21
-49.000000
  0
LINE
  8
0
 10
-32.999985
 20
-45.000000
 11
-25.999985
 21
-45.000000
  0
LINE
  8
0
 10
-26.000023
 20
-45.000019
 11
-25.000023
 21
-46.000019
  0
LINE
  8
0
 10
-37.999985
 20
-30.000000
 11
-37.999985
 21
-49.000000
  0
LINE
  8
0
 10
-42.499985
 20
-24.699997
 11
-14.499985
 21
-24.699997
  0
LINE
  8
0
 10
-28.499985
 20
-1.898300
 11
-28.499985
 21
-31.741951
  0
LINE
  8
0
 10
-41.499985
 20
-24.699997
 11
-41.499985
 21
-28.500000
  0
LINE
  8
0
 10
-15.499985
 20
-24.699997
 11
-15.499985
 21
-30.000000
  0
LINE
  8
0
 10
-37.999985
 20
-31.000000
 11
-13.999985
 21
-31.000000
  0
LINE
  8
0
 10
-22.999985
 20
-30.000000
 11
-14.999985
 21
-30.000000
  0
LINE
  8
0
 10
-36.499985
 20
-24.699997
 11
-36.499985
 21
-30.000000
  0
LINE
  8
0
 10
-41.999985
 20
-17.200005
 11
-40.804558
 21
-17.200005
  0
LINE
  8
0
 10
-21.299988
 20
-15.700005
 11
-21.299988
 21
-16.700005
  0
LINE
  8
0
 10
-41.499985
 20
-16.700005
 11
-15.499985
 21
-16.700005
  0
LINE
  8
0
 10
-42.499985
 20
-17.700005
 11
-42.499985
 21
-24.699997
  0
LINE
  8
0
 10
-14.499985
 20
-17.700005
 11
-14.499985
 21
-24.699997
  0
LINE
  8
0
 10
-42.499985
 20
-17.700020
 11
-41.499977
 21
-16.700020
  0
LINE
  8
0
 10
-15.500031
 20
-16.700024
 11
-14.500031
 21
-17.700027
  0
LINE
  8
0
 10
-26.999985
 20
-17.700005
 11
-26.999985
 21
-23.199997
  0
LINE
  8
0
 10
-22.839310
 20
-17.700005
 11
-22.839310
 21
-23.199997
  0
LINE
  8
0
 10
-20.241241
 20
-17.700005
 11
-20.241241
 21
-23.199997
  0
LINE
  8
0
 10
-17.195419
 20
-17.700005
 11
-17.195419
 21
-23.199997
  0
LINE
  8
0
 10
-15.695419
 20
-17.700005
 11
-15.695419
 21
-23.199997
  0
LINE
  8
0
 10
-26.999985
 20
-23.199997
 11
-22.839310
 21
-23.199997
  0
LINE
  8
0
 10
-26.499985
 20
-22.699997
 11
-23.339310
 21
-22.699997
  0
LINE
  8
0
 10
-26.499985
 20
-17.200005
 11
-26.499985
 21
-22.699997
  0
LINE
  8
0
 10
-20.241241
 20
-23.199997
 11
-17.195419
 21
-23.199997
  0
LINE
  8
0
 10
-23.339310
 20
-17.200005
 11
-23.339310
 21
-22.699997
  0
LINE
  8
0
 10
-28.499985
 20
-17.700005
 11
-26.999985
 21
-17.700005
  0
LINE
  8
0
 10
-26.999977
 20
-17.699995
 11
-26.499977
 21
-17.199995
  0
LINE
  8
0
 10
-26.499985
 20
-17.200005
 11
-23.339310
 21
-17.200005
  0
LINE
  8
0
 10
-23.339272
 20
-17.199963
 11
-22.839272
 21
-17.699963
  0
LINE
  8
0
 10
-23.339279
 20
-22.699974
 11
-22.839279
 21
-23.199974
  0
LINE
  8
0
 10
-26.999985
 20
-23.200006
 11
-26.499985
 21
-22.700006
  0
LINE
  8
0
 10
-22.839310
 20
-17.700005
 11
-20.241241
 21
-17.700005
  0
LINE
  8
0
 10
-20.741241
 20
-17.200005
 11
-17.695419
 21
-17.200005
  0
LINE
  8
0
 10
-20.241241
 20
-22.699997
 11
-17.695419
 21
-22.699997
  0
LINE
  8
0
 10
-17.695419
 20
-17.200005
 11
-17.695419
 21
-22.699997
  0
LINE
  8
0
 10
-17.195419
 20
-17.700005
 11
-15.695419
 21
-17.700005
  0
LINE
  8
0
 10
-20.741226
 20
-17.199951
 11
-20.241226
 21
-17.699951
  0
LINE
  8
0
 10
-17.695374
 20
-17.199972
 11
-17.195389
 21
-17.699963
  0
LINE
  8
0
 10
-16.195419
 20
-17.200005
 11
-14.999985
 21
-17.200005
  0
LINE
  8
0
 10
-16.195389
 20
-17.199966
 11
-15.695389
 21
-17.699968
  0
LINE
  8
0
 10
-15.695419
 20
-23.199997
 11
-14.499985
 21
-23.199997
  0
LINE
  8
0
 10
-17.695374
 20
-22.699974
 11
-17.195374
 21
-23.199974
  0
LINE
  8
0
 10
-14.999985
 20
-17.200005
 11
-14.999985
 21
-22.699997
  0
LINE
  8
0
 10
-15.695419
 20
-22.699997
 11
-14.999985
 21
-22.699997
  0
LINE
  8
0
 10
-14.999939
 20
-22.699968
 11
-14.499939
 21
-23.199968
  0
LINE
  8
0
 10
-28.499985
 20
-17.700005
 11
-29.999985
 21
-17.700005
  0
LINE
  8
0
 10
-29.999947
 20
-17.699963
 11
-30.499954
 21
-17.199963
  0
LINE
  8
0
 10
-29.999985
 20
-17.700005
 11
-29.999985
 21
-23.199997
  0
LINE
  8
0
 10
-30.499985
 20
-17.200005
 11
-30.499985
 21
-22.699997
  0
LINE
  8
0
 10
-29.999947
 20
-23.199974
 11
-30.499947
 21
-22.699974
  0
LINE
  8
0
 10
-30.499985
 20
-22.699997
 11
-33.660652
 21
-22.699997
  0
LINE
  8
0
 10
-29.999985
 20
-23.199997
 11
-34.160652
 21
-23.199997
  0
LINE
  8
0
 10
-30.499985
 20
-17.200005
 11
-33.660652
 21
-17.200005
  0
LINE
  8
0
 10
-33.660675
 20
-17.199984
 11
-34.160667
 21
-17.699972
  0
LINE
  8
0
 10
-33.660652
 20
-17.200005
 11
-33.660652
 21
-22.699997
  0
LINE
  8
0
 10
-34.160652
 20
-17.700005
 11
-34.160652
 21
-23.199997
  0
LINE
  8
0
 10
-34.160652
 20
-17.700005
 11
-36.758728
 21
-17.700005
  0
LINE
  8
0
 10
-33.660660
 20
-22.699968
 11
-34.160667
 21
-23.199968
  0
LINE
  8
0
 10
-36.258766
 20
-17.199993
 11
-36.758766
 21
-17.699995
  0
LINE
  8
0
 10
-36.258728
 20
-17.200005
 11
-39.304550
 21
-17.200005
  0
LINE
  8
0
 10
-36.758728
 20
-17.700005
 11
-36.758728
 21
-23.199997
  0
LINE
  8
0
 10
-36.758728
 20
-22.699997
 11
-39.304550
 21
-22.699997
  0
LINE
  8
0
 10
-36.758728
 20
-23.199997
 11
-39.804550
 21
-23.199997
  0
LINE
  8
0
 10
-39.304550
 20
-17.200005
 11
-39.304550
 21
-22.699997
  0
LINE
  8
0
 10
-39.304558
 20
-22.699978
 11
-39.804558
 21
-23.199978
  0
LINE
  8
0
 10
-39.804550
 20
-17.700005
 11
-39.804550
 21
-23.199997
  0
LINE
  8
0
 10
-39.304565
 20
-17.199980
 11
-39.804565
 21
-17.699980
  0
LINE
  8
0
 10
-39.804550
 20
-17.700005
 11
-41.304550
 21
-17.700005
  0
LINE
  8
0
 10
-40.804558
 20
-17.199974
 11
-41.304558
 21
-17.699976
  0
LINE
  8
0
 10
-41.999985
 20
-17.200005
 11
-41.999985
 21
-22.699997
  0
LINE
  8
0
 10
-41.304550
 20
-17.700005
 11
-41.304550
 21
-23.199997
  0
LINE
  8
0
 10
-41.304550
 20
-22.699997
 11
-41.999985
 21
-22.699997
  0
LINE
  8
0
 10
-41.304550
 20
-23.199997
 11
-42.499985
 21
-23.199997
  0
LINE
  8
0
 10
-41.999992
 20
-22.699978
 11
-42.499992
 21
-23.199978
  0
LINE
  8
0
 10
-35.449982
 20
-10.650009
 11
-35.449982
 21
-15.700005
  0
LINE
  8
0
 10
-21.549988
 20
-10.650009
 11
-21.549988
 21
-15.700005
  0
LINE
  8
0
 10
-35.699982
 20
-15.700005
 11
-21.299988
 21
-15.700005
  0
LINE
  8
0
 10
-35.699982
 20
-15.700005
 11
-35.699982
 21
-16.700005
  0
LINE
  8
0
 10
-43.249985
 20
-27.118233
 11
-43.249985
 21
-48.803474
  0
LINE
  8
0
 10
-45.249985
 20
-28.500000
 11
-41.249985
 21
-28.500000
  0
LINE
  8
0
 10
-45.249985
 20
-28.500000
 11
-45.249985
 21
-30.000000
  0
LINE
  8
0
 10
-41.249985
 20
-28.500000
 11
-41.249985
 21
-30.000000
  0
LINE
  8
0
 10
-33.000008
 20
-44.999992
 11
-34.000000
 21
-45.999989
  0
LINE
  8
0
 10
-32.999985
 20
-31.000000
 11
-32.999985
 21
-45.000000
  0
LINE
  8
0
 10
-33.999985
 20
-46.000000
 11
-33.999985
 21
-49.000000
  0
LINE
  8
0
 10
-33.999985
 20
-26.374207
 11
-33.999985
 21
-126.491013
  0
LINE
  8
0
 10
-42.399986
 20
-124.500000
 11
-25.599991
 21
-124.500000
  0
LINE
  8
0
 10
-51.849991
 20
-63.000000
 11
-51.849991
 21
-109.999992
  0
LINE
  8
0
 10
-16.149979
 20
-63.000000
 11
-16.149979
 21
-109.999992
  0
LINE
  8
0
 10
-45.499985
 20
-117.999992
 11
-45.499985
 21
-117.999992
  0
LINE
  8
0
 10
-25.599991
 20
-121.100006
 11
-25.599991
 21
-124.500000
  0
LINE
  8
0
 10
-42.399986
 20
-121.100006
 11
-42.399986
 21
-124.500000
  0
LINE
  8
0
 10
-46.176987
 20
-117.654221
 11
-44.598297
 21
-118.134171
  0
LINE
  8
0
 10
-21.822952
 20
-117.654198
 11
-23.401642
 21
-118.134148
  0
LINE
  8
0
 10
-36.499985
 20
-107.999992
 11
-31.499985
 21
-107.999992
  0
LINE
  8
0
 10
-29.999985
 20
-74.499992
 11
-29.999985
 21
-106.500000
  0
LINE
  8
0
 10
-37.999985
 20
-74.499992
 11
-37.999985
 21
-106.500000
  0
LINE
  8
0
 10
-40.218040
 20
-117.999992
 11
-27.888321
 21
-117.999992
  0
LINE
  8
0
 10
-98.300034
 20
-66.000008
 11
-98.300034
 21
-64.000008
  0
LINE
  8
0
 10
-97.299973
 20
-66.000008
 11
-97.299973
 21
-64.000008
  0
LINE
  8
0
 10
-65.700058
 20
-66.000008
 11
-65.700058
 21
-64.000008
  0
LINE
  8
0
 10
-66.699997
 20
-66.000008
 11
-66.699997
 21
-64.000008
  0
LINE
  8
0
 10
-100.999985
 20
-49.000008
 11
-100.999985
 21
-50.000008
  0
LINE
  8
0
 10
-97.299973
 20
-48.999855
 11
-97.299973
 21
-31.000008
  0
LINE
  8
0
 10
-52.999985
 20
-49.000034
 11
-52.999985
 21
-50.000000
  0
LINE
  8
0
 10
-62.999954
 20
-49.000034
 11
-62.999954
 21
-50.000008
  0
LINE
  8
0
 10
-66.699997
 20
-49.000034
 11
-66.699997
 21
-31.000008
  0
LINE
  8
0
 10
-122.499985
 20
-124.500000
 11
-122.499985
 21
-127.500000
  0
LINE
  8
0
 10
-137.499985
 20
-124.500000
 11
-137.499985
 21
-127.500000
  0
LINE
  8
0
 10
-137.499985
 20
-127.500000
 11
-122.499985
 21
-127.500000
  0
LINE
  8
0
 10
-123.999985
 20
-127.500000
 11
-123.999985
 21
-135.500000
  0
LINE
  8
0
 10
-135.999985
 20
-127.500000
 11
-135.999985
 21
-135.500000
  0
LINE
  8
0
 10
-134.999985
 20
-136.500000
 11
-124.999985
 21
-136.500000
  0
LINE
  8
0
 10
-135.999985
 20
-135.500000
 11
-123.999985
 21
-135.500000
  0
LINE
  8
0
 10
-135.999969
 20
-135.499985
 11
-134.999969
 21
-136.499969
  0
LINE
  8
0
 10
-124.999992
 20
-136.500000
 11
-123.999992
 21
-135.499985
  0
LINE
  8
0
 10
-136.799988
 20
-124.500000
 11
-136.799988
 21
-127.500000
  0
LINE
  8
0
 10
-123.199982
 20
-124.500000
 11
-123.199982
 21
-127.500000
  0
LINE
  8
0
 10
-131.926788
 20
-147.000000
 11
-128.073181
 21
-147.000000
  0
LINE
  8
0
 10
-128.073151
 20
-147.000000
 11
-127.649963
 21
-144.599991
  0
LINE
  8
0
 10
-128.073166
 20
-144.599991
 11
-127.649979
 21
-142.199982
  0
LINE
  8
0
 10
-132.349976
 20
-144.600006
 11
-127.649986
 21
-144.600006
  0
LINE
  8
0
 10
-132.349976
 20
-142.199997
 11
-127.649986
 21
-142.199997
  0
LINE
  8
0
 10
-132.999985
 20
-140.000000
 11
-126.999985
 21
-140.000000
  0
LINE
  8
0
 10
-128.073181
 20
-140.000000
 11
-128.073181
 21
-142.199997
  0
LINE
  8
0
 10
-126.999985
 20
-136.500000
 11
-126.999985
 21
-140.000000
  0
LINE
  8
0
 10
-131.926804
 20
-144.600037
 11
-132.349991
 21
-142.200027
  0
LINE
  8
0
 10
-132.999985
 20
-136.500000
 11
-132.999985
 21
-140.000000
  0
LINE
  8
0
 10
-131.926788
 20
-140.000000
 11
-131.926788
 21
-142.199997
  0
LINE
  8
0
 10
-131.926804
 20
-147.000000
 11
-132.349991
 21
-144.600006
  0
ARC
  8
0
 10
-132.499985
 20
-74.499992
 40
1.500000
 50
90.000000
 51
180.000000
  0
ARC
  8
0
 10
-127.499985
 20
-74.499992
 40
1.500000
 50
0.000000
 51
90.000000
  0
ARC
  8
0
 10
-118.499985
 20
-121.100006
 40
3.099996
 50
106.910187
 51
180.000000
  0
ARC
  8
0
 10
-139.849991
 20
-110.000000
 40
8.000000
 50
180.000000
 51
253.089783
  0
ARC
  8
0
 10
-120.149986
 20
-110.000000
 40
7.999999
 50
286.910248
 51
0.000000
  0
ARC
  8
0
 10
-141.499985
 20
-121.100006
 40
3.100006
 50
0.000000
 51
73.089813
  0
ARC
  8
0
 10
-132.499985
 20
-106.500000
 40
1.500000
 50
180.000000
 51
270.000000
  0
ARC
  8
0
 10
-127.499985
 20
-106.500000
 40
1.500000
 50
270.000000
 51
0.000000
  0
CIRCLE
  8
0
 10
-106.000000
 20
-40.000000
 40
4.000000
  0
CIRCLE
  8
0
 10
-106.000000
 20
-40.000000
 40
3.500000
  0
CIRCLE
  8
0
 10
-106.000000
 20
-40.000000
 40
3.100000
  0
CIRCLE
  8
0
 10
-106.000000
 20
-40.000000
 40
1.732050
  0
CIRCLE
  8
0
 10
-106.000000
 20
-71.000031
 40
4.000000
  0
CIRCLE
  8
0
 10
-58.000000
 20
-40.000000
 40
4.000000
  0
CIRCLE
  8
0
 10
-58.000000
 20
-40.000000
 40
3.500000
  0
CIRCLE
  8
0
 10
-58.000000
 20
-40.000000
 40
3.100000
  0
CIRCLE
  8
0
 10
-58.000000
 20
-40.000000
 40
1.732050
  0
CIRCLE
  8
0
 10
-58.000000
 20
-71.000031
 40
4.000000
  0
ARC
  8
0
 10
-77.999985
 20
-40.000008
 40
10.000000
 50
0.000000
 51
64.158051
  0
ARC
  8
0
 10
-77.999985
 20
-40.000008
 40
10.000000
 50
115.841949
 51
241.642288
  0
ARC
  8
0
 10
-77.999985
 20
-40.000008
 40
10.000000
 50
0.000000
 51
64.158051
  0
ARC
  8
0
 10
-87.887375
 20
-46.800026
 40
2.000000
 50
270.000000
 51
34.518036
  0
ARC
  8
0
 10
-68.112625
 20
-46.800026
 40
2.000000
 50
145.481964
 51
270.000000
  0
CIRCLE
  8
0
 10
-77.999985
 20
-40.000008
 40
9.000000
  0
ARC
  8
0
 10
-77.999985
 20
-40.000008
 40
10.000001
 50
298.357666
 51
0.000000
  0
ARC
  8
0
 10
-77.999985
 20
-40.000008
 40
10.000000
 50
115.841949
 51
241.642288
  0
ARC
  8
0
 10
-77.999985
 20
-35.954414
 40
13.695597
 50
249.707809
 51
290.292206
  0
ARC
  8
0
 10
-70.499954
 20
-74.499992
 40
0.500000
 50
90.000000
 51
180.000000
  0
ARC
  8
0
 10
-68.300003
 20
-73.500008
 40
0.500000
 50
270.000000
 51
0.000000
  0
ARC
  8
0
 10
-93.499985
 20
-74.500023
 40
0.500000
 50
0.000000
 51
90.000000
  0
ARC
  8
0
 10
-95.699936
 20
-73.500008
 40
0.500000
 50
180.000000
 51
270.000000
  0
ARC
  8
0
 10
-93.599960
 20
-100.500008
 40
1.000000
 50
180.000000
 51
270.000000
  0
ARC
  8
0
 10
-70.399979
 20
-100.500008
 40
1.000000
 50
270.000000
 51
0.000000
  0
CIRCLE
  8
0
  6
PHANTOM
 10
-77.999985
 20
-40.000008
 40
21.250000
  0
CIRCLE
  8
0
 10
-77.999985
 20
-40.000008
 40
5.722500
  0
CIRCLE
  8
0
 10
-77.999985
 20
-40.000008
 40
6.578500
  0
ARC
  8
0
 10
-36.499985
 20
-74.499992
 40
1.500000
 50
90.000000
 51
180.000000
  0
ARC
  8
0
 10
-31.499985
 20
-74.499992
 40
1.500000
 50
0.000000
 51
90.000000
  0
ARC
  8
0
 10
-28.499985
 20
-15.375000
 40
15.625003
 50
249.390274
 51
290.609680
  0
ARC
  8
0
 10
-28.499985
 20
-10.650009
 40
6.949997
 50
0.000000
 51
179.999969
  0
ARC
  8
0
 10
-22.499985
 20
-121.100006
 40
3.099998
 50
106.910324
 51
180.000000
  0
ARC
  8
0
 10
-43.849991
 20
-109.999992
 40
8.000000
 50
180.000000
 51
253.089737
  0
ARC
  8
0
 10
-24.149979
 20
-109.999992
 40
7.999997
 50
286.910217
 51
0.000000
  0
ARC
  8
0
 10
-45.499985
 20
-121.100006
 40
3.099998
 50
0.000000
 51
73.089813
  0
ARC
  8
0
 10
-36.499985
 20
-106.500000
 40
1.500000
 50
180.000000
 51
270.000000
  0
ARC
  8
0
 10
-31.499985
 20
-106.500000
 40
1.500000
 50
270.000000
 51
0.000000
  0
POINT
  8
0
 10
120.115723
 20
-40.000000
  0
POINT
  8
0
 10
152.115662
 20
-40.000000
  0
LINE
  8
0
 10
102.615662
 20
-45.224030
 11
102.615662
 21
-34.775970
  0
LINE
  8
0
 10
102.615776
 20
-45.223976
 11
103.115730
 21
-45.643486
  0
LINE
  8
0
 10
102.615646
 20
-34.775917
 11
103.115730
 21
-34.356300
  0
LINE
  8
0
 10
101.615662
 20
-43.100006
 11
101.615662
 21
-36.899994
  0
LINE
  8
0
 10
102.015671
 20
-36.500031
 11
102.615646
 21
-36.500031
  0
LINE
  8
0
 10
102.015671
 20
-43.500031
 11
102.615646
 21
-43.500031
  0
LINE
  8
0
 10
102.015671
 20
-43.500011
 11
101.615677
 21
-43.100018
  0
LINE
  8
0
 10
101.615623
 20
-36.900063
 11
102.015617
 21
-36.500072
  0
LINE
  8
0
 10
102.015686
 20
-43.500031
 11
102.015686
 21
-36.500031
  0
LINE
  8
0
 10
133.115723
 20
-30.000000
 11
152.115646
 21
-30.000000
  0
LINE
  8
0
 10
152.115662
 20
-79.000031
 11
152.115662
 21
-30.000000
  0
LINE
  8
0
 10
147.115646
 20
-79.000031
 11
152.115646
 21
-79.000031
  0
LINE
  8
0
 10
146.115723
 20
-78.000000
 11
146.115723
 21
-62.000031
  0
LINE
  8
0
 10
147.115707
 20
-79.000000
 11
146.115707
 21
-77.999985
  0
LINE
  8
0
 10
147.115646
 20
-76.000031
 11
152.115646
 21
-76.000031
  0
LINE
  8
0
 10
140.115738
 20
-54.849342
 11
146.115784
 21
-61.999916
  0
LINE
  8
0
 10
140.115707
 20
-53.293617
 11
147.115799
 21
-61.635994
  0
LINE
  8
0
 10
147.115662
 20
-79.000031
 11
147.115662
 21
-61.636047
  0
LINE
  8
0
 10
146.115646
 20
-62.000061
 11
147.115616
 21
-61.636101
  0
LINE
  8
0
 10
147.115692
 20
-75.999954
 11
146.115692
 21
-75.585739
  0
LINE
  8
0
 10
143.528854
 20
-71.000031
 11
155.195480
 21
-71.000031
  0
LINE
  8
0
 10
120.115723
 20
-2.030258
 11
120.115723
 21
-151.666656
  0
LINE
  8
0
 10
101.115723
 20
-63.000000
 11
139.115723
 21
-63.000000
  0
LINE
  8
0
 10
103.115723
 20
-30.000000
 11
131.115723
 21
-30.000000
  0
LINE
  8
0
 10
140.115723
 20
-50.000000
 11
140.115723
 21
-62.000000
  0
LINE
  8
0
 10
100.115723
 20
-50.000000
 11
100.115723
 21
-62.000000
  0
LINE
  8
0
 10
100.115723
 20
-50.000000
 11
140.115723
 21
-50.000000
  0
LINE
  8
0
 10
132.115723
 20
-31.000008
 11
132.115723
 21
-50.000000
  0
LINE
  8
0
 10
101.115723
 20
-49.000000
 11
108.115723
 21
-49.000000
  0
LINE
  8
0
 10
101.115685
 20
-48.999966
 11
100.115685
 21
-49.999969
  0
LINE
  8
0
 10
139.115692
 20
-49.000023
 11
140.115692
 21
-50.000023
  0
LINE
  8
0
 10
100.115707
 20
-62.000015
 11
101.115707
 21
-63.000011
  0
LINE
  8
0
 10
139.115616
 20
-62.999912
 11
140.115631
 21
-61.999916
  0
LINE
  8
0
 10
132.115723
 20
-49.000000
 11
139.115723
 21
-49.000000
  0
LINE
  8
0
 10
109.115723
 20
-29.999977
 11
108.115723
 21
-30.999977
  0
LINE
  8
0
 10
131.115707
 20
-30.000021
 11
132.115707
 21
-31.000025
  0
LINE
  8
0
 10
106.115723
 20
-31.000000
 11
132.115723
 21
-31.000000
  0
LINE
  8
0
 10
100.115723
 20
-62.000000
 11
140.115723
 21
-62.000000
  0
LINE
  8
0
 10
109.115723
 20
-30.000000
 11
109.115723
 21
-50.000000
  0
LINE
  8
0
 10
131.115723
 20
-30.000000
 11
131.115723
 21
-50.000000
  0
LINE
  8
0
 10
52.048126
 20
-40.000000
 11
161.484589
 21
-40.000000
  0
LINE
  8
0
 10
118.115723
 20
-29.500000
 11
122.115723
 21
-29.500000
  0
LINE
  8
0
 10
122.115723
 20
-29.500000
 11
122.115723
 21
-30.000000
  0
LINE
  8
0
 10
118.115723
 20
-29.500000
 11
118.115723
 21
-30.000000
  0
LINE
  8
0
 10
102.265724
 20
-63.000000
 11
102.265724
 21
-109.999992
  0
LINE
  8
0
 10
137.965714
 20
-63.000000
 11
137.965714
 21
-109.999992
  0
LINE
  8
0
 10
111.715721
 20
-124.499992
 11
128.515717
 21
-124.499992
  0
LINE
  8
0
 10
128.515717
 20
-121.099998
 11
128.515717
 21
-124.499992
  0
LINE
  8
0
 10
111.715721
 20
-121.099998
 11
111.715721
 21
-124.499992
  0
LINE
  8
0
 10
107.938721
 20
-117.654129
 11
109.517426
 21
-118.134087
  0
LINE
  8
0
 10
132.292709
 20
-117.654167
 11
130.714020
 21
-118.134117
  0
LINE
  8
0
 10
117.615723
 20
-72.999992
 11
122.615723
 21
-72.999992
  0
LINE
  8
0
 10
117.615723
 20
-107.999992
 11
122.615723
 21
-107.999992
  0
LINE
  8
0
 10
124.115723
 20
-74.499992
 11
124.115723
 21
-106.500000
  0
LINE
  8
0
 10
116.115723
 20
-74.499992
 11
116.115723
 21
-106.500000
  0
LINE
  8
0
 10
114.034950
 20
-117.999992
 11
126.364670
 21
-117.999992
  0
LINE
  8
0
 10
133.115723
 20
-24.699997
 11
133.115723
 21
-49.000000
  0
LINE
  8
0
 10
106.115723
 20
-24.699997
 11
134.115723
 21
-24.699997
  0
LINE
  8
0
 10
103.115723
 20
-30.000000
 11
103.115723
 21
-49.000000
  0
LINE
  8
0
 10
108.115723
 20
-31.000000
 11
108.115723
 21
-50.000000
  0
LINE
  8
0
 10
106.115723
 20
-31.000000
 11
106.115723
 21
-49.000000
  0
LINE
  8
0
 10
106.115723
 20
-46.000000
 11
108.115723
 21
-46.000000
  0
LINE
  8
0
 10
107.115723
 20
-45.000000
 11
108.115723
 21
-45.000000
  0
LINE
  8
0
 10
106.115715
 20
-45.999996
 11
107.115707
 21
-45.000000
  0
LINE
  8
0
 10
106.615723
 20
-17.200005
 11
107.811150
 21
-17.200005
  0
LINE
  8
0
 10
127.315720
 20
-15.700005
 11
127.315720
 21
-16.700005
  0
LINE
  8
0
 10
107.115723
 20
-16.700005
 11
133.115723
 21
-16.700005
  0
LINE
  8
0
 10
106.115723
 20
-17.700005
 11
106.115723
 21
-24.699997
  0
LINE
  8
0
 10
134.115723
 20
-17.700005
 11
134.115723
 21
-24.699997
  0
LINE
  8
0
 10
106.115723
 20
-17.700010
 11
107.115715
 21
-16.700014
  0
LINE
  8
0
 10
133.115677
 20
-16.700020
 11
134.115677
 21
-17.700022
  0
LINE
  8
0
 10
121.615723
 20
-17.700005
 11
121.615723
 21
-23.199997
  0
LINE
  8
0
 10
125.776390
 20
-17.700005
 11
125.776390
 21
-23.199997
  0
LINE
  8
0
 10
128.374466
 20
-17.700005
 11
128.374466
 21
-23.199997
  0
LINE
  8
0
 10
131.420288
 20
-17.700005
 11
131.420288
 21
-23.199997
  0
LINE
  8
0
 10
132.920288
 20
-17.700005
 11
132.920288
 21
-23.199997
  0
LINE
  8
0
 10
121.615723
 20
-23.199997
 11
125.776390
 21
-23.199997
  0
LINE
  8
0
 10
122.115723
 20
-22.699997
 11
125.276390
 21
-22.699997
  0
LINE
  8
0
 10
122.115723
 20
-17.200005
 11
122.115723
 21
-22.699997
  0
LINE
  8
0
 10
128.374466
 20
-23.199997
 11
131.420288
 21
-23.199997
  0
LINE
  8
0
 10
125.276390
 20
-17.200005
 11
125.276390
 21
-22.699997
  0
LINE
  8
0
 10
120.115723
 20
-17.700005
 11
121.615723
 21
-17.700005
  0
LINE
  8
0
 10
121.615746
 20
-17.700018
 11
122.115746
 21
-17.200016
  0
LINE
  8
0
 10
122.115723
 20
-17.200005
 11
125.276390
 21
-17.200005
  0
LINE
  8
0
 10
125.276428
 20
-17.199949
 11
125.776421
 21
-17.699945
  0
LINE
  8
0
 10
125.276405
 20
-22.699976
 11
125.776405
 21
-23.199976
  0
LINE
  8
0
 10
121.615738
 20
-23.200020
 11
122.115738
 21
-22.700020
  0
LINE
  8
0
 10
125.776390
 20
-17.700005
 11
128.374466
 21
-17.700005
  0
LINE
  8
0
 10
127.874466
 20
-17.200005
 11
130.920288
 21
-17.200005
  0
LINE
  8
0
 10
128.374466
 20
-22.699997
 11
130.920288
 21
-22.699997
  0
LINE
  8
0
 10
130.920288
 20
-17.200005
 11
130.920288
 21
-22.699997
  0
LINE
  8
0
 10
131.420288
 20
-17.700005
 11
132.920288
 21
-17.700005
  0
LINE
  8
0
 10
127.874496
 20
-17.199959
 11
128.374496
 21
-17.699961
  0
LINE
  8
0
 10
130.920319
 20
-17.199949
 11
131.420319
 21
-17.699951
  0
LINE
  8
0
 10
132.420288
 20
-17.200005
 11
133.615723
 21
-17.200005
  0
LINE
  8
0
 10
132.420319
 20
-17.199982
 11
132.920319
 21
-17.699982
  0
LINE
  8
0
 10
132.920288
 20
-23.199997
 11
134.115723
 21
-23.199997
  0
LINE
  8
0
 10
130.920319
 20
-22.699951
 11
131.420319
 21
-23.199951
  0
LINE
  8
0
 10
133.615723
 20
-17.200005
 11
133.615723
 21
-22.699997
  0
LINE
  8
0
 10
132.920288
 20
-22.699997
 11
133.615723
 21
-22.699997
  0
LINE
  8
0
 10
133.615753
 20
-22.699955
 11
134.115753
 21
-23.199957
  0
LINE
  8
0
 10
120.115723
 20
-17.700005
 11
118.615723
 21
-17.700005
  0
LINE
  8
0
 10
118.615753
 20
-17.699951
 11
118.115753
 21
-17.199949
  0
LINE
  8
0
 10
118.615723
 20
-17.700005
 11
118.615723
 21
-23.199997
  0
LINE
  8
0
 10
118.115723
 20
-17.200005
 11
118.115723
 21
-22.699997
  0
LINE
  8
0
 10
118.615761
 20
-23.199955
 11
118.115761
 21
-22.699955
  0
LINE
  8
0
 10
118.115723
 20
-22.699997
 11
114.955055
 21
-22.699997
  0
LINE
  8
0
 10
118.615723
 20
-23.199997
 11
114.455055
 21
-23.199997
  0
LINE
  8
0
 10
118.115723
 20
-17.200005
 11
114.955055
 21
-17.200005
  0
LINE
  8
0
 10
114.955055
 20
-17.200014
 11
114.455063
 21
-17.700003
  0
LINE
  8
0
 10
114.955055
 20
-17.200005
 11
114.955055
 21
-22.699997
  0
LINE
  8
0
 10
114.455055
 20
-17.700005
 11
114.455055
 21
-23.199997
  0
LINE
  8
0
 10
114.455055
 20
-17.700005
 11
111.856979
 21
-17.700005
  0
LINE
  8
0
 10
114.955063
 20
-22.700020
 11
114.455063
 21
-23.200020
  0
LINE
  8
0
 10
112.356987
 20
-17.200005
 11
111.856987
 21
-17.700006
  0
LINE
  8
0
 10
112.356979
 20
-17.200005
 11
109.311157
 21
-17.200005
  0
LINE
  8
0
 10
111.856979
 20
-17.700005
 11
111.856979
 21
-23.199997
  0
LINE
  8
0
 10
111.856979
 20
-22.699997
 11
109.311157
 21
-22.699997
  0
LINE
  8
0
 10
111.856979
 20
-23.199997
 11
108.811157
 21
-23.199997
  0
LINE
  8
0
 10
109.311157
 20
-17.200005
 11
109.311157
 21
-22.699997
  0
LINE
  8
0
 10
109.311188
 20
-22.700010
 11
108.811180
 21
-23.200012
  0
LINE
  8
0
 10
108.811157
 20
-17.700005
 11
108.811157
 21
-23.199997
  0
LINE
  8
0
 10
109.311180
 20
-17.200014
 11
108.811172
 21
-17.700016
  0
LINE
  8
0
 10
108.811157
 20
-17.700005
 11
107.311157
 21
-17.700005
  0
LINE
  8
0
 10
107.811172
 20
-17.199999
 11
107.311172
 21
-17.699999
  0
LINE
  8
0
 10
106.615723
 20
-17.200005
 11
106.615723
 21
-22.699997
  0
LINE
  8
0
 10
107.311157
 20
-17.700005
 11
107.311157
 21
-23.199997
  0
LINE
  8
0
 10
107.311157
 20
-22.699997
 11
106.615723
 21
-22.699997
  0
LINE
  8
0
 10
107.311157
 20
-23.199997
 11
106.115723
 21
-23.199997
  0
LINE
  8
0
 10
106.615715
 20
-22.699999
 11
106.115715
 21
-23.199999
  0
LINE
  8
0
 10
113.165726
 20
-10.650009
 11
113.165726
 21
-15.700005
  0
LINE
  8
0
 10
127.065720
 20
-10.650009
 11
127.065720
 21
-15.700005
  0
LINE
  8
0
 10
112.915726
 20
-15.700005
 11
127.315720
 21
-15.700005
  0
LINE
  8
0
 10
112.915726
 20
-15.700005
 11
112.915726
 21
-16.700005
  0
LINE
  8
0
 10
107.115723
 20
-24.699997
 11
107.115723
 21
-30.000000
  0
LINE
  8
0
 10
104.615723
 20
-28.500000
 11
104.615723
 21
-30.000000
  0
LINE
  8
0
 10
104.615723
 20
-28.500000
 11
107.115723
 21
-28.500000
  0
LINE
  8
0
 10
139.615692
 20
-63.500000
 11
137.965714
 21
-63.500000
  0
LINE
  8
0
 10
100.115723
 20
-30.999939
 11
100.115723
 21
-48.999939
  0
LINE
  8
0
 10
101.115692
 20
-30.999939
 11
101.115692
 21
-49.000000
  0
LINE
  8
0
 10
100.615723
 20
-62.500031
 11
100.615723
 21
-63.499939
  0
LINE
  8
0
 10
101.115692
 20
-63.999954
 11
100.615685
 21
-63.499943
  0
LINE
  8
0
 10
139.115662
 20
-63.999882
 11
139.615662
 21
-63.499882
  0
LINE
  8
0
 10
101.115692
 20
-63.999954
 11
100.615685
 21
-63.499943
  0
LINE
  8
0
 10
139.115692
 20
-63.999943
 11
139.615692
 21
-63.499931
  0
LINE
  8
0
 10
101.415649
 20
-49.000000
 11
101.615707
 21
-48.799942
  0
LINE
  8
0
 10
100.115715
 20
-48.999939
 11
100.615738
 21
-49.499962
  0
LINE
  8
0
 10
103.115723
 20
-48.800003
 11
101.615662
 21
-48.800003
  0
LINE
  8
0
 10
139.615723
 20
-62.499893
 11
139.615723
 21
-63.499924
  0
LINE
  8
0
 10
102.115692
 20
-72.999985
 11
102.265724
 21
-72.999985
  0
LINE
  8
0
 10
139.115723
 20
-65.999924
 11
139.115723
 21
-71.999924
  0
LINE
  8
0
 10
101.115692
 20
-65.999939
 11
101.115692
 21
-71.999939
  0
LINE
  8
0
 10
101.115692
 20
-72.000000
 11
101.280884
 21
-72.000000
  0
LINE
  8
0
 10
101.115662
 20
-67.999985
 11
101.123260
 21
-67.999985
  0
LINE
  8
0
 10
101.115677
 20
-71.999939
 11
102.115677
 21
-72.999939
  0
LINE
  8
0
 10
139.115662
 20
-71.999916
 11
138.115662
 21
-72.999916
  0
LINE
  8
0
 10
102.015472
 20
-68.700012
 11
102.265724
 21
-68.700012
  0
LINE
  8
0
 10
101.280861
 20
-67.999954
 11
102.015488
 21
-68.699966
  0
LINE
  8
0
 10
101.280899
 20
-71.999969
 11
102.015511
 21
-72.699966
  0
LINE
  8
0
 10
102.265724
 20
-72.699997
 11
102.015472
 21
-72.699997
  0
LINE
  8
0
 10
102.015503
 20
-68.699951
 11
102.015503
 21
-72.699951
  0
LINE
  8
0
 10
101.280914
 20
-67.999954
 11
101.280914
 21
-71.999939
  0
LINE
  8
0
 10
101.280884
 20
-67.999985
 11
102.265724
 21
-67.999985
  0
LINE
  8
0
 10
139.115692
 20
-72.000000
 11
138.950470
 21
-72.000000
  0
LINE
  8
0
 10
139.115662
 20
-67.999985
 11
139.108093
 21
-67.999985
  0
LINE
  8
0
 10
138.215881
 20
-68.700012
 11
137.965714
 21
-68.700012
  0
LINE
  8
0
 10
138.950562
 20
-67.999985
 11
138.215958
 21
-68.699982
  0
LINE
  8
0
 10
138.950546
 20
-72.000015
 11
138.215942
 21
-72.700012
  0
LINE
  8
0
 10
137.965714
 20
-72.699997
 11
138.215881
 21
-72.699997
  0
LINE
  8
0
 10
138.215912
 20
-68.699905
 11
138.215912
 21
-72.699905
  0
LINE
  8
0
 10
138.950531
 20
-67.999908
 11
138.950531
 21
-71.999924
  0
LINE
  8
0
 10
138.950470
 20
-67.999985
 11
137.965714
 21
-67.999985
  0
LINE
  8
0
 10
63.115723
 20
-61.000000
 11
83.615692
 21
-61.000000
  0
LINE
  8
0
 10
60.615601
 20
-18.749893
 11
60.115589
 21
-19.249905
  0
LINE
  8
0
 10
60.615662
 20
-61.249958
 11
60.115673
 21
-60.749969
  0
LINE
  8
0
 10
100.115730
 20
-34.277481
 11
94.115730
 21
-34.089977
  0
LINE
  8
0
 10
100.115761
 20
-46.578491
 11
94.115761
 21
-46.765987
  0
LINE
  8
0
 10
94.115723
 20
-33.000000
 11
94.115723
 21
-46.999985
  0
LINE
  8
0
 10
100.115707
 20
-33.421494
 11
94.115707
 21
-33.233994
  0
LINE
  8
0
 10
100.115730
 20
-45.722500
 11
94.115723
 21
-45.909996
  0
LINE
  8
0
 10
63.115723
 20
-19.000000
 11
83.615723
 21
-19.000000
  0
LINE
  8
0
 10
60.115723
 20
-19.250000
 11
60.115723
 21
-60.749985
  0
LINE
  8
0
 10
60.615723
 20
-61.250000
 11
63.115723
 21
-61.250000
  0
LINE
  8
0
 10
60.615723
 20
-18.750000
 11
60.615723
 21
-61.250000
  0
LINE
  8
0
 10
86.615723
 20
-21.999969
 11
86.615723
 21
-57.999985
  0
LINE
  8
0
 10
63.115723
 20
-18.750000
 11
63.115723
 21
-61.250000
  0
LINE
  8
0
 10
94.115723
 20
-47.000000
 11
86.615692
 21
-47.000000
  0
LINE
  8
0
 10
94.115723
 20
-33.000000
 11
86.615692
 21
-33.000000
  0
LINE
  8
0
 10
94.115707
 20
-46.999973
 11
86.615730
 21
-32.999992
  0
LINE
  8
0
 10
86.615715
 20
-46.999977
 11
94.115715
 21
-32.999981
  0
LINE
  8
0
 10
60.615723
 20
-18.750000
 11
63.115723
 21
-18.750000
  0
LINE
  8
0
 10
60.615761
 20
-18.750040
 11
60.115761
 21
-19.250042
  0
LINE
  8
0
 10
102.265724
 20
-63.500000
 11
100.615662
 21
-63.500000
  0
LINE
  8
0
 10
139.115723
 20
-63.999969
 11
137.965714
 21
-63.999969
  0
LINE
  8
0
 10
101.115692
 20
-65.999939
 11
102.265724
 21
-65.999939
  0
LINE
  8
0
 10
103.115723
 20
-31.000000
 11
100.115662
 21
-31.000000
  0
LINE
  8
0
 10
102.265724
 20
-63.999969
 11
101.115662
 21
-63.999969
  0
LINE
  8
0
 10
137.965714
 20
-65.999939
 11
139.115723
 21
-65.999939
  0
LINE
  8
0
 10
137.965714
 20
-72.999985
 11
138.115662
 21
-72.999985
  0
LINE
  8
0
 10
63.115723
 20
-40.000000
 11
60.615723
 21
-40.000000
  0
LINE
  8
0
 10
63.115723
 20
-43.000000
 11
60.615723
 21
-43.000000
  0
LINE
  8
0
 10
63.115723
 20
-37.000000
 11
60.615723
 21
-37.000000
  0
LINE
  8
0
 10
63.115723
 20
-46.000000
 11
60.615723
 21
-46.000000
  0
LINE
  8
0
 10
63.115723
 20
-34.000000
 11
60.615723
 21
-34.000000
  0
LINE
  8
0
 10
63.115723
 20
-49.000000
 11
60.615723
 21
-49.000000
  0
LINE
  8
0
 10
63.115723
 20
-31.000000
 11
60.615723
 21
-31.000000
  0
LINE
  8
0
 10
63.115723
 20
-52.000000
 11
60.615723
 21
-52.000000
  0
LINE
  8
0
 10
63.115723
 20
-28.000000
 11
60.615723
 21
-28.000000
  0
LINE
  8
0
 10
63.115723
 20
-55.000000
 11
60.615723
 21
-55.000000
  0
LINE
  8
0
 10
63.115723
 20
-25.000000
 11
60.615723
 21
-25.000000
  0
LINE
  8
0
 10
63.115723
 20
-58.000000
 11
60.615723
 21
-58.000000
  0
LINE
  8
0
 10
63.115723
 20
-22.000000
 11
60.615723
 21
-22.000000
  0
LINE
  8
0
 10
63.115723
 20
-61.000000
 11
60.615723
 21
-61.000000
  0
LINE
  8
0
 10
63.115723
 20
-19.000000
 11
60.615723
 21
-19.000000
  0
LINE
  8
0
 10
127.615723
 20
-124.499992
 11
127.615723
 21
-127.499992
  0
LINE
  8
0
 10
112.615723
 20
-124.499992
 11
112.615723
 21
-127.499992
  0
LINE
  8
0
 10
112.615723
 20
-127.499992
 11
127.615723
 21
-127.499992
  0
LINE
  8
0
 10
126.115723
 20
-127.499992
 11
126.115723
 21
-135.499985
  0
LINE
  8
0
 10
114.115723
 20
-127.499992
 11
114.115723
 21
-135.499985
  0
LINE
  8
0
 10
115.115723
 20
-136.499985
 11
125.115723
 21
-136.499985
  0
LINE
  8
0
 10
114.115723
 20
-135.499985
 11
126.115723
 21
-135.499985
  0
LINE
  8
0
 10
114.115738
 20
-135.500000
 11
115.115730
 21
-136.500000
  0
LINE
  8
0
 10
125.115730
 20
-136.499985
 11
126.115730
 21
-135.499985
  0
LINE
  8
0
 10
113.315720
 20
-124.499992
 11
113.315720
 21
-127.499992
  0
LINE
  8
0
 10
126.915726
 20
-124.499992
 11
126.915726
 21
-127.499992
  0
LINE
  8
0
 10
118.188919
 20
-146.999985
 11
122.042534
 21
-146.999985
  0
LINE
  8
0
 10
122.042557
 20
-146.999985
 11
122.465736
 21
-144.599976
  0
LINE
  8
0
 10
122.042542
 20
-144.599991
 11
122.465721
 21
-142.199982
  0
LINE
  8
0
 10
117.765732
 20
-144.599991
 11
122.465721
 21
-144.599991
  0
LINE
  8
0
 10
117.765732
 20
-142.199982
 11
122.465721
 21
-142.199982
  0
LINE
  8
0
 10
117.115723
 20
-139.999985
 11
123.115723
 21
-139.999985
  0
LINE
  8
0
 10
122.042534
 20
-139.999985
 11
122.042534
 21
-142.199982
  0
LINE
  8
0
 10
123.115723
 20
-136.499985
 11
123.115723
 21
-139.999985
  0
LINE
  8
0
 10
118.188896
 20
-144.600006
 11
117.765709
 21
-142.200012
  0
LINE
  8
0
 10
117.115723
 20
-136.499985
 11
117.115723
 21
-139.999985
  0
LINE
  8
0
 10
118.188919
 20
-139.999985
 11
118.188919
 21
-142.199982
  0
LINE
  8
0
 10
118.188904
 20
-147.000000
 11
117.765717
 21
-144.599991
  0
CIRCLE
  8
0
 10
120.115723
 20
-40.000000
 40
8.000000
  0
ARC
  8
0
 10
108.615723
 20
-121.099998
 40
3.099998
 50
0.000000
 51
73.089676
  0
ARC
  8
0
 10
131.615723
 20
-121.099998
 40
3.100000
 50
106.910454
 51
180.000000
  0
ARC
  8
0
 10
110.265724
 20
-109.999992
 40
8.000000
 50
180.000000
 51
253.089737
  0
ARC
  8
0
 10
129.965729
 20
-109.999992
 40
8.000001
 50
286.910309
 51
0.000000
  0
ARC
  8
0
 10
117.615723
 20
-74.499992
 40
1.500000
 50
90.000000
 51
180.000000
  0
ARC
  8
0
 10
122.615723
 20
-74.499992
 40
1.500000
 50
0.000000
 51
90.000000
  0
ARC
  8
0
 10
117.615723
 20
-106.500000
 40
1.500000
 50
180.000000
 51
270.000000
  0
ARC
  8
0
 10
122.615723
 20
-106.500000
 40
1.500000
 50
270.000000
 51
0.000000
  0
ARC
  8
0
 10
120.115723
 20
-10.650009
 40
6.949997
 50
0.000000
 51
179.999969
  0
CIRCLE
  8
0
 10
120.115723
 20
-40.000000
 40
4.283000
  0
CIRCLE
  8
0
 10
120.115723
 20
-40.000000
 40
4.864000
  0
ARC
  8
0
 10
83.615753
 20
-22.000000
 40
3.000000
 50
0.000000
 51
90.000000
  0
ARC
  8
0
 10
83.615692
 20
-57.999985
 40
3.000000
 50
270.000000
 51
0.000000
  0
POINT
  8
0
 10
-149.999985
 20
97.333336
  0
POINT
  8
0
 10
-13.999985
 20
97.333336
  0
LINE
  8
0
 10
-62.999954
 20
85.333366
 11
-52.999985
 21
85.333366
  0
LINE
  8
0
 10
-66.699997
 20
84.333366
 11
-49.299973
 21
84.333366
  0
LINE
  8
0
 10
-64.101913
 20
79.833336
 11
-51.898056
 21
79.833336
  0
LINE
  8
0
 10
-66.699997
 20
129.333374
 11
-66.699997
 21
109.333366
  0
LINE
  8
0
 10
-49.299973
 20
129.333374
 11
-49.299973
 21
109.333366
  0
LINE
  8
0
 10
-66.700035
 20
84.333412
 11
-64.101952
 21
79.833405
  0
LINE
  8
0
 10
-51.898087
 20
79.833443
 11
-49.300018
 21
84.333427
  0
LINE
  8
0
 10
-57.999985
 20
131.817932
 11
-57.999985
 21
76.626884
  0
LINE
  8
0
 10
-61.099960
 20
78.833366
 11
-54.900009
 21
78.833366
  0
LINE
  8
0
 10
-54.499985
 20
79.833366
 11
-54.499985
 21
79.233391
  0
LINE
  8
0
 10
-61.499985
 20
79.833366
 11
-61.499985
 21
79.233391
  0
LINE
  8
0
 10
-61.499969
 20
79.233391
 11
-61.099937
 21
78.833359
  0
LINE
  8
0
 10
-54.899864
 20
78.833229
 11
-54.499863
 21
79.233231
  0
LINE
  8
0
 10
-61.499985
 20
79.233360
 11
-54.499985
 21
79.233360
  0
LINE
  8
0
 10
-66.699997
 20
129.333374
 11
-49.299973
 21
129.333374
  0
LINE
  8
0
 10
-65.699936
 20
123.333366
 11
-50.300034
 21
123.333366
  0
LINE
  8
0
 10
-66.699997
 20
124.333366
 11
-49.299973
 21
124.333366
  0
LINE
  8
0
 10
-62.999954
 20
109.333366
 11
-61.999985
 21
109.333366
  0
LINE
  8
0
 10
-53.999985
 20
109.333366
 11
-52.999985
 21
109.333366
  0
LINE
  8
0
 10
-66.699997
 20
85.333366
 11
-66.699997
 21
84.333366
  0
LINE
  8
0
 10
-49.299973
 20
85.333366
 11
-49.299973
 21
84.333366
  0
LINE
  8
0
 10
-61.999985
 20
109.333366
 11
-61.999985
 21
108.333336
  0
LINE
  8
0
 10
-53.999985
 20
109.333366
 11
-53.999985
 21
108.333328
  0
LINE
  8
0
 10
-65.699936
 20
113.264366
 11
-50.300034
 21
113.264366
  0
LINE
  8
0
 10
-65.699936
 20
123.333366
 11
-65.699936
 21
109.333366
  0
LINE
  8
0
 10
-50.299911
 20
123.333366
 11
-50.299911
 21
109.333366
  0
LINE
  8
0
 10
-65.699928
 20
123.333298
 11
-66.699951
 21
124.333313
  0
LINE
  8
0
 10
-50.299911
 20
123.333382
 11
-49.299919
 21
124.333374
  0
LINE
  8
0
 10
-63.699997
 20
129.333374
 11
-63.699997
 21
124.333366
  0
LINE
  8
0
 10
-52.299973
 20
129.333374
 11
-52.299973
 21
124.333366
  0
LINE
  8
0
 10
-63.699989
 20
124.333397
 11
-63.285782
 21
123.333389
  0
LINE
  8
0
 10
-52.299919
 20
124.333298
 11
-52.714142
 21
123.333290
  0
LINE
  8
0
 10
-66.699959
 20
113.730270
 11
-65.699944
 21
113.264259
  0
LINE
  8
0
 10
-50.299873
 20
113.264130
 11
-49.299858
 21
113.730141
  0
LINE
  8
0
 10
-110.999916
 20
85.333366
 11
-100.999985
 21
85.333366
  0
LINE
  8
0
 10
-114.700012
 20
84.333366
 11
-97.299988
 21
84.333366
  0
LINE
  8
0
 10
-112.101929
 20
79.833336
 11
-99.898071
 21
79.833336
  0
LINE
  8
0
 10
-114.700012
 20
129.333374
 11
-114.700012
 21
109.333366
  0
LINE
  8
0
 10
-97.299988
 20
129.333374
 11
-97.299988
 21
109.333366
  0
LINE
  8
0
 10
-114.700043
 20
84.333412
 11
-112.101959
 21
79.833405
  0
LINE
  8
0
 10
-99.898102
 20
79.833458
 11
-97.300034
 21
84.333443
  0
LINE
  8
0
 10
-106.000000
 20
131.817932
 11
-106.000000
 21
76.626884
  0
LINE
  8
0
 10
-109.099976
 20
78.833366
 11
-102.900024
 21
78.833366
  0
LINE
  8
0
 10
-102.500000
 20
79.833366
 11
-102.500000
 21
79.233391
  0
LINE
  8
0
 10
-109.500000
 20
79.833366
 11
-109.500000
 21
79.233391
  0
LINE
  8
0
 10
-109.499992
 20
79.233391
 11
-109.099960
 21
78.833351
  0
LINE
  8
0
 10
-102.899879
 20
78.833237
 11
-102.499878
 21
79.233231
  0
LINE
  8
0
 10
-109.500000
 20
79.233360
 11
-102.500000
 21
79.233360
  0
LINE
  8
0
 10
-114.700012
 20
129.333374
 11
-97.299988
 21
129.333374
  0
LINE
  8
0
 10
-113.699951
 20
123.333366
 11
-98.300049
 21
123.333366
  0
LINE
  8
0
 10
-114.700012
 20
124.333366
 11
-97.299988
 21
124.333366
  0
LINE
  8
0
 10
-110.999992
 20
109.333366
 11
-110.000000
 21
109.333366
  0
LINE
  8
0
 10
-102.000000
 20
109.333366
 11
-100.999985
 21
109.333366
  0
LINE
  8
0
 10
-114.700012
 20
85.333366
 11
-114.700012
 21
84.333366
  0
LINE
  8
0
 10
-97.299988
 20
85.333366
 11
-97.299988
 21
84.333366
  0
LINE
  8
0
 10
-110.000000
 20
109.333366
 11
-110.000000
 21
108.333366
  0
LINE
  8
0
 10
-102.000000
 20
109.333366
 11
-102.000000
 21
108.333336
  0
LINE
  8
0
 10
-113.699951
 20
113.264366
 11
-98.300049
 21
113.264366
  0
LINE
  8
0
 10
-113.699951
 20
123.333366
 11
-113.699951
 21
109.333366
  0
LINE
  8
0
 10
-98.299927
 20
123.333366
 11
-98.299927
 21
109.333366
  0
LINE
  8
0
 10
-113.699921
 20
123.333282
 11
-114.699951
 21
124.333305
  0
LINE
  8
0
 10
-98.299919
 20
123.333366
 11
-97.299927
 21
124.333359
  0
LINE
  8
0
 10
-111.700012
 20
129.333374
 11
-111.700012
 21
124.333366
  0
LINE
  8
0
 10
-100.299988
 20
129.333374
 11
-100.299988
 21
124.333366
  0
LINE
  8
0
 10
-111.699997
 20
124.333374
 11
-111.285797
 21
123.333366
  0
LINE
  8
0
 10
-100.299942
 20
124.333298
 11
-100.714157
 21
123.333298
  0
LINE
  8
0
 10
-114.699951
 20
113.730270
 11
-113.699936
 21
113.264252
  0
LINE
  8
0
 10
-98.299881
 20
113.264114
 11
-97.299858
 21
113.730125
  0
LINE
  8
0
 10
-129.999985
 20
119.603294
 11
-129.999985
 21
74.735527
  0
LINE
  8
0
 10
-148.999985
 20
109.333366
 11
-110.999985
 21
109.333366
  0
LINE
  8
0
 10
-148.999985
 20
85.333336
 11
-110.999985
 21
85.333336
  0
LINE
  8
0
 10
-109.999985
 20
108.333366
 11
-109.999985
 21
86.333366
  0
LINE
  8
0
 10
-149.999985
 20
108.333366
 11
-149.999985
 21
86.333366
  0
LINE
  8
0
 10
-149.999924
 20
108.333260
 11
-148.999908
 21
109.333267
  0
LINE
  8
0
 10
-149.999954
 20
86.333435
 11
-148.999969
 21
85.333458
  0
LINE
  8
0
 10
-110.999893
 20
85.333275
 11
-109.999908
 21
86.333267
  0
LINE
  8
0
 10
-111.000000
 20
109.333351
 11
-110.000023
 21
108.333374
  0
LINE
  8
0
 10
-149.999985
 20
108.333336
 11
-109.999985
 21
108.333336
  0
LINE
  8
0
 10
-149.999985
 20
86.333366
 11
-109.999985
 21
86.333366
  0
LINE
  8
0
 10
-148.999985
 20
109.333366
 11
-148.999985
 21
85.333336
  0
LINE
  8
0
 10
-110.999985
 20
109.333366
 11
-110.999985
 21
85.333336
  0
LINE
  8
0
 10
-147.499985
 20
99.333366
 11
-147.499985
 21
95.333336
  0
LINE
  8
0
 10
-147.499939
 20
95.333336
 11
-142.004990
 21
97.333336
  0
LINE
  8
0
 10
-147.500015
 20
99.333336
 11
-142.005066
 21
97.333344
  0
LINE
  8
0
 10
-81.999985
 20
125.673309
 11
-81.999985
 21
75.050682
  0
LINE
  8
0
 10
-157.633514
 20
97.333336
 11
-9.734726
 21
97.333336
  0
LINE
  8
0
 10
-84.707954
 20
107.271317
 11
-84.500465
 21
108.045662
  0
LINE
  8
0
 10
-90.026909
 20
104.854736
 11
-89.252533
 21
104.647240
  0
LINE
  8
0
 10
-92.526924
 20
94.142212
 11
-91.960037
 21
94.709091
  0
LINE
  8
0
 10
-91.960098
 20
99.957527
 11
-92.526978
 21
100.524406
  0
LINE
  8
0
 10
-84.500015
 20
86.621246
 11
-84.707497
 21
87.395569
  0
LINE
  8
0
 10
-89.252640
 20
90.019760
 11
-90.026962
 21
89.812279
  0
LINE
  8
0
 10
-73.972946
 20
89.812347
 11
-74.747322
 21
90.019844
  0
LINE
  8
0
 10
-79.292679
 20
87.395599
 11
-79.500168
 21
86.621231
  0
LINE
  8
0
 10
-71.473251
 20
100.524628
 11
-72.040123
 21
99.957756
  0
LINE
  8
0
 10
-72.039978
 20
94.709282
 11
-71.473091
 21
94.142395
  0
LINE
  8
0
 10
-79.500298
 20
108.045418
 11
-79.292809
 21
107.271065
  0
LINE
  8
0
 10
-74.747452
 20
104.647354
 11
-73.973076
 21
104.854851
  0
LINE
  8
0
 10
-100.999985
 20
85.333336
 11
-62.999954
 21
85.333336
  0
LINE
  8
0
 10
-100.999985
 20
109.333397
 11
-62.999954
 21
109.333397
  0
LINE
  8
0
 10
-61.999985
 20
108.333336
 11
-61.999985
 21
86.333366
  0
LINE
  8
0
 10
-101.999985
 20
108.333336
 11
-101.999985
 21
86.333366
  0
LINE
  8
0
 10
-102.000023
 20
86.333450
 11
-100.999954
 21
85.333389
  0
LINE
  8
0
 10
-102.000092
 20
108.333420
 11
-101.000084
 21
109.333427
  0
LINE
  8
0
 10
-62.999977
 20
109.333382
 11
-61.999954
 21
108.333359
  0
LINE
  8
0
 10
-62.999893
 20
85.333298
 11
-61.999893
 21
86.333298
  0
LINE
  8
0
 10
-77.999954
 20
120.245522
 11
-77.999954
 21
107.909050
  0
LINE
  8
0
 10
-67.999954
 20
116.333366
 11
-67.999954
 21
109.333397
  0
LINE
  8
0
 10
-87.999954
 20
116.333366
 11
-87.999954
 21
109.333397
  0
LINE
  8
0
 10
-86.999985
 20
117.333336
 11
-68.999985
 21
117.333336
  0
LINE
  8
0
 10
-86.999985
 20
77.333336
 11
-68.999985
 21
77.333336
  0
LINE
  8
0
 10
-87.999939
 20
78.333374
 11
-86.999954
 21
77.333397
  0
LINE
  8
0
 10
-68.999847
 20
77.333267
 11
-67.999847
 21
78.333267
  0
LINE
  8
0
 10
-87.999733
 20
116.333099
 11
-86.999733
 21
117.333099
  0
LINE
  8
0
 10
-69.000023
 20
117.333336
 11
-68.000000
 21
116.333313
  0
LINE
  8
0
 10
-87.999954
 20
85.333336
 11
-87.999954
 21
78.333336
  0
LINE
  8
0
 10
-67.999954
 20
85.333336
 11
-67.999954
 21
78.333336
  0
LINE
  8
0
 10
-100.999985
 20
109.333397
 11
-100.999985
 21
85.333336
  0
LINE
  8
0
 10
-62.999954
 20
85.333336
 11
-62.999954
 21
109.333397
  0
LINE
  8
0
 10
-87.999954
 20
78.333336
 11
-67.999954
 21
78.333336
  0
LINE
  8
0
 10
-101.999985
 20
108.333336
 11
-61.999985
 21
108.333336
  0
LINE
  8
0
 10
-101.999985
 20
86.333366
 11
-61.999985
 21
86.333366
  0
LINE
  8
0
 10
-87.999954
 20
116.333366
 11
-67.999954
 21
116.333366
  0
LINE
  8
0
 10
-77.999954
 20
87.013298
 11
-77.999954
 21
34.221886
  0
LINE
  8
0
 10
-56.999924
 20
40.333366
 11
-56.999924
 21
60.833336
  0
LINE
  8
0
 10
-99.250076
 20
37.833229
 11
-98.750092
 21
37.333241
  0
LINE
  8
0
 10
-56.749969
 20
37.833340
 11
-57.249962
 21
37.333347
  0
LINE
  8
0
 10
-83.722458
 20
77.333359
 11
-83.909950
 21
71.333359
  0
LINE
  8
0
 10
-71.421471
 20
77.333412
 11
-71.233971
 21
71.333435
  0
LINE
  8
0
 10
-84.999924
 20
71.333366
 11
-70.999954
 21
71.333366
  0
LINE
  8
0
 10
-84.578445
 20
77.333366
 11
-84.765945
 21
71.333397
  0
LINE
  8
0
 10
-72.277489
 20
77.333344
 11
-72.089989
 21
71.333374
  0
LINE
  8
0
 10
-98.999954
 20
40.333366
 11
-98.999954
 21
60.833366
  0
LINE
  8
0
 10
-98.749893
 20
37.333366
 11
-57.249924
 21
37.333366
  0
LINE
  8
0
 10
-56.749954
 20
37.833366
 11
-56.749954
 21
40.333366
  0
LINE
  8
0
 10
-99.249924
 20
37.833336
 11
-56.749924
 21
37.833336
  0
LINE
  8
0
 10
-95.999985
 20
63.833366
 11
-59.999985
 21
63.833366
  0
LINE
  8
0
 10
-99.249924
 20
40.333336
 11
-56.749924
 21
40.333336
  0
LINE
  8
0
 10
-70.999954
 20
71.333366
 11
-70.999954
 21
63.833336
  0
LINE
  8
0
 10
-84.999924
 20
71.333366
 11
-84.999924
 21
63.833336
  0
LINE
  8
0
 10
-71.000023
 20
71.333412
 11
-85.000000
 21
63.833424
  0
LINE
  8
0
 10
-70.999931
 20
63.833355
 11
-84.999939
 21
71.333351
  0
LINE
  8
0
 10
-99.249954
 20
37.833366
 11
-99.249954
 21
40.333366
  0
LINE
  8
0
 10
-99.249847
 20
37.833366
 11
-98.749863
 21
37.333378
  0
LINE
  8
0
 10
-83.396355
 20
119.003334
 11
-72.603554
 21
119.003334
  0
LINE
  8
0
 10
-84.608749
 20
118.303375
 11
-83.396355
 21
119.003349
  0
LINE
  8
0
 10
-72.603554
 20
119.003349
 11
-71.391151
 21
118.303368
  0
LINE
  8
0
 10
-84.608749
 20
118.303375
 11
-84.578453
 21
117.333344
  0
LINE
  8
0
 10
-71.391151
 20
118.303352
 11
-71.421448
 21
117.333336
  0
LINE
  8
0
 10
-83.768005
 20
118.788780
 11
-83.722504
 21
117.333328
  0
LINE
  8
0
 10
-72.231964
 20
118.788803
 11
-72.277466
 21
117.333344
  0
LINE
  8
0
 10
-84.608749
 20
118.303360
 11
-71.391159
 21
118.303360
  0
LINE
  8
0
 10
-110.000000
 20
86.333282
 11
-110.000000
 21
85.333366
  0
LINE
  8
0
 10
-102.000000
 20
86.333366
 11
-102.000000
 21
85.333366
  0
LINE
  8
0
 10
-61.999985
 20
86.333366
 11
-61.999985
 21
85.333366
  0
LINE
  8
0
 10
-53.999985
 20
108.333328
 11
-37.160240
 21
108.333328
  0
LINE
  8
0
 10
-52.999985
 20
109.333328
 11
-35.711090
 21
109.333328
  0
LINE
  8
0
 10
-53.999985
 20
86.333328
 11
-48.453346
 21
86.333328
  0
LINE
  8
0
 10
-52.999985
 20
85.333328
 11
-48.499985
 21
85.333328
  0
LINE
  8
0
 10
-52.999985
 20
109.333328
 11
-52.999985
 21
85.333328
  0
LINE
  8
0
 10
-53.999985
 20
108.333328
 11
-53.999985
 21
86.333328
  0
LINE
  8
0
 10
-13.999985
 20
108.333328
 11
-13.999985
 21
86.333328
  0
LINE
  8
0
 10
-14.999985
 20
109.333328
 11
-14.999985
 21
101.041435
  0
LINE
  8
0
 10
-53.999962
 20
108.333298
 11
-52.999962
 21
109.333298
  0
LINE
  8
0
 10
-13.999985
 20
108.333344
 11
-14.999969
 21
109.333344
  0
LINE
  8
0
 10
-14.999985
 20
85.333328
 11
-13.999985
 21
86.333328
  0
LINE
  8
0
 10
-52.999992
 20
85.333321
 11
-53.999992
 21
86.333328
  0
LINE
  8
0
 10
-19.839737
 20
86.333328
 11
-13.999985
 21
86.333328
  0
LINE
  8
0
 10
-21.288879
 20
85.333328
 11
-14.999985
 21
85.333328
  0
LINE
  8
0
 10
-21.288879
 20
109.333328
 11
-14.999985
 21
109.333328
  0
LINE
  8
0
 10
-19.839737
 20
108.333328
 11
-13.999985
 21
108.333328
  0
LINE
  8
0
 10
-14.999985
 20
93.625221
 11
-14.999985
 21
85.333328
  0
LINE
  8
0
 10
-38.046623
 20
86.333328
 11
-37.160240
 21
86.333328
  0
LINE
  8
0
 10
-37.999985
 20
85.333328
 11
-35.711090
 21
85.333328
  0
LINE
  8
0
 10
-43.249985
 20
94.589577
 11
-43.249985
 21
76.589577
  0
LINE
  8
0
 10
-52.249985
 20
85.589577
 11
-34.249985
 21
85.589577
  0
LINE
  8
0
 10
-28.499985
 20
114.833328
 11
-28.499985
 21
79.833328
  0
LINE
  8
0
 10
-33.999985
 20
119.833336
 11
-33.999985
 21
74.833336
  0
LINE
  8
0
 10
-53.999985
 20
86.333328
 11
-53.999985
 21
85.333366
  0
LINE
  8
0
 10
-77.999954
 20
40.333336
 11
-77.999954
 21
37.833336
  0
LINE
  8
0
 10
-80.999954
 20
40.333336
 11
-80.999954
 21
37.833336
  0
LINE
  8
0
 10
-74.999954
 20
40.333336
 11
-74.999954
 21
37.833336
  0
LINE
  8
0
 10
-71.999954
 20
40.333336
 11
-71.999954
 21
37.833336
  0
LINE
  8
0
 10
-83.999954
 20
40.333336
 11
-83.999954
 21
37.833336
  0
LINE
  8
0
 10
-68.999954
 20
40.333336
 11
-68.999954
 21
37.833336
  0
LINE
  8
0
 10
-86.999954
 20
40.333336
 11
-86.999954
 21
37.833336
  0
LINE
  8
0
 10
-65.999954
 20
40.333336
 11
-65.999954
 21
37.833336
  0
LINE
  8
0
 10
-89.999954
 20
40.333336
 11
-89.999954
 21
37.833336
  0
LINE
  8
0
 10
-62.999954
 20
40.333336
 11
-62.999954
 21
37.833336
  0
LINE
  8
0
 10
-92.999954
 20
40.333336
 11
-92.999954
 21
37.833336
  0
LINE
  8
0
 10
-59.999954
 20
40.333336
 11
-59.999954
 21
37.833336
  0
LINE
  8
0
 10
-95.999954
 20
40.333336
 11
-95.999954
 21
37.833336
  0
LINE
  8
0
 10
-56.999954
 20
40.333336
 11
-56.999954
 21
37.833336
  0
LINE
  8
0
 10
-98.999954
 20
40.333336
 11
-98.999954
 21
37.833336
  0
ARC
  8
0
 10
-129.999985
 20
97.333336
 40
20.000000
 50
40.093128
 51
143.130127
  0
ARC
  8
0
 10
-129.999985
 20
97.333336
 40
19.999996
 50
216.869873
 51
319.906860
  0
ARC
  8
0
 10
-129.999985
 20
97.333336
 40
19.000000
 50
39.166714
 51
140.833313
  0
ARC
  8
0
 10
-129.999985
 20
97.333336
 40
19.000000
 50
219.166687
 51
320.833282
  0
ARC
  8
0
 10
-129.999985
 20
97.333336
 40
14.500001
 50
55.851570
 51
124.148453
  0
ARC
  8
0
 10
-129.999985
 20
97.333336
 40
13.500002
 50
62.733944
 51
117.266060
  0
ARC
  8
0
 10
-129.999985
 20
97.333336
 40
14.500005
 50
235.851547
 51
304.148437
  0
ARC
  8
0
 10
-129.999985
 20
97.333336
 40
13.500002
 50
242.733948
 51
297.266052
  0
CIRCLE
  8
0
 10
-81.999985
 20
97.333336
 40
11.000000
  0
ARC
  8
0
 10
-81.999985
 20
97.333336
 40
10.300000
 50
105.240013
 51
134.760010
  0
ARC
  8
0
 10
-81.999985
 20
97.333336
 40
10.299998
 50
165.240005
 51
194.760040
  0
ARC
  8
0
 10
-81.999985
 20
97.333336
 40
10.300003
 50
225.240051
 51
254.760025
  0
ARC
  8
0
 10
-81.999985
 20
97.333336
 40
10.300003
 50
285.240051
 51
314.760010
  0
ARC
  8
0
 10
-81.999985
 20
97.333336
 40
10.300004
 50
345.240051
 51
14.760040
  0
ARC
  8
0
 10
-81.999985
 20
97.333336
 40
10.299998
 50
45.240017
 51
74.760033
  0
CIRCLE
  8
0
 10
-81.999985
 20
97.333336
 40
10.000000
  0
CIRCLE
  8
0
 10
-81.999985
 20
97.333336
 40
8.500000
  0
CIRCLE
  8
0
 10
-81.999985
 20
97.333336
 40
6.500000
  0
CIRCLE
  8
0
 10
-81.999985
 20
97.333336
 40
2.500000
  0
ARC
  8
0
 10
-81.999985
 20
97.333336
 40
19.500004
 50
37.979866
 51
44.114609
  0
ARC
  8
0
 10
-81.999985
 20
97.333336
 40
18.500000
 50
108.924644
 51
139.560211
  0
ARC
  8
0
 10
-81.999985
 20
97.333336
 40
18.500002
 50
220.439789
 51
251.075363
  0
ARC
  8
0
 10
-81.999985
 20
97.333336
 40
19.499998
 50
217.979843
 51
252.079788
  0
ARC
  8
0
 10
-81.999985
 20
97.333336
 40
19.499996
 50
315.885376
 51
322.020142
  0
ARC
  8
0
 10
-81.999985
 20
97.333336
 40
19.500002
 50
107.920212
 51
142.020157
  0
ARC
  8
0
 10
-59.999954
 20
60.833336
 40
3.000000
 50
0.000073
 51
90.000000
  0
ARC
  8
0
 10
-95.999954
 20
60.833366
 40
3.000000
 50
90.000000
 51
180.000076
  0
ARC
  8
0
 10
-33.999985
 20
97.333336
 40
19.999996
 50
36.869881
 51
139.906937
  0
ARC
  8
0
 10
-33.999985
 20
97.333336
 40
19.000000
 50
39.166679
 51
140.833328
  0
CIRCLE
  8
0
 10
-28.499985
 20
97.333328
 40
7.199997
  0
CIRCLE
  8
0
 10
-28.499985
 20
97.333328
 40
6.949997
  0
CIRCLE
  8
0
 10
-28.499985
 20
97.333328
 40
14.000000
  0
CIRCLE
  8
0
 10
-28.499985
 20
97.333328
 40
13.000000
  0
ARC
  8
0
 10
-33.999985
 20
97.333336
 40
19.000000
 50
219.166718
 51
220.368149
  0
ARC
  8
0
 10
-43.249985
 20
85.589577
 40
5.256251
 50
57.790241
 51
19.262392
  0
CIRCLE
  8
0
 10
-43.249985
 20
85.589577
 40
3.756248
  0
ARC
  8
0
 10
-29.499985
 20
89.395828
 40
6.062500
 50
251.886185
 51
273.752686
  0
ARC
  8
0
 10
-33.999985
 20
97.333336
 40
19.000004
 50
243.180176
 51
320.833252
  0
ARC
  8
0
 10
-33.999985
 20
97.333336
 40
20.000002
 50
220.093063
 51
226.950897
  0
ARC
  8
0
 10
-33.999985
 20
97.333336
 40
20.000004
 50
236.597427
 51
323.130096
  0
ENDSEC
  0
EOF
