  0
SECTION
  2
HEADER
  0
ENDSEC
  0
SECTION
  2
TABLES
  0
TABLE
  2
LTYPE
 70
     4
  0
LTYPE
  2
CONTINUOUS
 70
    64
  3
Solid line
 72
    65
 73
     0
 40
0.000000
  0
LTYPE
  2
DASHED
 70
    64
  3
__ __ __ __ __ __ __ __ __ __ __ __ __ __ __
 72
    65
 73
     2
 40
3.500000
 49
2.000000
 49
-1.500000
  0
LTYPE
  2
CENTER
 70
    64
  3
____ _ ____ _ ____ _ ____ _ ____ _ ____ _ ____
 72
    65
 73
     4
 40
17.500000
 49
13.000000
 49
-1.500000
 49
1.500000
 49
-1.500000
  0
LTYPE
  2
PHANTOM
 70
    64
  3
_____ _ _ _____ _ _ _____ _ _ _____ _ _ ____  
 72
    65
 73
     6
 40
15.500000
 49
8.000000
 49
-1.500000
 49
1.500000
 49
-1.500000
 49
1.500000
 49
-1.500000
  0
LTYPE
  2
DASHED1
 70
    64
  3
__ __ __ __ __ __ __ __ __ __ __ __ __ __ __
 72
    65
 73
     2
 40
1.500000
 49
1.000000
 49
-0.500000
  0
LTYPE
  2
DASHED2
 70
    64
  3
__ __ __ __ __ __ __ __ __ __ __ __ __ __ __
 72
    65
 73
     2
 40
3.500000
 49
2.500000
 49
-1.000000
  0
LTYPE
  2
DASHED3
 70
    64
  3
__ __ __ __ __ __ __ __ __ __ __ __ __ __ __
 72
    65
 73
     2
 40
6.000000
 49
4.000000
 49
-2.000000
  0
LTYPE
  2
DASHED4
 70
    64
  3
__ __ __ __ __ __ __ __ __ __ __ __ __ __ __
 72
    65
 73
     2
 40
12.000000
 49
10.000000
 49
-2.000000
  0
LTYPE
  2
DASHED5
 70
    64
  3
__ __ __ __ __ __ __ __ __ __ __ __ __ __ __
 72
    65
 73
     2
 40
17.000000
 49
15.000000
 49
-2.000000
  0
LTYPE
  2
DASHED6
 70
    64
  3
__ __ __ __ __ __ __ __ __ __ __ __ __ __ __
 72
    65
 73
     2
 40
29.000000
 49
27.000000
 49
-2.000000
  0
LTYPE
  2
PHANTOM1
 70
    64
  3
_____ _ _ _____ _ _ _____ _ _ _____ _ _ ____  
 72
    65
 73
     6
 40
31.000000
 49
25.000000
 49
-1.500000
 49
1.000000
 49
-1.000000
 49
1.000000
 49
-1.500000
  0
LTYPE
  2
PHANTOM2
 70
    64
  3
_____ _ _ _____ _ _ _____ _ _ _____ _ _ ____  
 72
    65
 73
     6
 40
36.000000
 49
27.000000
 49
-1.500000
 49
2.500000
 49
-1.000000
 49
2.500000
 49
-1.500000
  0
LTYPE
  2
PHANTOM3
 70
    64
  3
_____ _ _ _____ _ _ _____ _ _ _____ _ _ ____  
 72
    65
 73
     6
 40
78.000000
 49
64.000000
 49
-2.000000
 49
4.000000
 49
-2.000000
 49
4.000000
 49
-2.000000
  0
LTYPE
  2
CENTER1
 70
    64
  3
____ _ ____ _ ____ _ ____ _ ____ _ ____ _ ____
 72
    65
 73
     4
 40
19.000000
 49
14.000000
 49
-1.000000
 49
3.000000
 49
-1.000000
  0
LTYPE
  2
CENTER2
 70
    64
  3
____ _ ____ _ ____ _ ____ _ ____ _ ____ _ ____
 72
    65
 73
     4
 40
28.500000
 49
25.000000
 49
-1.000000
 49
1.500000
 49
-1.000000
  0
LTYPE
  2
CENTER3
 70
    64
  3
____ _ ____ _ ____ _ ____ _ ____ _ ____ _ ____
 72
    65
 73
     4
 40
31.500000
 49
27.000000
 49
-1.000000
 49
2.500000
 49
-1.000000
  0
LTYPE
  2
CENTER4
 70
    64
  3
____ _ ____ _ ____ _ ____ _ ____ _ ____ _ ____
 72
    65
 73
     4
 40
50.000000
 49
45.000000
 49
-1.000000
 49
3.000000
 49
-1.000000
  0
LTYPE
  2
CENTER5
 70
    64
  3
____ _ ____ _ ____ _ ____ _ ____ _ ____ _ ____
 72
    65
 73
     4
 40
100.000000
 49
92.000000
 49
-2.000000
 49
4.000000
 49
-2.000000
  0
LTYPE
  2
SBK1
 70
    64
  3
______ _ _ _ ______ _ _ _ ______ _ _ _ _____  
 72
    65
 73
     8
 40
60.500000
 49
45.000000
 49
-2.000000
 49
2.500000
 49
-2.000000
 49
2.500000
 49
-2.000000
 49
2.500000
 49
-2.000000
  0
LTYPE
  2
SBK2
 70
    64
  3
______ _ _ _ ______ _ _ _ ______ _ _ _ _____  
 72
    65
 73
     8
 40
84.000000
 49
64.000000
 49
-2.000000
 49
4.000000
 49
-2.000000
 49
4.000000
 49
-2.000000
 49
4.000000
 49
-2.000000
  0
LTYPE
  2
STCH
 70
    64
  3
__ __ __ __ __ __ __ __ __ __ __ __ __ __ __
 72
    65
 73
     2
 40
3.000000
 49
1.000000
 49
-2.000000
  0
LTYPE
  2
MTCH
 70
    64
  3
_____ _ _ _____ _ _ _____ _ _ _____ _ _ ____  
 72
    65
 73
     6
 40
80.000000
 49
66.000000
 49
-2.000000
 49
4.000000
 49
-2.000000
 49
4.000000
 49
-2.000000
  0
ENDTAB
  0
TABLE
  2
LAYER
 70
     1
  0
LAYER
  2
0
 70
     0
 62
     7
  6
CONTINUOUS
  0
ENDTAB
  0
TABLE
  2
STYLE
 70
     1
  0
STYLE
  2
STANDARD
 70
     0
 40
0.000000
 41
1.000000
 50
0.000000
 71
     0
 42
0.200000
  3
txt
  4
BIGFONT
  0
ENDTAB
  0
TABLE
  2
VIEW
 70
     0
  0
ENDTAB
  0
ENDSEC
  0
SECTION
  2
BLOCKS
  0
ENDSEC
  0
SECTION
  2
ENTITIES
  0
LINE
  8
0
 10
-122.610016
 20
79.129074
 11
-108.400024
 21
79.129074
  0
LINE
  8
0
 10
-121.500015
 20
84.629074
 11
-110.500015
 21
84.629074
  0
LINE
  8
0
 10
-125.200027
 20
83.629074
 11
-105.800018
 21
83.629074
  0
LINE
  8
0
 10
-125.200035
 20
83.629074
 11
-122.610031
 21
79.129082
  0
LINE
  8
0
 10
-105.800018
 20
83.629066
 11
-108.400017
 21
79.129066
  0
LINE
  8
0
 10
-110.500015
 20
87.629074
 11
-109.500015
 21
87.629074
  0
LINE
  8
0
 10
-110.500015
 20
84.629074
 11
-110.500015
 21
87.629074
  0
LINE
  8
0
 10
-125.200027
 20
83.629074
 11
-125.200027
 21
84.629074
  0
LINE
  8
0
 10
-105.800018
 20
83.629074
 11
-105.800018
 21
87.629074
  0
LINE
  8
0
  6
CENTER
 62
     2
 10
-115.500015
 20
75.469086
 11
-115.500015
 21
142.129074
  0
LINE
  8
0
 10
-125.200027
 20
114.629074
 11
-125.200027
 21
139.629074
  0
LINE
  8
0
 10
-125.200027
 20
139.629074
 11
-105.800018
 21
139.629074
  0
LINE
  8
0
 10
-124.200027
 20
131.629074
 11
-106.800018
 21
131.629074
  0
LINE
  8
0
 10
-121.500015
 20
114.629074
 11
-105.800018
 21
114.629074
  0
LINE
  8
0
 10
-125.200027
 20
121.629074
 11
-105.800018
 21
121.629074
  0
LINE
  8
0
 10
-125.200027
 20
132.629074
 11
-105.800018
 21
132.629074
  0
LINE
  8
0
 10
-124.200027
 20
114.629074
 11
-124.200027
 21
131.629074
  0
LINE
  8
0
 10
-106.800018
 20
114.629074
 11
-106.800018
 21
131.629074
  0
LINE
  8
0
 10
-122.200027
 20
132.629074
 11
-122.200027
 21
139.629074
  0
LINE
  8
0
 10
-108.800018
 20
132.629074
 11
-108.800018
 21
139.629074
  0
LINE
  8
0
 10
-120.500015
 20
113.629074
 11
-120.500015
 21
114.629074
  0
LINE
  8
0
 10
-110.500015
 20
87.629074
 11
-110.500015
 21
88.629074
  0
LINE
  8
0
 10
-120.500015
 20
85.629074
 11
-110.500015
 21
85.629074
  0
LINE
  8
0
 10
-119.500015
 20
84.629074
 11
-119.500015
 21
114.629074
  0
LINE
  8
0
 10
-111.500015
 20
84.629074
 11
-111.500015
 21
114.629074
  0
LINE
  8
0
 10
-111.500015
 20
111.629074
 11
-109.500015
 21
111.629074
  0
LINE
  8
0
 10
-105.800018
 20
139.629074
 11
-105.800018
 21
111.629074
  0
LINE
  8
0
 10
-120.500023
 20
85.629066
 11
-119.500023
 21
84.629066
  0
LINE
  8
0
 10
-110.500023
 20
85.629082
 11
-111.500023
 21
84.629082
  0
LINE
  8
0
 10
-124.200043
 20
131.629089
 11
-125.200027
 21
132.629074
  0
LINE
  8
0
 10
-106.800026
 20
131.629059
 11
-105.800018
 21
132.629059
  0
LINE
  8
0
 10
-122.200027
 20
132.629059
 11
-121.790024
 21
131.629059
  0
LINE
  8
0
 10
-108.800026
 20
132.629074
 11
-109.220024
 21
131.629059
  0
LINE
  8
0
 10
-110.800018
 20
84.629074
 11
-110.800018
 21
79.129074
  0
LINE
  8
0
 10
-120.200027
 20
84.629074
 11
-120.200027
 21
79.129074
  0
LINE
  8
0
 10
-119.000015
 20
78.429077
 11
-119.000015
 21
79.129074
  0
LINE
  8
0
 10
-119.000023
 20
78.429077
 11
-118.480026
 21
78.129082
  0
LINE
  8
0
 10
-118.480026
 20
78.129074
 11
-112.520020
 21
78.129074
  0
LINE
  8
0
 10
-119.000015
 20
78.429077
 11
-112.000015
 21
78.429077
  0
LINE
  8
0
 10
-112.000023
 20
78.429085
 11
-112.520035
 21
78.129082
  0
LINE
  8
0
 10
-112.000015
 20
78.429077
 11
-112.000015
 21
79.129074
  0
LINE
  8
0
  6
CENTER
 62
     2
 10
-90.500015
 20
125.489059
 11
-90.500015
 21
77.349075
  0
LINE
  8
0
 10
-93.210022
 20
109.559067
 11
-93.010017
 21
110.339073
  0
LINE
  8
0
 10
-98.530014
 20
107.149078
 11
-97.760025
 21
106.939072
  0
LINE
  8
0
 10
-101.030029
 20
96.439079
 11
-100.460030
 21
97.009079
  0
LINE
  8
0
 10
-100.460022
 20
102.249062
 11
-101.030029
 21
102.819069
  0
LINE
  8
0
 10
-93.000031
 20
88.919075
 11
-93.210030
 21
89.699066
  0
LINE
  8
0
 10
-97.760025
 20
92.319077
 11
-98.530022
 21
92.109070
  0
LINE
  8
0
 10
-82.480019
 20
92.109070
 11
-83.250015
 21
92.319077
  0
LINE
  8
0
 10
-87.800018
 20
89.699081
 11
-88.000015
 21
88.919075
  0
LINE
  8
0
 10
-79.980026
 20
102.819069
 11
-80.540024
 21
102.249077
  0
LINE
  8
0
 10
-80.540024
 20
97.009071
 11
-79.980026
 21
96.439079
  0
LINE
  8
0
 10
-88.000015
 20
110.339066
 11
-87.800018
 21
109.559067
  0
LINE
  8
0
 10
-83.250015
 20
106.939079
 11
-82.480026
 21
107.149078
  0
LINE
  8
0
 10
-109.500015
 20
87.629074
 11
-71.500015
 21
87.629074
  0
LINE
  8
0
 10
-109.500015
 20
111.629074
 11
-71.500015
 21
111.629074
  0
LINE
  8
0
 10
-70.500015
 20
110.629074
 11
-70.500015
 21
88.629074
  0
LINE
  8
0
 10
-110.500015
 20
110.629074
 11
-110.500015
 21
88.629074
  0
LINE
  8
0
 10
-110.500031
 20
88.629074
 11
-109.500031
 21
87.629074
  0
LINE
  8
0
 10
-110.500031
 20
110.629074
 11
-109.500031
 21
111.629074
  0
LINE
  8
0
 10
-71.500023
 20
111.629066
 11
-70.500031
 21
110.629074
  0
LINE
  8
0
 10
-71.500023
 20
87.629082
 11
-70.500031
 21
88.629074
  0
LINE
  8
0
  6
CENTER
 62
     2
 10
-86.500015
 20
122.539062
 11
-86.500015
 21
110.199074
  0
LINE
  8
0
 10
-76.500015
 20
118.629074
 11
-76.500015
 21
111.629074
  0
LINE
  8
0
 10
-96.500015
 20
118.629074
 11
-96.500015
 21
111.629074
  0
LINE
  8
0
 10
-95.500015
 20
119.629074
 11
-77.500015
 21
119.629074
  0
LINE
  8
0
 10
-95.500015
 20
79.629074
 11
-77.500015
 21
79.629074
  0
LINE
  8
0
 10
-96.500031
 20
80.629074
 11
-95.500031
 21
79.629074
  0
LINE
  8
0
 10
-77.500031
 20
79.629074
 11
-76.500031
 21
80.629074
  0
LINE
  8
0
 10
-96.500031
 20
118.629074
 11
-95.500031
 21
119.629074
  0
LINE
  8
0
 10
-77.500031
 20
119.629074
 11
-76.500031
 21
118.629074
  0
LINE
  8
0
 10
-96.500015
 20
87.629074
 11
-96.500015
 21
80.629074
  0
LINE
  8
0
 10
-76.500015
 20
87.629074
 11
-76.500015
 21
80.629074
  0
LINE
  8
0
 10
-109.500015
 20
111.629074
 11
-109.500015
 21
87.629074
  0
LINE
  8
0
 10
-71.500015
 20
87.629074
 11
-71.500015
 21
111.629074
  0
LINE
  8
0
 10
-96.500015
 20
80.629074
 11
-76.500015
 21
80.629074
  0
LINE
  8
0
 10
-110.500015
 20
110.629074
 11
-70.500015
 21
110.629074
  0
LINE
  8
0
 10
-110.500015
 20
88.629074
 11
-70.500015
 21
88.629074
  0
LINE
  8
0
 10
-96.500015
 20
118.629074
 11
-76.500015
 21
118.629074
  0
LINE
  8
0
  6
CENTER
 62
     2
 10
-86.500015
 20
89.309074
 11
-86.500015
 21
36.519089
  0
LINE
  8
0
 10
-65.500015
 20
42.629074
 11
-65.500015
 21
63.129074
  0
LINE
  8
0
 10
-107.750023
 20
40.129078
 11
-107.250023
 21
39.629078
  0
LINE
  8
0
 10
-65.250031
 20
40.129074
 11
-65.750031
 21
39.629078
  0
LINE
  8
0
 10
-92.230026
 20
79.629074
 11
-92.410027
 21
73.629074
  0
LINE
  8
0
 10
-79.930023
 20
79.629066
 11
-79.740021
 21
73.629074
  0
LINE
  8
0
 10
-93.500015
 20
73.629074
 11
-79.500015
 21
73.629074
  0
LINE
  8
0
 10
-93.080025
 20
79.629074
 11
-93.270027
 21
73.629074
  0
LINE
  8
0
 10
-80.780029
 20
79.629074
 11
-80.590027
 21
73.629066
  0
LINE
  8
0
 10
-107.500015
 20
42.629074
 11
-107.500015
 21
63.129074
  0
LINE
  8
0
 10
-107.250015
 20
39.629074
 11
-65.750015
 21
39.629074
  0
LINE
  8
0
 10
-65.250015
 20
40.129074
 11
-65.250015
 21
42.629074
  0
LINE
  8
0
 10
-107.750015
 20
40.129074
 11
-65.250015
 21
40.129074
  0
LINE
  8
0
 10
-104.500015
 20
66.129074
 11
-68.500015
 21
66.129074
  0
LINE
  8
0
 10
-107.750015
 20
42.629074
 11
-65.250015
 21
42.629074
  0
LINE
  8
0
 10
-79.500015
 20
73.629074
 11
-79.500015
 21
66.129074
  0
LINE
  8
0
 10
-93.500015
 20
73.629074
 11
-93.500015
 21
66.129074
  0
LINE
  8
0
 10
-79.500023
 20
73.629066
 11
-93.500015
 21
66.129074
  0
LINE
  8
0
 10
-79.500031
 20
66.129066
 11
-93.500031
 21
73.629066
  0
LINE
  8
0
 10
-107.750015
 20
40.129074
 11
-107.750015
 21
42.629074
  0
LINE
  8
0
 10
-107.750023
 20
40.129078
 11
-107.250023
 21
39.629078
  0
LINE
  8
0
 10
-91.900024
 20
121.299072
 11
-81.110016
 21
121.299072
  0
LINE
  8
0
 10
-93.110039
 20
120.599075
 11
-91.900040
 21
121.299080
  0
LINE
  8
0
 10
-81.110031
 20
121.299072
 11
-79.900032
 21
120.599075
  0
LINE
  8
0
 10
-93.110023
 20
120.599068
 11
-93.080025
 21
119.629074
  0
LINE
  8
0
 10
-79.900024
 20
120.599075
 11
-79.930023
 21
119.629066
  0
LINE
  8
0
 10
-92.270027
 20
121.079071
 11
-92.230026
 21
119.629074
  0
LINE
  8
0
 10
-80.740028
 20
121.079063
 11
-80.780029
 21
119.629066
  0
LINE
  8
0
 10
-93.110016
 20
120.599060
 11
-79.900024
 21
120.599060
  0
LINE
  8
0
 10
-182.500015
 20
84.629074
 11
-121.500015
 21
84.629074
  0
LINE
  8
0
 10
-182.500015
 20
114.629074
 11
-121.500015
 21
114.629074
  0
LINE
  8
0
 10
-183.500015
 20
85.629074
 11
-183.500015
 21
113.629074
  0
LINE
  8
0
 10
-120.500015
 20
85.629074
 11
-120.500015
 21
113.629074
  0
LINE
  8
0
 10
-183.500015
 20
113.629066
 11
-182.500015
 21
114.629066
  0
LINE
  8
0
 10
-183.500015
 20
85.629074
 11
-182.500015
 21
84.629074
  0
LINE
  8
0
 10
-121.500023
 20
84.629066
 11
-120.500023
 21
85.629066
  0
LINE
  8
0
 10
-121.500023
 20
114.629082
 11
-120.500023
 21
113.629082
  0
LINE
  8
0
 10
-181.000015
 20
97.129074
 11
-181.000015
 21
102.129074
  0
LINE
  8
0
 10
-181.000015
 20
97.129074
 11
-174.140015
 21
99.629082
  0
LINE
  8
0
 10
-181.000000
 20
102.129074
 11
-174.140015
 21
99.629074
  0
LINE
  8
0
 10
-183.500015
 20
113.629074
 11
-120.500015
 21
113.629074
  0
LINE
  8
0
 10
-183.500015
 20
85.629074
 11
-120.500015
 21
85.629074
  0
LINE
  8
0
 10
-182.500015
 20
84.629074
 11
-182.500015
 21
114.629074
  0
LINE
  8
0
 10
-121.500015
 20
114.629074
 11
-121.500015
 21
84.629074
  0
LINE
  8
0
  6
CENTER
 62
     2
 10
-152.000015
 20
62.799088
 11
-152.000015
 21
136.129074
  0
LINE
  8
0
 10
-58.400024
 20
79.129074
 11
-72.610016
 21
79.129074
  0
LINE
  8
0
 10
-59.500015
 20
84.629074
 11
-70.500015
 21
84.629074
  0
LINE
  8
0
 10
-55.800018
 20
83.629074
 11
-75.200027
 21
83.629074
  0
LINE
  8
0
 10
-55.800022
 20
83.629066
 11
-58.400021
 21
79.129074
  0
LINE
  8
0
 10
-75.200020
 20
83.629066
 11
-72.610023
 21
79.129074
  0
LINE
  8
0
 10
-70.500015
 20
87.629074
 11
-71.500015
 21
87.629074
  0
LINE
  8
0
 10
-70.500015
 20
84.629074
 11
-70.500015
 21
88.629074
  0
LINE
  8
0
 10
-55.800018
 20
83.629074
 11
-55.800018
 21
84.629074
  0
LINE
  8
0
 10
-75.200027
 20
83.629074
 11
-75.200027
 21
87.629074
  0
LINE
  8
0
  6
CENTER
 62
     2
 10
-65.500015
 20
75.469086
 11
-65.500015
 21
142.129074
  0
LINE
  8
0
 10
-55.800018
 20
114.629074
 11
-55.800018
 21
139.629074
  0
LINE
  8
0
 10
-55.800018
 20
139.629074
 11
-75.200027
 21
139.629074
  0
LINE
  8
0
 10
-56.800018
 20
131.629074
 11
-74.200027
 21
131.629074
  0
LINE
  8
0
 10
-59.500015
 20
114.629074
 11
-75.200027
 21
114.629074
  0
LINE
  8
0
 10
-55.800018
 20
121.629074
 11
-75.200027
 21
121.629074
  0
LINE
  8
0
 10
-55.800018
 20
132.629074
 11
-75.200027
 21
132.629074
  0
LINE
  8
0
 10
-56.800018
 20
114.629074
 11
-56.800018
 21
131.629074
  0
LINE
  8
0
 10
-74.200027
 20
114.629074
 11
-74.200027
 21
131.629074
  0
LINE
  8
0
 10
-58.800018
 20
132.629074
 11
-58.800018
 21
139.629074
  0
LINE
  8
0
 10
-72.200027
 20
132.629074
 11
-72.200027
 21
139.629074
  0
LINE
  8
0
 10
-60.500015
 20
85.629074
 11
-70.500015
 21
85.629074
  0
LINE
  8
0
 10
-61.500015
 20
84.629074
 11
-61.500015
 21
114.629074
  0
LINE
  8
0
 10
-69.500015
 20
84.629074
 11
-69.500015
 21
114.629074
  0
LINE
  8
0
 10
-69.500015
 20
111.629074
 11
-71.500015
 21
111.629074
  0
LINE
  8
0
 10
-75.200027
 20
139.629074
 11
-75.200027
 21
111.629074
  0
LINE
  8
0
 10
-60.500023
 20
85.629066
 11
-61.500023
 21
84.629066
  0
LINE
  8
0
 10
-70.500023
 20
85.629082
 11
-69.500023
 21
84.629082
  0
LINE
  8
0
 10
-56.800034
 20
131.629074
 11
-55.800034
 21
132.629074
  0
LINE
  8
0
 10
-74.200020
 20
131.629074
 11
-75.200020
 21
132.629074
  0
LINE
  8
0
 10
-58.800030
 20
132.629059
 11
-59.220020
 21
131.629074
  0
LINE
  8
0
 10
-72.200020
 20
132.629074
 11
-71.790016
 21
131.629074
  0
LINE
  8
0
 10
-70.200027
 20
84.629074
 11
-70.200027
 21
79.129074
  0
LINE
  8
0
 10
-60.800018
 20
84.629074
 11
-60.800018
 21
79.129074
  0
LINE
  8
0
 10
-62.000015
 20
78.429077
 11
-62.000015
 21
79.129074
  0
LINE
  8
0
 10
-62.000015
 20
78.429070
 11
-62.520023
 21
78.129066
  0
LINE
  8
0
 10
-62.520020
 20
78.129074
 11
-68.480026
 21
78.129074
  0
LINE
  8
0
 10
-62.000015
 20
78.429077
 11
-69.000015
 21
78.429077
  0
LINE
  8
0
 10
-69.000031
 20
78.429070
 11
-68.480026
 21
78.129066
  0
LINE
  8
0
 10
-69.000015
 20
78.429077
 11
-69.000015
 21
79.129074
  0
LINE
  8
0
  6
CENTER
 62
     2
 10
-194.860016
 20
99.629074
 11
16.969971
 21
99.629074
  0
LINE
  8
0
 10
-110.500015
 20
110.629074
 11
-110.500015
 21
111.629074
  0
LINE
  8
0
 10
-70.500015
 20
110.629074
 11
-70.500015
 21
111.629074
  0
LINE
  8
0
 10
-60.500015
 20
113.629074
 11
-60.500015
 21
114.629074
  0
LINE
  8
0
  6
CENTER
 62
     2
 10
-29.000015
 20
137.079071
 11
-29.000015
 21
62.179077
  0
LINE
  8
0
 10
-60.500015
 20
85.629074
 11
-51.000015
 21
85.629074
  0
LINE
  8
0
 10
-59.500015
 20
84.629074
 11
-50.940018
 21
84.629074
  0
LINE
  8
0
 10
-60.500015
 20
113.629074
 11
-28.700027
 21
113.629074
  0
LINE
  8
0
 10
-59.500015
 20
114.629074
 11
-23.500015
 21
114.629074
  0
LINE
  8
0
 10
1.499985
 20
114.629074
 11
1.499985
 21
84.629074
  0
LINE
  8
0
 10
2.499985
 20
113.629074
 11
2.499985
 21
85.629074
  0
LINE
  8
0
 10
-59.500015
 20
114.629074
 11
-59.500015
 21
84.629074
  0
LINE
  8
0
 10
-60.500015
 20
113.629074
 11
-60.500015
 21
85.629074
  0
LINE
  8
0
 10
-60.500023
 20
113.629074
 11
-59.500019
 21
114.629082
  0
LINE
  8
0
 10
-60.500023
 20
85.629066
 11
-59.500023
 21
84.629066
  0
LINE
  8
0
 10
1.499977
 20
114.629082
 11
2.499979
 21
113.629082
  0
LINE
  8
0
 10
2.499980
 20
85.629066
 11
1.499979
 21
84.629066
  0
LINE
  8
0
 10
-18.310028
 20
113.629074
 11
2.499985
 21
113.629074
  0
LINE
  8
0
 10
-23.500015
 20
114.629074
 11
1.499985
 21
114.629074
  0
LINE
  8
0
 10
-35.070023
 20
84.629074
 11
1.499985
 21
84.629074
  0
LINE
  8
0
 10
-35.000015
 20
85.629074
 11
2.499985
 21
85.629074
  0
LINE
  8
0
  6
CENTER
 62
     2
 10
-43.000015
 20
95.629074
 11
-43.000015
 21
75.629074
  0
LINE
  8
0
  6
CENTER
 62
     2
 10
-23.500015
 20
118.129074
 11
-23.500015
 21
83.129074
  0
LINE
  8
0
 62
     2
 10
-41.000015
 20
100.629074
 11
-6.000015
 21
100.629074
  0
LINE
  8
0
  6
CENTER
 62
     2
 10
-53.000015
 20
85.629074
 11
-33.000015
 21
85.629074
  0
LINE
  8
0
 10
-86.500015
 20
42.629074
 11
-86.500015
 21
40.129074
  0
LINE
  8
0
 10
138.149963
 20
-165.146652
 11
138.149963
 21
-163.246643
  0
LINE
  8
0
 10
143.849976
 20
-165.146652
 11
143.849976
 21
-163.246643
  0
LINE
  8
0
 10
147.749969
 20
-161.746643
 11
134.249969
 21
-161.746643
  0
LINE
  8
0
 10
148.749969
 20
-160.746643
 11
147.749969
 21
-161.746643
  0
LINE
  8
0
 10
134.249969
 20
-161.746643
 11
133.249969
 21
-160.746643
  0
LINE
  8
0
 10
148.749969
 20
-160.746643
 11
148.599976
 21
-160.746643
  0
LINE
  8
0
 10
142.499969
 20
-160.746643
 11
139.499969
 21
-160.746643
  0
LINE
  8
0
 10
136.689972
 20
-160.746643
 11
134.559967
 21
-160.746643
  0
LINE
  8
0
 10
133.399963
 20
-160.746643
 11
133.249969
 21
-160.746643
  0
LINE
  8
0
 10
147.439972
 20
-160.746643
 11
145.319977
 21
-160.746643
  0
LINE
  8
0
 10
144.659973
 20
-161.246643
 11
142.839966
 21
-161.246643
  0
LINE
  8
0
 10
148.009979
 20
-161.246643
 11
148.599976
 21
-160.746658
  0
LINE
  8
0
 10
144.659958
 20
-161.246643
 11
145.319962
 21
-160.746643
  0
LINE
  8
0
 10
142.839966
 20
-161.246643
 11
142.499969
 21
-160.746643
  0
LINE
  8
0
 10
139.499969
 20
-160.746643
 11
139.159973
 21
-161.246643
  0
LINE
  8
0
 10
137.339981
 20
-161.246674
 11
136.689972
 21
-160.746643
  0
LINE
  8
0
 10
133.989944
 20
-161.246643
 11
133.399963
 21
-160.746658
  0
LINE
  8
0
 10
147.439987
 20
-160.746643
 11
147.259979
 21
-161.246643
  0
LINE
  8
0
 10
134.559967
 20
-160.746658
 11
134.739975
 21
-161.246643
  0
LINE
  8
0
 10
139.159973
 20
-161.246643
 11
137.339966
 21
-161.246643
  0
LINE
  8
0
 10
148.009964
 20
-161.246643
 11
147.259964
 21
-161.246643
  0
LINE
  8
0
 10
134.739975
 20
-161.246643
 11
133.989975
 21
-161.246643
  0
LINE
  8
0
 10
146.999969
 20
-163.246643
 11
134.999969
 21
-163.246643
  0
LINE
  8
0
 10
147.499969
 20
-162.746643
 11
147.499969
 21
-161.746643
  0
LINE
  8
0
 10
134.499969
 20
-162.746643
 11
134.499969
 21
-161.746643
  0
LINE
  8
0
 10
134.499969
 20
-162.746643
 11
134.999969
 21
-163.246643
  0
LINE
  8
0
 10
146.999969
 20
-163.246643
 11
147.499969
 21
-162.746643
  0
LINE
  8
0
 10
134.499969
 20
-162.746643
 11
147.499969
 21
-162.746643
  0
LINE
  8
0
 10
143.829971
 20
-170.346649
 11
138.169968
 21
-170.346649
  0
LINE
  8
0
 10
137.749969
 20
-167.946655
 11
137.749969
 21
-167.746643
  0
LINE
  8
0
 10
144.249969
 20
-167.946655
 11
144.249969
 21
-167.746643
  0
LINE
  8
0
 10
144.249969
 20
-167.746643
 11
137.749969
 21
-167.746643
  0
LINE
  8
0
 10
144.249969
 20
-165.146652
 11
137.749969
 21
-165.146652
  0
LINE
  8
0
 10
144.249969
 20
-165.346649
 11
137.749969
 21
-165.346649
  0
LINE
  8
0
 10
144.249969
 20
-167.946655
 11
137.749969
 21
-167.946655
  0
LINE
  8
0
 10
137.749969
 20
-165.346649
 11
137.749969
 21
-165.146652
  0
LINE
  8
0
 10
144.249969
 20
-165.346649
 11
144.249969
 21
-165.146652
  0
LINE
  8
0
 10
137.749969
 20
-165.346649
 11
138.169968
 21
-167.746643
  0
LINE
  8
0
 10
137.749969
 20
-167.946640
 11
138.169983
 21
-170.346649
  0
LINE
  8
0
 10
144.249954
 20
-167.946640
 11
143.829956
 21
-170.346649
  0
LINE
  8
0
 10
144.249969
 20
-165.346649
 11
143.829971
 21
-167.746643
  0
LINE
  8
0
 10
125.469971
 20
-145.456650
 11
156.529968
 21
-145.456650
  0
LINE
  8
0
 10
159.709961
 20
-127.456650
 11
156.049973
 21
-127.456650
  0
LINE
  8
0
 10
161.519958
 20
-127.956650
 11
156.049973
 21
-127.956650
  0
LINE
  8
0
 10
161.779968
 20
-128.456650
 11
155.649963
 21
-128.456650
  0
LINE
  8
0
 10
162.369965
 20
-128.956650
 11
155.649963
 21
-128.956650
  0
LINE
  8
0
 10
122.299973
 20
-127.456650
 11
125.949966
 21
-127.456650
  0
LINE
  8
0
 10
120.479980
 20
-127.956650
 11
125.949966
 21
-127.956650
  0
LINE
  8
0
 10
120.219971
 20
-128.456650
 11
126.349968
 21
-128.456650
  0
LINE
  8
0
 10
119.639984
 20
-128.956650
 11
126.349968
 21
-128.956650
  0
LINE
  8
0
 10
133.429962
 20
-146.956650
 11
148.579971
 21
-146.956650
  0
LINE
  8
0
 10
132.929962
 20
-146.456650
 11
132.929962
 21
-145.456650
  0
LINE
  8
0
 10
149.079971
 20
-146.456650
 11
149.079971
 21
-145.456650
  0
LINE
  8
0
 10
148.579971
 20
-146.956635
 11
149.079971
 21
-146.456635
  0
LINE
  8
0
 10
133.429962
 20
-146.956650
 11
132.929962
 21
-146.456650
  0
LINE
  8
0
 10
148.249969
 20
-148.246643
 11
133.749969
 21
-148.246643
  0
LINE
  8
0
 10
148.249954
 20
-148.246643
 11
148.749954
 21
-148.746643
  0
LINE
  8
0
 10
133.749985
 20
-148.246643
 11
133.249985
 21
-148.746643
  0
LINE
  8
0
 10
146.999969
 20
-146.956650
 11
146.999969
 21
-148.246643
  0
LINE
  8
0
 10
134.999969
 20
-146.956650
 11
134.999969
 21
-148.246643
  0
LINE
  8
0
 62
     2
 10
135.749969
 20
-146.956650
 11
135.749969
 21
-148.246643
  0
LINE
  8
0
 62
     2
 10
146.249969
 20
-146.956650
 11
146.249969
 21
-148.246643
  0
LINE
  8
0
 10
148.599976
 20
-151.246643
 11
147.439972
 21
-151.246643
  0
LINE
  8
0
 10
148.009964
 20
-151.536652
 11
147.439972
 21
-151.536652
  0
LINE
  8
0
 10
139.499969
 20
-151.246643
 11
136.689972
 21
-151.246643
  0
LINE
  8
0
 10
139.159973
 20
-151.536652
 11
137.339966
 21
-151.536652
  0
LINE
  8
0
 10
145.319977
 20
-151.246643
 11
142.499969
 21
-151.246643
  0
LINE
  8
0
 10
144.659973
 20
-151.536652
 11
142.839966
 21
-151.536652
  0
LINE
  8
0
 10
134.559967
 20
-151.246643
 11
133.399963
 21
-151.246643
  0
LINE
  8
0
 10
134.559967
 20
-151.536652
 11
133.989975
 21
-151.536652
  0
LINE
  8
0
 10
133.989944
 20
-151.536636
 11
133.399979
 21
-151.246643
  0
LINE
  8
0
 10
137.339966
 20
-151.536652
 11
136.679947
 21
-151.246643
  0
LINE
  8
0
 10
139.159958
 20
-151.536652
 11
139.499969
 21
-151.246643
  0
LINE
  8
0
 10
142.839981
 20
-151.536652
 11
142.499985
 21
-151.246643
  0
LINE
  8
0
 10
144.659973
 20
-151.536652
 11
145.319977
 21
-151.246643
  0
LINE
  8
0
 10
148.009979
 20
-151.536621
 11
148.599960
 21
-151.246628
  0
LINE
  8
0
 10
148.749969
 20
-148.746643
 11
133.249969
 21
-148.746643
  0
LINE
  8
0
 10
132.929962
 20
-146.456650
 11
149.079971
 21
-146.456650
  0
LINE
  8
0
 10
148.599976
 20
-151.246643
 11
148.599976
 21
-160.746643
  0
LINE
  8
0
 10
148.009964
 20
-151.536652
 11
148.009964
 21
-161.246643
  0
LINE
  8
0
 10
147.439972
 20
-151.246643
 11
147.439972
 21
-160.746643
  0
LINE
  8
0
 10
145.319977
 20
-151.246643
 11
145.319977
 21
-160.746643
  0
LINE
  8
0
 10
144.659973
 20
-151.536652
 11
144.659973
 21
-161.246643
  0
LINE
  8
0
 10
133.399963
 20
-151.246643
 11
133.399963
 21
-160.746643
  0
LINE
  8
0
 10
133.989975
 20
-151.536652
 11
133.989975
 21
-161.246643
  0
LINE
  8
0
 10
134.559967
 20
-151.246643
 11
134.559967
 21
-160.746643
  0
LINE
  8
0
 10
136.689972
 20
-151.246643
 11
136.689972
 21
-160.746643
  0
LINE
  8
0
 10
137.339966
 20
-151.536652
 11
137.339966
 21
-161.246643
  0
LINE
  8
0
 10
139.159973
 20
-151.536652
 11
139.159973
 21
-161.246643
  0
LINE
  8
0
 10
142.839966
 20
-151.536652
 11
142.839966
 21
-161.246643
  0
LINE
  8
0
 10
142.499969
 20
-151.246643
 11
142.499969
 21
-160.746643
  0
LINE
  8
0
 10
139.499969
 20
-151.246643
 11
139.499969
 21
-160.746643
  0
LINE
  8
0
 10
133.249969
 20
-148.746643
 11
133.249969
 21
-160.746643
  0
LINE
  8
0
 10
148.749969
 20
-148.746643
 11
148.749969
 21
-160.746643
  0
LINE
  8
0
  6
CENTER
 62
     2
 10
170.144730
 20
-64.666656
 11
185.125809
 21
-64.666656
  0
LINE
  8
0
 10
159.709961
 20
-100.466644
 11
156.049973
 21
-100.466644
  0
LINE
  8
0
 10
159.709961
 20
-95.466644
 11
156.049973
 21
-95.466644
  0
LINE
  8
0
 10
159.709961
 20
-69.466644
 11
156.049973
 21
-69.466644
  0
LINE
  8
0
 10
161.519958
 20
-68.966644
 11
156.049973
 21
-68.966644
  0
LINE
  8
0
 10
161.519958
 20
-95.966644
 11
156.049973
 21
-95.966644
  0
LINE
  8
0
 10
161.519958
 20
-99.966644
 11
156.049973
 21
-99.966644
  0
LINE
  8
0
 10
155.049973
 20
-69.966644
 11
155.049973
 21
-94.966644
  0
LINE
  8
0
 10
160.709961
 20
-70.466644
 11
160.709961
 21
-94.466644
  0
LINE
  8
0
 10
162.519958
 20
-69.966644
 11
162.519958
 21
-94.966644
  0
LINE
  8
0
 10
161.779968
 20
-68.466644
 11
155.649963
 21
-68.466644
  0
LINE
  8
0
 10
162.369965
 20
-67.966644
 11
155.649963
 21
-67.966644
  0
LINE
  8
0
 10
122.299973
 20
-100.466644
 11
125.949966
 21
-100.466644
  0
LINE
  8
0
 10
122.299973
 20
-95.466644
 11
125.949966
 21
-95.466644
  0
LINE
  8
0
 10
122.299973
 20
-69.466644
 11
125.949966
 21
-69.466644
  0
LINE
  8
0
 10
120.479980
 20
-68.966644
 11
125.949966
 21
-68.966644
  0
LINE
  8
0
 10
120.479980
 20
-95.966644
 11
125.949966
 21
-95.966644
  0
LINE
  8
0
 10
120.479980
 20
-99.966644
 11
125.949966
 21
-99.966644
  0
LINE
  8
0
 10
126.949966
 20
-69.966644
 11
126.949966
 21
-94.966644
  0
LINE
  8
0
 10
121.299973
 20
-70.466644
 11
121.299973
 21
-94.466644
  0
LINE
  8
0
 10
119.479980
 20
-69.966644
 11
119.479980
 21
-94.966644
  0
LINE
  8
0
 10
120.219971
 20
-68.466644
 11
126.349968
 21
-68.466644
  0
LINE
  8
0
 10
119.639984
 20
-67.966644
 11
126.349968
 21
-67.966644
  0
LINE
  8
0
 10
155.999969
 20
-22.666656
 11
163.409958
 21
-22.666656
  0
LINE
  8
0
 10
180.999969
 20
5.333344
 11
180.999969
 21
-72.666656
  0
LINE
  8
0
 10
155.499969
 20
-21.666656
 11
162.999969
 21
-21.666656
  0
LINE
  8
0
 10
172.999969
 20
4.333344
 11
172.999969
 21
-11.666656
  0
LINE
  8
0
 10
173.999969
 20
-72.666656
 11
180.999969
 21
-72.666656
  0
LINE
  8
0
 10
173.999969
 20
5.333344
 11
180.999969
 21
5.333344
  0
LINE
  8
0
 10
173.999969
 20
-72.666641
 11
172.999969
 21
-71.666649
  0
LINE
  8
0
 10
172.999985
 20
4.333338
 11
173.999985
 21
5.333340
  0
LINE
  8
0
 10
172.999969
 20
-55.666656
 11
171.999969
 21
-54.666653
  0
LINE
  8
0
 10
172.999969
 20
-11.666656
 11
162.999969
 21
-21.666656
  0
LINE
  8
0
 10
173.999969
 20
-55.246651
 11
171.999969
 21
-53.246658
  0
LINE
  8
0
 10
173.999954
 20
-12.086658
 11
163.409958
 21
-22.666660
  0
LINE
  8
0
 10
173.999969
 20
5.333344
 11
173.999969
 21
-12.086670
  0
LINE
  8
0
 10
173.999969
 20
-55.246643
 11
173.999969
 21
-72.666656
  0
LINE
  8
0
 10
172.999969
 20
-55.666656
 11
172.999969
 21
-71.666656
  0
LINE
  8
0
 10
173.999969
 20
2.333344
 11
180.999969
 21
2.333344
  0
LINE
  8
0
 10
173.999969
 20
-69.666656
 11
180.999969
 21
-69.666656
  0
LINE
  8
0
 10
173.999969
 20
-69.666641
 11
172.999969
 21
-69.246651
  0
LINE
  8
0
 10
173.999985
 20
2.333333
 11
172.999969
 21
1.913334
  0
LINE
  8
0
 10
163.409943
 20
-22.666662
 11
162.999969
 21
-21.666664
  0
LINE
  8
0
 10
173.999954
 20
-12.086666
 11
172.999954
 21
-11.666662
  0
LINE
  8
0
 10
173.999939
 20
-55.246647
 11
172.999954
 21
-55.666645
  0
LINE
  8
0
  6
CENTER
 62
     2
 10
169.829956
 20
-2.666656
 11
184.799957
 21
-2.666656
  0
LINE
  8
0
  6
CENTER
 62
     2
 10
186.669968
 20
-33.666656
 11
78.329971
 21
-33.666656
  0
LINE
  8
0
 10
83.999969
 20
-54.666656
 11
104.499969
 21
-54.666656
  0
LINE
  8
0
 10
81.499985
 20
-12.416660
 11
80.999985
 21
-12.916662
  0
LINE
  8
0
 10
81.499969
 20
-54.916649
 11
80.999977
 21
-54.416653
  0
LINE
  8
0
 10
118.799980
 20
-27.876657
 11
114.999969
 21
-27.756657
  0
LINE
  8
0
 10
118.799973
 20
-40.306656
 11
114.999977
 21
-40.426655
  0
LINE
  8
0
 10
114.999969
 20
-26.666656
 11
114.999969
 21
-40.666656
  0
LINE
  8
0
 10
118.799973
 20
-27.026657
 11
114.999977
 21
-26.906658
  0
LINE
  8
0
 10
118.799973
 20
-39.456657
 11
114.999969
 21
-39.576656
  0
LINE
  8
0
 10
83.999969
 20
-12.666656
 11
104.499969
 21
-12.666656
  0
LINE
  8
0
 10
80.999969
 20
-12.916656
 11
80.999969
 21
-54.416656
  0
LINE
  8
0
 10
81.499969
 20
-54.916656
 11
83.999969
 21
-54.916656
  0
LINE
  8
0
 10
81.499969
 20
-12.416656
 11
81.499969
 21
-54.916656
  0
LINE
  8
0
 10
107.499969
 20
-15.666656
 11
107.499969
 21
-51.666656
  0
LINE
  8
0
 10
83.999969
 20
-12.416656
 11
83.999969
 21
-54.916656
  0
LINE
  8
0
 10
114.999969
 20
-40.666656
 11
107.499969
 21
-40.666656
  0
LINE
  8
0
 10
114.999969
 20
-26.666656
 11
107.499969
 21
-26.666656
  0
LINE
  8
0
 10
114.999985
 20
-40.666649
 11
107.499985
 21
-26.666653
  0
LINE
  8
0
 10
107.499985
 20
-40.666664
 11
114.999985
 21
-26.666664
  0
LINE
  8
0
 10
81.499969
 20
-12.416656
 11
83.999969
 21
-12.416656
  0
LINE
  8
0
 10
81.499985
 20
-12.416660
 11
80.999985
 21
-12.916662
  0
LINE
  8
0
 10
109.999969
 20
-45.666656
 11
109.999969
 21
-62.666656
  0
LINE
  8
0
 10
171.999969
 20
-45.666656
 11
171.999969
 21
-62.666656
  0
LINE
  8
0
 10
110.999969
 20
-63.666656
 11
170.999969
 21
-63.666656
  0
LINE
  8
0
 10
109.999969
 20
-45.666656
 11
171.999969
 21
-45.666656
  0
LINE
  8
0
 10
155.999969
 20
-22.666656
 11
155.999969
 21
-45.666656
  0
LINE
  8
0
 10
125.999969
 20
-22.666656
 11
125.999969
 21
-45.666656
  0
LINE
  8
0
 10
126.999969
 20
-21.666656
 11
154.999969
 21
-21.666656
  0
LINE
  8
0
 10
110.999969
 20
-44.666656
 11
125.999969
 21
-44.666656
  0
LINE
  8
0
 10
170.999954
 20
-44.666645
 11
171.999954
 21
-45.666649
  0
LINE
  8
0
 10
171.999954
 20
-62.666653
 11
170.999954
 21
-63.666653
  0
LINE
  8
0
 10
110.999969
 20
-63.666656
 11
109.999969
 21
-62.666656
  0
LINE
  8
0
 10
109.999977
 20
-45.666653
 11
110.999977
 21
-44.666649
  0
LINE
  8
0
 10
155.999969
 20
-44.666656
 11
170.999969
 21
-44.666656
  0
LINE
  8
0
 10
109.999969
 20
-62.666656
 11
171.999969
 21
-62.666656
  0
LINE
  8
0
 10
125.999977
 20
-22.666664
 11
126.999977
 21
-21.666662
  0
LINE
  8
0
 10
154.999954
 20
-21.666662
 11
155.999954
 21
-22.666664
  0
LINE
  8
0
 10
126.999969
 20
-21.666656
 11
126.999969
 21
-45.666656
  0
LINE
  8
0
 10
125.999969
 20
-22.666656
 11
155.999969
 21
-22.666656
  0
LINE
  8
0
 10
154.999969
 20
-21.666656
 11
154.999969
 21
-45.666656
  0
LINE
  8
0
 10
118.799973
 20
-18.666656
 11
155.999969
 21
-18.666656
  0
LINE
  8
0
  6
CENTER
 62
     2
 10
126.999969
 20
-8.686661
 11
126.999969
 21
-20.066658
  0
LINE
  8
0
 10
118.799973
 20
-18.666656
 11
118.799973
 21
-44.666656
  0
LINE
  8
0
  6
CENTER
 62
     2
 10
141.999969
 20
5.013336
 11
141.999969
 21
-19.156658
  0
LINE
  8
0
 10
155.499969
 20
-18.666656
 11
155.499969
 21
-22.166656
  0
LINE
  8
0
 10
128.499969
 20
-18.666656
 11
128.499969
 21
-21.666656
  0
LINE
  8
0
 10
128.999969
 20
-10.666656
 11
154.999969
 21
-10.666656
  0
LINE
  8
0
 10
127.999969
 20
-11.666656
 11
127.999969
 21
-18.666656
  0
LINE
  8
0
 10
155.999969
 20
-11.666656
 11
155.999969
 21
-18.666656
  0
LINE
  8
0
 10
127.999969
 20
-11.666663
 11
128.999969
 21
-10.666662
  0
LINE
  8
0
 10
154.999969
 20
-10.666656
 11
155.999969
 21
-11.666657
  0
LINE
  8
0
 10
143.499969
 20
-11.666656
 11
143.499969
 21
-17.166656
  0
LINE
  8
0
 10
147.659973
 20
-11.666656
 11
147.659973
 21
-17.166656
  0
LINE
  8
0
 10
150.249969
 20
-11.666656
 11
150.249969
 21
-17.166656
  0
LINE
  8
0
 10
153.299973
 20
-11.666656
 11
153.299973
 21
-17.166656
  0
LINE
  8
0
 10
154.799973
 20
-11.666656
 11
154.799973
 21
-17.166656
  0
LINE
  8
0
 10
143.499969
 20
-17.166656
 11
147.659973
 21
-17.166656
  0
LINE
  8
0
 10
143.999969
 20
-16.666656
 11
147.159973
 21
-16.666656
  0
LINE
  8
0
 10
143.999969
 20
-11.166656
 11
143.999969
 21
-16.666656
  0
LINE
  8
0
 10
150.249969
 20
-17.166656
 11
153.299973
 21
-17.166656
  0
LINE
  8
0
 10
147.159973
 20
-11.166656
 11
147.159973
 21
-16.666656
  0
LINE
  8
0
 10
141.999969
 20
-11.666656
 11
143.499969
 21
-11.666656
  0
LINE
  8
0
 10
143.499969
 20
-11.666657
 11
143.999969
 21
-11.166656
  0
LINE
  8
0
 10
143.999969
 20
-11.166656
 11
147.159973
 21
-11.166656
  0
LINE
  8
0
 10
147.159958
 20
-11.166662
 11
147.659958
 21
-11.666663
  0
LINE
  8
0
 10
147.159958
 20
-16.666656
 11
147.659958
 21
-17.166658
  0
LINE
  8
0
 10
143.499969
 20
-17.166662
 11
143.999969
 21
-16.666660
  0
LINE
  8
0
 10
147.659973
 20
-11.666656
 11
150.249969
 21
-11.666656
  0
LINE
  8
0
 10
149.749969
 20
-11.166656
 11
152.799973
 21
-11.166656
  0
LINE
  8
0
 10
150.249969
 20
-16.666656
 11
152.799973
 21
-16.666656
  0
LINE
  8
0
 10
152.799973
 20
-11.166656
 11
152.799973
 21
-16.666656
  0
LINE
  8
0
 10
153.299973
 20
-11.666656
 11
154.799973
 21
-11.666656
  0
LINE
  8
0
 10
149.749969
 20
-11.166662
 11
150.249969
 21
-11.666663
  0
LINE
  8
0
 10
152.799957
 20
-11.166662
 11
153.299957
 21
-11.666663
  0
LINE
  8
0
 10
154.299973
 20
-11.166656
 11
155.499969
 21
-11.166656
  0
LINE
  8
0
 10
154.299973
 20
-11.166656
 11
154.799973
 21
-11.666657
  0
LINE
  8
0
 10
154.799973
 20
-17.166656
 11
155.999969
 21
-17.166656
  0
LINE
  8
0
 10
152.799973
 20
-16.666662
 11
153.299973
 21
-17.166658
  0
LINE
  8
0
 10
155.499969
 20
-11.166656
 11
155.499969
 21
-16.666656
  0
LINE
  8
0
 10
154.799973
 20
-16.666656
 11
155.499969
 21
-16.666656
  0
LINE
  8
0
 10
155.499954
 20
-16.666668
 11
155.999954
 21
-17.166668
  0
LINE
  8
0
 10
141.999969
 20
-11.666656
 11
140.499969
 21
-11.666656
  0
LINE
  8
0
 10
140.499969
 20
-11.666654
 11
139.999969
 21
-11.166660
  0
LINE
  8
0
 10
140.499969
 20
-11.666656
 11
140.499969
 21
-17.166656
  0
LINE
  8
0
 10
139.999969
 20
-11.166656
 11
139.999969
 21
-16.666656
  0
LINE
  8
0
 10
140.499969
 20
-17.166653
 11
139.999969
 21
-16.666656
  0
LINE
  8
0
 10
139.999969
 20
-16.666656
 11
136.839966
 21
-16.666656
  0
LINE
  8
0
 10
140.499969
 20
-17.166656
 11
136.339966
 21
-17.166656
  0
LINE
  8
0
 10
139.999969
 20
-11.166656
 11
136.839966
 21
-11.166656
  0
LINE
  8
0
 10
136.839981
 20
-11.166662
 11
136.339981
 21
-11.666663
  0
LINE
  8
0
 10
136.839966
 20
-11.166656
 11
136.839966
 21
-16.666656
  0
LINE
  8
0
 10
136.339966
 20
-11.666656
 11
136.339966
 21
-17.166656
  0
LINE
  8
0
 10
136.339966
 20
-11.666656
 11
133.749969
 21
-11.666656
  0
LINE
  8
0
 10
136.839966
 20
-16.666653
 11
136.339966
 21
-17.166653
  0
LINE
  8
0
 10
134.249985
 20
-11.166662
 11
133.749985
 21
-11.666663
  0
LINE
  8
0
 10
134.249969
 20
-11.166656
 11
131.199966
 21
-11.166656
  0
LINE
  8
0
 10
133.749969
 20
-11.666656
 11
133.749969
 21
-17.166656
  0
LINE
  8
0
 10
133.749969
 20
-16.666656
 11
131.199966
 21
-16.666656
  0
LINE
  8
0
 10
133.749969
 20
-17.166656
 11
130.699966
 21
-17.166656
  0
LINE
  8
0
 10
131.199966
 20
-11.166656
 11
131.199966
 21
-16.666656
  0
LINE
  8
0
 10
131.199982
 20
-16.666662
 11
130.699982
 21
-17.166664
  0
LINE
  8
0
 10
130.699966
 20
-11.666656
 11
130.699966
 21
-17.166656
  0
LINE
  8
0
 10
131.199982
 20
-11.166662
 11
130.699982
 21
-11.666663
  0
LINE
  8
0
 10
130.699966
 20
-11.666656
 11
129.199966
 21
-11.666656
  0
LINE
  8
0
 10
129.699966
 20
-11.166656
 11
129.199966
 21
-11.666657
  0
LINE
  8
0
 10
128.499969
 20
-11.166656
 11
128.499969
 21
-16.666656
  0
LINE
  8
0
 10
129.199966
 20
-11.666656
 11
129.199966
 21
-17.166656
  0
LINE
  8
0
 10
129.199966
 20
-16.666656
 11
128.499969
 21
-16.666656
  0
LINE
  8
0
 10
129.199966
 20
-17.166656
 11
127.999969
 21
-17.166656
  0
LINE
  8
0
 10
128.499969
 20
-16.666656
 11
127.999969
 21
-17.166658
  0
LINE
  8
0
 10
135.049973
 20
-3.616669
 11
135.049973
 21
-9.666656
  0
LINE
  8
0
 10
148.949966
 20
-3.616669
 11
148.949966
 21
-9.666656
  0
LINE
  8
0
 10
134.799973
 20
-9.666656
 11
149.199966
 21
-9.666656
  0
LINE
  8
0
 10
134.799973
 20
-9.666656
 11
134.799973
 21
-10.666656
  0
LINE
  8
0
 10
149.199966
 20
-9.666656
 11
149.199966
 21
-10.666656
  0
LINE
  8
0
 10
119.499969
 20
-10.666656
 11
128.999969
 21
-10.666656
  0
LINE
  8
0
 10
128.499969
 20
-11.166656
 11
129.699966
 21
-11.166656
  0
LINE
  8
0
 10
118.999969
 20
-11.166656
 11
118.999969
 21
-18.666656
  0
LINE
  8
0
 10
118.999977
 20
-11.166659
 11
119.499969
 21
-10.666665
  0
LINE
  8
0
 10
128.499969
 20
-11.166656
 11
125.499969
 21
-11.166656
  0
LINE
  8
0
 10
125.499969
 20
-11.166656
 11
124.999969
 21
-10.666656
  0
LINE
  8
0
 10
124.999969
 20
-10.666656
 11
124.999969
 21
-16.666656
  0
LINE
  8
0
 10
125.499969
 20
-11.166656
 11
125.499969
 21
-17.166656
  0
LINE
  8
0
 10
124.999969
 20
-16.666656
 11
123.009979
 21
-16.666656
  0
LINE
  8
0
 10
125.499985
 20
-17.166662
 11
124.999977
 21
-16.666660
  0
LINE
  8
0
 10
125.499969
 20
-17.166656
 11
122.509979
 21
-17.166656
  0
LINE
  8
0
 10
123.009979
 20
-10.666656
 11
123.009979
 21
-16.666656
  0
LINE
  8
0
 10
123.009979
 20
-16.666664
 11
122.509979
 21
-17.166664
  0
LINE
  8
0
 10
122.509979
 20
-11.166656
 11
122.509979
 21
-17.166656
  0
LINE
  8
0
 10
123.009979
 20
-10.666668
 11
122.509972
 21
-11.166668
  0
LINE
  8
0
 10
122.509979
 20
-11.166656
 11
120.389984
 21
-11.166656
  0
LINE
  8
0
 10
120.889969
 20
-10.666662
 11
120.389969
 21
-11.166662
  0
LINE
  8
0
 10
120.389984
 20
-11.166656
 11
120.389984
 21
-17.166656
  0
LINE
  8
0
 10
120.389984
 20
-16.666656
 11
119.499969
 21
-16.666656
  0
LINE
  8
0
 10
120.389984
 20
-17.166656
 11
118.999969
 21
-17.166656
  0
LINE
  8
0
 10
119.499977
 20
-16.666662
 11
118.999977
 21
-17.166664
  0
LINE
  8
0
 10
119.499969
 20
-10.666656
 11
119.499969
 21
-16.666656
  0
LINE
  8
0
 10
83.999969
 20
-33.666656
 11
81.499969
 21
-33.666656
  0
LINE
  8
0
 10
166.529968
 20
-135.536621
 11
167.159943
 21
-63.666645
  0
LINE
  8
0
 10
115.469978
 20
-135.536636
 11
114.839981
 21
-63.666641
  0
LINE
  8
0
 10
118.639984
 20
-68.966644
 11
118.639984
 21
-127.956650
  0
LINE
  8
0
 10
127.349968
 20
-68.966644
 11
127.349968
 21
-127.956650
  0
LINE
  8
0
 10
119.219971
 20
-69.466644
 11
119.219971
 21
-127.456650
  0
LINE
  8
0
 10
119.479980
 20
-100.966644
 11
119.479980
 21
-126.956650
  0
LINE
  8
0
 10
121.299973
 20
-101.466644
 11
121.299973
 21
-126.456650
  0
LINE
  8
0
 10
126.949966
 20
-100.966644
 11
126.949966
 21
-126.956650
  0
LINE
  8
0
 10
163.369965
 20
-68.966644
 11
163.369965
 21
-127.956650
  0
LINE
  8
0
 10
154.649963
 20
-68.966644
 11
154.649963
 21
-127.956650
  0
LINE
  8
0
 10
162.779968
 20
-69.466644
 11
162.779968
 21
-127.456650
  0
LINE
  8
0
 10
162.519958
 20
-100.966644
 11
162.519958
 21
-126.956650
  0
LINE
  8
0
 10
160.709961
 20
-101.466644
 11
160.709961
 21
-126.456650
  0
LINE
  8
0
 10
155.049973
 20
-100.966644
 11
155.049973
 21
-126.956650
  0
LINE
  8
0
  6
CENTER
 62
     2
 10
140.999969
 20
-11.556671
 11
140.999969
 21
-175.756653
  0
LINE
  8
0
  6
CENTER
 62
     2
 10
-152.000061
 20
-172.286652
 11
-152.000061
 21
-17.506668
  0
LINE
  8
0
  6
CENTER
 62
     2
 10
-152.000061
 20
-172.576645
 11
-152.000061
 21
-17.796658
  0
LINE
  8
0
 10
-154.850067
 20
-165.146652
 11
-154.850067
 21
-163.246643
  0
LINE
  8
0
 10
-149.150070
 20
-165.146652
 11
-149.150070
 21
-163.246643
  0
LINE
  8
0
 10
-58.800072
 20
-72.666656
 11
-58.259823
 21
-72.126411
  0
LINE
  8
0
 10
-3.470069
 20
-135.536652
 11
-2.840069
 21
-63.666649
  0
LINE
  8
0
 10
-7.220062
 20
-69.466644
 11
-7.220062
 21
-127.456650
  0
LINE
  8
0
 10
-15.350067
 20
-68.966644
 11
-15.350067
 21
-127.956650
  0
LINE
  8
0
 10
-14.950073
 20
-69.966644
 11
-14.950073
 21
-94.966644
  0
LINE
  8
0
 10
-9.290070
 20
-70.466644
 11
-9.290070
 21
-94.466644
  0
LINE
  8
0
 10
-7.480072
 20
-69.966644
 11
-7.480072
 21
-94.966644
  0
LINE
  8
0
 10
-6.630066
 20
-68.966644
 11
-6.630066
 21
-127.956650
  0
LINE
  8
0
 10
-7.630066
 20
-128.956650
 11
-14.350067
 21
-128.956650
  0
LINE
  8
0
 10
-8.220062
 20
-128.456650
 11
-14.350067
 21
-128.456650
  0
LINE
  8
0
 10
-7.480072
 20
-100.966644
 11
-7.480072
 21
-126.956650
  0
LINE
  8
0
 10
-9.290070
 20
-101.466644
 11
-9.290070
 21
-126.456650
  0
LINE
  8
0
 10
-14.950073
 20
-100.966644
 11
-14.950073
 21
-126.956650
  0
LINE
  8
0
 10
-8.480072
 20
-127.956650
 11
-13.950073
 21
-127.956650
  0
LINE
  8
0
 10
-8.480072
 20
-99.966644
 11
-13.950073
 21
-99.966644
  0
LINE
  8
0
 10
-8.480072
 20
-95.966644
 11
-13.950073
 21
-95.966644
  0
LINE
  8
0
 10
-10.290070
 20
-127.456650
 11
-13.950073
 21
-127.456650
  0
LINE
  8
0
 10
-10.290070
 20
-95.466644
 11
-13.950073
 21
-95.466644
  0
LINE
  8
0
 10
-10.290070
 20
-100.466644
 11
-13.950073
 21
-100.466644
  0
LINE
  8
0
 10
-7.630066
 20
-67.966644
 11
-14.350067
 21
-67.966644
  0
LINE
  8
0
 10
-8.220062
 20
-68.466644
 11
-14.350067
 21
-68.466644
  0
LINE
  8
0
 10
-8.480072
 20
-68.966644
 11
-13.950073
 21
-68.966644
  0
LINE
  8
0
 10
-10.290070
 20
-69.466644
 11
-13.950073
 21
-69.466644
  0
LINE
  8
0
 10
-50.770065
 20
-69.466644
 11
-50.770065
 21
-127.456650
  0
LINE
  8
0
 10
-42.640076
 20
-68.966644
 11
-42.640076
 21
-127.956650
  0
LINE
  8
0
 10
-43.040070
 20
-69.966644
 11
-43.040070
 21
-94.966644
  0
LINE
  8
0
 10
-48.700073
 20
-70.466644
 11
-48.700073
 21
-94.466644
  0
LINE
  8
0
 10
-50.520065
 20
-69.966644
 11
-50.520065
 21
-94.966644
  0
LINE
  8
0
 10
-51.360062
 20
-68.966644
 11
-51.360062
 21
-127.956650
  0
LINE
  8
0
 10
-58.400063
 20
-66.076645
 11
-57.890064
 21
-88.076645
  0
LINE
  8
0
 10
-57.910065
 20
-65.566650
 11
-57.580063
 21
-79.606651
  0
LINE
  8
0
 10
-57.890072
 20
-88.076645
 11
-57.740070
 21
-88.216644
  0
LINE
  8
0
 10
-57.810066
 20
-79.966660
 11
-55.050068
 21
-75.636665
  0
LINE
  8
0
 10
-54.890076
 20
-93.466660
 11
-57.670074
 21
-89.486664
  0
LINE
  8
0
 10
-57.730064
 20
-89.346649
 11
-57.810062
 21
-79.966652
  0
LINE
  8
0
 10
-50.360062
 20
-128.956650
 11
-43.640076
 21
-128.956650
  0
LINE
  8
0
 10
-49.770065
 20
-128.456650
 11
-43.640076
 21
-128.456650
  0
LINE
  8
0
 10
-50.520065
 20
-100.966644
 11
-50.520065
 21
-126.956650
  0
LINE
  8
0
 10
-48.700073
 20
-101.466644
 11
-48.700073
 21
-126.456650
  0
LINE
  8
0
 10
-43.040070
 20
-100.966644
 11
-43.040070
 21
-126.956650
  0
LINE
  8
0
 10
-49.520065
 20
-127.956650
 11
-44.040070
 21
-127.956650
  0
LINE
  8
0
 10
-49.520065
 20
-99.966644
 11
-44.040070
 21
-99.966644
  0
LINE
  8
0
 10
-49.520065
 20
-95.966644
 11
-44.040070
 21
-95.966644
  0
LINE
  8
0
 10
-54.520073
 20
-135.536652
 11
-54.890072
 21
-93.466644
  0
LINE
  8
0
 10
-47.700073
 20
-127.456650
 11
-44.040070
 21
-127.456650
  0
LINE
  8
0
 10
-47.700073
 20
-95.466644
 11
-44.040070
 21
-95.466644
  0
LINE
  8
0
 10
-47.700073
 20
-100.466644
 11
-44.040070
 21
-100.466644
  0
LINE
  8
0
 10
-50.360062
 20
-67.966644
 11
-43.640076
 21
-67.966644
  0
LINE
  8
0
 10
-49.770065
 20
-68.466644
 11
-43.640076
 21
-68.466644
  0
LINE
  8
0
 10
-49.520065
 20
-68.966644
 11
-44.040070
 21
-68.966644
  0
LINE
  8
0
 10
-47.700073
 20
-69.466644
 11
-44.040070
 21
-69.466644
  0
LINE
  8
0
 10
-58.400078
 20
-66.076660
 11
-57.910076
 21
-65.566666
  0
LINE
  8
0
 10
-57.910065
 20
-65.566643
 11
-56.840065
 21
-65.536644
  0
LINE
  8
0
 10
-56.880077
 20
-63.666645
 11
-56.840076
 21
-65.536659
  0
LINE
  8
0
 10
-57.460075
 20
-63.666645
 11
-57.410076
 21
-65.556633
  0
LINE
  8
0
 10
-13.470062
 20
-145.456650
 11
-44.530075
 21
-145.456650
  0
LINE
  8
0
 10
-55.050072
 20
-75.636658
 11
-55.150070
 21
-63.666649
  0
LINE
  8
0
 10
-180.910065
 20
-65.566650
 11
-179.840057
 21
-65.536652
  0
LINE
  8
0
 10
-181.400055
 20
-66.076660
 11
-180.910065
 21
-65.566658
  0
LINE
  8
0
 10
-179.880081
 20
-63.666645
 11
-179.840073
 21
-65.536652
  0
LINE
  8
0
 10
-180.460068
 20
-63.666653
 11
-180.410065
 21
-65.556648
  0
LINE
  8
0
 10
-170.700058
 20
-69.466644
 11
-167.040070
 21
-69.466644
  0
LINE
  8
0
 10
-172.520065
 20
-68.966644
 11
-167.040070
 21
-68.966644
  0
LINE
  8
0
 10
-172.770065
 20
-68.466644
 11
-166.640076
 21
-68.466644
  0
LINE
  8
0
 10
-173.360062
 20
-67.966644
 11
-166.640076
 21
-67.966644
  0
LINE
  8
0
 10
-133.290070
 20
-69.466644
 11
-136.950073
 21
-69.466644
  0
LINE
  8
0
 10
-131.480072
 20
-68.966644
 11
-136.950073
 21
-68.966644
  0
LINE
  8
0
 10
-131.220062
 20
-68.466644
 11
-137.350067
 21
-68.466644
  0
LINE
  8
0
 10
-130.630066
 20
-67.966644
 11
-137.350067
 21
-67.966644
  0
LINE
  8
0
 10
-136.470062
 20
-145.456650
 11
-167.530060
 21
-145.456650
  0
LINE
  8
0
 10
-170.700058
 20
-100.466644
 11
-167.040070
 21
-100.466644
  0
LINE
  8
0
 10
-170.700058
 20
-95.466644
 11
-167.040070
 21
-95.466644
  0
LINE
  8
0
 10
-170.700058
 20
-127.456650
 11
-167.040070
 21
-127.456650
  0
LINE
  8
0
 10
-177.520065
 20
-135.536652
 11
-177.890060
 21
-93.466644
  0
LINE
  8
0
 10
-172.520065
 20
-95.966644
 11
-167.040070
 21
-95.966644
  0
LINE
  8
0
 10
-172.520065
 20
-99.966644
 11
-167.040070
 21
-99.966644
  0
LINE
  8
0
 10
-172.520065
 20
-127.956650
 11
-167.040070
 21
-127.956650
  0
LINE
  8
0
 10
-166.040070
 20
-100.966644
 11
-166.040070
 21
-126.956650
  0
LINE
  8
0
 10
-171.700058
 20
-101.466644
 11
-171.700058
 21
-126.456650
  0
LINE
  8
0
 10
-173.520065
 20
-100.966644
 11
-173.520065
 21
-126.956650
  0
LINE
  8
0
 10
-172.770065
 20
-128.456650
 11
-166.640076
 21
-128.456650
  0
LINE
  8
0
 10
-173.360062
 20
-128.956650
 11
-166.640076
 21
-128.956650
  0
LINE
  8
0
 10
-133.290070
 20
-100.466644
 11
-136.950073
 21
-100.466644
  0
LINE
  8
0
 10
-133.290070
 20
-95.466644
 11
-136.950073
 21
-95.466644
  0
LINE
  8
0
 10
-133.290070
 20
-127.456650
 11
-136.950073
 21
-127.456650
  0
LINE
  8
0
 10
-131.480072
 20
-95.966644
 11
-136.950073
 21
-95.966644
  0
LINE
  8
0
 10
-131.480072
 20
-99.966644
 11
-136.950073
 21
-99.966644
  0
LINE
  8
0
 10
-131.480072
 20
-127.956650
 11
-136.950073
 21
-127.956650
  0
LINE
  8
0
 10
-137.950073
 20
-100.966644
 11
-137.950073
 21
-126.956650
  0
LINE
  8
0
 10
-132.290070
 20
-101.466644
 11
-132.290070
 21
-126.456650
  0
LINE
  8
0
 10
-130.480072
 20
-100.966644
 11
-130.480072
 21
-126.956650
  0
LINE
  8
0
 10
-131.220062
 20
-128.456650
 11
-137.350067
 21
-128.456650
  0
LINE
  8
0
 10
-130.630066
 20
-128.956650
 11
-137.350067
 21
-128.956650
  0
LINE
  8
0
 10
-180.730057
 20
-89.346642
 11
-180.810059
 21
-79.966644
  0
LINE
  8
0
 10
-177.890060
 20
-93.466652
 11
-180.670059
 21
-89.486656
  0
LINE
  8
0
 10
-180.810074
 20
-79.966652
 11
-178.050064
 21
-75.636642
  0
LINE
  8
0
 10
-180.890060
 20
-88.076653
 11
-180.740082
 21
-88.216644
  0
LINE
  8
0
 10
-160.070068
 20
-146.456650
 11
-143.920074
 21
-146.456650
  0
LINE
  8
0
 10
-159.570068
 20
-146.956650
 11
-144.420074
 21
-146.956650
  0
LINE
  8
0
 10
-160.070068
 20
-146.456650
 11
-160.070068
 21
-145.456650
  0
LINE
  8
0
 10
-143.920074
 20
-146.456650
 11
-143.920074
 21
-145.456650
  0
LINE
  8
0
 10
-144.420059
 20
-146.956635
 11
-143.920059
 21
-146.456635
  0
LINE
  8
0
 10
-159.570053
 20
-146.956650
 11
-160.070053
 21
-146.456650
  0
LINE
  8
0
 10
-145.250061
 20
-161.746643
 11
-158.750061
 21
-161.746643
  0
LINE
  8
0
 10
-144.250061
 20
-148.746643
 11
-144.250061
 21
-160.746643
  0
LINE
  8
0
 10
-159.750061
 20
-148.746643
 11
-159.750061
 21
-160.746643
  0
LINE
  8
0
 10
-144.250061
 20
-160.746643
 11
-145.250061
 21
-161.746643
  0
LINE
  8
0
 10
-158.750061
 20
-161.746643
 11
-159.750061
 21
-160.746643
  0
LINE
  8
0
 10
-144.750061
 20
-148.246643
 11
-159.250061
 21
-148.246643
  0
LINE
  8
0
 10
-144.750061
 20
-148.246643
 11
-144.250061
 21
-148.746643
  0
LINE
  8
0
 10
-159.250061
 20
-148.246658
 11
-159.750046
 21
-148.746643
  0
LINE
  8
0
 10
-146.000061
 20
-146.956650
 11
-146.000061
 21
-148.246643
  0
LINE
  8
0
 10
-158.000061
 20
-146.956650
 11
-158.000061
 21
-148.246643
  0
LINE
  8
0
 62
     2
 10
-157.250061
 20
-146.956650
 11
-157.250061
 21
-148.246643
  0
LINE
  8
0
 62
     2
 10
-146.750061
 20
-146.956650
 11
-146.750061
 21
-148.246643
  0
LINE
  8
0
 10
-153.500061
 20
-151.246643
 11
-153.500061
 21
-160.746643
  0
LINE
  8
0
 10
-150.500061
 20
-151.246643
 11
-150.500061
 21
-160.746643
  0
LINE
  8
0
 10
-150.150070
 20
-151.536652
 11
-150.150070
 21
-161.246643
  0
LINE
  8
0
 10
-153.840073
 20
-151.536652
 11
-153.840073
 21
-161.246643
  0
LINE
  8
0
 10
-155.650070
 20
-151.536652
 11
-155.650070
 21
-161.246643
  0
LINE
  8
0
 10
-156.310074
 20
-151.246643
 11
-156.310074
 21
-160.746643
  0
LINE
  8
0
 10
-158.430069
 20
-151.246643
 11
-158.430069
 21
-160.746643
  0
LINE
  8
0
 10
-159.010071
 20
-151.536652
 11
-159.010071
 21
-161.246643
  0
LINE
  8
0
 10
-159.600067
 20
-151.246643
 11
-159.600067
 21
-160.746643
  0
LINE
  8
0
 10
-148.340073
 20
-151.536652
 11
-148.340073
 21
-161.246643
  0
LINE
  8
0
 10
-147.680069
 20
-151.246643
 11
-147.680069
 21
-160.746643
  0
LINE
  8
0
 10
-145.560074
 20
-151.246643
 11
-145.560074
 21
-160.746643
  0
LINE
  8
0
 10
-144.980072
 20
-151.536652
 11
-144.980072
 21
-161.246643
  0
LINE
  8
0
 10
-144.390076
 20
-151.246643
 11
-144.390076
 21
-160.746643
  0
LINE
  8
0
 10
-144.390076
 20
-151.246643
 11
-145.560074
 21
-151.246643
  0
LINE
  8
0
 10
-144.980072
 20
-151.536652
 11
-145.560074
 21
-151.536652
  0
LINE
  8
0
 10
-144.250061
 20
-160.746643
 11
-144.390076
 21
-160.746643
  0
LINE
  8
0
 10
-153.500061
 20
-151.246643
 11
-156.310074
 21
-151.246643
  0
LINE
  8
0
 10
-153.840073
 20
-151.536652
 11
-155.650070
 21
-151.536652
  0
LINE
  8
0
 10
-147.680069
 20
-151.246643
 11
-150.500061
 21
-151.246643
  0
LINE
  8
0
 10
-148.340073
 20
-151.536652
 11
-150.150070
 21
-151.536652
  0
LINE
  8
0
 10
-158.430069
 20
-151.246643
 11
-159.600067
 21
-151.246643
  0
LINE
  8
0
 10
-158.430069
 20
-151.536652
 11
-159.010071
 21
-151.536652
  0
LINE
  8
0
 10
-150.500061
 20
-160.746643
 11
-153.500061
 21
-160.746643
  0
LINE
  8
0
 10
-156.310074
 20
-160.746643
 11
-158.430069
 21
-160.746643
  0
LINE
  8
0
 10
-159.600067
 20
-160.746643
 11
-159.750061
 21
-160.746643
  0
LINE
  8
0
 10
-145.560074
 20
-160.746643
 11
-147.680069
 21
-160.746643
  0
LINE
  8
0
 10
-148.340073
 20
-161.246643
 11
-150.150070
 21
-161.246643
  0
LINE
  8
0
 10
-144.980057
 20
-161.246643
 11
-144.390045
 21
-160.746643
  0
LINE
  8
0
 10
-148.340057
 20
-161.246643
 11
-147.680069
 21
-160.746658
  0
LINE
  8
0
 10
-150.150055
 20
-161.246643
 11
-150.500046
 21
-160.746643
  0
LINE
  8
0
 10
-153.500061
 20
-160.746643
 11
-153.840057
 21
-161.246643
  0
LINE
  8
0
 10
-155.650055
 20
-161.246628
 11
-156.310043
 21
-160.746643
  0
LINE
  8
0
 10
-159.010056
 20
-161.246643
 11
-159.600067
 21
-160.746628
  0
LINE
  8
0
 10
-159.010056
 20
-151.536636
 11
-159.600067
 21
-151.246643
  0
LINE
  8
0
 10
-155.650070
 20
-151.536652
 11
-156.310059
 21
-151.246658
  0
LINE
  8
0
 10
-153.840057
 20
-151.536636
 11
-153.500061
 21
-151.246643
  0
LINE
  8
0
 10
-150.150070
 20
-151.536652
 11
-150.500061
 21
-151.246658
  0
LINE
  8
0
 10
-148.340073
 20
-151.536652
 11
-147.680069
 21
-151.246643
  0
LINE
  8
0
 10
-144.980042
 20
-151.536652
 11
-144.390060
 21
-151.246643
  0
LINE
  8
0
 10
-145.560059
 20
-160.746658
 11
-145.740067
 21
-161.246658
  0
LINE
  8
0
 10
-158.430069
 20
-160.746643
 11
-158.260071
 21
-161.246643
  0
LINE
  8
0
 10
-153.840073
 20
-161.246643
 11
-155.650070
 21
-161.246643
  0
LINE
  8
0
 10
-144.980072
 20
-161.246643
 11
-145.740067
 21
-161.246643
  0
LINE
  8
0
 10
-158.260071
 20
-161.246643
 11
-159.010071
 21
-161.246643
  0
LINE
  8
0
 10
-144.250061
 20
-148.746643
 11
-159.750061
 21
-148.746643
  0
LINE
  8
0
 10
-146.000061
 20
-163.246643
 11
-158.000061
 21
-163.246643
  0
LINE
  8
0
 10
-145.500061
 20
-162.746643
 11
-145.500061
 21
-161.746643
  0
LINE
  8
0
 10
-158.500061
 20
-162.746643
 11
-158.500061
 21
-161.746643
  0
LINE
  8
0
 10
-158.500061
 20
-162.746628
 11
-158.000061
 21
-163.246628
  0
LINE
  8
0
 10
-146.000061
 20
-163.246643
 11
-145.500061
 21
-162.746643
  0
LINE
  8
0
 10
-158.500061
 20
-162.746643
 11
-145.500061
 21
-162.746643
  0
LINE
  8
0
 10
-180.910065
 20
-65.566650
 11
-180.580063
 21
-79.606651
  0
LINE
  8
0
 10
-181.400055
 20
-66.076645
 11
-180.890060
 21
-88.076653
  0
LINE
  8
0
 10
-178.050064
 20
-75.636642
 11
-178.150055
 21
-63.666653
  0
LINE
  8
0
 10
-129.630066
 20
-68.966644
 11
-129.630066
 21
-127.956650
  0
LINE
  8
0
 10
-130.480072
 20
-69.966644
 11
-130.480072
 21
-94.966644
  0
LINE
  8
0
 10
-132.290070
 20
-70.466644
 11
-132.290070
 21
-94.466644
  0
LINE
  8
0
 10
-137.950073
 20
-69.966644
 11
-137.950073
 21
-94.966644
  0
LINE
  8
0
 10
-138.350067
 20
-68.966644
 11
-138.350067
 21
-127.956650
  0
LINE
  8
0
 10
-130.220062
 20
-69.466644
 11
-130.220062
 21
-127.456650
  0
LINE
  8
0
 10
-174.360062
 20
-68.966644
 11
-174.360062
 21
-127.956650
  0
LINE
  8
0
 10
-173.520065
 20
-69.966644
 11
-173.520065
 21
-94.966644
  0
LINE
  8
0
 10
-171.700058
 20
-70.466644
 11
-171.700058
 21
-94.466644
  0
LINE
  8
0
 10
-166.040070
 20
-69.966644
 11
-166.040070
 21
-94.966644
  0
LINE
  8
0
 10
-165.640076
 20
-68.966644
 11
-165.640076
 21
-127.956650
  0
LINE
  8
0
 10
-173.770065
 20
-69.466644
 11
-173.770065
 21
-127.456650
  0
LINE
  8
0
 10
-126.470055
 20
-135.536652
 11
-125.840057
 21
-63.666649
  0
LINE
  8
0
 10
-182.000061
 20
-63.666656
 11
-122.000061
 21
-63.666656
  0
LINE
  8
0
 10
-183.500061
 20
-45.666656
 11
-183.500061
 21
-22.666656
  0
LINE
  8
0
 10
-182.500061
 20
-21.666656
 11
-183.500061
 21
-22.666658
  0
LINE
  8
0
 10
-181.000061
 20
-21.666656
 11
-181.000061
 21
-21.166656
  0
LINE
  8
0
 10
-174.000061
 20
-21.666656
 11
-174.000061
 21
-21.166656
  0
LINE
  8
0
 10
-174.000061
 20
-21.166656
 11
-181.000061
 21
-21.166656
  0
LINE
  8
0
 10
-125.500061
 20
-40.666656
 11
-125.500061
 21
-26.666656
  0
LINE
  8
0
 10
-181.500061
 20
-40.666656
 11
-181.500061
 21
-26.666656
  0
LINE
  8
0
 10
-178.500061
 20
-40.666656
 11
-178.500061
 21
-26.666656
  0
LINE
  8
0
 10
-181.500061
 20
-26.666656
 11
-178.800064
 21
-26.666656
  0
LINE
  8
0
 10
-181.500061
 20
-40.666656
 11
-178.500061
 21
-40.666656
  0
LINE
  8
0
 10
-125.500061
 20
-26.666656
 11
-125.200073
 21
-26.666656
  0
LINE
  8
0
 10
-125.500061
 20
-40.666656
 11
-125.200073
 21
-40.666656
  0
LINE
  8
0
 10
-178.130066
 20
-44.666656
 11
-125.880066
 21
-44.666656
  0
LINE
  8
0
 10
-124.880074
 20
-45.666649
 11
-125.880074
 21
-44.666649
  0
LINE
  8
0
 10
-124.880074
 20
-45.666649
 11
-125.880074
 21
-44.666649
  0
LINE
  8
0
 10
-183.000061
 20
-45.666656
 11
-183.000061
 21
-62.666656
  0
LINE
  8
0
 10
-182.000092
 20
-63.666649
 11
-183.000061
 21
-62.666664
  0
LINE
  8
0
 10
-183.000061
 20
-62.666656
 11
-121.000061
 21
-62.666656
  0
LINE
  8
0
 10
-183.500061
 20
-45.666656
 11
-120.500061
 21
-45.666656
  0
LINE
  8
0
 10
-183.500061
 20
-22.666656
 11
-125.200073
 21
-22.666656
  0
LINE
  8
0
 10
-179.130066
 20
-45.666660
 11
-178.130066
 21
-44.666660
  0
LINE
  8
0
 10
-121.500061
 20
-21.666656
 11
-182.500061
 21
-21.666656
  0
LINE
  8
0
 10
-167.100067
 20
-23.666656
 11
-136.910065
 21
-23.666656
  0
LINE
  8
0
 10
-168.100067
 20
-24.666656
 11
-135.910065
 21
-24.666656
  0
LINE
  8
0
 10
-135.910065
 20
-24.666658
 11
-136.910065
 21
-23.666656
  0
LINE
  8
0
 10
-167.100067
 20
-23.666660
 11
-168.100067
 21
-24.666662
  0
LINE
  8
0
 10
-121.000061
 20
-45.666656
 11
-121.000061
 21
-62.666656
  0
LINE
  8
0
 10
-122.000076
 20
-63.666653
 11
-121.000069
 21
-62.666656
  0
LINE
  8
0
 10
-182.500061
 20
-21.666656
 11
-182.500061
 21
-45.666656
  0
LINE
  8
0
 10
-120.500061
 20
-45.666656
 11
-120.500061
 21
-44.666656
  0
LINE
  8
0
 10
-121.500061
 20
-21.666656
 11
-121.500061
 21
-22.666656
  0
LINE
  8
0
 10
-121.500069
 20
-21.666653
 11
-120.500069
 21
-22.666653
  0
LINE
  8
0
 10
-168.100067
 20
-24.666656
 11
-168.570068
 21
-44.666656
  0
LINE
  8
0
 10
-135.910065
 20
-24.666656
 11
-135.440063
 21
-44.666653
  0
LINE
  8
0
 10
-125.200073
 20
2.333344
 11
-125.200073
 21
-21.666656
  0
LINE
  8
0
 10
-105.800064
 20
2.333344
 11
-105.800064
 21
-23.166656
  0
LINE
  8
0
 10
-110.800064
 20
-24.666656
 11
-105.800064
 21
-24.666656
  0
LINE
  8
0
 10
-110.800064
 20
-42.666656
 11
-105.800064
 21
-42.666656
  0
LINE
  8
0
 10
-125.200073
 20
-44.666656
 11
-120.200073
 21
-44.666656
  0
LINE
  8
0
 10
-125.200073
 20
-22.666656
 11
-120.200073
 21
-22.666656
  0
LINE
  8
0
 10
-110.800072
 20
-24.666656
 11
-120.200081
 21
-22.666656
  0
LINE
  8
0
 10
-110.800072
 20
-42.666656
 11
-120.200073
 21
-44.666656
  0
LINE
  8
0
 10
-122.200073
 20
-72.666656
 11
-108.800064
 21
-72.666656
  0
LINE
  8
0
 10
-122.200073
 20
5.333344
 11
-108.800064
 21
5.333344
  0
LINE
  8
0
 10
-125.200066
 20
-69.666649
 11
-122.200066
 21
-72.666656
  0
LINE
  8
0
 10
-108.800072
 20
-72.666664
 11
-105.800064
 21
-69.666664
  0
LINE
  8
0
 10
-125.200066
 20
2.333338
 11
-122.200066
 21
5.333343
  0
LINE
  8
0
 10
-108.800072
 20
5.333354
 11
-105.800064
 21
2.333353
  0
LINE
  8
0
 10
-122.610062
 20
-27.166656
 11
-122.610062
 21
-40.166656
  0
LINE
  8
0
 10
-108.400070
 20
-29.166656
 11
-108.400070
 21
-38.166656
  0
LINE
  8
0
 10
-122.610062
 20
-27.166656
 11
-120.200073
 21
-27.166656
  0
LINE
  8
0
 10
-122.610062
 20
-40.166656
 11
-120.200073
 21
-40.166656
  0
LINE
  8
0
 10
-110.800064
 20
-38.166656
 11
-108.400070
 21
-38.166656
  0
LINE
  8
0
 10
-110.800064
 20
-29.166656
 11
-108.400070
 21
-29.166656
  0
LINE
  8
0
 10
-110.800064
 20
-24.666656
 11
-110.800064
 21
-29.166656
  0
LINE
  8
0
 10
-120.200073
 20
-22.666656
 11
-120.200073
 21
-27.166656
  0
LINE
  8
0
 10
-120.200073
 20
-44.666656
 11
-120.200073
 21
-40.166656
  0
LINE
  8
0
 10
-110.800064
 20
-42.666656
 11
-110.800064
 21
-38.166656
  0
LINE
  8
0
 10
-110.800064
 20
-38.166656
 11
-120.200066
 21
-40.166656
  0
LINE
  8
0
 10
-120.200066
 20
-27.166660
 11
-110.800064
 21
-29.166660
  0
LINE
  8
0
 10
-125.200073
 20
-44.666649
 11
-122.610077
 21
-40.166656
  0
LINE
  8
0
 10
-122.610077
 20
-27.166651
 11
-125.200073
 21
-22.666660
  0
LINE
  8
0
 10
-105.800072
 20
-24.666647
 11
-108.400070
 21
-29.166645
  0
LINE
  8
0
 10
-108.400070
 20
-38.166664
 11
-105.800072
 21
-42.666664
  0
LINE
  8
0
  6
CENTER
 62
     2
 10
-122.650070
 20
-64.666656
 11
-108.760071
 21
-64.666656
  0
LINE
  8
0
  6
CENTER
 62
     2
 10
-123.320068
 20
-2.666656
 11
-108.090073
 21
-2.666656
  0
LINE
  8
0
 10
-117.500061
 20
0.833344
 11
-113.500061
 21
0.833344
  0
LINE
  8
0
 10
-117.500061
 20
-6.166656
 11
-113.500061
 21
-6.166656
  0
LINE
  8
0
 10
-117.500061
 20
-68.166656
 11
-113.500061
 21
-68.166656
  0
LINE
  8
0
 10
-117.500061
 20
-61.166656
 11
-113.500061
 21
-61.166656
  0
LINE
  8
0
 10
-121.790070
 20
-71.666656
 11
-109.220062
 21
-71.666656
  0
LINE
  8
0
 10
-124.200066
 20
-69.246651
 11
-121.790070
 21
-71.666649
  0
LINE
  8
0
 10
-109.220078
 20
-71.666656
 11
-106.800079
 21
-69.246658
  0
LINE
  8
0
 10
-106.800064
 20
1.913330
 11
-106.800064
 21
-23.166656
  0
LINE
  8
0
 10
-124.200073
 20
1.913330
 11
-124.200073
 21
-21.666656
  0
LINE
  8
0
 10
-124.200058
 20
1.913341
 11
-121.790062
 21
4.333339
  0
LINE
  8
0
 10
-121.790070
 20
4.333344
 11
-109.220062
 21
4.333344
  0
LINE
  8
0
 10
-109.220078
 20
4.333345
 11
-106.800079
 21
1.913347
  0
LINE
  8
0
 10
-124.200073
 20
-63.666656
 11
-124.200073
 21
-69.246643
  0
LINE
  8
0
 10
-110.000069
 20
-44.026649
 11
-120.500069
 21
-45.236649
  0
LINE
  8
0
 10
-108.000061
 20
-23.536661
 11
-121.150070
 21
-22.026661
  0
LINE
  8
0
 10
-106.800064
 20
-57.666656
 11
-106.800064
 21
-59.666656
  0
LINE
  8
0
 10
-110.070076
 20
-43.096653
 11
-115.500061
 21
-43.666653
  0
LINE
  8
0
 10
-110.070076
 20
-24.236662
 11
-115.500061
 21
-23.666662
  0
LINE
  8
0
 10
-121.790070
 20
4.333339
 11
-122.200066
 21
5.333338
  0
LINE
  8
0
 10
-124.200073
 20
1.913332
 11
-125.200081
 21
2.333337
  0
LINE
  8
0
 10
-106.800064
 20
1.913345
 11
-105.800072
 21
2.333341
  0
LINE
  8
0
 10
-109.220070
 20
4.333333
 11
-108.800072
 21
5.333339
  0
LINE
  8
0
 10
-124.200081
 20
-69.246658
 11
-125.200089
 21
-69.666656
  0
LINE
  8
0
 10
-121.790070
 20
-71.666649
 11
-122.200066
 21
-72.666649
  0
LINE
  8
0
 10
-108.800072
 20
-72.666649
 11
-109.220070
 21
-71.666641
  0
LINE
  8
0
 10
-106.800056
 20
-69.246651
 11
-105.800072
 21
-69.666649
  0
LINE
  8
0
 10
-117.000061
 20
-32.806656
 11
-117.000061
 21
-34.526657
  0
LINE
  8
0
 10
-114.000061
 20
-32.806656
 11
-114.000061
 21
-34.526657
  0
LINE
  8
0
 10
-117.000084
 20
-32.806656
 11
-115.500076
 21
-31.936653
  0
LINE
  8
0
 10
-115.500076
 20
-35.396652
 11
-114.000076
 21
-34.526653
  0
LINE
  8
0
 10
-115.500069
 20
-31.936661
 11
-114.000069
 21
-32.806660
  0
LINE
  8
0
 10
-117.000076
 20
-34.526657
 11
-115.500076
 21
-35.396656
  0
LINE
  8
0
  6
CENTER
 62
     2
 10
-195.658615
 20
-33.666656
 11
15.784164
 21
-33.666656
  0
LINE
  8
0
 10
-101.500061
 20
-20.166656
 11
-79.500061
 21
-20.166656
  0
LINE
  8
0
 10
-109.500061
 20
-23.666656
 11
-71.500061
 21
-23.666656
  0
LINE
  8
0
 10
-105.800064
 20
-24.666656
 11
-75.200073
 21
-24.666656
  0
LINE
  8
0
 10
-109.500061
 20
-57.666656
 11
-71.500061
 21
-57.666656
  0
LINE
  8
0
 10
-110.000061
 20
-57.166656
 11
-93.200073
 21
-57.166656
  0
LINE
  8
0
 10
-79.500061
 20
-20.166656
 11
-79.500061
 21
-23.666656
  0
LINE
  8
0
 10
-101.500061
 20
-20.166656
 11
-101.500061
 21
-23.666656
  0
LINE
  8
0
 10
-71.000061
 20
-43.166656
 11
-71.000061
 21
-57.166656
  0
LINE
  8
0
 10
-110.000061
 20
-43.166656
 11
-110.000061
 21
-57.166656
  0
LINE
  8
0
 10
-109.500076
 20
-23.666658
 11
-110.500076
 21
-24.666660
  0
LINE
  8
0
 10
-71.500084
 20
-23.666658
 11
-70.500076
 21
-24.666660
  0
LINE
  8
0
 10
-110.000069
 20
-57.166660
 11
-109.500069
 21
-57.666656
  0
LINE
  8
0
 10
-71.000069
 20
-57.166660
 11
-71.500069
 21
-57.666660
  0
LINE
  8
0
 10
-70.500076
 20
-42.666656
 11
-71.000076
 21
-43.166656
  0
LINE
  8
0
 10
-110.500076
 20
-42.666656
 11
-110.000076
 21
-43.166656
  0
LINE
  8
0
 10
-105.670074
 20
-42.466656
 11
-91.250061
 21
-42.466656
  0
LINE
  8
0
 10
-71.500084
 20
-43.666656
 11
-71.000076
 21
-43.166656
  0
LINE
  8
0
 10
-110.000076
 20
-43.166656
 11
-109.500076
 21
-43.666656
  0
LINE
  8
0
 10
-109.500061
 20
-23.666656
 11
-109.500061
 21
-24.666656
  0
LINE
  8
0
 10
-71.500061
 20
-23.666656
 11
-71.500061
 21
-24.666656
  0
LINE
  8
0
 10
-105.500061
 20
-26.666656
 11
-105.500061
 21
-40.666656
  0
LINE
  8
0
 10
-75.500061
 20
-26.666656
 11
-75.500061
 21
-40.666656
  0
LINE
  8
0
 10
-105.800064
 20
-26.666656
 11
-105.500061
 21
-26.666656
  0
LINE
  8
0
 10
-105.800064
 20
-40.666656
 11
-105.500061
 21
-40.666656
  0
LINE
  8
0
 10
-75.500061
 20
-26.666656
 11
-75.200073
 21
-26.666656
  0
LINE
  8
0
 10
-75.500061
 20
-40.666656
 11
-75.200073
 21
-40.666656
  0
LINE
  8
0
  6
CENTER
 62
     2
 10
-86.500061
 20
-10.666656
 11
-86.500061
 21
-57.266647
  0
LINE
  8
0
 10
-109.500061
 20
-43.666656
 11
-106.610062
 21
-43.666656
  0
LINE
  8
0
 10
-106.610069
 20
-43.666660
 11
-105.870064
 21
-42.666656
  0
LINE
  8
0
 10
-74.400070
 20
-43.666645
 11
-75.130066
 21
-42.666649
  0
LINE
  8
0
 10
-105.800064
 20
-42.596653
 11
-105.670074
 21
-42.466660
  0
LINE
  8
0
 10
-75.200066
 20
-42.596653
 11
-75.330070
 21
-42.466648
  0
LINE
  8
0
 10
-74.400070
 20
-43.666656
 11
-71.500061
 21
-43.666656
  0
LINE
  8
0
 10
-75.130066
 20
-42.666656
 11
-70.500061
 21
-42.666656
  0
LINE
  8
0
 10
-106.460068
 20
-43.466656
 11
-74.550064
 21
-43.466656
  0
LINE
  8
0
 10
-81.750061
 20
-42.466656
 11
-75.330063
 21
-42.466656
  0
LINE
  8
0
 10
-79.500061
 20
-20.166656
 11
-101.500061
 21
-20.166656
  0
LINE
  8
0
 10
-80.500061
 20
-16.166656
 11
-100.500061
 21
-16.166656
  0
LINE
  8
0
 10
-101.500061
 20
-20.166656
 11
-101.500061
 21
-17.166656
  0
LINE
  8
0
 10
-79.500061
 20
-20.166656
 11
-79.500061
 21
-17.166656
  0
LINE
  8
0
 10
-79.500069
 20
-17.166662
 11
-80.500069
 21
-16.166660
  0
LINE
  8
0
 10
-100.500069
 20
-16.166658
 11
-101.500069
 21
-17.166660
  0
LINE
  8
0
 10
-79.500061
 20
-19.166656
 11
-79.980072
 21
-19.166656
  0
LINE
  8
0
 10
-88.000061
 20
-19.166656
 11
-88.000061
 21
-17.166656
  0
LINE
  8
0
 10
-93.000061
 20
-19.166656
 11
-93.000061
 21
-17.166656
  0
LINE
  8
0
 10
-93.000061
 20
-19.166656
 11
-98.530075
 21
-19.166656
  0
LINE
  8
0
 10
-101.030090
 20
-18.896654
 11
-101.500069
 21
-19.166647
  0
LINE
  8
0
 10
-79.500069
 20
-19.166664
 11
-79.980080
 21
-18.896660
  0
LINE
  8
0
 10
-83.250061
 20
-18.766657
 11
-83.250061
 21
-16.466660
  0
LINE
  8
0
 10
-82.480072
 20
-19.166656
 11
-82.480072
 21
-17.166656
  0
LINE
  8
0
 10
-79.980072
 20
-19.166656
 11
-79.980072
 21
-17.166656
  0
LINE
  8
0
 10
-97.760071
 20
-18.766657
 11
-97.760071
 21
-16.466660
  0
LINE
  8
0
 10
-98.530075
 20
-19.166656
 11
-98.530075
 21
-17.166656
  0
LINE
  8
0
 10
-101.030075
 20
-19.166656
 11
-101.030075
 21
-17.166656
  0
LINE
  8
0
 10
-80.200073
 20
-16.466660
 11
-80.540070
 21
-16.466660
  0
LINE
  8
0
 10
-88.000076
 20
-19.166664
 11
-87.800072
 21
-18.766659
  0
LINE
  8
0
 10
-88.000069
 20
-17.166672
 11
-87.800072
 21
-16.466669
  0
LINE
  8
0
 10
-93.000076
 20
-19.166653
 11
-93.210075
 21
-18.766661
  0
LINE
  8
0
 10
-93.000061
 20
-17.166660
 11
-93.210068
 21
-16.466661
  0
LINE
  8
0
 10
-82.480072
 20
-19.166649
 11
-83.250061
 21
-18.766651
  0
LINE
  8
0
 10
-82.480064
 20
-17.166656
 11
-83.250069
 21
-16.466652
  0
LINE
  8
0
 10
-98.530075
 20
-19.166653
 11
-97.760071
 21
-18.766653
  0
LINE
  8
0
 10
-98.530067
 20
-17.166653
 11
-97.760078
 21
-16.466658
  0
LINE
  8
0
 10
-93.210068
 20
-18.766657
 11
-93.210068
 21
-16.466660
  0
LINE
  8
0
 10
-87.800064
 20
-18.766657
 11
-87.800064
 21
-16.466660
  0
LINE
  8
0
 10
-88.000061
 20
-17.166656
 11
-93.000061
 21
-17.166656
  0
LINE
  8
0
 10
-83.250061
 20
-18.766657
 11
-87.800064
 21
-18.766657
  0
LINE
  8
0
 10
-97.760071
 20
-18.766657
 11
-93.210068
 21
-18.766657
  0
LINE
  8
0
 10
-98.530075
 20
-17.166656
 11
-101.030075
 21
-17.166656
  0
LINE
  8
0
 10
-93.210068
 20
-16.466660
 11
-97.760071
 21
-16.466660
  0
LINE
  8
0
 10
-79.980064
 20
-17.166649
 11
-80.540070
 21
-16.466646
  0
LINE
  8
0
 10
-101.030083
 20
-17.166660
 11
-100.460075
 21
-16.466656
  0
LINE
  8
0
 10
-83.250061
 20
-16.466660
 11
-87.800064
 21
-16.466660
  0
LINE
  8
0
 10
-100.460068
 20
-16.466660
 11
-100.800064
 21
-16.466660
  0
LINE
  8
0
 10
-82.480072
 20
-19.166656
 11
-88.000061
 21
-19.166656
  0
LINE
  8
0
 10
-101.030075
 20
-19.166656
 11
-101.500061
 21
-19.166656
  0
LINE
  8
0
 10
-79.980072
 20
-17.166656
 11
-82.480072
 21
-17.166656
  0
LINE
  8
0
 10
-80.200073
 20
-16.466660
 11
-80.200073
 21
-16.886658
  0
LINE
  8
0
 10
-100.800064
 20
-16.466660
 11
-100.800064
 21
-16.886658
  0
LINE
  8
0
 10
-109.500061
 20
-57.666656
 11
-71.500061
 21
-57.666656
  0
LINE
  8
0
 10
-108.500061
 20
-66.666656
 11
-72.500061
 21
-66.666656
  0
LINE
  8
0
 10
-71.500061
 20
-59.666656
 11
-71.500061
 21
-65.666656
  0
LINE
  8
0
 10
-109.500061
 20
-59.666656
 11
-109.500061
 21
-65.666656
  0
LINE
  8
0
 10
-109.500061
 20
-65.666656
 11
-109.340073
 21
-65.666656
  0
LINE
  8
0
 10
-109.500076
 20
-65.666656
 11
-108.500076
 21
-66.666656
  0
LINE
  8
0
 10
-71.500069
 20
-65.666649
 11
-72.500069
 21
-66.666649
  0
LINE
  8
0
 10
-108.600067
 20
-62.366653
 11
-108.070068
 21
-62.366653
  0
LINE
  8
0
 10
-93.000061
 20
-61.666656
 11
-93.000061
 21
-65.666656
  0
LINE
  8
0
 10
-93.000069
 20
-61.666653
 11
-93.200073
 21
-62.366653
  0
LINE
  8
0
 10
-93.000061
 20
-65.666656
 11
-93.200066
 21
-66.366661
  0
LINE
  8
0
 10
-97.760071
 20
-61.666645
 11
-97.220062
 21
-62.366653
  0
LINE
  8
0
 10
-97.760078
 20
-65.666649
 11
-97.220070
 21
-66.366661
  0
LINE
  8
0
 10
-93.200073
 20
-62.366653
 11
-93.200073
 21
-66.366653
  0
LINE
  8
0
 10
-97.220062
 20
-62.366653
 11
-97.220062
 21
-66.366653
  0
LINE
  8
0
 10
-97.760071
 20
-61.666656
 11
-97.760071
 21
-65.666656
  0
LINE
  8
0
 10
-102.090073
 20
-61.666656
 11
-102.090073
 21
-65.666656
  0
LINE
  8
0
 10
-102.090065
 20
-65.666649
 11
-101.890068
 21
-66.366653
  0
LINE
  8
0
 10
-105.570076
 20
-61.666660
 11
-104.830070
 21
-62.366661
  0
LINE
  8
0
 10
-105.570076
 20
-65.666649
 11
-104.830070
 21
-66.366653
  0
LINE
  8
0
 10
-104.830063
 20
-66.366653
 11
-104.830063
 21
-62.366653
  0
LINE
  8
0
 10
-105.570068
 20
-61.666656
 11
-105.570068
 21
-65.666656
  0
LINE
  8
0
 10
-108.070068
 20
-61.666656
 11
-108.070068
 21
-65.666656
  0
LINE
  8
0
 10
-108.070068
 20
-65.666649
 11
-107.530067
 21
-66.366646
  0
LINE
  8
0
 10
-109.340073
 20
-61.666656
 11
-108.600075
 21
-62.366661
  0
LINE
  8
0
 10
-109.340073
 20
-65.666656
 11
-108.600075
 21
-66.366653
  0
LINE
  8
0
 10
-97.220062
 20
-62.366653
 11
-93.200073
 21
-62.366653
  0
LINE
  8
0
 10
-97.760071
 20
-61.666656
 11
-93.000061
 21
-61.666656
  0
LINE
  8
0
 10
-105.570068
 20
-61.666656
 11
-102.090073
 21
-61.666656
  0
LINE
  8
0
 10
-104.830063
 20
-62.366653
 11
-102.090073
 21
-62.366653
  0
LINE
  8
0
 10
-93.200073
 20
-66.366653
 11
-97.220062
 21
-66.366653
  0
LINE
  8
0
 10
-101.890076
 20
-66.366653
 11
-104.830063
 21
-66.366653
  0
LINE
  8
0
 10
-107.530075
 20
-66.366653
 11
-108.600067
 21
-66.366653
  0
LINE
  8
0
 10
-102.090073
 20
-65.666656
 11
-97.760071
 21
-65.666656
  0
LINE
  8
0
 10
-108.070068
 20
-65.666656
 11
-105.570068
 21
-65.666656
  0
LINE
  8
0
 10
-108.600067
 20
-62.366653
 11
-108.600067
 21
-66.366653
  0
LINE
  8
0
 10
-109.340073
 20
-61.666656
 11
-109.340073
 21
-65.666656
  0
LINE
  8
0
 10
-109.340073
 20
-61.666656
 11
-108.070068
 21
-61.666656
  0
LINE
  8
0
 10
-93.000061
 20
-65.666656
 11
-90.500061
 21
-65.666656
  0
LINE
  8
0
 10
-71.500061
 20
-65.666656
 11
-71.670074
 21
-65.666656
  0
LINE
  8
0
 10
-71.500061
 20
-61.666656
 11
-71.510071
 21
-61.666656
  0
LINE
  8
0
 10
-72.400070
 20
-62.366653
 11
-72.940063
 21
-62.366653
  0
LINE
  8
0
 10
-88.000061
 20
-61.666656
 11
-88.000061
 21
-65.666656
  0
LINE
  8
0
 10
-88.000061
 20
-61.666656
 11
-87.810066
 21
-62.366657
  0
LINE
  8
0
 10
-88.000069
 20
-65.666656
 11
-87.810066
 21
-66.366653
  0
LINE
  8
0
 10
-83.250076
 20
-61.666653
 11
-83.790085
 21
-62.366661
  0
LINE
  8
0
 10
-83.250069
 20
-65.666656
 11
-83.790070
 21
-66.366653
  0
LINE
  8
0
 10
-87.810074
 20
-62.366653
 11
-87.810074
 21
-66.366653
  0
LINE
  8
0
 10
-83.790070
 20
-62.366653
 11
-83.790070
 21
-66.366653
  0
LINE
  8
0
 10
-83.250061
 20
-61.666656
 11
-83.250061
 21
-65.666656
  0
LINE
  8
0
 10
-78.920074
 20
-61.666656
 11
-78.920074
 21
-65.666656
  0
LINE
  8
0
 10
-78.920067
 20
-65.666656
 11
-79.120064
 21
-66.366653
  0
LINE
  8
0
 10
-75.440071
 20
-61.666664
 11
-76.180069
 21
-62.366661
  0
LINE
  8
0
 10
-75.440063
 20
-65.666649
 11
-76.180069
 21
-66.366653
  0
LINE
  8
0
 10
-76.180069
 20
-66.366653
 11
-76.180069
 21
-62.366653
  0
LINE
  8
0
 10
-75.440063
 20
-61.666656
 11
-75.440063
 21
-65.666656
  0
LINE
  8
0
 10
-72.940063
 20
-61.666656
 11
-72.940063
 21
-65.666656
  0
LINE
  8
0
 10
-72.940079
 20
-65.666656
 11
-73.480072
 21
-66.366653
  0
LINE
  8
0
 10
-71.670074
 20
-61.666645
 11
-72.400070
 21
-62.366646
  0
LINE
  8
0
 10
-71.670074
 20
-65.666649
 11
-72.400070
 21
-66.366646
  0
LINE
  8
0
 10
-83.790070
 20
-62.366653
 11
-87.810074
 21
-62.366653
  0
LINE
  8
0
 10
-83.250061
 20
-61.666656
 11
-88.000061
 21
-61.666656
  0
LINE
  8
0
 10
-75.440063
 20
-61.666656
 11
-78.920074
 21
-61.666656
  0
LINE
  8
0
 10
-76.180069
 20
-62.366653
 11
-78.920074
 21
-62.366653
  0
LINE
  8
0
 10
-87.810074
 20
-66.366653
 11
-83.790070
 21
-66.366653
  0
LINE
  8
0
 10
-79.120071
 20
-66.366653
 11
-76.180069
 21
-66.366653
  0
LINE
  8
0
 10
-73.480072
 20
-66.366653
 11
-72.400070
 21
-66.366653
  0
LINE
  8
0
 10
-78.920074
 20
-65.666656
 11
-83.250061
 21
-65.666656
  0
LINE
  8
0
 10
-72.940063
 20
-65.666656
 11
-75.440063
 21
-65.666656
  0
LINE
  8
0
 10
-72.400070
 20
-62.366653
 11
-72.400070
 21
-66.366653
  0
LINE
  8
0
 10
-71.670074
 20
-61.666656
 11
-71.670074
 21
-65.666656
  0
LINE
  8
0
 10
-71.670074
 20
-61.666656
 11
-72.940063
 21
-61.666656
  0
LINE
  8
0
 10
-88.000061
 20
-65.666656
 11
-90.500061
 21
-65.666656
  0
LINE
  8
0
 10
-79.500061
 20
-68.166656
 11
-79.500061
 21
-70.166656
  0
LINE
  8
0
 10
-101.500061
 20
-68.166656
 11
-101.500061
 21
-70.166656
  0
LINE
  8
0
 10
-104.200073
 20
-67.666656
 11
-76.800064
 21
-67.666656
  0
LINE
  8
0
 10
-81.070068
 20
-67.666656
 11
-81.070068
 21
-70.166656
  0
LINE
  8
0
 10
-88.940063
 20
-67.666656
 11
-88.940063
 21
-70.166656
  0
LINE
  8
0
 10
-92.070068
 20
-67.666656
 11
-92.070068
 21
-70.166656
  0
LINE
  8
0
 10
-99.940063
 20
-67.666656
 11
-99.940063
 21
-70.166656
  0
LINE
  8
0
 62
     2
 10
-76.300064
 20
-57.666656
 11
-76.300064
 21
-59.666656
  0
LINE
  8
0
 62
     2
 10
-104.700073
 20
-57.666656
 11
-104.700073
 21
-59.666656
  0
LINE
  8
0
 10
-104.200073
 20
-70.166656
 11
-76.800064
 21
-70.166656
  0
LINE
  8
0
 10
-102.100067
 20
-95.166656
 11
-78.900070
 21
-95.166656
  0
LINE
  8
0
 10
-77.900070
 20
-93.166656
 11
-76.900070
 21
-92.586662
  0
LINE
  8
0
 10
-104.100060
 20
-92.586655
 11
-103.100067
 21
-93.166649
  0
LINE
  8
0
 10
-103.100067
 20
-93.166656
 11
-103.100067
 21
-94.166656
  0
LINE
  8
0
 10
-77.900070
 20
-93.166656
 11
-77.900070
 21
-94.166656
  0
LINE
  8
0
 10
-76.320068
 20
-70.646652
 11
-76.900070
 21
-92.586647
  0
LINE
  8
0
 10
-104.690063
 20
-70.646652
 11
-104.100060
 21
-92.586647
  0
LINE
  8
0
 10
-104.200073
 20
-70.166656
 11
-104.690079
 21
-70.646660
  0
LINE
  8
0
 10
-76.800072
 20
-70.166664
 11
-76.320076
 21
-70.646660
  0
LINE
  8
0
 10
-87.500069
 20
-72.666649
 11
-88.040070
 21
-92.586655
  0
LINE
  8
0
 10
-93.500061
 20
-72.666656
 11
-92.970062
 21
-92.586647
  0
LINE
  8
0
 10
-104.100067
 20
-92.586655
 11
-103.880066
 21
-92.586655
  0
LINE
  8
0
 10
-104.320068
 20
-72.666656
 11
-102.390076
 21
-72.666656
  0
LINE
  8
0
 10
-103.100067
 20
-93.166656
 11
-102.800064
 21
-93.166656
  0
LINE
  8
0
 10
-104.690063
 20
-70.646652
 11
-76.320068
 21
-70.646652
  0
LINE
  8
0
 10
-87.500061
 20
-72.666656
 11
-82.860062
 21
-72.666656
  0
LINE
  8
0
 10
-103.460068
 20
-73.116653
 11
-102.380066
 21
-73.116653
  0
LINE
  8
0
 10
-87.270065
 20
-73.116653
 11
-83.630066
 21
-73.116653
  0
LINE
  8
0
 10
-92.980064
 20
-92.586647
 11
-93.270065
 21
-93.166656
  0
LINE
  8
0
 10
-97.240074
 20
-93.166649
 11
-98.210068
 21
-92.586647
  0
LINE
  8
0
 10
-101.710068
 20
-92.586655
 11
-101.150063
 21
-93.166656
  0
LINE
  8
0
 10
-102.800064
 20
-93.166656
 11
-103.880066
 21
-92.586655
  0
LINE
  8
0
 10
-98.150063
 20
-72.666656
 11
-97.380066
 21
-73.116653
  0
LINE
  8
0
 10
-104.320068
 20
-72.666656
 11
-103.460075
 21
-73.116653
  0
LINE
  8
0
 10
-93.500069
 20
-72.666649
 11
-93.730072
 21
-73.116646
  0
LINE
  8
0
 10
-93.730072
 20
-73.116646
 11
-93.270073
 21
-93.166649
  0
LINE
  8
0
 10
-97.380066
 20
-73.116653
 11
-97.240067
 21
-93.166656
  0
LINE
  8
0
 10
-98.150070
 20
-72.666649
 11
-98.210075
 21
-92.586647
  0
LINE
  8
0
 10
-101.710068
 20
-92.586655
 11
-102.390068
 21
-72.666641
  0
LINE
  8
0
 10
-102.800072
 20
-93.166649
 11
-103.460068
 21
-73.116661
  0
LINE
  8
0
 10
-104.320061
 20
-72.666649
 11
-103.880066
 21
-92.586647
  0
LINE
  8
0
 10
-87.270073
 20
-73.116646
 11
-87.740074
 21
-93.166649
  0
LINE
  8
0
 10
-88.030067
 20
-92.586655
 11
-87.740067
 21
-93.166649
  0
LINE
  8
0
 10
-87.500076
 20
-72.666649
 11
-87.270073
 21
-73.116646
  0
LINE
  8
0
 10
-83.630074
 20
-73.116638
 11
-83.770073
 21
-93.166641
  0
LINE
  8
0
 10
-82.860069
 20
-72.666656
 11
-82.800072
 21
-92.586647
  0
LINE
  8
0
 10
-79.300064
 20
-92.586647
 11
-78.620064
 21
-72.666656
  0
LINE
  8
0
 10
-78.210068
 20
-93.166649
 11
-77.550072
 21
-73.116638
  0
LINE
  8
0
 10
-76.690063
 20
-72.666656
 11
-77.130066
 21
-92.586647
  0
LINE
  8
0
 10
-76.690063
 20
-72.666656
 11
-77.550072
 21
-73.116653
  0
LINE
  8
0
 10
-82.860085
 20
-72.666649
 11
-83.630081
 21
-73.116653
  0
LINE
  8
0
 10
-83.770065
 20
-93.166649
 11
-82.800064
 21
-92.586655
  0
LINE
  8
0
 10
-79.300072
 20
-92.586655
 11
-79.860077
 21
-93.166656
  0
LINE
  8
0
 10
-78.210075
 20
-93.166656
 11
-77.130074
 21
-92.586655
  0
LINE
  8
0
 10
-92.980072
 20
-92.586655
 11
-88.030075
 21
-92.586655
  0
LINE
  8
0
 10
-82.800064
 20
-92.586655
 11
-79.300064
 21
-92.586655
  0
LINE
  8
0
 10
-77.130066
 20
-92.586655
 11
-76.900070
 21
-92.586655
  0
LINE
  8
0
 10
-101.710068
 20
-92.586655
 11
-98.210068
 21
-92.586655
  0
LINE
  8
0
 10
-97.380066
 20
-73.116653
 11
-93.730072
 21
-73.116653
  0
LINE
  8
0
 10
-98.150070
 20
-72.666656
 11
-93.500061
 21
-72.666656
  0
LINE
  8
0
 10
-78.630066
 20
-73.116653
 11
-77.550064
 21
-73.116653
  0
LINE
  8
0
 10
-78.620071
 20
-72.666656
 11
-76.690063
 21
-72.666656
  0
LINE
  8
0
 10
-93.270065
 20
-93.166656
 11
-87.740067
 21
-93.166656
  0
LINE
  8
0
 10
-83.770065
 20
-93.166656
 11
-79.860062
 21
-93.166656
  0
LINE
  8
0
 10
-78.210068
 20
-93.166656
 11
-77.900070
 21
-93.166656
  0
LINE
  8
0
 10
-101.150070
 20
-93.166656
 11
-97.240067
 21
-93.166656
  0
LINE
  8
0
 10
-75.500061
 20
-57.666656
 11
-75.500061
 21
-59.666656
  0
LINE
  8
0
 10
-105.500061
 20
-57.666656
 11
-105.500061
 21
-59.666656
  0
LINE
  8
0
 10
-104.700073
 20
-66.666656
 11
-104.700073
 21
-67.166656
  0
LINE
  8
0
 10
-76.300064
 20
-66.666656
 11
-76.300064
 21
-67.166656
  0
LINE
  8
0
 10
-87.800064
 20
-55.166656
 11
-87.800064
 21
-57.666656
  0
LINE
  8
0
 10
-93.200073
 20
-55.166656
 11
-93.200073
 21
-57.666656
  0
LINE
  8
0
 10
-87.800064
 20
-55.166656
 11
-93.200073
 21
-55.166656
  0
LINE
  8
0
 10
-87.800064
 20
-57.166656
 11
-71.000061
 21
-57.166656
  0
LINE
  8
0
 10
-108.000061
 20
-23.166656
 11
-102.510071
 21
-23.166656
  0
LINE
  8
0
 10
-108.000061
 20
-23.166656
 11
-108.000061
 21
-23.666656
  0
LINE
  8
0
 10
-102.510071
 20
-23.166656
 11
-102.510071
 21
-23.666656
  0
LINE
  8
0
 10
-109.500061
 20
-57.666656
 11
-71.500061
 21
-57.666656
  0
LINE
  8
0
 10
-71.500061
 20
-59.666656
 11
-109.500061
 21
-59.666656
  0
LINE
  8
0
 62
     2
 10
-90.500061
 20
-13.456665
 11
-90.500061
 21
-99.036652
  0
LINE
  8
0
 10
-60.500061
 20
-44.666656
 11
-60.500061
 21
-45.666656
  0
LINE
  8
0
 10
2.499939
 20
-22.666656
 11
2.499939
 21
-45.666656
  0
LINE
  8
0
 10
-59.500061
 20
-21.666656
 11
-51.200073
 21
-21.666656
  0
LINE
  8
0
 10
-60.500061
 20
-45.666656
 11
2.499939
 21
-45.666656
  0
LINE
  8
0
 10
-59.000061
 20
-63.666656
 11
0.999939
 21
-63.666656
  0
LINE
  8
0
 10
1.999939
 20
-45.666656
 11
1.999939
 21
-62.666656
  0
LINE
  8
0
 10
-60.000061
 20
-45.666656
 11
-60.000061
 21
-62.666656
  0
LINE
  8
0
 10
-60.000084
 20
-62.666660
 11
-59.000080
 21
-63.666660
  0
LINE
  8
0
 10
0.999923
 20
-63.666656
 11
1.999925
 21
-62.666656
  0
LINE
  8
0
 10
-59.000061
 20
-62.666656
 11
0.999939
 21
-62.666656
  0
LINE
  8
0
 10
-54.000061
 20
-44.666656
 11
-4.000061
 21
-44.666656
  0
LINE
  8
0
 10
-10.000061
 20
-18.666656
 11
-10.000061
 21
-21.666656
  0
LINE
  8
0
 10
-51.200073
 20
-18.666656
 11
-9.500061
 21
-18.666656
  0
LINE
  8
0
 10
-51.200073
 20
-18.666656
 11
-51.200073
 21
-44.666656
  0
LINE
  8
0
 10
-4.000072
 20
-44.666649
 11
-3.000071
 21
-45.666653
  0
LINE
  8
0
 10
-55.000072
 20
-45.666660
 11
-54.000072
 21
-44.666656
  0
LINE
  8
0
 10
-34.500061
 20
-18.666656
 11
-34.500061
 21
-44.666656
  0
LINE
  8
0
 10
-34.500061
 20
-22.666656
 11
2.499939
 21
-22.666656
  0
LINE
  8
0
 10
1.499939
 20
-21.666656
 11
1.499939
 21
-45.666656
  0
LINE
  8
0
 10
-55.800064
 20
-22.666656
 11
-51.200073
 21
-22.666656
  0
LINE
  8
0
 10
-59.500061
 20
-21.666656
 11
-59.500061
 21
-22.666656
  0
LINE
  8
0
 10
-60.500069
 20
-22.666655
 11
-59.500069
 21
-21.666653
  0
LINE
  8
0
 10
1.499933
 20
-21.666655
 11
2.499935
 21
-22.666655
  0
LINE
  8
0
 10
-34.500061
 20
-21.666656
 11
1.499939
 21
-21.666656
  0
LINE
  8
0
 10
0.499939
 20
-26.666656
 11
0.499939
 21
-40.666656
  0
LINE
  8
0
 10
-55.500061
 20
-26.666656
 11
-55.500061
 21
-40.666656
  0
LINE
  8
0
 10
-2.500061
 20
-26.666656
 11
-2.500061
 21
-40.666656
  0
LINE
  8
0
 10
-55.800064
 20
-26.666656
 11
-55.500061
 21
-26.666656
  0
LINE
  8
0
 10
-55.800064
 20
-40.666656
 11
-55.500061
 21
-40.666656
  0
LINE
  8
0
 10
-2.500061
 20
-26.666656
 11
0.499939
 21
-26.666656
  0
LINE
  8
0
 10
-2.500061
 20
-40.666656
 11
0.499939
 21
-40.666656
  0
LINE
  8
0
  6
CENTER
 62
     2
 10
-43.000061
 20
-9.356659
 11
-43.000061
 21
-48.226654
  0
LINE
  8
0
 10
-35.500061
 20
-10.666656
 11
-10.500061
 21
-10.666656
  0
LINE
  8
0
 10
-9.500061
 20
-11.666656
 11
-9.500061
 21
-18.666656
  0
LINE
  8
0
 10
-10.500069
 20
-10.666654
 11
-9.500068
 21
-11.666655
  0
LINE
  8
0
 10
-22.000061
 20
-11.666656
 11
-22.000061
 21
-17.166656
  0
LINE
  8
0
 10
-17.840073
 20
-11.666656
 11
-17.840073
 21
-17.166656
  0
LINE
  8
0
 10
-15.250061
 20
-11.666656
 11
-15.250061
 21
-17.166656
  0
LINE
  8
0
 10
-12.200073
 20
-11.666656
 11
-12.200073
 21
-17.166656
  0
LINE
  8
0
 10
-10.700073
 20
-11.666656
 11
-10.700073
 21
-17.166656
  0
LINE
  8
0
 10
-22.000061
 20
-17.166656
 11
-17.840073
 21
-17.166656
  0
LINE
  8
0
 10
-21.500061
 20
-16.666656
 11
-18.340073
 21
-16.666656
  0
LINE
  8
0
 10
-21.500061
 20
-11.166656
 11
-21.500061
 21
-16.666656
  0
LINE
  8
0
 10
-15.250061
 20
-17.166656
 11
-12.200073
 21
-17.166656
  0
LINE
  8
0
 10
-18.340073
 20
-11.166656
 11
-18.340073
 21
-16.666656
  0
LINE
  8
0
 10
-23.500061
 20
-11.666656
 11
-22.000061
 21
-11.666656
  0
LINE
  8
0
 10
-22.000072
 20
-11.666656
 11
-21.500072
 21
-11.166655
  0
LINE
  8
0
 10
-21.500061
 20
-11.166656
 11
-18.340073
 21
-11.166656
  0
LINE
  8
0
 10
-18.340078
 20
-11.166653
 11
-17.840078
 21
-11.666654
  0
LINE
  8
0
 10
-18.340067
 20
-16.666660
 11
-17.840067
 21
-17.166660
  0
LINE
  8
0
 10
-22.000071
 20
-17.166649
 11
-21.500071
 21
-16.666649
  0
LINE
  8
0
 10
-17.840073
 20
-11.666656
 11
-15.250061
 21
-11.666656
  0
LINE
  8
0
 10
-15.750061
 20
-11.166656
 11
-12.700073
 21
-11.166656
  0
LINE
  8
0
 10
-15.250061
 20
-16.666656
 11
-12.700073
 21
-16.666656
  0
LINE
  8
0
 10
-12.700073
 20
-11.166656
 11
-12.700073
 21
-16.666656
  0
LINE
  8
0
 10
-12.200073
 20
-11.666656
 11
-10.700073
 21
-11.666656
  0
LINE
  8
0
 10
-15.750080
 20
-11.166654
 11
-15.250079
 21
-11.666655
  0
LINE
  8
0
 10
-12.700077
 20
-11.166654
 11
-12.200077
 21
-11.666655
  0
LINE
  8
0
 10
-11.200073
 20
-11.166656
 11
-10.000061
 21
-11.166656
  0
LINE
  8
0
 10
-11.200066
 20
-11.166654
 11
-10.700066
 21
-11.666655
  0
LINE
  8
0
 10
-10.700073
 20
-17.166656
 11
-9.500061
 21
-17.166656
  0
LINE
  8
0
 10
-12.700067
 20
-16.666660
 11
-12.200067
 21
-17.166660
  0
LINE
  8
0
 10
-10.000061
 20
-11.166656
 11
-10.000061
 21
-16.666656
  0
LINE
  8
0
 10
-10.700073
 20
-16.666656
 11
-10.000061
 21
-16.666656
  0
LINE
  8
0
 10
-10.000079
 20
-16.666662
 11
-9.500078
 21
-17.166662
  0
LINE
  8
0
 10
-23.500061
 20
-11.666656
 11
-25.000061
 21
-11.666656
  0
LINE
  8
0
 10
-25.000074
 20
-11.666654
 11
-25.500074
 21
-11.166654
  0
LINE
  8
0
 10
-25.000061
 20
-11.666656
 11
-25.000061
 21
-17.166656
  0
LINE
  8
0
 10
-25.500061
 20
-11.166656
 11
-25.500061
 21
-16.666656
  0
LINE
  8
0
 10
-25.000074
 20
-17.166649
 11
-25.500074
 21
-16.666649
  0
LINE
  8
0
 10
-25.500061
 20
-16.666656
 11
-28.660065
 21
-16.666656
  0
LINE
  8
0
 10
-25.000061
 20
-17.166656
 11
-29.160065
 21
-17.166656
  0
LINE
  8
0
 10
-25.500061
 20
-11.166656
 11
-28.660065
 21
-11.166656
  0
LINE
  8
0
 10
-28.660065
 20
-11.166654
 11
-29.160069
 21
-11.666656
  0
LINE
  8
0
 10
-28.660065
 20
-11.166656
 11
-28.660065
 21
-16.666656
  0
LINE
  8
0
 10
-29.160065
 20
-11.666656
 11
-29.160065
 21
-17.166656
  0
LINE
  8
0
 10
-29.160065
 20
-11.666656
 11
-31.760071
 21
-11.666656
  0
LINE
  8
0
 10
-28.660076
 20
-16.666660
 11
-29.160076
 21
-17.166660
  0
LINE
  8
0
 10
-31.260078
 20
-11.166655
 11
-31.760078
 21
-11.666656
  0
LINE
  8
0
 10
-31.260071
 20
-11.166656
 11
-34.310074
 21
-11.166656
  0
LINE
  8
0
 10
-31.760071
 20
-11.666656
 11
-31.760071
 21
-17.166656
  0
LINE
  8
0
 10
-31.760071
 20
-16.666656
 11
-34.310074
 21
-16.666656
  0
LINE
  8
0
 10
-31.760071
 20
-17.166656
 11
-34.810074
 21
-17.166656
  0
LINE
  8
0
 10
-34.310074
 20
-11.166656
 11
-34.310074
 21
-16.666656
  0
LINE
  8
0
 10
-34.310070
 20
-16.666658
 11
-34.810070
 21
-17.166658
  0
LINE
  8
0
 10
-34.810074
 20
-11.666656
 11
-34.810074
 21
-17.166656
  0
LINE
  8
0
 10
-34.310078
 20
-11.166656
 11
-34.810078
 21
-11.666656
  0
LINE
  8
0
 10
-34.810074
 20
-11.666656
 11
-35.000061
 21
-11.666656
  0
LINE
  8
0
 10
-30.450073
 20
-3.616669
 11
-30.450073
 21
-9.666656
  0
LINE
  8
0
 10
-16.550064
 20
-3.616669
 11
-16.550064
 21
-9.666656
  0
LINE
  8
0
 10
-30.700073
 20
-9.666656
 11
-16.300064
 21
-9.666656
  0
LINE
  8
0
 10
-16.300064
 20
-9.666656
 11
-16.300064
 21
-10.666656
  0
LINE
  8
0
 10
-30.700073
 20
-9.666656
 11
-30.700073
 21
-10.666656
  0
LINE
  8
0
 10
-51.000061
 20
-18.666656
 11
-35.000061
 21
-18.666656
  0
LINE
  8
0
  6
CENTER
 62
     2
 10
-23.500061
 20
6.603333
 11
-23.500061
 21
-20.586657
  0
LINE
  8
0
 10
-50.500069
 20
-16.666660
 11
-51.000069
 21
-17.166660
  0
LINE
  8
0
 10
-35.000061
 20
-11.166656
 11
-35.000061
 21
-18.666656
  0
LINE
  8
0
 10
-50.500061
 20
-10.666656
 11
-50.500061
 21
-16.666656
  0
LINE
  8
0
 10
-50.500061
 20
-10.666656
 11
-35.500061
 21
-10.666656
  0
LINE
  8
0
 10
-43.000061
 20
-11.166656
 11
-41.500061
 21
-11.166656
  0
LINE
  8
0
 10
-51.000061
 20
-11.166656
 11
-51.000061
 21
-18.666656
  0
LINE
  8
0
 10
-41.500061
 20
-11.166656
 11
-41.500061
 21
-17.166656
  0
LINE
  8
0
 10
-41.500061
 20
-17.166656
 11
-38.510071
 21
-17.166656
  0
LINE
  8
0
 10
-41.000061
 20
-10.666656
 11
-41.000061
 21
-16.666656
  0
LINE
  8
0
 10
-41.000061
 20
-16.666656
 11
-39.010071
 21
-16.666656
  0
LINE
  8
0
 10
-38.510071
 20
-11.166656
 11
-38.510071
 21
-17.166656
  0
LINE
  8
0
 10
-36.390076
 20
-11.166656
 11
-36.390076
 21
-17.166656
  0
LINE
  8
0
 10
-41.500069
 20
-11.166655
 11
-41.000069
 21
-10.666654
  0
LINE
  8
0
 10
-41.500069
 20
-17.166660
 11
-41.000069
 21
-16.666660
  0
LINE
  8
0
 10
-39.010071
 20
-10.666656
 11
-39.010071
 21
-16.666656
  0
LINE
  8
0
 10
-38.510071
 20
-11.166656
 11
-36.390076
 21
-11.166656
  0
LINE
  8
0
 10
-39.010071
 20
-10.666663
 11
-38.510078
 21
-11.166653
  0
LINE
  8
0
 10
-39.010071
 20
-16.666649
 11
-38.510067
 21
-17.166649
  0
LINE
  8
0
 10
-36.890076
 20
-10.666654
 11
-36.390076
 21
-11.166653
  0
LINE
  8
0
 10
-36.390076
 20
-17.166656
 11
-35.000061
 21
-17.166656
  0
LINE
  8
0
 10
-36.390076
 20
-16.666656
 11
-35.500061
 21
-16.666656
  0
LINE
  8
0
 10
-35.500061
 20
-10.666656
 11
-35.500061
 21
-16.666656
  0
LINE
  8
0
 10
-51.000069
 20
-11.166655
 11
-50.500069
 21
-10.666654
  0
LINE
  8
0
 10
-35.500072
 20
-10.666654
 11
-35.000072
 21
-11.166655
  0
LINE
  8
0
 10
-35.500072
 20
-16.666660
 11
-35.000072
 21
-17.166660
  0
LINE
  8
0
 10
-43.000061
 20
-11.166656
 11
-44.500061
 21
-11.166656
  0
LINE
  8
0
 10
-44.500072
 20
-11.166655
 11
-45.000072
 21
-10.666654
  0
LINE
  8
0
 10
-45.000061
 20
-10.666656
 11
-45.000061
 21
-16.666656
  0
LINE
  8
0
 10
-44.500061
 20
-11.166656
 11
-44.500061
 21
-17.166656
  0
LINE
  8
0
 10
-45.000061
 20
-16.666656
 11
-47.000061
 21
-16.666656
  0
LINE
  8
0
 10
-44.500072
 20
-17.166660
 11
-45.000072
 21
-16.666660
  0
LINE
  8
0
 10
-44.500061
 20
-17.166656
 11
-47.500061
 21
-17.166656
  0
LINE
  8
0
 10
-47.000061
 20
-10.666656
 11
-47.000061
 21
-16.666656
  0
LINE
  8
0
 10
-47.000076
 20
-16.666658
 11
-47.500076
 21
-17.166658
  0
LINE
  8
0
 10
-47.500061
 20
-11.166656
 11
-47.500061
 21
-17.166656
  0
LINE
  8
0
 10
-47.000076
 20
-10.666653
 11
-47.500076
 21
-11.166653
  0
LINE
  8
0
 10
-47.500061
 20
-11.166656
 11
-49.620071
 21
-11.166656
  0
LINE
  8
0
 10
-49.120068
 20
-10.666664
 11
-49.620068
 21
-11.166665
  0
LINE
  8
0
 10
-49.620071
 20
-11.166656
 11
-49.620071
 21
-17.166656
  0
LINE
  8
0
 10
-49.620071
 20
-16.666656
 11
-50.500061
 21
-16.666656
  0
LINE
  8
0
 10
-49.620071
 20
-17.166656
 11
-51.000061
 21
-17.166656
  0
LINE
  8
0
  6
CENTER
 62
     2
 10
-29.000061
 20
-17.746658
 11
-29.000061
 21
-150.396652
  0
LINE
  8
0
 10
-75.200073
 20
-69.666656
 11
-75.200073
 21
-66.666656
  0
LINE
  8
0
 10
-70.200073
 20
-42.666656
 11
-75.200073
 21
-42.666656
  0
LINE
  8
0
 10
-70.200073
 20
-24.666656
 11
-75.200073
 21
-24.666656
  0
LINE
  8
0
 10
-55.800064
 20
-22.666656
 11
-60.800064
 21
-22.666656
  0
LINE
  8
0
 10
-55.800064
 20
-44.666656
 11
-60.800064
 21
-44.666656
  0
LINE
  8
0
 10
-70.200066
 20
-42.666653
 11
-60.800060
 21
-44.666656
  0
LINE
  8
0
 10
-70.200066
 20
-24.666662
 11
-60.800060
 21
-22.666662
  0
LINE
  8
0
 10
-58.800064
 20
5.333344
 11
-72.200073
 21
5.333344
  0
LINE
  8
0
 10
-58.782562
 20
-72.666656
 11
-72.200073
 21
-72.666656
  0
LINE
  8
0
 10
-55.800068
 20
2.333339
 11
-58.800072
 21
5.333342
  0
LINE
  8
0
 10
-72.200073
 20
5.333342
 11
-75.200066
 21
2.333349
  0
LINE
  8
0
 10
-72.200073
 20
-72.666656
 11
-75.200066
 21
-69.666664
  0
LINE
  8
0
 10
-58.400070
 20
-40.166656
 11
-58.400070
 21
-27.166656
  0
LINE
  8
0
 10
-72.610062
 20
-38.166656
 11
-72.610062
 21
-29.166656
  0
LINE
  8
0
 10
-58.400070
 20
-40.166656
 11
-60.800064
 21
-40.166656
  0
LINE
  8
0
 10
-58.400070
 20
-27.166656
 11
-60.800064
 21
-27.166656
  0
LINE
  8
0
 10
-70.200073
 20
-29.166656
 11
-72.610062
 21
-29.166656
  0
LINE
  8
0
 10
-70.200073
 20
-38.166656
 11
-72.610062
 21
-38.166656
  0
LINE
  8
0
 10
-70.200073
 20
-42.666656
 11
-70.200073
 21
-38.166656
  0
LINE
  8
0
 10
-60.800064
 20
-44.666656
 11
-60.800064
 21
-40.166656
  0
LINE
  8
0
 10
-60.800064
 20
-22.666656
 11
-60.800064
 21
-27.166656
  0
LINE
  8
0
 10
-70.200073
 20
-24.666656
 11
-70.200073
 21
-29.166656
  0
LINE
  8
0
 10
-70.200073
 20
-29.166655
 11
-60.800072
 21
-27.166655
  0
LINE
  8
0
 10
-60.800076
 20
-40.166664
 11
-70.200073
 21
-38.166664
  0
LINE
  8
0
 10
-55.800076
 20
-22.666655
 11
-58.400078
 21
-27.166653
  0
LINE
  8
0
 10
-58.400078
 20
-40.166660
 11
-55.800076
 21
-44.666656
  0
LINE
  8
0
 10
-75.200066
 20
-42.666656
 11
-72.610069
 21
-38.166656
  0
LINE
  8
0
 10
-72.610069
 20
-29.166658
 11
-75.200066
 21
-24.666656
  0
LINE
  8
0
  6
CENTER
 62
     2
 10
-58.360062
 20
-2.666656
 11
-72.250061
 21
-2.666656
  0
LINE
  8
0
  6
CENTER
 62
     2
 10
-57.690063
 20
-64.666656
 11
-72.910065
 21
-64.666656
  0
LINE
  8
0
 10
-63.500061
 20
-68.166656
 11
-67.500061
 21
-68.166656
  0
LINE
  8
0
 10
-63.500061
 20
-61.166656
 11
-67.500061
 21
-61.166656
  0
LINE
  8
0
 10
-63.500061
 20
0.833344
 11
-67.500061
 21
0.833344
  0
LINE
  8
0
 10
-63.500061
 20
-6.166656
 11
-67.500061
 21
-6.166656
  0
LINE
  8
0
 10
-59.220062
 20
4.333344
 11
-71.790070
 21
4.333344
  0
LINE
  8
0
 10
-56.800068
 20
1.913343
 11
-59.220066
 21
4.333341
  0
LINE
  8
0
 10
-71.790077
 20
4.333343
 11
-74.200073
 21
1.913347
  0
LINE
  8
0
 10
-74.200073
 20
-69.246643
 11
-74.200073
 21
-66.666656
  0
LINE
  8
0
 10
-58.292000
 20
-70.738586
 11
-59.220070
 21
-71.666664
  0
LINE
  8
0
 10
-59.220062
 20
-71.666656
 11
-71.790070
 21
-71.666656
  0
LINE
  8
0
 10
-71.790077
 20
-71.666656
 11
-74.200073
 21
-69.246658
  0
LINE
  8
0
 10
-56.800064
 20
-21.666656
 11
-56.800064
 21
1.913330
  0
LINE
  8
0
 10
-74.200066
 20
-23.666662
 11
-59.850060
 21
-22.026661
  0
LINE
  8
0
 10
-71.000061
 20
-44.026653
 11
-60.500069
 21
-45.236652
  0
LINE
  8
0
 10
-74.200073
 20
-23.666656
 11
-74.200073
 21
1.913330
  0
LINE
  8
0
 10
-70.940071
 20
-24.236662
 11
-65.500061
 21
-23.666658
  0
LINE
  8
0
 10
-70.940071
 20
-43.096653
 11
-65.500061
 21
-43.666653
  0
LINE
  8
0
 10
-59.220081
 20
-71.666649
 11
-58.782578
 21
-72.666656
  0
LINE
  8
0
 10
-74.200066
 20
-69.246658
 11
-75.200073
 21
-69.666656
  0
LINE
  8
0
 10
-71.790062
 20
-71.666649
 11
-72.200058
 21
-72.666656
  0
LINE
  8
0
 10
-56.800079
 20
1.913348
 11
-55.800068
 21
2.333351
  0
LINE
  8
0
 10
-59.220066
 20
4.333339
 11
-58.800072
 21
5.333329
  0
LINE
  8
0
 10
-72.200058
 20
5.333342
 11
-71.790062
 21
4.333340
  0
LINE
  8
0
 10
-74.200066
 20
1.913343
 11
-75.200073
 21
2.333344
  0
LINE
  8
0
 10
-64.000061
 20
-34.526657
 11
-64.000061
 21
-32.806656
  0
LINE
  8
0
 10
-67.000061
 20
-34.526657
 11
-67.000061
 21
-32.806656
  0
LINE
  8
0
 10
-64.000069
 20
-34.526661
 11
-65.500069
 21
-35.396660
  0
LINE
  8
0
 10
-65.500069
 20
-31.936653
 11
-67.000069
 21
-32.806652
  0
LINE
  8
0
 10
-65.500069
 20
-35.396660
 11
-67.000069
 21
-34.526661
  0
LINE
  8
0
 10
-64.000069
 20
-32.806656
 11
-65.500069
 21
-31.936657
  0
LINE
  8
0
 10
-121.500061
 20
-44.666656
 11
-121.500061
 21
-45.666656
  0
LINE
  8
0
 10
-125.200073
 20
-22.666656
 11
-125.200073
 21
-44.666656
  0
LINE
  8
0
 10
-125.200073
 20
-63.666656
 11
-125.200073
 21
-69.666656
  0
LINE
  8
0
 10
-59.500061
 20
-44.666656
 11
-59.500061
 21
-45.666656
  0
LINE
  8
0
 10
-55.800064
 20
-44.666656
 11
-55.800064
 21
-22.666656
  0
LINE
  8
0
 10
-55.800064
 20
-21.666656
 11
-55.800064
 21
2.333344
  0
LINE
  8
0
 10
-109.500061
 20
-42.666656
 11
-109.500061
 21
-43.666656
  0
LINE
  8
0
 10
-105.800064
 20
-24.666656
 11
-105.800064
 21
-42.666656
  0
LINE
  8
0
 10
-106.800064
 20
-66.666656
 11
-106.800064
 21
-69.246643
  0
LINE
  8
0
 10
-105.800064
 20
-66.666656
 11
-105.800064
 21
-69.666656
  0
LINE
  8
0
 10
-105.800064
 20
-57.666656
 11
-105.800064
 21
-59.666656
  0
LINE
  8
0
 10
-75.200073
 20
-42.666656
 11
-75.200073
 21
-24.666656
  0
LINE
  8
0
 10
-74.200073
 20
-59.666656
 11
-74.200073
 21
-57.666656
  0
LINE
  8
0
 10
-75.200073
 20
-59.666656
 11
-75.200073
 21
-57.666656
  0
LINE
  8
0
 10
-71.500061
 20
-42.666656
 11
-71.500061
 21
-43.666656
  0
LINE
  8
0
 10
-75.200073
 20
-23.666656
 11
-75.200073
 21
2.333344
  0
LINE
  8
0
 10
-149.170074
 20
-170.346649
 11
-154.820068
 21
-170.346649
  0
LINE
  8
0
 10
-155.250061
 20
-167.946655
 11
-155.250061
 21
-167.746643
  0
LINE
  8
0
 10
-148.750061
 20
-167.946655
 11
-148.750061
 21
-167.746643
  0
LINE
  8
0
 10
-148.750061
 20
-167.746643
 11
-155.250061
 21
-167.746643
  0
LINE
  8
0
 10
-148.750061
 20
-165.146652
 11
-155.250061
 21
-165.146652
  0
LINE
  8
0
 10
-148.750061
 20
-165.346649
 11
-155.250061
 21
-165.346649
  0
LINE
  8
0
 10
-148.750061
 20
-167.946655
 11
-155.250061
 21
-167.946655
  0
LINE
  8
0
 10
-155.250061
 20
-165.346649
 11
-155.250061
 21
-165.146652
  0
LINE
  8
0
 10
-148.750061
 20
-165.346649
 11
-148.750061
 21
-165.146652
  0
LINE
  8
0
 10
-155.250061
 20
-165.346649
 11
-154.820068
 21
-167.746658
  0
LINE
  8
0
 10
-155.250061
 20
-167.946640
 11
-154.820068
 21
-170.346649
  0
LINE
  8
0
 10
-148.750076
 20
-167.946640
 11
-149.170074
 21
-170.346649
  0
LINE
  8
0
 10
-148.750061
 20
-165.346649
 11
-149.170059
 21
-167.746658
  0
LINE
  8
0
  6
CENTER
 62
     2
 10
-65.500061
 20
-77.526642
 11
-65.500061
 21
9.333344
  0
LINE
  8
0
  6
CENTER
 62
     2
 10
-115.500061
 20
10.193329
 11
-115.500061
 21
-76.666656
  0
LINE
  8
0
 10
-281.250000
 20
195.500000
 11
282.099854
 21
195.500000
  0
LINE
  8
0
 10
-281.250000
 20
195.500000
 11
-281.250000
 21
-195.000000
  0
LINE
  8
0
 10
282.099854
 20
195.500000
 11
282.099854
 21
-195.000000
  0
LINE
  8
0
 10
-281.250000
 20
-195.000000
 11
282.099854
 21
-195.000000
  0
LINE
  8
0
 10
162.099976
 20
-175.000000
 11
162.099976
 21
-195.000000
  0
LINE
  8
0
 10
162.099976
 20
-175.000000
 11
282.099854
 21
-175.000000
  0
LINE
  8
0
 10
162.099976
 20
175.500000
 11
282.099854
 21
175.500000
  0
LINE
  8
0
 10
-281.250000
 20
175.500000
 11
-161.250000
 21
175.500000
  0
LINE
  8
0
 10
162.099976
 20
195.500000
 11
162.099976
 21
175.500000
  0
LINE
  8
0
 10
-161.250000
 20
195.500000
 11
-161.250000
 21
175.500000
  0
CIRCLE
  8
0
 10
-90.500015
 20
99.629074
 40
11.000000
  0
ARC
  8
0
 10
-90.516083
 20
99.619804
 40
10.297881
 50
105.165054
 51
134.703629
  0
ARC
  8
0
 10
-90.500015
 20
99.629074
 40
10.298837
 50
165.262039
 51
194.737869
  0
ARC
  8
0
 10
-90.516083
 20
99.638344
 40
10.297876
 50
225.296371
 51
254.834946
  0
ARC
  8
0
 10
-90.491470
 20
99.634003
 40
10.293040
 50
285.158020
 51
314.710754
  0
ARC
  8
0
 10
-90.500015
 20
99.629074
 40
10.298835
 50
345.262085
 51
14.737916
  0
ARC
  8
0
 10
-90.491470
 20
99.624146
 40
10.293047
 50
45.289249
 51
74.841988
  0
CIRCLE
  8
0
 10
-90.500015
 20
99.629074
 40
10.000000
  0
CIRCLE
  8
0
 10
-90.500015
 20
99.629074
 40
8.500000
  0
CIRCLE
  8
0
 10
-90.500015
 20
99.629074
 40
6.500000
  0
CIRCLE
  8
0
 10
-90.500015
 20
99.629074
 40
2.500000
  0
ARC
  8
0
 10
-90.485519
 20
99.612434
 40
19.498470
 50
38.045414
 51
44.171219
  0
ARC
  8
0
 10
-90.499878
 20
99.629181
 40
18.499939
 50
108.925186
 51
139.560486
  0
ARC
  8
0
 10
-90.499878
 20
99.628967
 40
18.499939
 50
220.439514
 51
251.074814
  0
ARC
  8
0
 10
-90.504837
 20
99.632446
 40
19.497940
 50
217.997192
 51
252.092743
  0
ARC
  8
0
 10
-90.485519
 20
99.645714
 40
19.498474
 50
315.828766
 51
321.954590
  0
ARC
  8
0
 10
-90.504837
 20
99.625702
 40
19.497936
 50
107.907257
 51
142.002808
  0
ARC
  8
0
 10
-68.500015
 20
63.129089
 40
2.999985
 50
359.999695
 51
90.000290
  0
ARC
  8
0
 10
-104.500015
 20
63.129074
 40
3.000000
 50
90.000000
 51
180.000000
  0
ARC
  8
0
 10
-152.005020
 20
99.629074
 40
30.996220
 50
28.942392
 51
151.057556
  0
ARC
  8
0
 10
-152.005020
 20
99.629074
 40
30.996218
 50
208.942444
 51
331.057617
  0
ARC
  8
0
 10
-152.005020
 20
99.629074
 40
30.003664
 50
29.995960
 51
150.004013
  0
ARC
  8
0
 10
-152.005020
 20
99.629074
 40
22.001116
 50
42.983181
 51
137.016769
  0
ARC
  8
0
 10
-152.005020
 20
99.629074
 40
20.998638
 50
45.588486
 51
134.411499
  0
ARC
  8
0
 10
-152.005020
 20
99.629074
 40
22.001114
 50
222.983231
 51
317.016815
  0
ARC
  8
0
 10
-152.005020
 20
99.629074
 40
20.998644
 50
225.588501
 51
314.411530
  0
ARC
  8
0
 10
-152.005020
 20
99.629074
 40
30.003662
 50
209.995987
 51
330.004028
  0
ARC
  8
0
 10
-28.997803
 20
99.629059
 40
29.997408
 50
30.002876
 51
149.333176
  0
ARC
  8
0
 10
-28.999466
 20
99.629066
 40
31.000109
 50
28.938433
 51
149.829208
  0
CIRCLE
  8
0
 10
-43.000031
 20
85.629066
 40
7.500000
  0
CIRCLE
  8
0
 10
-43.000031
 20
85.629066
 40
8.000000
  0
CIRCLE
  8
0
 10
-23.500031
 20
100.629066
 40
6.949997
  0
CIRCLE
  8
0
 10
-23.500031
 20
100.629066
 40
13.000000
  0
CIRCLE
  8
0
 10
-23.500031
 20
100.629066
 40
14.000000
  0
ARC
  8
0
 10
-29.000015
 20
99.629074
 40
29.999331
 50
210.000732
 51
329.999268
  0
ARC
  8
0
 10
-28.999466
 20
99.629082
 40
31.000109
 50
210.170792
 51
331.061554
  0
CIRCLE
  8
0
 10
-23.500031
 20
100.629066
 40
7.200000
  0
ARC
  8
0
 10
156.528519
 20
-135.454865
 40
10.001770
 50
270.008301
 51
359.531555
  0
ARC
  8
0
 10
125.467766
 20
-135.458542
 40
9.998100
 50
180.447632
 51
270.012634
  0
ARC
  8
0
 10
156.046692
 20
-126.459930
 40
0.996725
 50
179.811417
 51
270.188599
  0
ARC
  8
0
 10
156.046692
 20
-126.959930
 40
0.996725
 50
179.811417
 51
270.188599
  0
ARC
  8
0
 10
155.645645
 20
-127.460968
 40
0.995691
 50
179.751511
 51
270.248474
  0
ARC
  8
0
 10
155.645645
 20
-127.960968
 40
0.995691
 50
179.751511
 51
270.248474
  0
ARC
  8
0
 10
159.706161
 20
-126.452850
 40
1.003814
 50
270.216858
 51
359.782684
  0
ARC
  8
0
 10
161.518982
 20
-126.955673
 40
1.000977
 50
270.055908
 51
359.944092
  0
ARC
  8
0
 10
161.777573
 20
-127.454254
 40
1.002398
 50
270.136932
 51
359.863495
  0
ARC
  8
0
 10
162.366486
 20
-127.953171
 40
1.003485
 50
270.198639
 51
359.801788
  0
ARC
  8
0
 10
125.949577
 20
-126.456253
 40
1.000397
 50
270.022736
 51
359.977264
  0
ARC
  8
0
 10
125.949577
 20
-126.956253
 40
1.000397
 50
270.022736
 51
359.977264
  0
ARC
  8
0
 10
126.350609
 20
-127.457291
 40
0.999359
 50
269.963257
 51
0.036743
  0
ARC
  8
0
 10
126.350609
 20
-127.957291
 40
0.999359
 50
269.963257
 51
0.036743
  0
ARC
  8
0
 10
122.295105
 20
-126.461517
 40
0.995144
 50
179.719742
 51
270.280243
  0
ARC
  8
0
 10
120.477280
 20
-126.959351
 40
0.997310
 50
179.844833
 51
270.154724
  0
ARC
  8
0
 10
120.218689
 20
-127.457932
 40
0.998719
 50
179.926468
 51
270.073547
  0
ARC
  8
0
 10
119.634766
 20
-127.961853
 40
0.994810
 50
179.700317
 51
270.299683
  0
ARC
  8
0
 10
156.042755
 20
-101.459427
 40
0.992809
 50
89.583473
 51
180.416519
  0
ARC
  8
0
 10
156.042755
 20
-100.959427
 40
0.992809
 50
89.583473
 51
180.416519
  0
ARC
  8
0
 10
159.710068
 20
-101.466537
 40
0.999893
 50
359.993866
 51
90.006119
  0
ARC
  8
0
 10
161.522903
 20
-100.963699
 40
0.997059
 50
359.830780
 51
90.169228
  0
ARC
  8
0
 10
156.042755
 20
-70.459442
 40
0.992816
 50
89.583481
 51
180.416092
  0
ARC
  8
0
 10
156.042755
 20
-69.959442
 40
0.992816
 50
89.583481
 51
180.416092
  0
ARC
  8
0
 10
155.641708
 20
-69.458389
 40
0.991779
 50
89.523094
 51
180.476898
  0
ARC
  8
0
 10
155.641708
 20
-68.958389
 40
0.991779
 50
89.523094
 51
180.476898
  0
ARC
  8
0
 10
156.051727
 20
-94.464890
 40
1.001756
 50
180.100357
 51
269.899628
  0
ARC
  8
0
 10
156.051727
 20
-94.964890
 40
1.001756
 50
180.100357
 51
269.899628
  0
ARC
  8
0
 10
159.710068
 20
-70.466553
 40
0.999893
 50
359.994324
 51
90.006119
  0
ARC
  8
0
 10
161.522903
 20
-69.963715
 40
0.997075
 50
359.831207
 51
90.168350
  0
ARC
  8
0
 10
161.781479
 20
-69.465134
 40
0.998475
 50
359.912872
 51
90.087563
  0
ARC
  8
0
 10
162.370392
 20
-68.966217
 40
0.999558
 50
359.975067
 51
90.024490
  0
ARC
  8
0
 10
159.701157
 20
-94.457855
 40
1.008835
 50
270.500031
 51
359.500397
  0
ARC
  8
0
 10
161.513977
 20
-94.960663
 40
1.006007
 50
270.341522
 51
359.658905
  0
ARC
  8
0
 10
125.953499
 20
-101.463120
 40
0.996474
 50
359.796906
 51
90.203110
  0
ARC
  8
0
 10
125.953499
 20
-100.963120
 40
0.996474
 50
359.796906
 51
90.203110
  0
ARC
  8
0
 10
122.291153
 20
-101.457825
 40
0.991220
 50
89.490189
 51
180.509811
  0
ARC
  8
0
 10
120.473343
 20
-100.960007
 40
0.993385
 50
89.617157
 51
180.382843
  0
ARC
  8
0
 10
125.953491
 20
-70.463120
 40
0.996481
 50
359.797333
 51
90.202667
  0
ARC
  8
0
 10
125.953491
 20
-69.963120
 40
0.996481
 50
359.797333
 51
90.202667
  0
ARC
  8
0
 10
126.354538
 20
-69.462082
 40
0.995448
 50
359.737396
 51
90.262604
  0
ARC
  8
0
 10
126.354538
 20
-68.962082
 40
0.995448
 50
359.737396
 51
90.262604
  0
ARC
  8
0
 10
125.944565
 20
-94.461243
 40
1.005424
 50
270.308258
 51
359.691742
  0
ARC
  8
0
 10
125.944565
 20
-94.961243
 40
1.005424
 50
270.308258
 51
359.691742
  0
ARC
  8
0
 10
122.291168
 20
-70.457840
 40
0.991227
 50
89.490639
 51
180.509369
  0
ARC
  8
0
 10
120.473343
 20
-69.960022
 40
0.993392
 50
89.617599
 51
180.382401
  0
ARC
  8
0
 10
120.214767
 20
-69.461441
 40
0.994803
 50
89.699875
 51
180.300125
  0
ARC
  8
0
 10
119.630829
 20
-68.957504
 40
0.990895
 50
89.471054
 51
180.528946
  0
ARC
  8
0
 10
122.300140
 20
-94.466476
 40
1.000168
 50
180.009613
 51
269.990387
  0
ARC
  8
0
 10
120.482315
 20
-94.964310
 40
1.002337
 50
180.133453
 51
269.866547
  0
ARC
  8
0
 10
104.499985
 20
-15.666656
 40
2.999985
 50
359.999695
 51
90.000290
  0
ARC
  8
0
 10
104.499954
 20
-51.666626
 40
3.000023
 50
270.000427
 51
359.999573
  0
CIRCLE
  8
0
 10
140.999969
 20
-33.666656
 40
10.250000
  0
ARC
  8
0
 10
141.999969
 20
-3.616669
 40
6.949997
 50
0.000000
 51
179.999969
  0
CIRCLE
  8
0
 10
140.999969
 20
-33.666656
 40
5.722500
  0
CIRCLE
  8
0
 62
     2
 10
140.999969
 20
-33.666656
 40
6.578500
  0
ARC
  8
0
 10
-13.469681
 20
-135.456726
 40
9.999924
 50
269.997772
 51
359.542053
  0
ARC
  8
0
 10
-8.484222
 20
-94.962494
 40
1.004159
 50
270.236694
 51
359.763184
  0
ARC
  8
0
 10
-10.297028
 20
-94.459686
 40
1.006982
 50
270.396057
 51
359.604095
  0
ARC
  8
0
 10
-13.946487
 20
-94.963074
 40
1.003588
 50
180.204712
 51
269.795502
  0
ARC
  8
0
 10
-13.946487
 20
-94.463074
 40
1.003588
 50
180.204712
 51
269.795502
  0
ARC
  8
0
 10
-7.631683
 20
-127.955032
 40
1.001619
 50
270.092590
 51
359.907471
  0
ARC
  8
0
 10
-8.220612
 20
-127.456100
 40
1.000549
 50
270.031281
 51
359.968536
  0
ARC
  8
0
 10
-8.479202
 20
-126.957520
 40
0.999131
 50
269.950165
 51
0.049876
  0
ARC
  8
0
 10
-8.475266
 20
-100.961853
 40
0.995208
 50
359.723267
 51
90.276505
  0
ARC
  8
0
 10
-10.292023
 20
-126.454697
 40
1.001955
 50
270.111908
 51
359.888306
  0
ARC
  8
0
 10
-10.288101
 20
-101.464676
 40
0.998035
 50
359.886993
 51
90.112892
  0
ARC
  8
0
 10
-14.352539
 20
-127.959122
 40
0.997531
 50
179.858017
 51
270.141937
  0
ARC
  8
0
 10
-14.352539
 20
-127.459122
 40
0.997531
 50
179.858017
 51
270.141937
  0
ARC
  8
0
 10
-13.951508
 20
-126.958084
 40
0.998563
 50
179.917267
 51
270.082458
  0
ARC
  8
0
 10
-13.951508
 20
-126.458084
 40
0.998563
 50
179.917267
 51
270.082458
  0
ARC
  8
0
 10
-13.955444
 20
-100.961273
 40
0.994643
 50
89.690384
 51
180.309402
  0
ARC
  8
0
 10
-13.955444
 20
-101.461273
 40
0.994643
 50
89.690384
 51
180.309402
  0
ARC
  8
0
 10
-7.627777
 20
-68.964355
 40
0.997704
 50
359.868134
 51
90.131935
  0
ARC
  8
0
 10
-8.216690
 20
-69.463272
 40
0.996631
 50
359.806122
 51
90.194031
  0
ARC
  8
0
 10
-8.475266
 20
-69.961853
 40
0.995216
 50
359.723724
 51
90.276062
  0
ARC
  8
0
 10
-10.288116
 20
-70.464691
 40
0.998043
 50
359.887451
 51
90.112457
  0
ARC
  8
0
 10
-14.356476
 20
-68.960251
 40
0.993620
 50
89.630669
 51
180.369110
  0
ARC
  8
0
 10
-14.356476
 20
-69.460251
 40
0.993620
 50
89.630669
 51
180.369110
  0
ARC
  8
0
 10
-13.955429
 20
-69.961288
 40
0.994651
 50
89.690819
 51
180.308960
  0
ARC
  8
0
 10
-13.955429
 20
-70.461288
 40
0.994651
 50
89.690819
 51
180.308960
  0
ARC
  8
0
 10
-57.432800
 20
-89.307312
 40
0.297418
 50
181.797806
 51
217.081985
  0
ARC
  8
0
 10
-49.515900
 20
-94.962479
 40
1.004178
 50
180.238113
 51
269.762115
  0
ARC
  8
0
 10
-47.698074
 20
-94.464645
 40
1.001997
 50
180.114304
 51
269.885925
  0
ARC
  8
0
 10
-44.048615
 20
-94.958099
 40
1.008589
 50
270.485870
 51
359.514130
  0
ARC
  8
0
 10
-44.048615
 20
-94.458099
 40
1.008589
 50
270.485870
 51
359.514130
  0
ARC
  8
0
 10
-50.363434
 20
-127.960007
 40
0.996645
 50
179.807007
 51
270.193207
  0
ARC
  8
0
 10
-49.774506
 20
-127.461090
 40
0.995577
 50
179.744904
 51
270.255096
  0
ARC
  8
0
 10
-49.520920
 20
-126.957489
 40
0.999153
 50
179.951431
 51
270.048553
  0
ARC
  8
0
 10
-49.524857
 20
-100.961868
 40
0.995228
 50
89.724823
 51
180.275391
  0
ARC
  8
0
 10
-47.703094
 20
-126.459686
 40
0.996976
 50
179.825928
 51
270.174072
  0
ARC
  8
0
 10
-47.707047
 20
-101.459671
 40
0.993051
 50
89.597664
 51
180.402344
  0
ARC
  8
0
 10
-43.642593
 20
-127.954132
 40
1.002521
 50
270.143890
 51
359.856110
  0
ARC
  8
0
 10
-43.642593
 20
-127.454132
 40
1.002521
 50
270.143890
 51
359.856110
  0
ARC
  8
0
 10
-44.043625
 20
-126.953094
 40
1.003562
 50
270.203186
 51
359.797028
  0
ARC
  8
0
 10
-44.043625
 20
-126.453094
 40
1.003562
 50
270.203186
 51
359.797028
  0
ARC
  8
0
 10
-44.039703
 20
-100.966293
 40
0.999641
 50
359.979462
 51
90.020554
  0
ARC
  8
0
 10
-44.039703
 20
-101.466293
 40
0.999641
 50
359.979462
 51
90.020554
  0
ARC
  8
0
 10
-44.525406
 20
-135.461700
 40
9.994952
 50
180.429657
 51
269.973236
  0
ARC
  8
0
 10
-50.367371
 20
-68.959351
 40
0.992733
 50
89.578819
 51
180.420959
  0
ARC
  8
0
 10
-49.778442
 20
-69.458267
 40
0.991658
 50
89.515984
 51
180.484009
  0
ARC
  8
0
 10
-49.524841
 20
-69.961884
 40
0.995235
 50
89.725266
 51
180.274948
  0
ARC
  8
0
 10
-47.707031
 20
-70.459686
 40
0.993059
 50
89.598106
 51
180.401901
  0
ARC
  8
0
 10
-43.638672
 20
-68.965256
 40
0.998605
 50
359.919891
 51
90.079887
  0
ARC
  8
0
 10
-43.638672
 20
-69.465256
 40
0.998605
 50
359.919891
 51
90.079887
  0
ARC
  8
0
 10
-44.039719
 20
-69.966293
 40
0.999649
 50
359.979889
 51
90.020119
  0
ARC
  8
0
 10
-44.039719
 20
-70.466293
 40
0.999649
 50
359.979889
 51
90.020119
  0
ARC
  8
0
 10
-167.039719
 20
-70.466293
 40
0.999649
 50
359.979889
 51
90.020119
  0
ARC
  8
0
 10
-167.039719
 20
-69.966293
 40
0.999649
 50
359.979889
 51
90.020119
  0
ARC
  8
0
 10
-166.638672
 20
-69.465256
 40
0.998612
 50
359.919891
 51
90.079666
  0
ARC
  8
0
 10
-166.638672
 20
-68.965256
 40
0.998612
 50
359.919891
 51
90.079666
  0
ARC
  8
0
 10
-170.707031
 20
-70.459686
 40
0.993059
 50
89.597664
 51
180.401886
  0
ARC
  8
0
 10
-172.524841
 20
-69.961884
 40
0.995235
 50
89.725044
 51
180.274963
  0
ARC
  8
0
 10
-172.778442
 20
-69.458267
 40
0.991658
 50
89.515984
 51
180.484009
  0
ARC
  8
0
 10
-173.367355
 20
-68.959351
 40
0.992733
 50
89.579041
 51
180.420959
  0
ARC
  8
0
 10
-136.955429
 20
-70.461288
 40
0.994651
 50
89.690605
 51
180.308960
  0
ARC
  8
0
 10
-136.955429
 20
-69.961288
 40
0.994651
 50
89.690605
 51
180.308960
  0
ARC
  8
0
 10
-137.356476
 20
-69.460251
 40
0.993620
 50
89.630447
 51
180.369110
  0
ARC
  8
0
 10
-137.356476
 20
-68.960251
 40
0.993620
 50
89.630447
 51
180.369110
  0
ARC
  8
0
 10
-133.288116
 20
-70.464691
 40
0.998049
 50
359.887451
 51
90.112129
  0
ARC
  8
0
 10
-131.475266
 20
-69.961853
 40
0.995220
 50
359.723724
 51
90.275841
  0
ARC
  8
0
 10
-131.216690
 20
-69.463272
 40
0.996634
 50
359.806122
 51
90.193863
  0
ARC
  8
0
 10
-130.627777
 20
-68.964355
 40
0.997699
 50
359.868134
 51
90.132317
  0
ARC
  8
0
 10
-167.525391
 20
-135.461700
 40
9.994956
 50
180.429657
 51
269.973236
  0
ARC
  8
0
 10
-136.469681
 20
-135.456726
 40
9.999924
 50
269.997803
 51
359.542053
  0
ARC
  8
0
 10
-167.039703
 20
-101.466293
 40
0.999634
 50
359.979462
 51
90.020988
  0
ARC
  8
0
 10
-167.039703
 20
-100.966293
 40
0.999634
 50
359.979462
 51
90.020988
  0
ARC
  8
0
 10
-167.043625
 20
-126.453094
 40
1.003562
 50
270.202972
 51
359.797028
  0
ARC
  8
0
 10
-167.043625
 20
-126.953094
 40
1.003562
 50
270.202972
 51
359.797028
  0
ARC
  8
0
 10
-166.642593
 20
-127.454132
 40
1.002521
 50
270.143890
 51
359.856110
  0
ARC
  8
0
 10
-166.642593
 20
-127.954132
 40
1.002521
 50
270.143890
 51
359.856110
  0
ARC
  8
0
 10
-170.707031
 20
-101.459671
 40
0.993051
 50
89.597664
 51
180.402344
  0
ARC
  8
0
 10
-170.703094
 20
-126.459686
 40
0.996968
 50
179.825928
 51
270.174500
  0
ARC
  8
0
 10
-172.524841
 20
-100.961868
 40
0.995228
 50
89.725044
 51
180.275391
  0
ARC
  8
0
 10
-172.520905
 20
-126.957489
 40
0.999161
 50
179.951431
 51
270.048126
  0
ARC
  8
0
 10
-172.774490
 20
-127.461090
 40
0.995570
 50
179.744888
 51
270.255554
  0
ARC
  8
0
 10
-173.363419
 20
-127.960007
 40
0.996649
 50
179.807022
 51
270.192993
  0
ARC
  8
0
 10
-167.048615
 20
-94.458099
 40
1.008589
 50
270.486298
 51
359.514130
  0
ARC
  8
0
 10
-167.048615
 20
-94.958099
 40
1.008589
 50
270.486298
 51
359.514130
  0
ARC
  8
0
 10
-170.698059
 20
-94.464645
 40
1.002001
 50
180.114304
 51
269.885712
  0
ARC
  8
0
 10
-172.515884
 20
-94.962479
 40
1.004174
 50
180.238113
 51
269.762329
  0
ARC
  8
0
 10
-136.955444
 20
-101.461273
 40
0.994643
 50
89.690598
 51
180.309402
  0
ARC
  8
0
 10
-136.955444
 20
-100.961273
 40
0.994643
 50
89.690598
 51
180.309402
  0
ARC
  8
0
 10
-136.951508
 20
-126.458084
 40
0.998567
 50
179.917267
 51
270.082306
  0
ARC
  8
0
 10
-136.951508
 20
-126.958084
 40
0.998567
 50
179.917267
 51
270.082306
  0
ARC
  8
0
 10
-137.352539
 20
-127.459122
 40
0.997531
 50
179.858017
 51
270.141968
  0
ARC
  8
0
 10
-137.352539
 20
-127.959122
 40
0.997531
 50
179.858017
 51
270.141968
  0
ARC
  8
0
 10
-133.288101
 20
-101.464676
 40
0.998034
 50
359.886993
 51
90.112999
  0
ARC
  8
0
 10
-133.292023
 20
-126.454697
 40
1.001955
 50
270.111694
 51
359.888306
  0
ARC
  8
0
 10
-131.475266
 20
-100.961853
 40
0.995205
 50
359.723267
 51
90.276718
  0
ARC
  8
0
 10
-131.479202
 20
-126.957520
 40
0.999131
 50
269.950134
 51
0.049876
  0
ARC
  8
0
 10
-131.220612
 20
-127.456100
 40
1.000549
 50
270.031464
 51
359.968536
  0
ARC
  8
0
 10
-130.631683
 20
-127.955032
 40
1.001619
 50
270.092529
 51
359.907471
  0
ARC
  8
0
 10
-136.946487
 20
-94.463074
 40
1.003592
 50
180.204712
 51
269.795288
  0
ARC
  8
0
 10
-136.946487
 20
-94.963074
 40
1.003592
 50
180.204712
 51
269.795288
  0
ARC
  8
0
 10
-133.297028
 20
-94.459686
 40
1.006982
 50
270.395905
 51
359.604095
  0
ARC
  8
0
 10
-131.484222
 20
-94.962494
 40
1.004159
 50
270.236816
 51
359.763184
  0
ARC
  8
0
 10
-180.432785
 20
-89.307312
 40
0.297418
 50
181.797806
 51
217.081543
  0
CIRCLE
  8
0
 10
-115.500031
 20
-33.666656
 40
4.000000
  0
ARC
  8
0
 10
-117.500061
 20
-2.666656
 40
3.500000
 50
90.000000
 51
270.000000
  0
ARC
  8
0
 10
-113.500061
 20
-2.666656
 40
3.500000
 50
270.000000
 51
90.000000
  0
ARC
  8
0
 10
-117.500061
 20
-64.666656
 40
3.500000
 50
90.000000
 51
270.000000
  0
ARC
  8
0
 10
-113.500061
 20
-64.666656
 40
3.500000
 50
270.000000
 51
90.000000
  0
CIRCLE
  8
0
 10
-115.500031
 20
-33.666656
 40
3.500000
  0
CIRCLE
  8
0
 10
-115.500031
 20
-33.666656
 40
2.980385
  0
CIRCLE
  8
0
 10
-115.500031
 20
-33.666656
 40
1.732050
  0
ARC
  8
0
 10
-86.498108
 20
-33.669731
 40
9.998039
 50
0.017620
 51
64.221764
  0
ARC
  8
0
 10
-86.500031
 20
-33.666458
 40
10.000317
 50
115.848259
 51
241.641388
  0
ARC
  8
0
 10
-86.498108
 20
-33.669731
 40
9.998039
 50
0.017620
 51
64.221764
  0
ARC
  8
0
 10
-96.386551
 20
-40.464989
 40
2.001670
 50
269.899109
 51
34.659000
  0
ARC
  8
0
 10
-76.613571
 20
-40.464977
 40
2.001689
 50
145.341766
 51
269.813721
  0
CIRCLE
  8
0
 10
-86.500031
 20
-33.666656
 40
9.000000
  0
ARC
  8
0
 10
-86.500107
 20
-33.666775
 40
10.000042
 50
298.359528
 51
0.000678
  0
ARC
  8
0
 10
-86.500031
 20
-33.666458
 40
10.000317
 50
115.848259
 51
241.641388
  0
ARC
  8
0
 10
-86.500061
 20
-29.621063
 40
13.695684
 50
249.706818
 51
290.293213
  0
ARC
  8
0
 10
-79.000046
 20
-68.166672
 40
0.500023
 50
90.002625
 51
179.997375
  0
ARC
  8
0
 10
-76.800064
 20
-67.166656
 40
0.499992
 50
269.999115
 51
0.000874
  0
ARC
  8
0
 10
-102.000061
 20
-68.166641
 40
0.499992
 50
359.999115
 51
90.000877
  0
ARC
  8
0
 10
-104.200027
 20
-67.166611
 40
0.500038
 50
180.004364
 51
269.995636
  0
ARC
  8
0
 10
-102.100037
 20
-94.166626
 40
1.000031
 50
180.001755
 51
269.998260
  0
ARC
  8
0
 10
-78.900055
 20
-94.166672
 40
0.999985
 50
269.999115
 51
0.000874
  0
CIRCLE
  8
0
  6
PHANTOM
 62
     2
 10
-86.500031
 20
-33.666656
 40
21.250000
  0
CIRCLE
  8
0
 10
-86.500031
 20
-33.666656
 40
5.722500
  0
CIRCLE
  8
0
 62
     2
 10
-86.500031
 20
-33.666656
 40
6.578500
  0
ARC
  8
0
 10
-23.500061
 20
-3.616669
 40
6.950001
 50
0.000000
 51
179.999969
  0
CIRCLE
  8
0
 10
-65.500046
 20
-33.666664
 40
4.000000
  0
ARC
  8
0
 10
-63.500061
 20
-64.666656
 40
3.500000
 50
270.000000
 51
90.000000
  0
ARC
  8
0
 10
-67.500061
 20
-64.666656
 40
3.500000
 50
90.000000
 51
270.000000
  0
ARC
  8
0
 10
-63.500061
 20
-2.666656
 40
3.500000
 50
270.000000
 51
90.000000
  0
ARC
  8
0
 10
-67.500061
 20
-2.666656
 40
3.500000
 50
90.000000
 51
270.000000
  0
CIRCLE
  8
0
 10
-65.500046
 20
-33.666664
 40
3.500000
  0
CIRCLE
  8
0
 10
-65.500046
 20
-33.666664
 40
2.980385
  0
CIRCLE
  8
0
 10
-65.500046
 20
-33.666664
 40
1.732050
  0
POLYLINE
  8
0
 66
     1
  0
VERTEX
  8
0
 10
-55.050064
 20
-75.636642
  0
VERTEX
  8
0
 10
-54.721424
 20
-76.456352
  0
VERTEX
  8
0
 10
-54.421871
 20
-77.271378
  0
VERTEX
  8
0
 10
-54.152252
 20
-78.089119
  0
VERTEX
  8
0
 10
-53.913403
 20
-78.916962
  0
VERTEX
  8
0
 10
-53.706161
 20
-79.762314
  0
VERTEX
  8
0
 10
-53.531368
 20
-80.632561
  0
VERTEX
  8
0
 10
-53.389862
 20
-81.535095
  0
VERTEX
  8
0
 10
-53.282482
 20
-82.477325
  0
VERTEX
  8
0
 10
-53.210068
 20
-83.466644
  0
VERTEX
  8
0
 10
-53.180416
 20
-84.394241
  0
VERTEX
  8
0
 10
-53.190483
 20
-85.322945
  0
VERTEX
  8
0
 10
-53.239189
 20
-86.251144
  0
VERTEX
  8
0
 10
-53.325455
 20
-87.177246
  0
VERTEX
  8
0
 10
-53.448193
 20
-88.099648
  0
VERTEX
  8
0
 10
-53.606327
 20
-89.016747
  0
VERTEX
  8
0
 10
-53.798775
 20
-89.926933
  0
VERTEX
  8
0
 10
-54.024456
 20
-90.828621
  0
VERTEX
  8
0
 10
-54.282288
 20
-91.720207
  0
VERTEX
  8
0
 10
-54.571186
 20
-92.600082
  0
VERTEX
  8
0
 10
-54.890076
 20
-93.466644
  0
SEQEND
  0
POLYLINE
  8
0
 66
     1
  0
VERTEX
  8
0
 10
-178.050064
 20
-75.636642
  0
VERTEX
  8
0
 10
-177.721420
 20
-76.456352
  0
VERTEX
  8
0
 10
-177.421875
 20
-77.271378
  0
VERTEX
  8
0
 10
-177.152252
 20
-78.089119
  0
VERTEX
  8
0
 10
-176.913406
 20
-78.916962
  0
VERTEX
  8
0
 10
-176.706161
 20
-79.762314
  0
VERTEX
  8
0
 10
-176.531372
 20
-80.632561
  0
VERTEX
  8
0
 10
-176.389862
 20
-81.535095
  0
VERTEX
  8
0
 10
-176.282486
 20
-82.477325
  0
VERTEX
  8
0
 10
-176.210068
 20
-83.466644
  0
VERTEX
  8
0
 10
-176.180420
 20
-84.394241
  0
VERTEX
  8
0
 10
-176.190475
 20
-85.322945
  0
VERTEX
  8
0
 10
-176.239182
 20
-86.251144
  0
VERTEX
  8
0
 10
-176.325455
 20
-87.177246
  0
VERTEX
  8
0
 10
-176.448181
 20
-88.099648
  0
VERTEX
  8
0
 10
-176.606323
 20
-89.016747
  0
VERTEX
  8
0
 10
-176.798767
 20
-89.926933
  0
VERTEX
  8
0
 10
-177.024445
 20
-90.828621
  0
VERTEX
  8
0
 10
-177.282272
 20
-91.720207
  0
VERTEX
  8
0
 10
-177.571167
 20
-92.600082
  0
VERTEX
  8
0
 10
-177.890060
 20
-93.466644
  0
SEQEND
  0
TEXT
  8
0
 10
-256.000000
 20
157.720001
 40
6.300000
  1
MODEL:C200-02-F1
 50
0.000000
 41
1.052632
 51
0.000000
  7
STANDARD
  0
TEXT
  8
0
 10
14.270771
 20
-32.666748
 40
6.300000
  1
OUT
 50
0.000000
 41
1.052632
 51
0.000000
  7
STANDARD
  0
TEXT
  8
0
 10
-213.177292
 20
-32.666641
 40
6.300000
  1
IN
 50
0.000000
 41
1.052632
 51
0.000000
  7
STANDARD
  0
TEXT
  8
0
 10
-269.149719
 20
180.830002
 40
6.300000
  1
FRL COMBINATION
 50
0.000000
 41
1.052632
 51
0.000000
  7
STANDARD
  0
TEXT
  8
0
 10
199.400253
 20
180.830002
 40
6.300000
  1
Ｖｅｒ．２．０
 50
0.000000
 41
0.833333
 51
0.000000
  7
STANDARD
  0
TEXT
  8
0
 10
167.564667
 20
-192.100006
 40
9.000000
  1
KOGANEI CORP.
 50
0.000000
 41
1.052632
 51
0.000000
  7
STANDARD
  0
LINE
  8
0
 10
37.499969
 20
-33.666748
 11
12.499969
 21
-33.666748
  0
LINE
  8
0
 10
37.499969
 20
-33.666748
 11
34.602192
 21
-32.890293
  0
LINE
  8
0
 10
37.499969
 20
-33.666748
 11
34.602192
 21
-34.443207
  0
LINE
  8
0
 10
-193.500031
 20
-33.666656
 11
-218.500031
 21
-33.666645
  0
LINE
  8
0
 10
-193.500031
 20
-33.666656
 11
-196.397812
 21
-32.890198
  0
LINE
  8
0
 10
-193.500031
 20
-33.666656
 11
-196.397812
 21
-34.443111
  0
ENDSEC
  0
EOF
