  0
SECTION
  2
HEADER
  9
$ACADVER
  1
AC1009
  9
$INSBASE
 10
0.0
 20
0.0
 30
0.0
  9
$EXTMIN
 10
-138.3999939
 20
-94.80000305
 30
0.0
  9
$EXTMAX
 10
138.3500061
 20
94.5
 30
0.0
  9
$LIMMIN
 10
-138.3999939
 20
-94.80000305
  9
$LIMMAX
 10
138.3500061
 20
94.5
  9
$ORTHOMODE
 70
       0
  9
$REGENMODE
 70
       1
  9
$FILLMODE
 70
       1
  9
$QTEXTMODE
 70
       0
  9
$MIRRTEXT
 70
       1
  9
$DRAGMODE
 70
       2
  9
$LTSCALE
 40
1.0
  9
$OSMODE
 70
       0
  9
$ATTMODE
 70
       1
  9
$TEXTSIZE
 40
3.20000005
  9
$TRACEWID
 40
0.05
  9
$TEXTSTYLE
  7
MX_NOTE_STANDARD
  9
$CLAYER
  8
0
  9
$CELTYPE
  6
CONTINUOUS
  9
$CECOLOR
 62
     256
  9
$DIMSCALE
 40
1.0
  9
$DIMASZ
 40
2.5
  9
$DIMEXO
 40
1.5
  9
$DIMDLI
 40
3.75
  9
$DIMRND
 40
0.0
  9
$DIMDLE
 40
0.0
  9
$DIMEXE
 40
1.5
  9
$DIMTP
 40
0.0
  9
$DIMTM
 40
0.0
  9
$DIMTXT
 40
3.20000005
  9
$DIMCEN
 40
2.5
  9
$DIMTSZ
 40
0.0
  9
$DIMTOL
 70
       0
  9
$DIMLIM
 70
       0
  9
$DIMTIH
 70
       0
  9
$DIMTOH
 70
       0
  9
$DIMSE1
 70
       0
  9
$DIMSE2
 70
       0
  9
$DIMTAD
 70
       1
  9
$DIMZIN
 70
       8
  9
$DIMBLK
  1

  9
$DIMASO
 70
       1
  9
$DIMSHO
 70
       1
  9
$DIMPOST
  1

  9
$DIMAPOST
  1

  9
$DIMALT
 70
       0
  9
$DIMALTD
 70
       4
  9
$DIMALTF
 40
0.0394
  9
$DIMLFAC
 40
1.0
  9
$DIMTOFL
 70
       1
  9
$DIMTVP
 40
0.0
  9
$DIMTIX
 70
       0
  9
$DIMSOXD
 70
       0
  9
$DIMSAH
 70
       0
  9
$DIMBLK1
  1

  9
$DIMBLK2
  1

  9
$DIMSTYLE
  2
MXDIMSTYLE
  9
$DIMCLRD
 70
       0
  9
$DIMCLRE
 70
       0
  9
$DIMCLRT
 70
       0
  9
$DIMTFAC
 40
1.0
  9
$DIMGAP
 40
1.0
  9
$LUNITS
 70
       2
  9
$LUPREC
 70
       4
  9
$AXISMODE
 70
       0
  9
$AXISUNIT
 10
0.0
 20
0.0
  9
$SKETCHINC
 40
0.1
  9
$FILLETRAD
 40
0.0
  9
$AUNITS
 70
       0
  9
$AUPREC
 70
       0
  9
$MENU
  1
acad
  9
$ELEVATION
 40
0.0
  9
$PELEVATION
 40
0.0
  9
$THICKNESS
 40
0.0
  9
$LIMCHECK
 70
       0
  9
$BLIPMODE
 70
       1
  9
$CHAMFERA
 40
0.0
  9
$CHAMFERB
 40
0.0
  9
$SKPOLY
 70
       0
  9
$TDCREATE
 40
2452576.708055555
  9
$TDUPDATE
 40
2452576.708055555
  9
$TDINDWG
 40
0.0000000000
  9
$TDUSRTIMER
 40
0.0000000000
  9
$USRTIMER
 70
       1
  9
$ANGBASE
 50
0.0
  9
$ANGDIR
 70
       0
  9
$PDMODE
 70
       0
  9
$PDSIZE
 40
0.0
  9
$PLINEWID
 40
0.0
  9
$COORDS
 70
       1
  9
$SPLFRAME
 70
       0
  9
$SPLINETYPE
 70
       6
  9
$SPLINESEGS
 70
       8
  9
$ATTDIA
 70
       0
  9
$ATTREQ
 70
       1
  9
$HANDLING
 70
       1
  9
$HANDSEED
  5
66
  9
$SURFTAB1
 70
       6
  9
$SURFTAB2
 70
       6
  9
$SURFTYPE
 70
       6
  9
$SURFU
 70
       6
  9
$SURFV
 70
       6
  9
$UCSNAME
  2

  9
$UCSORG
 10
0.0
 20
0.0
 30
0.0
  9
$UCSXDIR
 10
1.0
 20
0.0
 30
0.0
  9
$UCSYDIR
 10
0.0
 20
1.0
 30
0.0
  9
$PUCSNAME
  2

  9
$PUCSORG
 10
0.0
 20
0.0
 30
0.0
  9
$PUCSXDIR
 10
1.0
 20
0.0
 30
0.0
  9
$PUCSYDIR
 10
0.0
 20
1.0
 30
0.0
  9
$USERI1
 70
       0
  9
$USERI2
 70
       0
  9
$USERI3
 70
       0
  9
$USERI4
 70
       0
  9
$USERI5
 70
       0
  9
$USERR1
 40
0.0
  9
$USERR2
 40
0.0
  9
$USERR3
 40
0.0
  9
$USERR4
 40
0.0
  9
$USERR5
 40
0.0
  9
$WORLDVIEW
 70
       1
  9
$SHADEDGE
 70
       3
  9
$SHADEDIF
 70
      70
  9
$TILEMODE
 70
       1
  9
$MAXACTVP
 70
      16
  9
$PINSBASE
 10
0.0
 20
0.0
 30
0.0
  9
$PLIMCHECK
 70
       0
  9
$PEXTMIN
 10
1.00000000E+20
 20
1.00000000E+20
 30
1.00000000E+20
  9
$PEXTMAX
 10
-1.00000000E+20
 20
-1.00000000E+20
 30
-1.00000000E+20
  9
$PLIMMIN
 10
0.0
 20
0.0
  9
$PLIMMAX
 10
12.0
 20
9.0
  9
$UNITMODE
 70
       0
  9
$VISRETAIN
 70
       0
  9
$PLINEGEN
 70
       1
  9
$PSLTSCALE
 70
       0
  9
$TREEDEPTH
 70
    3020
  9
$DWGCODEPAGE
  3
dos932
  0
ENDSEC
  0
SECTION
  2
TABLES
  0
TABLE
  2
VPORT
 70
       1
  0
VPORT
  2
*ACTIVE
 70
       0
 10
0.0
 20
0.0
 11
1.0
 21
1.0
 12
-0.0249939
 22
-0.15000153
 13
0.0
 23
0.0
 14
1.0
 24
1.0
 15
0.0
 25
0.0
 16
0.0
 26
0.0
 36
1.0
 17
0.0
 27
0.0
 37
0.0
 40
191.19300308
 41
1.73205081
 42
50.0
 43
0.0
 44
0.0
 50
0.0
 51
0.0
 71
       0
 72
     100
 73
       1
 74
       1
 75
       0
 76
       0
 77
       0
 78
       0
  0
ENDTAB
  0
TABLE
  2
LTYPE
 70
       2
  0
LTYPE
  2
CONTINUOUS
 70
      64
  3
Solid line
 72
      65
 73
       0
 40
0.0
  0
LTYPE
  2
CENTER
 70
      64
  3
Center ____ _ ____ _ ____ _ ____ _ ____ _ ____
 72
      65
 73
       4
 40
50.8
 49
31.75
 49
-6.35
 49
6.35
 49
-6.35
  0
ENDTAB
  0
TABLE
  2
LAYER
 70
       2
  0
LAYER
  2
0
 70
       0
 62
       7
  6
CONTINUOUS
  0
LAYER
  2
DEFPOINTS
 70
       0
 62
       7
  6
CONTINUOUS
  0
ENDTAB
  0
TABLE
  2
STYLE
 70
       1
  0
STYLE
  2
MX_NOTE_STANDARD
 70
       0
 40
3.20000005
 41
1.0
 50
0.0
 71
       0
 42
3.20000005
  3
txt.shx
  4
extfont.shx
  0
ENDTAB
  0
TABLE
  2
VIEW
 70
       0
  0
ENDTAB
  0
TABLE
  2
UCS
 70
       0
  0
ENDTAB
  0
TABLE
  2
APPID
 70
       1
  0
APPID
  2
ACAD
 70
       0
  0
ENDTAB
  0
TABLE
  2
DIMSTYLE
 70
       1
  0
DIMSTYLE
  2
MXDIMSTYLE
 70
       0
  3

  4

  5

  6

  7

 40
1.0
 41
2.5
 42
1.5
 43
3.75
 44
1.5
 45
0.0
 46
0.0
 47
0.0
 48
0.0
 71
       0
 72
       0
 73
       0
 74
       0
 75
       0
 76
       0
 77
       1
 78
       8
140
3.20000005
141
2.5
142
0.0
143
0.0394
144
1.0
145
0.0
146
1.0
147
1.0
170
       0
171
       4
172
       1
173
       0
174
       0
175
       0
176
       0
177
       0
178
       0
  0
ENDTAB
  0
ENDSEC
  0
SECTION
  2
BLOCKS
  0
ENDSEC
  0
SECTION
  2
ENTITIES
  0
LINE
  8
0
  6
CONTINUOUS
 62
       7
  5
1E
 10
23.16873583
 20
-17.89708261
 30
0.0
 11
61.16873583
 21
-17.89708261
 31
0.0
  0
LINE
  8
0
  6
CONTINUOUS
 62
       7
  5
1F
 10
23.16873583
 20
19.60291739
 30
0.0
 11
61.16873583
 21
19.60291739
 31
0.0
  0
LINE
  8
0
  6
CONTINUOUS
 62
       7
  5
20
 10
11.16873583
 20
12.85291739
 30
0.0
 11
11.16873583
 21
-11.14708261
 31
0.0
  0
LINE
  8
0
  6
CONTINUOUS
 62
       7
  5
21
 10
22.16873583
 20
18.60291739
 30
0.0
 11
22.16873583
 21
-16.89708261
 31
0.0
  0
LINE
  8
0
  6
CONTINUOUS
 62
       7
  5
22
 10
62.16873583
 20
18.60291739
 30
0.0
 11
62.16873583
 21
-16.89708261
 31
0.0
  0
LINE
  8
0
  6
CENTER
 62
       2
  5
24
 10
-69.37126417
 20
0.85291739
 30
0.0
 11
-28.96126417
 21
0.85291739
 31
0.0
  0
LINE
  8
0
  6
CONTINUOUS
 62
       7
  5
25
 10
12.16873583
 20
13.85291739
 30
0.0
 11
21.66873583
 21
13.85291739
 31
0.0
  0
LINE
  8
0
  6
CONTINUOUS
 62
       7
  5
26
 10
12.16873583
 20
-12.14708261
 30
0.0
 11
21.66873583
 21
-12.14708261
 31
0.0
  0
LINE
  8
0
  6
CONTINUOUS
 62
       7
  5
27
 10
11.16873583
 20
12.85291739
 30
0.0
 11
12.16873583
 21
13.85291739
 31
0.0
  0
LINE
  8
0
  6
CONTINUOUS
 62
       7
  5
28
 10
11.16873583
 20
-11.14708261
 30
0.0
 11
12.16873583
 21
-12.14708261
 31
0.0
  0
LINE
  8
0
  6
CONTINUOUS
 62
       7
  5
29
 10
61.16873583
 20
19.60291739
 30
0.0
 11
62.16873583
 21
18.60291739
 31
0.0
  0
LINE
  8
0
  6
CONTINUOUS
 62
       7
  5
2A
 10
62.16873583
 20
-16.89708261
 30
0.0
 11
61.16873583
 21
-17.89708261
 31
0.0
  0
LINE
  8
0
  6
CONTINUOUS
 62
       7
  5
2B
 10
22.16873583
 20
18.60291739
 30
0.0
 11
23.16873583
 21
19.60291739
 31
0.0
  0
LINE
  8
0
  6
CONTINUOUS
 62
       7
  5
2C
 10
22.16873583
 20
-16.89708261
 30
0.0
 11
23.16873583
 21
-17.89708261
 31
0.0
  0
LINE
  8
0
  6
CONTINUOUS
 62
       7
  5
2D
 10
12.16873583
 20
13.85291739
 30
0.0
 11
12.16873583
 21
5.85291739
 31
0.0
  0
LINE
  8
0
  6
CONTINUOUS
 62
       7
  5
2E
 10
23.16873583
 20
19.60291739
 30
0.0
 11
23.16873583
 21
-17.89708261
 31
0.0
  0
LINE
  8
0
  6
CONTINUOUS
 62
       7
  5
2F
 10
61.16873583
 20
19.60291739
 30
0.0
 11
61.16873583
 21
-17.89708261
 31
0.0
  0
LINE
  8
0
  6
CONTINUOUS
 62
       7
  5
30
 10
73.16873583
 20
12.85291739
 30
0.0
 11
73.16873583
 21
-11.14708261
 31
0.0
  0
LINE
  8
0
  6
CONTINUOUS
 62
       7
  5
31
 10
62.16873583
 20
12.65291739
 30
0.0
 11
63.96873583
 21
12.65291739
 31
0.0
  0
LINE
  8
0
  6
CONTINUOUS
 62
       7
  5
32
 10
65.16873583
 20
13.85291739
 30
0.0
 11
72.16873583
 21
13.85291739
 31
0.0
  0
LINE
  8
0
  6
CONTINUOUS
 62
       7
  5
33
 10
72.16873583
 20
13.85291739
 30
0.0
 11
73.16873583
 21
12.85291739
 31
0.0
  0
LINE
  8
0
  6
CONTINUOUS
 62
       7
  5
34
 10
65.16873583
 20
13.85291739
 30
0.0
 11
65.16873583
 21
5.85291739
 31
0.0
  0
LINE
  8
0
  6
CONTINUOUS
 62
       7
  5
35
 10
63.96873583
 20
12.65291739
 30
0.0
 11
65.16873583
 21
13.85291739
 31
0.0
  0
LINE
  8
0
  6
CONTINUOUS
 62
       7
  5
36
 10
72.16873583
 20
13.85291739
 30
0.0
 11
72.16873583
 21
5.85291739
 31
0.0
  0
LINE
  8
0
  6
CONTINUOUS
 62
       7
  5
37
 10
63.96873583
 20
12.65291739
 30
0.0
 11
63.96873583
 21
-11.14708261
 31
0.0
  0
LINE
  8
0
  6
CONTINUOUS
 62
       7
  5
38
 10
62.16873583
 20
-10.94708261
 30
0.0
 11
63.96873583
 21
-10.94708261
 31
0.0
  0
LINE
  8
0
  6
CONTINUOUS
 62
       7
  5
39
 10
63.96873583
 20
-10.94708261
 30
0.0
 11
65.16873583
 21
-12.14708261
 31
0.0
  0
LINE
  8
0
  6
CONTINUOUS
 62
       7
  5
3A
 10
65.16873583
 20
-12.14708261
 30
0.0
 11
72.16873583
 21
-12.14708261
 31
0.0
  0
LINE
  8
0
  6
CONTINUOUS
 62
       7
  5
3B
 10
72.16873583
 20
-12.14708261
 30
0.0
 11
73.16873583
 21
-11.14708261
 31
0.0
  0
LINE
  8
0
  6
CONTINUOUS
 62
       7
  5
3C
 10
65.16873583
 20
5.85291739
 30
0.0
 11
72.16873583
 21
5.85291739
 31
0.0
  0
LINE
  8
0
  6
CONTINUOUS
 62
       7
  5
3D
 10
65.16873583
 20
-4.14708261
 30
0.0
 11
72.16873583
 21
-4.14708261
 31
0.0
  0
LINE
  8
0
  6
CONTINUOUS
 62
       7
  5
3E
 10
72.16873583
 20
-4.14708261
 30
0.0
 11
72.16873583
 21
-12.14708261
 31
0.0
  0
LINE
  8
0
  6
CONTINUOUS
 62
       7
  5
3F
 10
65.16873583
 20
-4.14708261
 30
0.0
 11
65.16873583
 21
-12.14708261
 31
0.0
  0
LINE
  8
0
  6
CONTINUOUS
 62
       7
  5
40
 10
72.16873583
 20
5.85291739
 30
0.0
 11
65.16873583
 21
-4.14708261
 31
0.0
  0
LINE
  8
0
  6
CONTINUOUS
 62
       7
  5
41
 10
65.16873583
 20
5.85291739
 30
0.0
 11
72.16873583
 21
-4.14708261
 31
0.0
  0
LINE
  8
0
  6
CONTINUOUS
 62
       7
  5
42
 10
21.16873583
 20
5.85291739
 30
0.0
 11
12.16873583
 21
5.85291739
 31
0.0
  0
LINE
  8
0
  6
CONTINUOUS
 62
       7
  5
43
 10
21.16873583
 20
-4.14708261
 30
0.0
 11
12.16873583
 21
-4.14708261
 31
0.0
  0
LINE
  8
0
  6
CONTINUOUS
 62
       7
  5
44
 10
12.16873583
 20
-4.14708261
 30
0.0
 11
12.16873583
 21
-12.14708261
 31
0.0
  0
LINE
  8
0
  6
CONTINUOUS
 62
       7
  5
45
 10
21.16873583
 20
5.85291739
 30
0.0
 11
21.16873583
 21
-4.14708261
 31
0.0
  0
LINE
  8
0
  6
CONTINUOUS
 62
       7
  5
46
 10
12.16873583
 20
-4.14708261
 30
0.0
 11
21.16873583
 21
5.85291739
 31
0.0
  0
LINE
  8
0
  6
CONTINUOUS
 62
       7
  5
47
 10
21.16873583
 20
-4.14708261
 30
0.0
 11
12.16873583
 21
5.85291739
 31
0.0
  0
LINE
  8
0
  6
CENTER
 62
       2
  5
48
 10
-48.82126417
 20
20.52291739
 30
0.0
 11
-48.82126417
 21
-18.61708261
 31
0.0
  0
LINE
  8
0
  6
CENTER
 62
       2
  5
49
 10
9.06873583
 20
0.85291739
 30
0.0
 11
75.29873583
 21
0.85291739
 31
0.0
  0
LINE
  8
0
  6
CONTINUOUS
 62
       7
  5
4A
 10
-36.82126417
 20
5.85291739
 30
0.0
 11
-36.82126417
 21
-4.14708261
 31
0.0
  0
LINE
  8
0
  6
CONTINUOUS
 62
       7
  5
4B
 10
-60.82126417
 20
5.85291739
 30
0.0
 11
-60.82126417
 21
-4.14708261
 31
0.0
  0
LINE
  8
0
  6
CONTINUOUS
 62
       7
  5
4C
 10
47.16873583
 20
1.85291739
 30
0.0
 11
47.16873583
 21
-0.14708261
 31
0.0
  0
LINE
  8
0
  6
CONTINUOUS
 62
       7
  5
4D
 10
40.16873583
 20
2.85291739
 30
0.0
 11
40.16873583
 21
1.85291739
 31
0.0
  0
LINE
  8
0
  6
CONTINUOUS
 62
       7
  5
4E
 10
40.16873583
 20
1.85291739
 30
0.0
 11
47.16873583
 21
1.85291739
 31
0.0
  0
LINE
  8
0
  6
CONTINUOUS
 62
       7
  5
4F
 10
37.16873583
 20
0.85291739
 30
0.0
 11
40.16873583
 21
2.85291739
 31
0.0
  0
LINE
  8
0
  6
CONTINUOUS
 62
       7
  5
50
 10
37.16873583
 20
0.85291739
 30
0.0
 11
40.16873583
 21
-1.14708261
 31
0.0
  0
LINE
  8
0
  6
CONTINUOUS
 62
       7
  5
51
 10
40.16873583
 20
-1.14708261
 30
0.0
 11
40.16873583
 21
-0.14708261
 31
0.0
  0
LINE
  8
0
  6
CONTINUOUS
 62
       7
  5
52
 10
40.16873583
 20
-0.14708261
 30
0.0
 11
47.16873583
 21
-0.14708261
 31
0.0
  0
ARC
  8
0
  6
CONTINUOUS
 62
       7
  5
53
 10
21.67122961
 20
14.35042361
 30
0.0
 40
0.49751247
 50
269.71280376
 51
0.28719624
  0
ARC
  8
0
  6
CONTINUOUS
 62
       7
  5
54
 10
21.67122636
 20
-12.64459208
 30
0.0
 40
0.49751571
 50
359.71318092
 51
90.28681908
  0
ARC
  8
0
  6
CONTINUOUS
 62
       7
  5
55
 10
60.17372973
 20
0.85291739
 30
0.0
 40
12.99539039
 50
337.37166669
 51
22.62833331
  0
ARC
  8
0
  6
CONTINUOUS
 62
       7
  5
56
 10
77.17372973
 20
0.85291739
 30
0.0
 40
13.00460989
 50
157.38859741
 51
202.61140259
  0
ARC
  8
0
  6
CONTINUOUS
 62
       7
  5
57
 10
24.17372973
 20
0.85291739
 30
0.0
 40
13.00460989
 50
157.38859741
 51
202.61140259
  0
CIRCLE
  8
0
  6
CONTINUOUS
 62
       7
  5
58
 10
-48.82625501
 20
0.85291701
 30
0.0
 40
13.0
  0
CIRCLE
  8
0
  6
CONTINUOUS
 62
       7
  5
59
 10
-48.82625501
 20
0.85291701
 30
0.0
 40
12.0
  0
CIRCLE
  8
0
  6
CONTINUOUS
 62
       7
  5
5A
 10
-48.82625501
 20
0.85291701
 30
0.0
 40
3.0
  0
CIRCLE
  8
0
  6
CONTINUOUS
 62
       7
  5
5B
 10
-48.82625501
 20
0.85291701
 30
0.0
 40
5.5
  0
CIRCLE
  8
0
  6
CONTINUOUS
 62
       2
  5
5C
 10
-48.82625501
 20
0.85291701
 30
0.0
 40
6.5
  0
CIRCLE
  8
0
  6
CONTINUOUS
 62
       7
  5
5D
 10
-48.82625501
 20
0.85291701
 30
0.0
 40
18.75
  0
CIRCLE
  8
0
  6
CONTINUOUS
 62
       7
  5
5E
 10
-48.82625501
 20
0.85291701
 30
0.0
 40
17.75
  0
LINE
  8
0
  6
CONTINUOUS
 62
       7
  5
5F
 10
-138.3999939
 20
94.5
 30
0.0
 11
138.3500061
 21
94.5
 31
0.0
  0
LINE
  8
0
  6
CONTINUOUS
 62
       7
  5
60
 10
138.3500061
 20
94.5
 30
0.0
 11
138.3500061
 21
-94.80000305
 31
0.0
  0
LINE
  8
0
  6
CONTINUOUS
 62
       7
  5
61
 10
-138.3999939
 20
-94.80000305
 30
0.0
 11
138.3500061
 21
-94.80000305
 31
0.0
  0
LINE
  8
0
  6
CONTINUOUS
 62
       7
  5
62
 10
-138.3999939
 20
94.5
 30
0.0
 11
-138.3999939
 21
-94.80000305
 31
0.0
  0
TEXT
  8
0
  6
CONTINUOUS
 62
       7
  5
63
 10
-129.41817565
 20
72.9000001
 30
0.0
 40
3.19999981
  1
MODEL:C250
 41
1.09090909
  7
MX_NOTE_STANDARD
 11
-129.41817565
 21
74.5
 31
0.0
 73
       2
  0
ENDSEC
  0
EOF
