  0
SECTION
  2
HEADER
  0
ENDSEC
  0
SECTION
  2
TABLES
  0
TABLE
  2
LTYPE
 70
     4
  0
LTYPE
  2
CONTINUOUS
 70
    64
  3
Solid line
 72
    65
 73
     0
 40
0.000000
  0
LTYPE
  2
DASHED
 70
    64
  3
__ __ __ __ __ __ __ __ __ __ __ __ __ __ __
 72
    65
 73
     2
 40
3.500000
 49
2.000000
 49
-1.500000
  0
LTYPE
  2
CENTER
 70
    64
  3
____ _ ____ _ ____ _ ____ _ ____ _ ____ _ ____
 72
    65
 73
     4
 40
17.500000
 49
13.000000
 49
-1.500000
 49
1.500000
 49
-1.500000
  0
LTYPE
  2
PHANTOM
 70
    64
  3
_____ _ _ _____ _ _ _____ _ _ _____ _ _ ____  
 72
    65
 73
     6
 40
15.500000
 49
8.000000
 49
-1.500000
 49
1.500000
 49
-1.500000
 49
1.500000
 49
-1.500000
  0
LTYPE
  2
DASHED1
 70
    64
  3
__ __ __ __ __ __ __ __ __ __ __ __ __ __ __
 72
    65
 73
     2
 40
1.500000
 49
1.000000
 49
-0.500000
  0
LTYPE
  2
DASHED2
 70
    64
  3
__ __ __ __ __ __ __ __ __ __ __ __ __ __ __
 72
    65
 73
     2
 40
3.500000
 49
2.500000
 49
-1.000000
  0
LTYPE
  2
DASHED3
 70
    64
  3
__ __ __ __ __ __ __ __ __ __ __ __ __ __ __
 72
    65
 73
     2
 40
6.000000
 49
4.000000
 49
-2.000000
  0
LTYPE
  2
DASHED4
 70
    64
  3
__ __ __ __ __ __ __ __ __ __ __ __ __ __ __
 72
    65
 73
     2
 40
12.000000
 49
10.000000
 49
-2.000000
  0
LTYPE
  2
DASHED5
 70
    64
  3
__ __ __ __ __ __ __ __ __ __ __ __ __ __ __
 72
    65
 73
     2
 40
17.000000
 49
15.000000
 49
-2.000000
  0
LTYPE
  2
DASHED6
 70
    64
  3
__ __ __ __ __ __ __ __ __ __ __ __ __ __ __
 72
    65
 73
     2
 40
29.000000
 49
27.000000
 49
-2.000000
  0
LTYPE
  2
PHANTOM1
 70
    64
  3
_____ _ _ _____ _ _ _____ _ _ _____ _ _ ____  
 72
    65
 73
     6
 40
31.000000
 49
25.000000
 49
-1.500000
 49
1.000000
 49
-1.000000
 49
1.000000
 49
-1.500000
  0
LTYPE
  2
PHANTOM2
 70
    64
  3
_____ _ _ _____ _ _ _____ _ _ _____ _ _ ____  
 72
    65
 73
     6
 40
36.000000
 49
27.000000
 49
-1.500000
 49
2.500000
 49
-1.000000
 49
2.500000
 49
-1.500000
  0
LTYPE
  2
PHANTOM3
 70
    64
  3
_____ _ _ _____ _ _ _____ _ _ _____ _ _ ____  
 72
    65
 73
     6
 40
78.000000
 49
64.000000
 49
-2.000000
 49
4.000000
 49
-2.000000
 49
4.000000
 49
-2.000000
  0
LTYPE
  2
CENTER1
 70
    64
  3
____ _ ____ _ ____ _ ____ _ ____ _ ____ _ ____
 72
    65
 73
     4
 40
19.000000
 49
14.000000
 49
-1.000000
 49
3.000000
 49
-1.000000
  0
LTYPE
  2
CENTER2
 70
    64
  3
____ _ ____ _ ____ _ ____ _ ____ _ ____ _ ____
 72
    65
 73
     4
 40
28.500000
 49
25.000000
 49
-1.000000
 49
1.500000
 49
-1.000000
  0
LTYPE
  2
CENTER3
 70
    64
  3
____ _ ____ _ ____ _ ____ _ ____ _ ____ _ ____
 72
    65
 73
     4
 40
31.500000
 49
27.000000
 49
-1.000000
 49
2.500000
 49
-1.000000
  0
LTYPE
  2
CENTER4
 70
    64
  3
____ _ ____ _ ____ _ ____ _ ____ _ ____ _ ____
 72
    65
 73
     4
 40
50.000000
 49
45.000000
 49
-1.000000
 49
3.000000
 49
-1.000000
  0
LTYPE
  2
CENTER5
 70
    64
  3
____ _ ____ _ ____ _ ____ _ ____ _ ____ _ ____
 72
    65
 73
     4
 40
100.000000
 49
92.000000
 49
-2.000000
 49
4.000000
 49
-2.000000
  0
LTYPE
  2
SBK1
 70
    64
  3
______ _ _ _ ______ _ _ _ ______ _ _ _ _____  
 72
    65
 73
     8
 40
60.500000
 49
45.000000
 49
-2.000000
 49
2.500000
 49
-2.000000
 49
2.500000
 49
-2.000000
 49
2.500000
 49
-2.000000
  0
LTYPE
  2
SBK2
 70
    64
  3
______ _ _ _ ______ _ _ _ ______ _ _ _ _____  
 72
    65
 73
     8
 40
84.000000
 49
64.000000
 49
-2.000000
 49
4.000000
 49
-2.000000
 49
4.000000
 49
-2.000000
 49
4.000000
 49
-2.000000
  0
LTYPE
  2
STCH
 70
    64
  3
__ __ __ __ __ __ __ __ __ __ __ __ __ __ __
 72
    65
 73
     2
 40
3.000000
 49
1.000000
 49
-2.000000
  0
LTYPE
  2
MTCH
 70
    64
  3
_____ _ _ _____ _ _ _____ _ _ _____ _ _ ____  
 72
    65
 73
     6
 40
80.000000
 49
66.000000
 49
-2.000000
 49
4.000000
 49
-2.000000
 49
4.000000
 49
-2.000000
  0
ENDTAB
  0
TABLE
  2
LAYER
 70
     1
  0
LAYER
  2
0
 70
     0
 62
     7
  6
CONTINUOUS
  0
ENDTAB
  0
TABLE
  2
STYLE
 70
     1
  0
STYLE
  2
STANDARD
 70
     0
 40
0.000000
 41
1.000000
 50
0.000000
 71
     0
 42
0.200000
  3
txt
  4
BIGFONT
  0
ENDTAB
  0
TABLE
  2
VIEW
 70
     0
  0
ENDTAB
  0
ENDSEC
  0
SECTION
  2
BLOCKS
  0
ENDSEC
  0
SECTION
  2
ENTITIES
  0
LINE
  8
0
 10
-183.194580
 20
84.727615
 11
-122.194580
 21
84.727615
  0
LINE
  8
0
 10
-183.194580
 20
114.727615
 11
-122.194580
 21
114.727615
  0
LINE
  8
0
 10
-184.194565
 20
85.727615
 11
-184.194565
 21
113.727615
  0
LINE
  8
0
 10
-121.194580
 20
85.727615
 11
-121.194580
 21
113.727615
  0
LINE
  8
0
 10
-184.194595
 20
113.727623
 11
-183.194580
 21
114.727623
  0
LINE
  8
0
 10
-184.194595
 20
85.727615
 11
-183.194565
 21
84.727615
  0
LINE
  8
0
 10
-122.194588
 20
84.727623
 11
-121.194588
 21
85.727623
  0
LINE
  8
0
 10
-122.194588
 20
114.727615
 11
-121.194588
 21
113.727615
  0
LINE
  8
0
 10
-181.694580
 20
97.227615
 11
-181.694580
 21
102.227615
  0
LINE
  8
0
 10
-181.694580
 20
97.227615
 11
-174.834564
 21
99.727615
  0
LINE
  8
0
 10
-181.694580
 20
102.227615
 11
-174.834579
 21
99.727608
  0
LINE
  8
0
 10
-184.194565
 20
113.727615
 11
-121.194580
 21
113.727615
  0
LINE
  8
0
 10
-184.194565
 20
85.727615
 11
-121.194580
 21
85.727615
  0
LINE
  8
0
 10
-183.194580
 20
84.727615
 11
-183.194580
 21
114.727615
  0
LINE
  8
0
 10
-122.194580
 20
114.727615
 11
-122.194580
 21
84.727615
  0
LINE
  8
0
  6
CENTER
 62
     2
 10
-152.694580
 20
62.897629
 11
-152.694580
 21
136.227615
  0
LINE
  8
0
  6
CENTER
 62
     2
 10
-83.194580
 20
125.157608
 11
-83.194580
 21
75.617630
  0
LINE
  8
0
  6
CENTER
 62
     2
 10
-193.704575
 20
99.727615
 11
27.105423
 21
99.727615
  0
LINE
  8
0
 10
-111.194580
 20
113.727615
 11
-111.194580
 21
85.727615
  0
LINE
  8
0
 10
-55.194580
 20
113.727615
 11
-55.194580
 21
85.727615
  0
LINE
  8
0
 10
-110.194580
 20
84.727615
 11
-56.194580
 21
84.727615
  0
LINE
  8
0
 10
-110.194580
 20
114.727615
 11
-56.194580
 21
114.727615
  0
LINE
  8
0
 10
-111.194588
 20
113.727615
 11
-110.194580
 21
114.727615
  0
LINE
  8
0
 10
-111.194580
 20
85.727608
 11
-110.194572
 21
84.727615
  0
LINE
  8
0
 10
-56.194580
 20
84.727623
 11
-55.194588
 21
85.727615
  0
LINE
  8
0
 10
-56.194580
 20
114.727615
 11
-55.194580
 21
113.727615
  0
LINE
  8
0
  6
CENTER
 62
     2
 10
-71.194580
 20
122.887604
 11
-71.194580
 21
111.267616
  0
LINE
  8
0
 10
-80.194580
 20
79.727631
 11
-62.194580
 21
79.727631
  0
LINE
  8
0
 10
-80.194580
 20
119.727615
 11
-62.194580
 21
119.727615
  0
LINE
  8
0
 10
-81.194580
 20
118.727615
 11
-81.194580
 21
115.727615
  0
LINE
  8
0
 10
-61.194580
 20
118.727615
 11
-61.194580
 21
115.727615
  0
LINE
  8
0
 10
-81.194580
 20
118.727608
 11
-80.194572
 21
119.727608
  0
LINE
  8
0
 10
-62.194592
 20
119.727623
 11
-61.194584
 21
118.727615
  0
LINE
  8
0
 10
-81.194588
 20
80.727623
 11
-80.194580
 21
79.727615
  0
LINE
  8
0
 10
-62.194588
 20
79.727615
 11
-61.194584
 21
80.727623
  0
LINE
  8
0
 10
-81.194580
 20
83.727615
 11
-81.194580
 21
80.727631
  0
LINE
  8
0
 10
-61.194580
 20
83.727615
 11
-61.194580
 21
80.727631
  0
LINE
  8
0
 10
-81.194580
 20
118.727615
 11
-61.194580
 21
118.727615
  0
LINE
  8
0
 10
-81.194580
 20
80.727631
 11
-61.194580
 21
80.727631
  0
LINE
  8
0
 10
-110.194580
 20
114.727615
 11
-110.194580
 21
84.727615
  0
LINE
  8
0
 10
-56.194580
 20
84.727615
 11
-56.194580
 21
114.727615
  0
LINE
  8
0
 10
-111.194580
 20
113.727615
 11
-55.194580
 21
113.727615
  0
LINE
  8
0
 10
-111.194580
 20
85.727615
 11
-55.194580
 21
85.727615
  0
LINE
  8
0
 10
-75.904572
 20
110.837624
 11
-75.224586
 21
111.227615
  0
LINE
  8
0
 10
-71.694572
 20
107.697617
 11
-72.084579
 21
107.017609
  0
LINE
  8
0
 10
-85.904594
 20
112.747627
 11
-85.694595
 21
113.497612
  0
LINE
  8
0
 10
-80.694580
 20
113.497612
 11
-80.494576
 21
112.747620
  0
LINE
  8
0
 10
-94.314590
 20
107.017616
 11
-94.704590
 21
107.697624
  0
LINE
  8
0
 10
-91.174568
 20
111.227608
 11
-90.494576
 21
110.837616
  0
LINE
  8
0
 10
-96.224586
 20
97.027611
 11
-96.974579
 21
97.227608
  0
LINE
  8
0
 10
-96.974594
 20
102.227615
 11
-96.224586
 21
102.427628
  0
LINE
  8
0
 10
-90.494583
 20
88.617630
 11
-91.174583
 21
88.227623
  0
LINE
  8
0
 10
-94.704582
 20
91.757614
 11
-94.314575
 21
92.437614
  0
LINE
  8
0
 10
-80.494591
 20
86.707626
 11
-80.694588
 21
85.957634
  0
LINE
  8
0
 10
-85.694580
 20
85.957626
 11
-85.904579
 21
86.707619
  0
LINE
  8
0
 10
-72.084587
 20
92.437622
 11
-71.694588
 21
91.757614
  0
LINE
  8
0
 10
-75.224579
 20
88.227608
 11
-75.904587
 21
88.617607
  0
LINE
  8
0
 10
-70.174591
 20
102.427620
 11
-69.424583
 21
102.227623
  0
LINE
  8
0
 10
-69.424583
 20
97.227631
 11
-70.174591
 21
97.027626
  0
LINE
  8
0
 10
-108.694580
 20
102.227615
 11
-108.694580
 21
97.227615
  0
LINE
  8
0
 10
-108.694572
 20
102.227608
 11
-101.834587
 21
99.727608
  0
LINE
  8
0
 10
-108.694588
 20
97.227638
 11
-101.834595
 21
99.727631
  0
LINE
  8
0
 10
-50.194580
 20
42.727631
 11
-50.194580
 21
63.227631
  0
LINE
  8
0
 10
-92.444580
 20
40.227623
 11
-91.944580
 21
39.727623
  0
LINE
  8
0
 10
-49.944588
 20
40.227619
 11
-50.444588
 21
39.727619
  0
LINE
  8
0
 10
-76.924576
 20
79.727623
 11
-77.104576
 21
73.727631
  0
LINE
  8
0
 10
-64.624580
 20
79.727623
 11
-64.434578
 21
73.727631
  0
LINE
  8
0
 10
-78.194580
 20
73.727631
 11
-64.194580
 21
73.727631
  0
LINE
  8
0
 10
-77.774582
 20
79.727631
 11
-77.964577
 21
73.727615
  0
LINE
  8
0
 10
-65.474586
 20
79.727623
 11
-65.284584
 21
73.727623
  0
LINE
  8
0
 10
-92.194580
 20
42.727631
 11
-92.194580
 21
63.227631
  0
LINE
  8
0
 10
-91.944580
 20
39.727631
 11
-50.444580
 21
39.727631
  0
LINE
  8
0
 10
-49.944580
 20
40.227631
 11
-49.944580
 21
42.727631
  0
LINE
  8
0
 10
-92.444580
 20
40.227631
 11
-49.944580
 21
40.227631
  0
LINE
  8
0
 10
-89.194580
 20
66.227631
 11
-53.194580
 21
66.227631
  0
LINE
  8
0
 10
-92.444580
 20
42.727631
 11
-49.944580
 21
42.727631
  0
LINE
  8
0
 10
-64.194580
 20
73.727631
 11
-64.194580
 21
66.227631
  0
LINE
  8
0
 10
-78.194580
 20
73.727631
 11
-78.194580
 21
66.227631
  0
LINE
  8
0
 10
-64.194588
 20
73.727615
 11
-78.194580
 21
66.227623
  0
LINE
  8
0
 10
-64.194580
 20
66.227623
 11
-78.194572
 21
73.727615
  0
LINE
  8
0
 10
-92.444580
 20
40.227631
 11
-92.444580
 21
42.727631
  0
LINE
  8
0
 10
-92.444580
 20
40.227623
 11
-91.944580
 21
39.727623
  0
LINE
  8
0
 10
-76.594574
 20
121.397614
 11
-65.804581
 21
121.397614
  0
LINE
  8
0
 10
-77.804573
 20
120.697624
 11
-76.594582
 21
121.397621
  0
LINE
  8
0
 10
-65.804588
 20
121.397614
 11
-64.594582
 21
120.697617
  0
LINE
  8
0
 10
-77.804573
 20
120.697601
 11
-77.774574
 21
119.727615
  0
LINE
  8
0
 10
-76.924583
 20
119.727615
 11
-76.964592
 21
121.177620
  0
LINE
  8
0
 10
-65.434570
 20
121.177620
 11
-65.474571
 21
119.727615
  0
LINE
  8
0
 10
-64.594597
 20
120.697617
 11
-64.624596
 21
119.727615
  0
LINE
  8
0
 10
-77.804581
 20
120.697617
 11
-64.594574
 21
120.697617
  0
LINE
  8
0
 10
-125.894577
 20
84.727615
 11
-125.894577
 21
83.727615
  0
LINE
  8
0
 10
-106.494583
 20
84.727615
 11
-106.494583
 21
83.727615
  0
LINE
  8
0
 10
-122.194580
 20
84.727615
 11
-110.194580
 21
84.727615
  0
LINE
  8
0
 10
-125.894577
 20
83.727615
 11
-106.494583
 21
83.727615
  0
LINE
  8
0
 10
-125.894577
 20
83.727615
 11
-123.304581
 21
79.227623
  0
LINE
  8
0
 10
-109.094582
 20
79.227615
 11
-106.494583
 21
83.727615
  0
LINE
  8
0
 10
-123.304581
 20
79.227631
 11
-109.094574
 21
79.227631
  0
LINE
  8
0
  6
CENTER
 62
     2
 10
-116.194580
 20
144.127609
 11
-116.194580
 21
76.277618
  0
LINE
  8
0
 10
-119.294586
 20
78.227631
 11
-113.094574
 21
78.227631
  0
LINE
  8
0
 10
-112.694580
 20
79.227631
 11
-112.694580
 21
78.627625
  0
LINE
  8
0
 10
-119.694580
 20
79.227631
 11
-119.694580
 21
78.627625
  0
LINE
  8
0
 10
-119.694588
 20
78.627609
 11
-119.294594
 21
78.227615
  0
LINE
  8
0
 10
-112.694588
 20
78.627617
 11
-113.094589
 21
78.227615
  0
LINE
  8
0
 10
-122.194580
 20
114.727615
 11
-120.194580
 21
114.727615
  0
LINE
  8
0
 10
-125.894577
 20
139.727615
 11
-106.494583
 21
139.727615
  0
LINE
  8
0
 10
-111.194580
 20
114.727615
 11
-111.194580
 21
113.727615
  0
LINE
  8
0
 10
-121.194580
 20
114.727615
 11
-121.194580
 21
113.727615
  0
LINE
  8
0
 10
-112.194580
 20
114.727615
 11
-110.194580
 21
114.727615
  0
LINE
  8
0
 10
-106.494583
 20
139.727615
 11
-106.494583
 21
114.727615
  0
LINE
  8
0
 10
-125.894577
 20
139.727615
 11
-125.894577
 21
114.727615
  0
LINE
  8
0
 10
-121.194580
 20
85.727623
 11
-120.194580
 21
84.727623
  0
LINE
  8
0
 10
-112.194588
 20
84.727615
 11
-111.194588
 21
85.727615
  0
LINE
  8
0
 10
-124.894577
 20
131.727615
 11
-124.894577
 21
114.727615
  0
LINE
  8
0
 10
-107.494583
 20
131.727615
 11
-107.494583
 21
114.727615
  0
LINE
  8
0
 10
-124.894577
 20
131.727615
 11
-107.494583
 21
131.727615
  0
LINE
  8
0
 10
-125.894577
 20
132.727615
 11
-106.494583
 21
132.727615
  0
LINE
  8
0
 10
-121.194580
 20
85.727615
 11
-111.194580
 21
85.727615
  0
LINE
  8
0
 10
-120.194580
 20
114.727615
 11
-120.194580
 21
84.727615
  0
LINE
  8
0
 10
-112.194580
 20
114.727615
 11
-112.194580
 21
84.727615
  0
LINE
  8
0
 10
-124.894585
 20
131.727615
 11
-125.894577
 21
132.727615
  0
LINE
  8
0
 10
-107.494583
 20
131.727615
 11
-106.494583
 21
132.727615
  0
LINE
  8
0
 10
-122.894577
 20
139.727615
 11
-122.894577
 21
132.727615
  0
LINE
  8
0
 10
-109.494583
 20
139.727615
 11
-109.494583
 21
132.727615
  0
LINE
  8
0
 10
-124.894577
 20
121.727615
 11
-107.494583
 21
121.727615
  0
LINE
  8
0
 10
-125.894585
 20
122.157608
 11
-124.894585
 21
121.727608
  0
LINE
  8
0
 10
-107.494576
 20
121.727608
 11
-106.494576
 21
122.157608
  0
LINE
  8
0
 10
-122.894569
 20
132.727631
 11
-122.484573
 21
131.727615
  0
LINE
  8
0
 10
-109.494576
 20
132.727615
 11
-109.914574
 21
131.727615
  0
LINE
  8
0
 10
-119.694580
 20
78.627625
 11
-112.694580
 21
78.627625
  0
LINE
  8
0
 10
-59.894577
 20
84.727615
 11
-59.894577
 21
83.727615
  0
LINE
  8
0
 10
-40.494583
 20
84.727615
 11
-40.494583
 21
83.727615
  0
LINE
  8
0
 10
-56.194580
 20
84.727615
 11
-44.194580
 21
84.727615
  0
LINE
  8
0
 10
-59.894577
 20
83.727615
 11
-40.494583
 21
83.727615
  0
LINE
  8
0
 10
-59.894585
 20
83.727615
 11
-57.304588
 21
79.227608
  0
LINE
  8
0
 10
-43.094582
 20
79.227615
 11
-40.494579
 21
83.727615
  0
LINE
  8
0
 10
-57.304581
 20
79.227631
 11
-43.094574
 21
79.227631
  0
LINE
  8
0
  6
CENTER
 62
     2
 10
-50.194580
 20
144.127609
 11
-50.194580
 21
76.277618
  0
LINE
  8
0
 10
-53.294586
 20
78.227631
 11
-47.094574
 21
78.227631
  0
LINE
  8
0
 10
-46.694580
 20
79.227631
 11
-46.694580
 21
78.627625
  0
LINE
  8
0
 10
-53.694580
 20
79.227631
 11
-53.694580
 21
78.627625
  0
LINE
  8
0
 10
-53.694584
 20
78.627617
 11
-53.294586
 21
78.227615
  0
LINE
  8
0
 10
-46.694576
 20
78.627617
 11
-47.094578
 21
78.227615
  0
LINE
  8
0
 10
-56.194580
 20
114.727615
 11
-54.194580
 21
114.727615
  0
LINE
  8
0
 10
-59.894577
 20
139.727615
 11
-40.494583
 21
139.727615
  0
LINE
  8
0
 10
-45.194580
 20
114.727615
 11
-45.194580
 21
113.727615
  0
LINE
  8
0
 10
-55.194580
 20
114.727615
 11
-55.194580
 21
113.727615
  0
LINE
  8
0
 10
-46.194580
 20
114.727615
 11
-44.194580
 21
114.727615
  0
LINE
  8
0
 10
-40.494583
 20
139.727615
 11
-40.494583
 21
114.727615
  0
LINE
  8
0
 10
-59.894577
 20
139.727615
 11
-59.894577
 21
114.727615
  0
LINE
  8
0
 10
-55.194588
 20
85.727615
 11
-54.194588
 21
84.727615
  0
LINE
  8
0
 10
-46.194580
 20
84.727615
 11
-45.194580
 21
85.727615
  0
LINE
  8
0
 10
-58.894577
 20
131.727615
 11
-58.894577
 21
114.727615
  0
LINE
  8
0
 10
-41.494583
 20
131.727615
 11
-41.494583
 21
114.727615
  0
LINE
  8
0
 10
-58.894577
 20
131.727615
 11
-41.494583
 21
131.727615
  0
LINE
  8
0
 10
-59.894577
 20
132.727615
 11
-40.494583
 21
132.727615
  0
LINE
  8
0
 10
-55.194580
 20
85.727615
 11
-45.194580
 21
85.727615
  0
LINE
  8
0
 10
-54.194580
 20
114.727615
 11
-54.194580
 21
84.727615
  0
LINE
  8
0
 10
-46.194580
 20
114.727615
 11
-46.194580
 21
84.727615
  0
LINE
  8
0
 10
-58.894577
 20
131.727615
 11
-59.894581
 21
132.727615
  0
LINE
  8
0
 10
-41.494595
 20
131.727615
 11
-40.494587
 21
132.727615
  0
LINE
  8
0
 10
-56.894577
 20
139.727615
 11
-56.894577
 21
132.727615
  0
LINE
  8
0
 10
-43.494583
 20
139.727615
 11
-43.494583
 21
132.727615
  0
LINE
  8
0
 10
-58.894577
 20
121.727615
 11
-41.494583
 21
121.727615
  0
LINE
  8
0
 10
-59.894581
 20
122.157623
 11
-58.894581
 21
121.727623
  0
LINE
  8
0
 10
-41.494576
 20
121.727623
 11
-40.494572
 21
122.157623
  0
LINE
  8
0
 10
-56.894577
 20
132.727615
 11
-56.484581
 21
131.727631
  0
LINE
  8
0
 10
-43.494583
 20
132.727615
 11
-43.914585
 21
131.727615
  0
LINE
  8
0
 10
-53.694580
 20
78.627625
 11
-46.694580
 21
78.627625
  0
LINE
  8
0
  6
CENTER
 62
     2
 10
-13.694580
 20
137.177612
 11
-13.694580
 21
62.277618
  0
LINE
  8
0
 10
-45.194580
 20
85.727615
 11
-35.694580
 21
85.727615
  0
LINE
  8
0
 10
-44.194580
 20
84.727615
 11
-35.634583
 21
84.727615
  0
LINE
  8
0
 10
-45.194580
 20
113.727615
 11
-13.394577
 21
113.727615
  0
LINE
  8
0
 10
-44.194580
 20
114.727615
 11
-8.194580
 21
114.727615
  0
LINE
  8
0
 10
16.805420
 20
114.727615
 11
16.805420
 21
84.727615
  0
LINE
  8
0
 10
17.805420
 20
113.727615
 11
17.805420
 21
85.727615
  0
LINE
  8
0
 10
-44.194580
 20
114.727615
 11
-44.194580
 21
84.727615
  0
LINE
  8
0
 10
-45.194580
 20
113.727615
 11
-45.194580
 21
85.727615
  0
LINE
  8
0
 10
-45.194580
 20
113.727623
 11
-44.194588
 21
114.727615
  0
LINE
  8
0
 10
-45.194584
 20
85.727623
 11
-44.194580
 21
84.727623
  0
LINE
  8
0
 10
16.805414
 20
114.727623
 11
17.805416
 21
113.727623
  0
LINE
  8
0
 10
17.805418
 20
85.727631
 11
16.805416
 21
84.727631
  0
LINE
  8
0
 10
-3.004578
 20
113.727615
 11
17.805420
 21
113.727615
  0
LINE
  8
0
 10
-8.194580
 20
114.727615
 11
16.805420
 21
114.727615
  0
LINE
  8
0
 10
-19.764587
 20
84.727615
 11
16.805420
 21
84.727615
  0
LINE
  8
0
 10
-19.694580
 20
85.727615
 11
17.805420
 21
85.727615
  0
LINE
  8
0
  6
CENTER
 62
     2
 10
-27.694580
 20
95.727615
 11
-27.694580
 21
75.727631
  0
LINE
  8
0
  6
CENTER
 62
     2
 10
-8.194580
 20
118.227615
 11
-8.194580
 21
83.227631
  0
LINE
  8
0
  6
CENTER
 62
     2
 10
-25.694580
 20
100.727615
 11
9.305420
 21
100.727615
  0
LINE
  8
0
  6
CENTER
 62
     2
 10
-37.694580
 20
85.727615
 11
-17.694580
 21
85.727615
  0
LINE
  8
0
  6
CENTER
 62
     2
 10
-71.194580
 20
87.947617
 11
-71.194580
 21
37.047623
  0
LINE
  8
0
 10
157.681625
 20
-172.199280
 11
152.021622
 21
-172.199280
  0
LINE
  8
0
 10
162.451630
 20
-153.099274
 11
162.451630
 21
-162.599274
  0
LINE
  8
0
 10
161.861618
 20
-153.389282
 11
161.861618
 21
-163.099274
  0
LINE
  8
0
 10
161.291626
 20
-153.099274
 11
161.291626
 21
-162.599274
  0
LINE
  8
0
 10
159.171631
 20
-153.099274
 11
159.171631
 21
-162.599274
  0
LINE
  8
0
 10
158.511627
 20
-153.389282
 11
158.511627
 21
-163.099274
  0
LINE
  8
0
 10
147.251617
 20
-153.099274
 11
147.251617
 21
-162.599274
  0
LINE
  8
0
 10
147.841629
 20
-153.389282
 11
147.841629
 21
-163.099274
  0
LINE
  8
0
 10
148.411621
 20
-153.099274
 11
148.411621
 21
-162.599274
  0
LINE
  8
0
 10
150.541626
 20
-153.099274
 11
150.541626
 21
-162.599274
  0
LINE
  8
0
 10
151.191620
 20
-153.389282
 11
151.191620
 21
-163.099274
  0
LINE
  8
0
 10
153.011627
 20
-153.389282
 11
153.011627
 21
-163.099274
  0
LINE
  8
0
 10
156.691620
 20
-153.389282
 11
156.691620
 21
-163.099274
  0
LINE
  8
0
 10
156.351624
 20
-153.099274
 11
156.351624
 21
-162.599274
  0
LINE
  8
0
 10
153.351624
 20
-153.099274
 11
153.351624
 21
-162.599274
  0
LINE
  8
0
 10
147.101624
 20
-150.599274
 11
147.101624
 21
-162.599274
  0
LINE
  8
0
 10
162.601624
 20
-150.599274
 11
162.601624
 21
-162.599274
  0
LINE
  8
0
 10
147.281616
 20
-148.809280
 11
162.431625
 21
-148.809280
  0
LINE
  8
0
 10
162.431625
 20
-148.809265
 11
162.931625
 21
-148.309265
  0
LINE
  8
0
 10
147.281616
 20
-148.809280
 11
146.781601
 21
-148.309265
  0
LINE
  8
0
 10
162.101624
 20
-150.099274
 11
147.601624
 21
-150.099274
  0
LINE
  8
0
 10
162.101593
 20
-150.099274
 11
162.601608
 21
-150.599274
  0
LINE
  8
0
 10
147.601639
 20
-150.099274
 11
147.101639
 21
-150.599274
  0
LINE
  8
0
 10
160.851624
 20
-148.809280
 11
160.851624
 21
-150.099274
  0
LINE
  8
0
 10
148.851624
 20
-148.809280
 11
148.851624
 21
-150.099274
  0
LINE
  8
0
 62
     2
 10
149.601624
 20
-148.809280
 11
149.601624
 21
-150.099274
  0
LINE
  8
0
 62
     2
 10
160.101624
 20
-148.809280
 11
160.101624
 21
-150.099274
  0
LINE
  8
0
 10
162.451630
 20
-153.099274
 11
161.291626
 21
-153.099274
  0
LINE
  8
0
 10
161.861618
 20
-153.389282
 11
161.291626
 21
-153.389282
  0
LINE
  8
0
 10
153.351624
 20
-153.099274
 11
150.541626
 21
-153.099274
  0
LINE
  8
0
 10
153.011627
 20
-153.389282
 11
151.191620
 21
-153.389282
  0
LINE
  8
0
 10
159.171631
 20
-153.099274
 11
156.351624
 21
-153.099274
  0
LINE
  8
0
 10
158.511627
 20
-153.389282
 11
156.691620
 21
-153.389282
  0
LINE
  8
0
 10
148.411621
 20
-153.099274
 11
147.251617
 21
-153.099274
  0
LINE
  8
0
 10
148.411621
 20
-153.389282
 11
147.841629
 21
-153.389282
  0
LINE
  8
0
 10
147.841614
 20
-153.389267
 11
147.251633
 21
-153.099274
  0
LINE
  8
0
 10
151.191620
 20
-153.389282
 11
150.531616
 21
-153.099274
  0
LINE
  8
0
 10
153.011612
 20
-153.389297
 11
153.351624
 21
-153.099289
  0
LINE
  8
0
 10
156.691635
 20
-153.389282
 11
156.351624
 21
-153.099274
  0
LINE
  8
0
 10
158.511627
 20
-153.389282
 11
159.171631
 21
-153.099274
  0
LINE
  8
0
 10
161.861633
 20
-153.389267
 11
162.451614
 21
-153.099274
  0
LINE
  8
0
 10
162.601624
 20
-150.599274
 11
147.101624
 21
-150.599274
  0
LINE
  8
0
 10
146.781616
 20
-148.309280
 11
162.931625
 21
-148.309280
  0
LINE
  8
0
 10
161.601624
 20
-163.599274
 11
148.101624
 21
-163.599274
  0
LINE
  8
0
 10
162.601624
 20
-162.599274
 11
161.601624
 21
-163.599274
  0
LINE
  8
0
 10
148.101624
 20
-163.599274
 11
147.101624
 21
-162.599274
  0
LINE
  8
0
 10
162.601624
 20
-162.599274
 11
162.451630
 21
-162.599274
  0
LINE
  8
0
 10
156.351624
 20
-162.599274
 11
153.351624
 21
-162.599274
  0
LINE
  8
0
 10
150.541626
 20
-162.599274
 11
148.411621
 21
-162.599274
  0
LINE
  8
0
 10
147.251617
 20
-162.599274
 11
147.101624
 21
-162.599274
  0
LINE
  8
0
 10
161.291626
 20
-162.599274
 11
159.171631
 21
-162.599274
  0
LINE
  8
0
 10
158.511627
 20
-163.099274
 11
156.691620
 21
-163.099274
  0
LINE
  8
0
 10
161.861633
 20
-163.099258
 11
162.451630
 21
-162.599274
  0
LINE
  8
0
 10
158.511612
 20
-163.099274
 11
159.171616
 21
-162.599274
  0
LINE
  8
0
 10
156.691620
 20
-163.099274
 11
156.351624
 21
-162.599289
  0
LINE
  8
0
 10
153.351624
 20
-162.599274
 11
153.011627
 21
-163.099274
  0
LINE
  8
0
 10
151.191620
 20
-163.099289
 11
150.541626
 21
-162.599274
  0
LINE
  8
0
 10
147.841614
 20
-163.099274
 11
147.251602
 21
-162.599289
  0
LINE
  8
0
 10
161.291626
 20
-162.599274
 11
161.111618
 21
-163.099274
  0
LINE
  8
0
 10
148.411621
 20
-162.599274
 11
148.591629
 21
-163.099274
  0
LINE
  8
0
 10
153.011627
 20
-163.099274
 11
151.191620
 21
-163.099274
  0
LINE
  8
0
 10
161.861618
 20
-163.099274
 11
161.111618
 21
-163.099274
  0
LINE
  8
0
 10
148.591629
 20
-163.099274
 11
147.841629
 21
-163.099274
  0
LINE
  8
0
 10
160.851624
 20
-165.099274
 11
148.851624
 21
-165.099274
  0
LINE
  8
0
 10
161.351624
 20
-164.599274
 11
161.351624
 21
-163.599274
  0
LINE
  8
0
 10
148.351624
 20
-164.599274
 11
148.351624
 21
-163.599274
  0
LINE
  8
0
 10
148.351624
 20
-164.599274
 11
148.851624
 21
-165.099274
  0
LINE
  8
0
 10
160.851624
 20
-165.099274
 11
161.351624
 21
-164.599274
  0
LINE
  8
0
 10
151.601624
 20
-169.799286
 11
151.601624
 21
-169.599274
  0
LINE
  8
0
 10
158.101624
 20
-169.799286
 11
158.101624
 21
-169.599274
  0
LINE
  8
0
 10
158.101624
 20
-169.599274
 11
151.601624
 21
-169.599274
  0
LINE
  8
0
 10
158.101624
 20
-166.999283
 11
151.601624
 21
-166.999283
  0
LINE
  8
0
 10
158.101624
 20
-167.199280
 11
151.601624
 21
-167.199280
  0
LINE
  8
0
 10
158.101624
 20
-169.799286
 11
151.601624
 21
-169.799286
  0
LINE
  8
0
 10
151.601624
 20
-167.199280
 11
151.601624
 21
-166.999283
  0
LINE
  8
0
 10
158.101624
 20
-167.199280
 11
158.101624
 21
-166.999283
  0
LINE
  8
0
 10
151.601624
 20
-167.199280
 11
152.021622
 21
-169.599274
  0
LINE
  8
0
 10
158.101639
 20
-167.199280
 11
157.681625
 21
-169.599289
  0
LINE
  8
0
 10
157.701630
 20
-166.999283
 11
157.701630
 21
-165.099274
  0
LINE
  8
0
 10
152.001617
 20
-166.999283
 11
152.001617
 21
-165.099274
  0
LINE
  8
0
 10
148.351624
 20
-164.599274
 11
161.351624
 21
-164.599274
  0
LINE
  8
0
 10
158.101624
 20
-169.799271
 11
157.681610
 21
-172.199280
  0
LINE
  8
0
 10
151.601624
 20
-169.799271
 11
152.021637
 21
-172.199280
  0
LINE
  8
0
 10
139.321625
 20
-147.309280
 11
170.381622
 21
-147.309280
  0
LINE
  8
0
 10
173.561615
 20
-129.309280
 11
169.901627
 21
-129.309280
  0
LINE
  8
0
 10
175.371613
 20
-129.809280
 11
169.901627
 21
-129.809280
  0
LINE
  8
0
 10
175.631622
 20
-130.309280
 11
169.501617
 21
-130.309280
  0
LINE
  8
0
 10
176.221619
 20
-130.809280
 11
169.501617
 21
-130.809280
  0
LINE
  8
0
 10
136.151627
 20
-129.309280
 11
139.801620
 21
-129.309280
  0
LINE
  8
0
 10
134.331635
 20
-129.809280
 11
139.801620
 21
-129.809280
  0
LINE
  8
0
 10
134.071625
 20
-130.309280
 11
140.201630
 21
-130.309280
  0
LINE
  8
0
 10
133.491638
 20
-130.809280
 11
140.201630
 21
-130.809280
  0
LINE
  8
0
 10
162.931625
 20
-148.309280
 11
162.931625
 21
-147.309280
  0
LINE
  8
0
 10
146.781616
 20
-148.309280
 11
146.781616
 21
-147.309280
  0
LINE
  8
0
 10
173.561615
 20
-102.319275
 11
169.901627
 21
-102.319275
  0
LINE
  8
0
 10
173.561615
 20
-97.319275
 11
169.901627
 21
-97.319275
  0
LINE
  8
0
 10
173.561615
 20
-71.319275
 11
169.901627
 21
-71.319275
  0
LINE
  8
0
 10
175.371613
 20
-70.819275
 11
169.901627
 21
-70.819275
  0
LINE
  8
0
 10
175.371613
 20
-97.819275
 11
169.901627
 21
-97.819275
  0
LINE
  8
0
 10
175.371613
 20
-101.819275
 11
169.901627
 21
-101.819275
  0
LINE
  8
0
 10
168.901627
 20
-71.819275
 11
168.901627
 21
-96.819275
  0
LINE
  8
0
 10
174.561615
 20
-72.319275
 11
174.561615
 21
-96.319275
  0
LINE
  8
0
 10
176.371613
 20
-71.819275
 11
176.371613
 21
-96.819275
  0
LINE
  8
0
 10
175.631622
 20
-70.319275
 11
169.501617
 21
-70.319275
  0
LINE
  8
0
 10
176.221619
 20
-69.819275
 11
169.501617
 21
-69.819275
  0
LINE
  8
0
 10
136.151627
 20
-102.319275
 11
139.801620
 21
-102.319275
  0
LINE
  8
0
 10
136.151627
 20
-97.319275
 11
139.801620
 21
-97.319275
  0
LINE
  8
0
 10
136.151627
 20
-71.319275
 11
139.801620
 21
-71.319275
  0
LINE
  8
0
 10
134.331635
 20
-70.819275
 11
139.801620
 21
-70.819275
  0
LINE
  8
0
 10
134.331635
 20
-97.819275
 11
139.801620
 21
-97.819275
  0
LINE
  8
0
 10
134.331635
 20
-101.819275
 11
139.801620
 21
-101.819275
  0
LINE
  8
0
 10
140.801620
 20
-71.819275
 11
140.801620
 21
-96.819275
  0
LINE
  8
0
 10
135.151627
 20
-72.319275
 11
135.151627
 21
-96.319275
  0
LINE
  8
0
 10
133.331635
 20
-71.819275
 11
133.331635
 21
-96.819275
  0
LINE
  8
0
 10
134.071625
 20
-70.319275
 11
140.201630
 21
-70.319275
  0
LINE
  8
0
 10
133.491638
 20
-69.819275
 11
140.201630
 21
-69.819275
  0
LINE
  8
0
 10
140.851624
 20
-11.519287
 11
140.851624
 21
-12.519287
  0
LINE
  8
0
 10
168.851624
 20
-12.519287
 11
168.851624
 21
-11.519287
  0
LINE
  8
0
 10
167.851624
 20
-10.519287
 11
162.801620
 21
-10.519287
  0
LINE
  8
0
 10
140.851624
 20
-11.519288
 11
141.851624
 21
-10.519292
  0
LINE
  8
0
 10
167.851624
 20
-10.519287
 11
168.851624
 21
-11.519288
  0
LINE
  8
0
 10
166.491623
 20
-11.519287
 11
166.491623
 21
-12.519287
  0
LINE
  8
0
 10
147.471619
 20
-10.819290
 11
147.471619
 21
-12.519287
  0
LINE
  8
0
 10
147.081619
 20
-11.519287
 11
147.081619
 21
-12.519287
  0
LINE
  8
0
 10
163.051620
 20
-11.519287
 11
166.491623
 21
-11.519287
  0
LINE
  8
0
 10
167.891617
 20
-10.819290
 11
167.891617
 21
-12.519287
  0
LINE
  8
0
 10
168.581619
 20
-11.519287
 11
168.581619
 21
-12.519287
  0
LINE
  8
0
 10
168.581619
 20
-11.519287
 11
168.851624
 21
-11.519287
  0
LINE
  8
0
 10
167.851624
 20
-10.819290
 11
165.901627
 21
-10.819290
  0
LINE
  8
0
 10
165.901611
 20
-10.819294
 11
166.491608
 21
-11.519293
  0
LINE
  8
0
 10
148.901627
 20
-10.819290
 11
147.471619
 21
-10.819290
  0
LINE
  8
0
 10
147.471634
 20
-10.819300
 11
147.081635
 21
-11.519304
  0
LINE
  8
0
 10
167.891617
 20
-10.819297
 11
168.581619
 21
-11.519295
  0
LINE
  8
0
 10
143.801636
 20
-10.819295
 11
143.211639
 21
-11.519293
  0
LINE
  8
0
 10
143.211624
 20
-11.519287
 11
143.211624
 21
-12.519287
  0
LINE
  8
0
 10
141.811630
 20
-10.819290
 11
141.811630
 21
-12.519287
  0
LINE
  8
0
 10
141.851624
 20
-10.819290
 11
143.801620
 21
-10.819290
  0
LINE
  8
0
 10
141.811630
 20
-10.819301
 11
141.121628
 21
-11.519299
  0
LINE
  8
0
 10
141.121628
 20
-11.519287
 11
141.121628
 21
-12.519287
  0
LINE
  8
0
 10
141.121628
 20
-11.519287
 11
140.851624
 21
-11.519287
  0
LINE
  8
0
 10
143.801620
 20
-10.819290
 11
141.851624
 21
-10.819290
  0
LINE
  8
0
 10
143.211624
 20
-11.519287
 11
147.081619
 21
-11.519287
  0
LINE
  8
0
 10
97.851624
 20
-56.519287
 11
118.351624
 21
-56.519287
  0
LINE
  8
0
 10
95.351639
 20
-14.269294
 11
94.851639
 21
-14.769295
  0
LINE
  8
0
 10
95.351624
 20
-56.769279
 11
94.851624
 21
-56.269279
  0
LINE
  8
0
 10
132.651627
 20
-29.729288
 11
128.851639
 21
-29.609287
  0
LINE
  8
0
 10
132.651627
 20
-42.159286
 11
128.851624
 21
-42.279285
  0
LINE
  8
0
 10
128.851624
 20
-28.519287
 11
128.851624
 21
-42.519287
  0
LINE
  8
0
 10
132.651627
 20
-28.879288
 11
128.851608
 21
-28.759289
  0
LINE
  8
0
 10
132.651627
 20
-41.309288
 11
128.851624
 21
-41.429287
  0
LINE
  8
0
 10
97.851624
 20
-14.519287
 11
118.351624
 21
-14.519287
  0
LINE
  8
0
 10
94.851624
 20
-14.769287
 11
94.851624
 21
-56.269287
  0
LINE
  8
0
 10
95.351624
 20
-56.769287
 11
97.851624
 21
-56.769287
  0
LINE
  8
0
 10
95.351624
 20
-14.269287
 11
95.351624
 21
-56.769287
  0
LINE
  8
0
 10
121.351624
 20
-17.519287
 11
121.351624
 21
-53.519287
  0
LINE
  8
0
 10
97.851624
 20
-14.269287
 11
97.851624
 21
-56.769287
  0
LINE
  8
0
 10
128.851624
 20
-42.519287
 11
121.351624
 21
-42.519287
  0
LINE
  8
0
 10
128.851624
 20
-28.519287
 11
121.351624
 21
-28.519287
  0
LINE
  8
0
 10
128.851639
 20
-42.519279
 11
121.351639
 21
-28.519279
  0
LINE
  8
0
 10
121.351639
 20
-42.519299
 11
128.851639
 21
-28.519295
  0
LINE
  8
0
 10
95.351624
 20
-14.269287
 11
97.851624
 21
-14.269287
  0
LINE
  8
0
 10
95.351639
 20
-14.269294
 11
94.851639
 21
-14.769295
  0
LINE
  8
0
 10
123.851624
 20
-47.519287
 11
123.851624
 21
-64.519287
  0
LINE
  8
0
 10
185.851624
 20
-47.519287
 11
185.851624
 21
-64.519287
  0
LINE
  8
0
 10
124.851624
 20
-65.519287
 11
184.851624
 21
-65.519287
  0
LINE
  8
0
 10
123.851624
 20
-47.519287
 11
185.851624
 21
-47.519287
  0
LINE
  8
0
 10
169.851624
 20
-24.519287
 11
169.851624
 21
-47.519287
  0
LINE
  8
0
 10
139.851624
 20
-24.519287
 11
139.851624
 21
-47.519287
  0
LINE
  8
0
 10
140.851624
 20
-23.519287
 11
168.851624
 21
-23.519287
  0
LINE
  8
0
 10
124.851624
 20
-46.519287
 11
139.851624
 21
-46.519287
  0
LINE
  8
0
 10
184.851608
 20
-46.519272
 11
185.851608
 21
-47.519276
  0
LINE
  8
0
 10
185.851624
 20
-64.519287
 11
184.851624
 21
-65.519287
  0
LINE
  8
0
 10
124.851624
 20
-65.519287
 11
123.851624
 21
-64.519287
  0
LINE
  8
0
 10
123.851631
 20
-47.519283
 11
124.851631
 21
-46.519279
  0
LINE
  8
0
 10
169.851624
 20
-46.519287
 11
184.851624
 21
-46.519287
  0
LINE
  8
0
 10
123.851624
 20
-64.519287
 11
185.851624
 21
-64.519287
  0
LINE
  8
0
 10
139.851639
 20
-24.519291
 11
140.851639
 21
-23.519289
  0
LINE
  8
0
 10
168.851608
 20
-23.519289
 11
169.851608
 21
-24.519291
  0
LINE
  8
0
 10
140.851624
 20
-23.519287
 11
140.851624
 21
-47.519287
  0
LINE
  8
0
 10
139.851624
 20
-24.519287
 11
169.851624
 21
-24.519287
  0
LINE
  8
0
 10
168.851624
 20
-23.519287
 11
168.851624
 21
-47.519287
  0
LINE
  8
0
 10
132.651627
 20
-20.519287
 11
169.851624
 21
-20.519287
  0
LINE
  8
0
  6
CENTER
 62
     2
 10
140.851624
 20
-10.539291
 11
140.851624
 21
-21.919289
  0
LINE
  8
0
 10
132.651627
 20
-20.519287
 11
132.651627
 21
-46.519287
  0
LINE
  8
0
  6
CENTER
 62
     2
 10
155.851624
 20
3.160706
 11
155.851624
 21
-21.009289
  0
LINE
  8
0
 10
169.351624
 20
-20.519287
 11
169.351624
 21
-24.019287
  0
LINE
  8
0
 10
142.351624
 20
-20.519287
 11
142.351624
 21
-23.519287
  0
LINE
  8
0
 10
142.851624
 20
-12.519287
 11
168.851624
 21
-12.519287
  0
LINE
  8
0
 10
141.851624
 20
-13.519287
 11
141.851624
 21
-20.519287
  0
LINE
  8
0
 10
169.851624
 20
-13.519287
 11
169.851624
 21
-20.519287
  0
LINE
  8
0
 10
141.851624
 20
-13.519284
 11
142.851624
 21
-12.519289
  0
LINE
  8
0
 10
168.851624
 20
-12.519283
 11
169.851624
 21
-13.519284
  0
LINE
  8
0
 10
157.351624
 20
-13.519287
 11
157.351624
 21
-19.019287
  0
LINE
  8
0
 10
161.511627
 20
-13.519287
 11
161.511627
 21
-19.019287
  0
LINE
  8
0
 10
164.101624
 20
-13.519287
 11
164.101624
 21
-19.019287
  0
LINE
  8
0
 10
167.151627
 20
-13.519287
 11
167.151627
 21
-19.019287
  0
LINE
  8
0
 10
168.651627
 20
-13.519287
 11
168.651627
 21
-19.019287
  0
LINE
  8
0
 10
157.351624
 20
-19.019287
 11
161.511627
 21
-19.019287
  0
LINE
  8
0
 10
157.851624
 20
-18.519287
 11
161.011627
 21
-18.519287
  0
LINE
  8
0
 10
157.851624
 20
-13.019287
 11
157.851624
 21
-18.519287
  0
LINE
  8
0
 10
164.101624
 20
-19.019287
 11
167.151627
 21
-19.019287
  0
LINE
  8
0
 10
161.011627
 20
-13.019287
 11
161.011627
 21
-18.519287
  0
LINE
  8
0
 10
155.851624
 20
-13.519287
 11
157.351624
 21
-13.519287
  0
LINE
  8
0
 10
157.351624
 20
-13.519290
 11
157.851624
 21
-13.019289
  0
LINE
  8
0
 10
157.851624
 20
-13.019287
 11
161.011627
 21
-13.019287
  0
LINE
  8
0
 10
161.011612
 20
-13.019295
 11
161.511612
 21
-13.519296
  0
LINE
  8
0
 10
161.011612
 20
-18.519289
 11
161.511612
 21
-19.019291
  0
LINE
  8
0
 10
157.351624
 20
-19.019295
 11
157.851624
 21
-18.519293
  0
LINE
  8
0
 10
161.511627
 20
-13.519287
 11
164.101624
 21
-13.519287
  0
LINE
  8
0
 10
163.601624
 20
-13.019287
 11
166.651627
 21
-13.019287
  0
LINE
  8
0
 10
164.101624
 20
-18.519287
 11
166.651627
 21
-18.519287
  0
LINE
  8
0
 10
166.651627
 20
-13.019287
 11
166.651627
 21
-18.519287
  0
LINE
  8
0
 10
167.151627
 20
-13.519287
 11
168.651627
 21
-13.519287
  0
LINE
  8
0
 10
163.601624
 20
-13.019295
 11
164.101624
 21
-13.519296
  0
LINE
  8
0
 10
166.651611
 20
-13.019295
 11
167.151611
 21
-13.519296
  0
LINE
  8
0
 10
168.151627
 20
-13.019287
 11
169.351624
 21
-13.019287
  0
LINE
  8
0
 10
168.151627
 20
-13.019284
 11
168.651627
 21
-13.519284
  0
LINE
  8
0
 10
168.651627
 20
-19.019287
 11
169.851624
 21
-19.019287
  0
LINE
  8
0
 10
166.651627
 20
-18.519289
 11
167.151627
 21
-19.019291
  0
LINE
  8
0
 10
169.351624
 20
-13.019287
 11
169.351624
 21
-18.519287
  0
LINE
  8
0
 10
168.651627
 20
-18.519287
 11
169.351624
 21
-18.519287
  0
LINE
  8
0
 10
169.351608
 20
-18.519299
 11
169.851608
 21
-19.019300
  0
LINE
  8
0
 10
155.851624
 20
-13.519287
 11
154.351624
 21
-13.519287
  0
LINE
  8
0
 10
154.351624
 20
-13.519284
 11
153.851624
 21
-13.019291
  0
LINE
  8
0
 10
154.351624
 20
-13.519287
 11
154.351624
 21
-19.019287
  0
LINE
  8
0
 10
153.851624
 20
-13.019287
 11
153.851624
 21
-18.519287
  0
LINE
  8
0
 10
154.351624
 20
-19.019285
 11
153.851624
 21
-18.519289
  0
LINE
  8
0
 10
153.851624
 20
-18.519287
 11
150.691620
 21
-18.519287
  0
LINE
  8
0
 10
154.351624
 20
-19.019287
 11
150.191620
 21
-19.019287
  0
LINE
  8
0
 10
153.851624
 20
-13.019287
 11
150.691620
 21
-13.019287
  0
LINE
  8
0
 10
150.691635
 20
-13.019295
 11
150.191635
 21
-13.519296
  0
LINE
  8
0
 10
150.691620
 20
-13.019287
 11
150.691620
 21
-18.519287
  0
LINE
  8
0
 10
150.191620
 20
-13.519287
 11
150.191620
 21
-19.019287
  0
LINE
  8
0
 10
150.191620
 20
-13.519287
 11
147.601624
 21
-13.519287
  0
LINE
  8
0
 10
150.691620
 20
-18.519285
 11
150.191620
 21
-19.019285
  0
LINE
  8
0
 10
148.101639
 20
-13.019295
 11
147.601639
 21
-13.519296
  0
LINE
  8
0
 10
148.101624
 20
-13.019287
 11
145.051620
 21
-13.019287
  0
LINE
  8
0
 10
147.601624
 20
-13.519287
 11
147.601624
 21
-19.019287
  0
LINE
  8
0
 10
147.601624
 20
-18.519287
 11
145.051620
 21
-18.519287
  0
LINE
  8
0
 10
147.601624
 20
-19.019287
 11
144.551620
 21
-19.019287
  0
LINE
  8
0
 10
145.051620
 20
-13.019287
 11
145.051620
 21
-18.519287
  0
LINE
  8
0
 10
145.051636
 20
-18.519289
 11
144.551636
 21
-19.019291
  0
LINE
  8
0
 10
144.551620
 20
-13.519287
 11
144.551620
 21
-19.019287
  0
LINE
  8
0
 10
145.051636
 20
-13.019295
 11
144.551636
 21
-13.519296
  0
LINE
  8
0
 10
144.551620
 20
-13.519287
 11
143.051620
 21
-13.519287
  0
LINE
  8
0
 10
143.551620
 20
-13.019284
 11
143.051620
 21
-13.519284
  0
LINE
  8
0
 10
142.351624
 20
-13.019287
 11
142.351624
 21
-18.519287
  0
LINE
  8
0
 10
143.051620
 20
-13.519287
 11
143.051620
 21
-19.019287
  0
LINE
  8
0
 10
143.051620
 20
-18.519287
 11
142.351624
 21
-18.519287
  0
LINE
  8
0
 10
143.051620
 20
-19.019287
 11
141.851624
 21
-19.019287
  0
LINE
  8
0
 10
142.351624
 20
-18.519289
 11
141.851624
 21
-19.019291
  0
LINE
  8
0
 10
148.901627
 20
-5.469299
 11
148.901627
 21
-11.519287
  0
LINE
  8
0
 10
162.801620
 20
-5.469299
 11
162.801620
 21
-11.519287
  0
LINE
  8
0
 10
148.651627
 20
-11.519287
 11
163.051620
 21
-11.519287
  0
LINE
  8
0
 10
148.651627
 20
-11.519287
 11
148.651627
 21
-12.519287
  0
LINE
  8
0
 10
163.051620
 20
-11.519287
 11
163.051620
 21
-12.519287
  0
LINE
  8
0
 10
133.351624
 20
-12.519287
 11
142.851624
 21
-12.519287
  0
LINE
  8
0
 10
142.351624
 20
-13.019287
 11
143.551620
 21
-13.019287
  0
LINE
  8
0
 10
132.851624
 20
-13.019287
 11
132.851624
 21
-20.519287
  0
LINE
  8
0
 10
132.851624
 20
-13.019295
 11
133.351624
 21
-12.519295
  0
LINE
  8
0
 10
142.351624
 20
-13.019287
 11
139.351624
 21
-13.019287
  0
LINE
  8
0
 10
139.351624
 20
-13.019289
 11
138.851624
 21
-12.519289
  0
LINE
  8
0
 10
138.851624
 20
-12.519287
 11
138.851624
 21
-18.519287
  0
LINE
  8
0
 10
139.351624
 20
-13.019287
 11
139.351624
 21
-19.019287
  0
LINE
  8
0
 10
138.851624
 20
-18.519287
 11
136.861633
 21
-18.519287
  0
LINE
  8
0
 10
139.351624
 20
-19.019291
 11
138.851624
 21
-18.519289
  0
LINE
  8
0
 10
139.351624
 20
-19.019287
 11
136.361633
 21
-19.019287
  0
LINE
  8
0
 10
136.861633
 20
-12.519287
 11
136.861633
 21
-18.519287
  0
LINE
  8
0
 10
136.861633
 20
-18.519297
 11
136.361633
 21
-19.019297
  0
LINE
  8
0
 10
136.361633
 20
-13.019287
 11
136.361633
 21
-19.019287
  0
LINE
  8
0
 10
136.861633
 20
-12.519298
 11
136.361633
 21
-13.019293
  0
LINE
  8
0
 10
136.361633
 20
-13.019287
 11
134.241638
 21
-13.019287
  0
LINE
  8
0
 10
134.741623
 20
-12.519289
 11
134.241623
 21
-13.019289
  0
LINE
  8
0
 10
134.241638
 20
-13.019287
 11
134.241638
 21
-19.019287
  0
LINE
  8
0
 10
134.241638
 20
-18.519287
 11
133.351624
 21
-18.519287
  0
LINE
  8
0
 10
134.241638
 20
-19.019287
 11
132.851624
 21
-19.019287
  0
LINE
  8
0
 10
133.351624
 20
-18.519289
 11
132.851624
 21
-19.019291
  0
LINE
  8
0
 10
133.351624
 20
-12.519287
 11
133.351624
 21
-18.519287
  0
LINE
  8
0
 10
169.851624
 20
-24.519287
 11
169.851624
 21
-23.519287
  0
LINE
  8
0
 10
194.851624
 20
-74.519287
 11
194.851624
 21
-23.519287
  0
LINE
  8
0
 10
187.851624
 20
-74.519287
 11
194.851624
 21
-74.519287
  0
LINE
  8
0
 10
186.851624
 20
-73.519287
 11
186.851624
 21
-57.519287
  0
LINE
  8
0
 10
186.851624
 20
-73.519279
 11
187.851624
 21
-74.519279
  0
LINE
  8
0
 10
186.851624
 20
-57.519283
 11
185.851624
 21
-56.519283
  0
LINE
  8
0
 10
187.851624
 20
-57.099285
 11
185.851624
 21
-55.099285
  0
LINE
  8
0
 10
187.851624
 20
-74.519287
 11
187.851624
 21
-57.099274
  0
LINE
  8
0
 10
186.851608
 20
-57.519279
 11
187.851608
 21
-57.099277
  0
LINE
  8
0
 10
187.851624
 20
-71.519287
 11
194.851624
 21
-71.519287
  0
LINE
  8
0
  6
CENTER
 62
     2
 10
184.931610
 20
-66.519287
 11
196.631622
 21
-66.519287
  0
LINE
  8
0
 10
187.851624
 20
-71.519272
 11
186.851624
 21
-71.099281
  0
LINE
  8
0
 10
169.351624
 20
-23.519287
 11
194.851624
 21
-23.519287
  0
LINE
  8
0
 10
169.851624
 20
-24.519287
 11
194.851624
 21
-24.519287
  0
LINE
  8
0
 10
148.901627
 20
-10.519287
 11
141.851624
 21
-10.519287
  0
LINE
  8
0
  6
CENTER
 62
     2
 10
81.321625
 20
-35.519287
 11
209.681610
 21
-35.519287
  0
LINE
  8
0
 10
180.381622
 20
-137.389267
 11
181.011612
 21
-65.519279
  0
LINE
  8
0
 10
129.321625
 20
-137.389252
 11
128.691635
 21
-65.519279
  0
LINE
  8
0
 10
132.491638
 20
-70.819275
 11
132.491638
 21
-129.809280
  0
LINE
  8
0
 10
141.201630
 20
-70.819275
 11
141.201630
 21
-129.809280
  0
LINE
  8
0
 10
133.071625
 20
-71.319275
 11
133.071625
 21
-129.309280
  0
LINE
  8
0
 10
133.331635
 20
-102.819275
 11
133.331635
 21
-128.809280
  0
LINE
  8
0
 10
135.151627
 20
-103.319275
 11
135.151627
 21
-128.309280
  0
LINE
  8
0
 10
140.801620
 20
-102.819275
 11
140.801620
 21
-128.809280
  0
LINE
  8
0
 10
177.221619
 20
-70.819275
 11
177.221619
 21
-129.809280
  0
LINE
  8
0
 10
168.501617
 20
-70.819275
 11
168.501617
 21
-129.809280
  0
LINE
  8
0
 10
176.631622
 20
-71.319275
 11
176.631622
 21
-129.309280
  0
LINE
  8
0
 10
176.371613
 20
-102.819275
 11
176.371613
 21
-128.809280
  0
LINE
  8
0
 10
174.561615
 20
-103.319275
 11
174.561615
 21
-128.309280
  0
LINE
  8
0
 10
168.901627
 20
-102.819275
 11
168.901627
 21
-128.809280
  0
LINE
  8
0
  6
CENTER
 62
     2
 10
154.851624
 20
-18.029297
 11
154.851624
 21
-175.099274
  0
LINE
  8
0
  6
CENTER
 62
     2
 10
154.851624
 20
-174.429276
 11
154.851624
 21
-19.649288
  0
LINE
  8
0
  6
CENTER
 62
     2
 10
-152.731445
 20
-172.685272
 11
-152.731445
 21
-17.905289
  0
LINE
  8
0
 10
-159.161453
 20
-161.145264
 11
-158.991455
 21
-161.645264
  0
LINE
  8
0
 10
-146.291443
 20
-161.145264
 11
-146.471451
 21
-161.645264
  0
LINE
  8
0
 10
-159.741455
 20
-161.645279
 11
-160.331467
 21
-161.145264
  0
LINE
  8
0
 10
-156.381439
 20
-161.645248
 11
-157.041428
 21
-161.145264
  0
LINE
  8
0
 10
-154.231445
 20
-161.145264
 11
-154.571442
 21
-161.645264
  0
LINE
  8
0
 10
-150.881439
 20
-161.645264
 11
-151.231430
 21
-161.145264
  0
LINE
  8
0
 10
-149.071442
 20
-161.645264
 11
-148.411438
 21
-161.145279
  0
LINE
  8
0
 10
-145.711441
 20
-161.645264
 11
-145.121429
 21
-161.145264
  0
LINE
  8
0
 10
-145.711456
 20
-151.935272
 11
-145.711456
 21
-161.645264
  0
LINE
  8
0
 10
-149.071457
 20
-151.935272
 11
-149.071457
 21
-161.645264
  0
LINE
  8
0
 10
-159.741455
 20
-151.935272
 11
-159.741455
 21
-161.645264
  0
LINE
  8
0
 10
-156.381454
 20
-151.935272
 11
-156.381454
 21
-161.645264
  0
LINE
  8
0
 10
-154.571457
 20
-151.935272
 11
-154.571457
 21
-161.645264
  0
LINE
  8
0
 10
-150.881454
 20
-151.935272
 11
-150.881454
 21
-161.645264
  0
LINE
  8
0
 10
-159.481445
 20
-162.145264
 11
-160.481445
 21
-161.145264
  0
LINE
  8
0
 10
-144.981445
 20
-161.145264
 11
-145.981445
 21
-162.145264
  0
LINE
  8
0
 10
-42.991215
 20
-72.525032
 11
-43.531460
 21
-73.065277
  0
LINE
  8
0
 10
-42.641453
 20
-65.965271
 11
-41.571453
 21
-65.935265
  0
LINE
  8
0
 10
-41.611450
 20
-64.065277
 11
-41.571449
 21
-65.935272
  0
LINE
  8
0
 10
-42.191448
 20
-64.065277
 11
-42.141449
 21
-65.955269
  0
LINE
  8
0
 10
1.798553
 20
-145.855270
 11
-29.261459
 21
-145.855270
  0
LINE
  8
0
 10
-32.431458
 20
-100.865265
 11
-28.771454
 21
-100.865265
  0
LINE
  8
0
 10
-32.431458
 20
-95.865265
 11
-28.771454
 21
-95.865265
  0
LINE
  8
0
 10
-32.431458
 20
-69.865265
 11
-28.771454
 21
-69.865265
  0
LINE
  8
0
 10
-32.431458
 20
-127.855270
 11
-28.771454
 21
-127.855270
  0
LINE
  8
0
 10
-39.251450
 20
-135.935272
 11
-39.621449
 21
-93.865273
  0
LINE
  8
0
 10
-34.251450
 20
-69.365265
 11
-28.771454
 21
-69.365265
  0
LINE
  8
0
 10
-34.251450
 20
-96.365265
 11
-28.771454
 21
-96.365265
  0
LINE
  8
0
 10
-34.251450
 20
-100.365265
 11
-28.771454
 21
-100.365265
  0
LINE
  8
0
 10
-34.251450
 20
-128.355270
 11
-28.771454
 21
-128.355270
  0
LINE
  8
0
 10
-27.771454
 20
-101.365265
 11
-27.771454
 21
-127.355270
  0
LINE
  8
0
 10
-33.431458
 20
-101.865265
 11
-33.431458
 21
-126.855270
  0
LINE
  8
0
 10
-35.251450
 20
-101.365265
 11
-35.251450
 21
-127.355270
  0
LINE
  8
0
 10
-35.501450
 20
-69.865265
 11
-35.501450
 21
-127.855270
  0
LINE
  8
0
 10
-34.501450
 20
-128.855270
 11
-28.371460
 21
-128.855270
  0
LINE
  8
0
 10
-27.371460
 20
-69.365265
 11
-27.371460
 21
-128.355270
  0
LINE
  8
0
 10
-27.771454
 20
-70.365265
 11
-27.771454
 21
-95.365265
  0
LINE
  8
0
 10
-33.431458
 20
-70.865265
 11
-33.431458
 21
-94.865265
  0
LINE
  8
0
 10
-35.251450
 20
-70.365265
 11
-35.251450
 21
-95.365265
  0
LINE
  8
0
 10
-36.091446
 20
-69.365265
 11
-36.091446
 21
-128.355270
  0
LINE
  8
0
 10
-34.501450
 20
-68.865265
 11
-28.371460
 21
-68.865265
  0
LINE
  8
0
 10
-35.091446
 20
-129.355270
 11
-28.371460
 21
-129.355270
  0
LINE
  8
0
 10
-35.091446
 20
-68.365265
 11
-28.371460
 21
-68.365265
  0
LINE
  8
0
 10
4.978546
 20
-100.865265
 11
1.318542
 21
-100.865265
  0
LINE
  8
0
 10
4.978546
 20
-95.865265
 11
1.318542
 21
-95.865265
  0
LINE
  8
0
 10
4.978546
 20
-69.865265
 11
1.318542
 21
-69.865265
  0
LINE
  8
0
 10
4.978546
 20
-127.855270
 11
1.318542
 21
-127.855270
  0
LINE
  8
0
 10
6.788544
 20
-69.365265
 11
1.318542
 21
-69.365265
  0
LINE
  8
0
 10
6.788544
 20
-96.365265
 11
1.318542
 21
-96.365265
  0
LINE
  8
0
 10
6.788544
 20
-100.365265
 11
1.318542
 21
-100.365265
  0
LINE
  8
0
 10
6.788544
 20
-128.355270
 11
1.318542
 21
-128.355270
  0
LINE
  8
0
 10
0.318542
 20
-101.365265
 11
0.318542
 21
-127.355270
  0
LINE
  8
0
 10
5.978546
 20
-101.865265
 11
5.978546
 21
-126.855270
  0
LINE
  8
0
 10
7.788544
 20
-101.365265
 11
7.788544
 21
-127.355270
  0
LINE
  8
0
 10
8.048553
 20
-69.865265
 11
8.048553
 21
-127.855270
  0
LINE
  8
0
 10
7.048553
 20
-128.855270
 11
0.918549
 21
-128.855270
  0
LINE
  8
0
 10
-0.081451
 20
-69.365265
 11
-0.081451
 21
-128.355270
  0
LINE
  8
0
 10
0.318542
 20
-70.365265
 11
0.318542
 21
-95.365265
  0
LINE
  8
0
 10
5.978546
 20
-70.865265
 11
5.978546
 21
-94.865265
  0
LINE
  8
0
 10
7.788544
 20
-70.365265
 11
7.788544
 21
-95.365265
  0
LINE
  8
0
 10
8.638550
 20
-69.365265
 11
8.638550
 21
-128.355270
  0
LINE
  8
0
 10
7.048553
 20
-68.865265
 11
0.918549
 21
-68.865265
  0
LINE
  8
0
 10
7.638550
 20
-129.355270
 11
0.918549
 21
-129.355270
  0
LINE
  8
0
 10
7.638550
 20
-68.365265
 11
0.918549
 21
-68.365265
  0
LINE
  8
0
 10
-42.461445
 20
-89.745277
 11
-42.541447
 21
-80.365273
  0
LINE
  8
0
 10
-39.621449
 20
-93.865280
 11
-42.401455
 21
-89.885269
  0
LINE
  8
0
 10
-42.541458
 20
-80.365280
 11
-39.781460
 21
-76.035271
  0
LINE
  8
0
 10
-43.131451
 20
-66.475266
 11
-42.621452
 21
-88.475273
  0
LINE
  8
0
 10
-42.621468
 20
-88.475273
 11
-42.471466
 21
-88.615273
  0
LINE
  8
0
 10
-42.641460
 20
-65.965271
 11
-42.311459
 21
-80.005272
  0
LINE
  8
0
 10
-43.131462
 20
-66.475281
 11
-42.641460
 21
-65.965286
  0
LINE
  8
0
 10
-39.781445
 20
-76.035263
 11
-39.881447
 21
-64.065269
  0
LINE
  8
0
 10
11.798551
 20
-135.935272
 11
12.428551
 21
-64.065277
  0
LINE
  8
0
 10
-181.641434
 20
-65.965271
 11
-180.571442
 21
-65.935272
  0
LINE
  8
0
 10
-180.611450
 20
-64.065262
 11
-180.571442
 21
-65.935272
  0
LINE
  8
0
 10
-181.191437
 20
-64.065277
 11
-181.141434
 21
-65.955269
  0
LINE
  8
0
 10
-137.201447
 20
-145.855270
 11
-168.261444
 21
-145.855270
  0
LINE
  8
0
 10
-171.431442
 20
-100.865265
 11
-167.771454
 21
-100.865265
  0
LINE
  8
0
 10
-171.431442
 20
-95.865265
 11
-167.771454
 21
-95.865265
  0
LINE
  8
0
 10
-171.431442
 20
-69.865265
 11
-167.771454
 21
-69.865265
  0
LINE
  8
0
 10
-171.431442
 20
-127.855270
 11
-167.771454
 21
-127.855270
  0
LINE
  8
0
 10
-178.251450
 20
-135.935272
 11
-178.621445
 21
-93.865265
  0
LINE
  8
0
 10
-173.251450
 20
-69.365265
 11
-167.771454
 21
-69.365265
  0
LINE
  8
0
 10
-173.251450
 20
-96.365265
 11
-167.771454
 21
-96.365265
  0
LINE
  8
0
 10
-173.251450
 20
-100.365265
 11
-167.771454
 21
-100.365265
  0
LINE
  8
0
 10
-173.251450
 20
-128.355270
 11
-167.771454
 21
-128.355270
  0
LINE
  8
0
 10
-166.771454
 20
-101.365265
 11
-166.771454
 21
-127.355270
  0
LINE
  8
0
 10
-172.431442
 20
-101.865265
 11
-172.431442
 21
-126.855270
  0
LINE
  8
0
 10
-174.251450
 20
-101.365265
 11
-174.251450
 21
-127.355270
  0
LINE
  8
0
 10
-174.501450
 20
-69.865265
 11
-174.501450
 21
-127.855270
  0
LINE
  8
0
 10
-173.501450
 20
-128.855270
 11
-167.371460
 21
-128.855270
  0
LINE
  8
0
 10
-166.371460
 20
-69.365265
 11
-166.371460
 21
-128.355270
  0
LINE
  8
0
 10
-166.771454
 20
-70.365265
 11
-166.771454
 21
-95.365265
  0
LINE
  8
0
 10
-172.431442
 20
-70.865265
 11
-172.431442
 21
-94.865265
  0
LINE
  8
0
 10
-174.251450
 20
-70.365265
 11
-174.251450
 21
-95.365265
  0
LINE
  8
0
 10
-175.091446
 20
-69.365265
 11
-175.091446
 21
-128.355270
  0
LINE
  8
0
 10
-173.501450
 20
-68.865265
 11
-167.371460
 21
-68.865265
  0
LINE
  8
0
 10
-174.091446
 20
-129.355270
 11
-167.371460
 21
-129.355270
  0
LINE
  8
0
 10
-174.091446
 20
-68.365265
 11
-167.371460
 21
-68.365265
  0
LINE
  8
0
 10
-134.021454
 20
-100.865265
 11
-137.681458
 21
-100.865265
  0
LINE
  8
0
 10
-134.021454
 20
-95.865265
 11
-137.681458
 21
-95.865265
  0
LINE
  8
0
 10
-134.021454
 20
-69.865265
 11
-137.681458
 21
-69.865265
  0
LINE
  8
0
 10
-134.021454
 20
-127.855270
 11
-137.681458
 21
-127.855270
  0
LINE
  8
0
 10
-132.211456
 20
-69.365265
 11
-137.681458
 21
-69.365265
  0
LINE
  8
0
 10
-132.211456
 20
-96.365265
 11
-137.681458
 21
-96.365265
  0
LINE
  8
0
 10
-132.211456
 20
-100.365265
 11
-137.681458
 21
-100.365265
  0
LINE
  8
0
 10
-132.211456
 20
-128.355270
 11
-137.681458
 21
-128.355270
  0
LINE
  8
0
 10
-138.681458
 20
-101.365265
 11
-138.681458
 21
-127.355270
  0
LINE
  8
0
 10
-133.021454
 20
-101.865265
 11
-133.021454
 21
-126.855270
  0
LINE
  8
0
 10
-131.211456
 20
-101.365265
 11
-131.211456
 21
-127.355270
  0
LINE
  8
0
 10
-130.951447
 20
-69.865265
 11
-130.951447
 21
-127.855270
  0
LINE
  8
0
 10
-131.951447
 20
-128.855270
 11
-138.081451
 21
-128.855270
  0
LINE
  8
0
 10
-139.081451
 20
-69.365265
 11
-139.081451
 21
-128.355270
  0
LINE
  8
0
 10
-138.681458
 20
-70.365265
 11
-138.681458
 21
-95.365265
  0
LINE
  8
0
 10
-133.021454
 20
-70.865265
 11
-133.021454
 21
-94.865265
  0
LINE
  8
0
 10
-131.211456
 20
-70.365265
 11
-131.211456
 21
-95.365265
  0
LINE
  8
0
 10
-130.361450
 20
-69.365265
 11
-130.361450
 21
-128.355270
  0
LINE
  8
0
 10
-131.951447
 20
-68.865265
 11
-138.081451
 21
-68.865265
  0
LINE
  8
0
 10
-131.361450
 20
-129.355270
 11
-138.081451
 21
-129.355270
  0
LINE
  8
0
 10
-131.361450
 20
-68.365265
 11
-138.081451
 21
-68.365265
  0
LINE
  8
0
 10
-181.461441
 20
-89.745262
 11
-181.541443
 21
-80.365265
  0
LINE
  8
0
 10
-178.621445
 20
-93.865265
 11
-181.401443
 21
-89.885269
  0
LINE
  8
0
 10
-181.541458
 20
-80.365280
 11
-178.781448
 21
-76.035263
  0
LINE
  8
0
 10
-182.131439
 20
-66.475266
 11
-181.621445
 21
-88.475273
  0
LINE
  8
0
 10
-181.621445
 20
-88.475273
 11
-181.471466
 21
-88.615265
  0
LINE
  8
0
 10
-160.801453
 20
-146.855270
 11
-144.651459
 21
-146.855270
  0
LINE
  8
0
 10
-160.301453
 20
-147.355270
 11
-145.151459
 21
-147.355270
  0
LINE
  8
0
 10
-160.801453
 20
-146.855270
 11
-160.801453
 21
-145.855270
  0
LINE
  8
0
 10
-144.651459
 20
-146.855270
 11
-144.651459
 21
-145.855270
  0
LINE
  8
0
 10
-145.151443
 20
-147.355255
 11
-144.651443
 21
-146.855255
  0
LINE
  8
0
 10
-160.301437
 20
-147.355270
 11
-160.801437
 21
-146.855270
  0
LINE
  8
0
 10
-144.981445
 20
-149.145264
 11
-144.981445
 21
-161.145264
  0
LINE
  8
0
 10
-160.481445
 20
-149.145264
 11
-160.481445
 21
-161.145264
  0
LINE
  8
0
 10
-145.481445
 20
-148.645264
 11
-159.981445
 21
-148.645264
  0
LINE
  8
0
 10
-145.481445
 20
-148.645264
 11
-144.981445
 21
-149.145264
  0
LINE
  8
0
 10
-159.981445
 20
-148.645279
 11
-160.481430
 21
-149.145264
  0
LINE
  8
0
 10
-146.731445
 20
-147.355270
 11
-146.731445
 21
-148.645264
  0
LINE
  8
0
 10
-158.731445
 20
-147.355270
 11
-158.731445
 21
-148.645264
  0
LINE
  8
0
 62
     2
 10
-157.981445
 20
-147.355270
 11
-157.981445
 21
-148.645264
  0
LINE
  8
0
 62
     2
 10
-147.481445
 20
-147.355270
 11
-147.481445
 21
-148.645264
  0
LINE
  8
0
 10
-154.231445
 20
-151.645264
 11
-154.231445
 21
-161.145264
  0
LINE
  8
0
 10
-151.231445
 20
-151.645264
 11
-151.231445
 21
-161.145264
  0
LINE
  8
0
 10
-157.041458
 20
-151.645264
 11
-157.041458
 21
-161.145264
  0
LINE
  8
0
 10
-159.161453
 20
-151.645264
 11
-159.161453
 21
-161.145264
  0
LINE
  8
0
 10
-160.331451
 20
-151.645264
 11
-160.331451
 21
-161.145264
  0
LINE
  8
0
 10
-148.411453
 20
-151.645264
 11
-148.411453
 21
-161.145264
  0
LINE
  8
0
 10
-146.291458
 20
-151.645264
 11
-146.291458
 21
-161.145264
  0
LINE
  8
0
 10
-145.121460
 20
-151.645264
 11
-145.121460
 21
-161.145264
  0
LINE
  8
0
 10
-145.121460
 20
-151.645264
 11
-146.291458
 21
-151.645264
  0
LINE
  8
0
 10
-145.711456
 20
-151.935272
 11
-146.291458
 21
-151.935272
  0
LINE
  8
0
 10
-144.981445
 20
-161.145264
 11
-145.121460
 21
-161.145264
  0
LINE
  8
0
 10
-154.231445
 20
-151.645264
 11
-157.041458
 21
-151.645264
  0
LINE
  8
0
 10
-154.571457
 20
-151.935272
 11
-156.381454
 21
-151.935272
  0
LINE
  8
0
 10
-148.411453
 20
-151.645264
 11
-151.231445
 21
-151.645264
  0
LINE
  8
0
 10
-149.071457
 20
-151.935272
 11
-150.881454
 21
-151.935272
  0
LINE
  8
0
 10
-159.161453
 20
-151.645264
 11
-160.331451
 21
-151.645264
  0
LINE
  8
0
 10
-159.161453
 20
-151.935272
 11
-159.741455
 21
-151.935272
  0
LINE
  8
0
 10
-151.231445
 20
-161.145264
 11
-154.231445
 21
-161.145264
  0
LINE
  8
0
 10
-157.041458
 20
-161.145264
 11
-159.161453
 21
-161.145264
  0
LINE
  8
0
 10
-160.331451
 20
-161.145264
 11
-160.481445
 21
-161.145264
  0
LINE
  8
0
 10
-146.291458
 20
-161.145264
 11
-148.411453
 21
-161.145264
  0
LINE
  8
0
 10
-159.741440
 20
-151.935257
 11
-160.331451
 21
-151.645264
  0
LINE
  8
0
 10
-156.381454
 20
-151.935272
 11
-157.041443
 21
-151.645279
  0
LINE
  8
0
 10
-154.571442
 20
-151.935257
 11
-154.231445
 21
-151.645264
  0
LINE
  8
0
 10
-150.881454
 20
-151.935272
 11
-151.231445
 21
-151.645279
  0
LINE
  8
0
 10
-149.071457
 20
-151.935272
 11
-148.411453
 21
-151.645264
  0
LINE
  8
0
 10
-145.711441
 20
-151.935272
 11
-145.121445
 21
-151.645264
  0
LINE
  8
0
 10
-144.981445
 20
-149.145264
 11
-160.481445
 21
-149.145264
  0
LINE
  8
0
 10
-181.641449
 20
-65.965271
 11
-181.311447
 21
-80.005272
  0
LINE
  8
0
 10
-182.131439
 20
-66.475281
 11
-181.641449
 21
-65.965279
  0
LINE
  8
0
 10
-178.781448
 20
-76.035271
 11
-178.881439
 21
-64.065269
  0
LINE
  8
0
 10
-127.201447
 20
-135.935272
 11
-126.571449
 21
-64.065269
  0
LINE
  8
0
  6
CENTER
 62
     2
 10
-13.731445
 20
-12.185287
 11
-13.731445
 21
-152.025269
  0
LINE
  8
0
 10
-45.231445
 20
-45.065277
 11
-45.231445
 21
-46.065277
  0
LINE
  8
0
 10
17.768555
 20
-23.065277
 11
17.768555
 21
-46.065277
  0
LINE
  8
0
 10
-44.231445
 20
-22.065277
 11
-35.931458
 21
-22.065277
  0
LINE
  8
0
 10
-45.231445
 20
-46.065277
 11
17.768555
 21
-46.065277
  0
LINE
  8
0
 10
-43.731445
 20
-64.065277
 11
16.268555
 21
-64.065277
  0
LINE
  8
0
 10
17.268555
 20
-46.065277
 11
17.268555
 21
-63.065277
  0
LINE
  8
0
 10
-44.731445
 20
-46.065277
 11
-44.731445
 21
-63.065277
  0
LINE
  8
0
 10
-44.731457
 20
-63.065285
 11
-43.731468
 21
-64.065277
  0
LINE
  8
0
 10
16.268534
 20
-64.065277
 11
17.268536
 21
-63.065281
  0
LINE
  8
0
 10
-43.731445
 20
-63.065277
 11
16.268555
 21
-63.065277
  0
LINE
  8
0
 10
-38.731445
 20
-45.065277
 11
11.268555
 21
-45.065277
  0
LINE
  8
0
 10
5.268555
 20
-19.065277
 11
5.268555
 21
-22.065277
  0
LINE
  8
0
 10
-35.931458
 20
-19.065277
 11
5.768555
 21
-19.065277
  0
LINE
  8
0
 10
-35.931458
 20
-19.065277
 11
-35.931458
 21
-45.065277
  0
LINE
  8
0
 10
11.268549
 20
-45.065277
 11
12.268551
 21
-46.065281
  0
LINE
  8
0
 10
-39.731461
 20
-46.065281
 11
-38.731461
 21
-45.065277
  0
LINE
  8
0
 10
-19.231445
 20
-19.065277
 11
-19.231445
 21
-45.065277
  0
LINE
  8
0
 10
-19.231445
 20
-23.065277
 11
17.768555
 21
-23.065277
  0
LINE
  8
0
 10
16.768555
 20
-22.065277
 11
16.768555
 21
-46.065277
  0
LINE
  8
0
 10
-40.531448
 20
-23.065277
 11
-35.931458
 21
-23.065277
  0
LINE
  8
0
 10
-44.231445
 20
-22.065277
 11
-44.231445
 21
-23.065277
  0
LINE
  8
0
 10
-45.231457
 20
-23.065275
 11
-44.231457
 21
-22.065273
  0
LINE
  8
0
 10
16.768545
 20
-22.065275
 11
17.768545
 21
-23.065275
  0
LINE
  8
0
 10
-19.231445
 20
-22.065277
 11
16.768555
 21
-22.065277
  0
LINE
  8
0
 10
15.768555
 20
-27.065277
 11
15.768555
 21
-41.065277
  0
LINE
  8
0
 10
-40.231445
 20
-27.065277
 11
-40.231445
 21
-41.065277
  0
LINE
  8
0
 10
12.768555
 20
-27.065277
 11
12.768555
 21
-41.065277
  0
LINE
  8
0
 10
-40.531448
 20
-27.065277
 11
-40.231445
 21
-27.065277
  0
LINE
  8
0
 10
-40.531448
 20
-41.065277
 11
-40.231445
 21
-41.065277
  0
LINE
  8
0
 10
12.768555
 20
-27.065277
 11
15.768555
 21
-27.065277
  0
LINE
  8
0
 10
12.768555
 20
-41.065277
 11
15.768555
 21
-41.065277
  0
LINE
  8
0
  6
CENTER
 62
     2
 10
-27.731445
 20
-9.755280
 11
-27.731445
 21
-48.625275
  0
LINE
  8
0
 10
-20.231445
 20
-11.065277
 11
4.768555
 21
-11.065277
  0
LINE
  8
0
 10
5.768555
 20
-12.065277
 11
5.768555
 21
-19.065277
  0
LINE
  8
0
 10
4.768543
 20
-11.065274
 11
5.768544
 21
-12.065275
  0
LINE
  8
0
 10
-6.731445
 20
-12.065277
 11
-6.731445
 21
-17.565277
  0
LINE
  8
0
 10
-2.571457
 20
-12.065277
 11
-2.571457
 21
-17.565277
  0
LINE
  8
0
 10
0.018555
 20
-12.065277
 11
0.018555
 21
-17.565277
  0
LINE
  8
0
 10
3.068542
 20
-12.065277
 11
3.068542
 21
-17.565277
  0
LINE
  8
0
 10
4.568542
 20
-12.065277
 11
4.568542
 21
-17.565277
  0
LINE
  8
0
 10
-6.731445
 20
-17.565277
 11
-2.571457
 21
-17.565277
  0
LINE
  8
0
 10
-6.231445
 20
-17.065277
 11
-3.071457
 21
-17.065277
  0
LINE
  8
0
 10
-6.231445
 20
-11.565277
 11
-6.231445
 21
-17.065277
  0
LINE
  8
0
 10
0.018555
 20
-17.565277
 11
3.068542
 21
-17.565277
  0
LINE
  8
0
 10
-3.071457
 20
-11.565277
 11
-3.071457
 21
-17.065277
  0
LINE
  8
0
 10
-8.231445
 20
-12.065277
 11
-6.731445
 21
-12.065277
  0
LINE
  8
0
 10
-6.731459
 20
-12.065275
 11
-6.231459
 21
-11.565274
  0
LINE
  8
0
 10
-6.231445
 20
-11.565277
 11
-3.071457
 21
-11.565277
  0
LINE
  8
0
 10
-3.071456
 20
-11.565286
 11
-2.571456
 21
-12.065287
  0
LINE
  8
0
 10
-3.071456
 20
-17.065281
 11
-2.571455
 21
-17.565281
  0
LINE
  8
0
 10
-6.731459
 20
-17.565269
 11
-6.231458
 21
-17.065269
  0
LINE
  8
0
 10
-2.571457
 20
-12.065277
 11
0.018555
 21
-12.065277
  0
LINE
  8
0
 10
-0.481445
 20
-11.565277
 11
2.568542
 21
-11.565277
  0
LINE
  8
0
 10
0.018555
 20
-17.065277
 11
2.568542
 21
-17.065277
  0
LINE
  8
0
 10
2.568542
 20
-11.565277
 11
2.568542
 21
-17.065277
  0
LINE
  8
0
 10
3.068542
 20
-12.065277
 11
4.568542
 21
-12.065277
  0
LINE
  8
0
 10
-0.481457
 20
-11.565285
 11
0.018543
 21
-12.065285
  0
LINE
  8
0
 10
2.568545
 20
-11.565285
 11
3.068545
 21
-12.065285
  0
LINE
  8
0
 10
4.068542
 20
-11.565277
 11
5.268555
 21
-11.565277
  0
LINE
  8
0
 10
4.068546
 20
-11.565274
 11
4.568547
 21
-12.065275
  0
LINE
  8
0
 10
4.568542
 20
-17.565277
 11
5.768555
 21
-17.565277
  0
LINE
  8
0
 10
2.568544
 20
-17.065281
 11
3.068545
 21
-17.565281
  0
LINE
  8
0
 10
5.268555
 20
-11.565277
 11
5.268555
 21
-17.065277
  0
LINE
  8
0
 10
4.568542
 20
-17.065277
 11
5.268555
 21
-17.065277
  0
LINE
  8
0
 10
5.268543
 20
-17.065269
 11
5.768543
 21
-17.565269
  0
LINE
  8
0
 10
-8.231445
 20
-12.065277
 11
-9.731445
 21
-12.065277
  0
LINE
  8
0
 10
-9.731463
 20
-12.065275
 11
-10.231463
 21
-11.565274
  0
LINE
  8
0
 10
-9.731445
 20
-12.065277
 11
-9.731445
 21
-17.565277
  0
LINE
  8
0
 10
-10.231445
 20
-11.565277
 11
-10.231445
 21
-17.065277
  0
LINE
  8
0
 10
-9.731451
 20
-17.565281
 11
-10.231453
 21
-17.065281
  0
LINE
  8
0
 10
-10.231445
 20
-17.065277
 11
-13.391449
 21
-17.065277
  0
LINE
  8
0
 10
-9.731445
 20
-17.565277
 11
-13.891449
 21
-17.565277
  0
LINE
  8
0
 10
-10.231445
 20
-11.565277
 11
-13.391449
 21
-11.565277
  0
LINE
  8
0
 10
-13.391454
 20
-11.565274
 11
-13.891454
 21
-12.065275
  0
LINE
  8
0
 10
-13.391449
 20
-11.565277
 11
-13.391449
 21
-17.065277
  0
LINE
  8
0
 10
-13.891449
 20
-12.065277
 11
-13.891449
 21
-17.565277
  0
LINE
  8
0
 10
-13.891449
 20
-12.065277
 11
-16.491455
 21
-12.065277
  0
LINE
  8
0
 10
-13.391455
 20
-17.065269
 11
-13.891456
 21
-17.565269
  0
LINE
  8
0
 10
-15.991454
 20
-11.565285
 11
-16.491455
 21
-12.065286
  0
LINE
  8
0
 10
-15.991455
 20
-11.565277
 11
-19.041458
 21
-11.565277
  0
LINE
  8
0
 10
-16.491455
 20
-12.065277
 11
-16.491455
 21
-17.565277
  0
LINE
  8
0
 10
-16.491455
 20
-17.065277
 11
-19.041458
 21
-17.065277
  0
LINE
  8
0
 10
-16.491455
 20
-17.565277
 11
-19.541458
 21
-17.565277
  0
LINE
  8
0
 10
-19.041458
 20
-11.565277
 11
-19.041458
 21
-17.065277
  0
LINE
  8
0
 10
-19.041456
 20
-17.065281
 11
-19.541458
 21
-17.565283
  0
LINE
  8
0
 10
-19.541458
 20
-12.065277
 11
-19.541458
 21
-17.565277
  0
LINE
  8
0
 10
-19.041456
 20
-11.565285
 11
-19.541458
 21
-12.065286
  0
LINE
  8
0
 10
-19.541458
 20
-12.065277
 11
-19.731445
 21
-12.065277
  0
LINE
  8
0
 10
-15.181458
 20
-4.015289
 11
-15.181458
 21
-10.065277
  0
LINE
  8
0
 10
-1.281448
 20
-4.015289
 11
-1.281448
 21
-10.065277
  0
LINE
  8
0
 10
-15.431458
 20
-10.065277
 11
-1.031448
 21
-10.065277
  0
LINE
  8
0
 10
-1.031448
 20
-10.065277
 11
-1.031448
 21
-11.065277
  0
LINE
  8
0
 10
-15.431458
 20
-10.065277
 11
-15.431458
 21
-11.065277
  0
LINE
  8
0
 10
-35.731445
 20
-19.065277
 11
-19.731445
 21
-19.065277
  0
LINE
  8
0
  6
CENTER
 62
     2
 10
-8.231445
 20
6.204712
 11
-8.231445
 21
-20.985277
  0
LINE
  8
0
 10
-35.231457
 20
-17.065281
 11
-35.731457
 21
-17.565281
  0
LINE
  8
0
 10
-19.731445
 20
-11.565277
 11
-19.731445
 21
-19.065277
  0
LINE
  8
0
 10
-35.231445
 20
-11.065277
 11
-35.231445
 21
-17.065277
  0
LINE
  8
0
 10
-35.231445
 20
-11.065277
 11
-20.231445
 21
-11.065277
  0
LINE
  8
0
 10
-27.731445
 20
-11.565277
 11
-26.231445
 21
-11.565277
  0
LINE
  8
0
 10
-35.731445
 20
-11.565277
 11
-35.731445
 21
-19.065277
  0
LINE
  8
0
 10
-26.231445
 20
-11.565277
 11
-26.231445
 21
-17.565277
  0
LINE
  8
0
 10
-26.231445
 20
-17.565277
 11
-23.241455
 21
-17.565277
  0
LINE
  8
0
 10
-25.731445
 20
-11.065277
 11
-25.731445
 21
-17.065277
  0
LINE
  8
0
 10
-25.731445
 20
-17.065277
 11
-23.741455
 21
-17.065277
  0
LINE
  8
0
 10
-23.241455
 20
-11.565277
 11
-23.241455
 21
-17.565277
  0
LINE
  8
0
 10
-21.121460
 20
-11.565277
 11
-21.121460
 21
-17.565277
  0
LINE
  8
0
 10
-26.231459
 20
-11.565273
 11
-25.731459
 21
-11.065273
  0
LINE
  8
0
 10
-26.231459
 20
-17.565281
 11
-25.731459
 21
-17.065281
  0
LINE
  8
0
 10
-23.741455
 20
-11.065277
 11
-23.741455
 21
-17.065277
  0
LINE
  8
0
 10
-23.241455
 20
-11.565277
 11
-21.121460
 21
-11.565277
  0
LINE
  8
0
 10
-23.741457
 20
-11.065285
 11
-23.241457
 21
-11.565285
  0
LINE
  8
0
 10
-23.741457
 20
-17.065269
 11
-23.241457
 21
-17.565269
  0
LINE
  8
0
 10
-21.621456
 20
-11.065286
 11
-21.121464
 21
-11.565275
  0
LINE
  8
0
 10
-21.121460
 20
-17.565277
 11
-19.731445
 21
-17.565277
  0
LINE
  8
0
 10
-21.121460
 20
-17.065277
 11
-20.231445
 21
-17.065277
  0
LINE
  8
0
 10
-20.231445
 20
-11.065277
 11
-20.231445
 21
-17.065277
  0
LINE
  8
0
 10
-35.731457
 20
-11.565274
 11
-35.231457
 21
-11.065274
  0
LINE
  8
0
 10
-20.231462
 20
-11.065274
 11
-19.731462
 21
-11.565274
  0
LINE
  8
0
 10
-20.231462
 20
-17.065281
 11
-19.731462
 21
-17.565281
  0
LINE
  8
0
 10
-27.731445
 20
-11.565277
 11
-29.231445
 21
-11.565277
  0
LINE
  8
0
 10
-29.231461
 20
-11.565273
 11
-29.731461
 21
-11.065274
  0
LINE
  8
0
 10
-29.731445
 20
-11.065277
 11
-29.731445
 21
-17.065277
  0
LINE
  8
0
 10
-29.231445
 20
-11.565277
 11
-29.231445
 21
-17.565277
  0
LINE
  8
0
 10
-29.731445
 20
-17.065277
 11
-31.731445
 21
-17.065277
  0
LINE
  8
0
 10
-29.231461
 20
-17.565281
 11
-29.731461
 21
-17.065281
  0
LINE
  8
0
 10
-29.231445
 20
-17.565277
 11
-32.231445
 21
-17.565277
  0
LINE
  8
0
 10
-31.731445
 20
-11.065277
 11
-31.731445
 21
-17.065277
  0
LINE
  8
0
 10
-31.731453
 20
-17.065269
 11
-32.231453
 21
-17.565269
  0
LINE
  8
0
 10
-32.231445
 20
-11.565277
 11
-32.231445
 21
-17.565277
  0
LINE
  8
0
 10
-31.731453
 20
-11.065285
 11
-32.231453
 21
-11.565284
  0
LINE
  8
0
 10
-32.231445
 20
-11.565277
 11
-34.351456
 21
-11.565277
  0
LINE
  8
0
 10
-33.851456
 20
-11.065286
 11
-34.351460
 21
-11.565285
  0
LINE
  8
0
 10
-34.351456
 20
-11.565277
 11
-34.351456
 21
-17.565277
  0
LINE
  8
0
 10
-34.351456
 20
-17.065277
 11
-35.231445
 21
-17.065277
  0
LINE
  8
0
 10
-34.351456
 20
-17.565277
 11
-35.731445
 21
-17.565277
  0
LINE
  8
0
 10
-106.531448
 20
-70.065277
 11
-106.531448
 21
-46.065277
  0
LINE
  8
0
 10
-125.931458
 20
-70.065277
 11
-125.931458
 21
-64.065277
  0
LINE
  8
0
 10
-109.131454
 20
-39.105278
 11
-109.131454
 21
-29.025276
  0
LINE
  8
0
 10
-123.341446
 20
-39.105278
 11
-123.341446
 21
-29.025276
  0
LINE
  8
0
 10
-109.131454
 20
-39.105278
 11
-123.341446
 21
-39.105278
  0
LINE
  8
0
 10
-109.131454
 20
-29.025276
 11
-123.341446
 21
-29.025276
  0
LINE
  8
0
 10
-110.231445
 20
-22.065277
 11
-122.231445
 21
-22.065277
  0
LINE
  8
0
 10
-110.231445
 20
-46.065277
 11
-121.731445
 21
-46.065277
  0
LINE
  8
0
 10
-106.531448
 20
-23.065277
 11
-125.931458
 21
-23.065277
  0
LINE
  8
0
 10
-106.531456
 20
-23.065283
 11
-109.131454
 21
-29.025278
  0
LINE
  8
0
 10
-123.341454
 20
-29.025267
 11
-125.931442
 21
-23.065281
  0
LINE
  8
0
 10
-109.531448
 20
-73.065277
 11
-122.931458
 21
-73.065277
  0
LINE
  8
0
 10
-106.531448
 20
-70.065285
 11
-109.531456
 21
-73.065292
  0
LINE
  8
0
 10
-125.931442
 20
-70.065262
 11
-122.931442
 21
-73.065269
  0
LINE
  8
0
 10
-106.531448
 20
-45.065277
 11
-125.931458
 21
-45.065277
  0
LINE
  8
0
 10
-107.531448
 20
-69.645264
 11
-107.531448
 21
-46.065277
  0
LINE
  8
0
 10
-124.931458
 20
-69.645264
 11
-124.931458
 21
-64.065277
  0
LINE
  8
0
 10
-124.931458
 20
-69.645287
 11
-122.521461
 21
-72.065285
  0
LINE
  8
0
 10
-107.531464
 20
-69.645279
 11
-109.951462
 21
-72.065277
  0
LINE
  8
0
 10
-109.951447
 20
-72.065277
 11
-122.521454
 21
-72.065277
  0
LINE
  8
0
 10
-109.531448
 20
-73.065269
 11
-109.951447
 21
-72.065262
  0
LINE
  8
0
 10
-106.531456
 20
-70.065277
 11
-107.531448
 21
-69.645279
  0
LINE
  8
0
 10
-122.931450
 20
-73.065277
 11
-122.521454
 21
-72.065269
  0
LINE
  8
0
 10
-125.931465
 20
-70.065269
 11
-124.931458
 21
-69.645271
  0
LINE
  8
0
 10
-107.531448
 20
-56.065277
 11
-121.731445
 21
-56.065277
  0
LINE
  8
0
 10
-107.531464
 20
-56.065273
 11
-106.531464
 21
-55.645271
  0
LINE
  8
0
  6
CENTER
 62
     2
 10
-104.621460
 20
-65.065277
 11
-128.061447
 21
-65.065277
  0
LINE
  8
0
 10
-106.531448
 20
-45.065269
 11
-109.131447
 21
-39.105274
  0
LINE
  8
0
 10
-123.341454
 20
-39.105286
 11
-125.931442
 21
-45.065281
  0
LINE
  8
0
  6
CENTER
 62
     2
 10
-116.231445
 20
-76.665268
 11
-116.231445
 21
-17.605286
  0
LINE
  8
0
 10
-114.731445
 20
-34.925278
 11
-114.731445
 21
-33.205276
  0
LINE
  8
0
 10
-117.731445
 20
-34.925278
 11
-117.731445
 21
-33.205276
  0
LINE
  8
0
 10
-114.731461
 20
-34.925274
 11
-116.231453
 21
-35.795273
  0
LINE
  8
0
 10
-116.231468
 20
-32.335278
 11
-117.731468
 21
-33.205276
  0
LINE
  8
0
 10
-114.731453
 20
-33.205288
 11
-116.231453
 21
-32.335289
  0
LINE
  8
0
 10
-116.231461
 20
-35.795277
 11
-117.731461
 21
-34.925282
  0
LINE
  8
0
 10
-59.931458
 20
-70.065277
 11
-59.931458
 21
-46.065277
  0
LINE
  8
0
 10
-43.131454
 20
-39.105278
 11
-43.131454
 21
-29.025276
  0
LINE
  8
0
 10
-57.341446
 20
-39.105278
 11
-57.341446
 21
-29.025276
  0
LINE
  8
0
 10
-43.131454
 20
-39.105278
 11
-57.341446
 21
-39.105278
  0
LINE
  8
0
 10
-43.131454
 20
-29.025276
 11
-57.341446
 21
-29.025276
  0
LINE
  8
0
 10
-44.231445
 20
-22.065277
 11
-56.231445
 21
-22.065277
  0
LINE
  8
0
 10
-45.231445
 20
-46.065277
 11
-56.231445
 21
-46.065277
  0
LINE
  8
0
 10
-40.531448
 20
-23.065277
 11
-59.931458
 21
-23.065277
  0
LINE
  8
0
 10
-40.531452
 20
-23.065283
 11
-43.131451
 21
-29.025278
  0
LINE
  8
0
 10
-57.341446
 20
-29.025280
 11
-59.931446
 21
-23.065275
  0
LINE
  8
0
 10
-43.561752
 20
-73.065277
 11
-56.931458
 21
-73.065277
  0
LINE
  8
0
 10
-59.931458
 20
-70.065285
 11
-56.931465
 21
-73.065277
  0
LINE
  8
0
 10
-40.531448
 20
-45.065277
 11
-59.931458
 21
-45.065277
  0
LINE
  8
0
 10
-58.931458
 20
-69.645264
 11
-58.931458
 21
-46.065277
  0
LINE
  8
0
 10
-58.931461
 20
-69.645271
 11
-56.521454
 21
-72.065277
  0
LINE
  8
0
 10
-43.023388
 20
-71.137207
 11
-43.951450
 21
-72.065277
  0
LINE
  8
0
 10
-43.951447
 20
-72.065277
 11
-56.521454
 21
-72.065277
  0
LINE
  8
0
 10
-43.513950
 20
-73.065277
 11
-43.951450
 21
-72.065269
  0
LINE
  8
0
 10
-56.931458
 20
-73.065262
 11
-56.521458
 21
-72.065262
  0
LINE
  8
0
 10
-59.931454
 20
-70.065262
 11
-58.931458
 21
-69.645271
  0
LINE
  8
0
 10
-44.731445
 20
-56.065277
 11
-58.931458
 21
-56.065277
  0
LINE
  8
0
 10
-58.931446
 20
-56.065281
 11
-59.931454
 21
-55.645279
  0
LINE
  8
0
  6
CENTER
 62
     2
 10
-38.621460
 20
-65.065277
 11
-62.061447
 21
-65.065277
  0
LINE
  8
0
 10
-40.531448
 20
-45.065269
 11
-43.131447
 21
-39.105274
  0
LINE
  8
0
 10
-57.341450
 20
-39.105278
 11
-59.931450
 21
-45.065281
  0
LINE
  8
0
  6
CENTER
 62
     2
 10
-50.231445
 20
-76.665268
 11
-50.231445
 21
-17.605286
  0
LINE
  8
0
 10
-48.731445
 20
-34.925278
 11
-48.731445
 21
-33.205276
  0
LINE
  8
0
 10
-51.731445
 20
-34.925278
 11
-51.731445
 21
-33.205276
  0
LINE
  8
0
 10
-48.731457
 20
-34.925274
 11
-50.231449
 21
-35.795273
  0
LINE
  8
0
 10
-50.231441
 20
-32.335281
 11
-51.731453
 21
-33.205288
  0
LINE
  8
0
 10
-48.731457
 20
-33.205280
 11
-50.231453
 21
-32.335281
  0
LINE
  8
0
 10
-50.231445
 20
-35.795269
 11
-51.731457
 21
-34.925262
  0
LINE
  8
0
  6
CENTER
 62
     2
 10
-71.231445
 20
-57.615265
 11
-71.231445
 21
-11.225281
  0
LINE
  8
0
 10
-87.231445
 20
-45.065277
 11
-90.231445
 21
-45.065277
  0
LINE
  8
0
 10
-59.931450
 20
-45.055279
 11
-106.531456
 21
-45.065281
  0
LINE
  8
0
 10
-64.241455
 20
-56.065277
 11
-102.231445
 21
-56.065277
  0
LINE
  8
0
 10
-102.741455
 20
-55.565277
 11
-85.931458
 21
-55.565277
  0
LINE
  8
0
 10
-56.231445
 20
-46.065277
 11
-69.771454
 21
-46.065277
  0
LINE
  8
0
 10
-56.231445
 20
-22.065277
 11
-110.231445
 21
-22.065277
  0
LINE
  8
0
 10
-56.231445
 20
-46.065277
 11
-55.231445
 21
-45.065277
  0
LINE
  8
0
 10
-60.231445
 20
-27.065277
 11
-60.231445
 21
-41.065277
  0
LINE
  8
0
 10
-59.931458
 20
-41.065277
 11
-60.231445
 21
-41.065277
  0
LINE
  8
0
 10
-59.931458
 20
-27.065277
 11
-60.231445
 21
-27.065277
  0
LINE
  8
0
 10
-97.231445
 20
-18.065277
 11
-69.231445
 21
-18.065277
  0
LINE
  8
0
 10
-69.231445
 20
-10.065277
 11
-69.231445
 21
-22.065277
  0
LINE
  8
0
 10
-97.231445
 20
-10.065277
 11
-97.231445
 21
-22.065277
  0
LINE
  8
0
 10
-96.231445
 20
-9.065277
 11
-70.231445
 21
-9.065277
  0
LINE
  8
0
 10
-69.231453
 20
-10.065275
 11
-70.231453
 21
-9.065273
  0
LINE
  8
0
 10
-96.231461
 20
-9.065269
 11
-97.231461
 21
-10.065271
  0
LINE
  8
0
 10
-96.971451
 20
-16.065277
 11
-94.881454
 21
-16.065277
  0
LINE
  8
0
 10
-80.641449
 20
-10.065277
 11
-85.831451
 21
-10.065277
  0
LINE
  8
0
 10
-80.641449
 20
-16.065277
 11
-75.461456
 21
-16.065277
  0
LINE
  8
0
 10
-85.971451
 20
-15.665283
 11
-90.621460
 21
-15.665283
  0
LINE
  8
0
 10
-90.621460
 20
-9.365280
 11
-90.621460
 21
-15.665283
  0
LINE
  8
0
 10
-91.011459
 20
-10.065277
 11
-91.011459
 21
-16.065277
  0
LINE
  8
0
 10
-94.881454
 20
-10.065277
 11
-94.881454
 21
-16.065277
  0
LINE
  8
0
 10
-75.841446
 20
-9.365280
 11
-75.841446
 21
-15.665283
  0
LINE
  8
0
 10
-75.461456
 20
-10.065277
 11
-75.461456
 21
-16.065277
  0
LINE
  8
0
 10
-80.501450
 20
-9.365280
 11
-80.501450
 21
-15.665283
  0
LINE
  8
0
 10
-80.641449
 20
-10.065277
 11
-80.641449
 21
-16.065277
  0
LINE
  8
0
 10
-85.831451
 20
-10.065277
 11
-85.831451
 21
-16.065277
  0
LINE
  8
0
 10
-85.971451
 20
-9.365280
 11
-85.971451
 21
-15.665283
  0
LINE
  8
0
 10
-91.011459
 20
-10.065277
 11
-94.881454
 21
-10.065277
  0
LINE
  8
0
 10
-94.881454
 20
-15.665283
 11
-96.281448
 21
-15.665283
  0
LINE
  8
0
 10
-91.011459
 20
-16.065277
 11
-85.831451
 21
-16.065277
  0
LINE
  8
0
 10
-90.621468
 20
-15.665280
 11
-91.011459
 21
-16.065277
  0
LINE
  8
0
 10
-85.971451
 20
-15.665284
 11
-85.831451
 21
-16.065283
  0
LINE
  8
0
 10
-80.501457
 20
-15.665282
 11
-80.641457
 21
-16.065271
  0
LINE
  8
0
 10
-75.851456
 20
-15.665277
 11
-75.461456
 21
-16.065277
  0
LINE
  8
0
 10
-75.841446
 20
-15.665283
 11
-80.501450
 21
-15.665283
  0
LINE
  8
0
 10
-96.281448
 20
-9.365280
 11
-96.281448
 21
-15.665283
  0
LINE
  8
0
 10
-96.971451
 20
-10.065277
 11
-96.971451
 21
-16.065277
  0
LINE
  8
0
 10
-96.971451
 20
-10.065277
 11
-97.231445
 21
-10.065277
  0
LINE
  8
0
 10
-96.281456
 20
-15.665281
 11
-96.971458
 21
-16.065283
  0
LINE
  8
0
 10
-96.231445
 20
-9.365280
 11
-94.291458
 21
-9.365280
  0
LINE
  8
0
 10
-94.291458
 20
-9.365273
 11
-94.871452
 21
-10.065268
  0
LINE
  8
0
 10
-91.011459
 20
-10.065281
 11
-90.621460
 21
-9.365276
  0
LINE
  8
0
 10
-90.621460
 20
-9.365280
 11
-85.971451
 21
-9.365280
  0
LINE
  8
0
 10
-80.501450
 20
-9.365280
 11
-75.841446
 21
-9.365280
  0
LINE
  8
0
 10
-80.641449
 20
-10.065284
 11
-80.541451
 21
-9.365283
  0
LINE
  8
0
 10
-85.971458
 20
-9.365282
 11
-85.831451
 21
-10.065283
  0
LINE
  8
0
 10
-75.851448
 20
-9.365274
 11
-75.461449
 21
-10.065279
  0
LINE
  8
0
 10
-96.281456
 20
-9.365280
 11
-96.971451
 21
-10.065273
  0
LINE
  8
0
 10
-72.181458
 20
-9.365281
 11
-71.591461
 21
-10.065273
  0
LINE
  8
0
 10
-71.591446
 20
-10.065277
 11
-71.591446
 21
-16.065277
  0
LINE
  8
0
 10
-71.591446
 20
-15.665283
 11
-70.191452
 21
-15.665283
  0
LINE
  8
0
 10
-69.501450
 20
-16.065277
 11
-71.591446
 21
-16.065277
  0
LINE
  8
0
 10
-70.191452
 20
-9.365280
 11
-70.191452
 21
-15.665283
  0
LINE
  8
0
 10
-70.191452
 20
-15.665282
 11
-69.501465
 21
-16.065275
  0
LINE
  8
0
 10
-70.231445
 20
-9.365280
 11
-72.181458
 21
-9.365280
  0
LINE
  8
0
 10
-70.191452
 20
-9.365277
 11
-69.501457
 21
-10.065269
  0
LINE
  8
0
 10
-69.501450
 20
-10.065277
 11
-69.501450
 21
-16.065277
  0
LINE
  8
0
 10
-69.501450
 20
-10.065277
 11
-69.231445
 21
-10.065277
  0
LINE
  8
0
 10
-72.181458
 20
-9.365280
 11
-70.231445
 21
-9.365280
  0
LINE
  8
0
 10
-71.591446
 20
-10.065277
 11
-75.461456
 21
-10.065277
  0
LINE
  8
0
 10
-56.231449
 20
-22.065275
 11
-55.231445
 21
-23.065275
  0
LINE
  8
0
 10
-56.231445
 20
-22.065277
 11
-56.231445
 21
-23.065277
  0
LINE
  8
0
 10
-79.721451
 20
-42.065277
 11
-94.481445
 21
-42.065277
  0
LINE
  8
0
 10
-70.771454
 20
-44.045277
 11
-70.771454
 21
-45.065277
  0
LINE
  8
0
 10
-102.331451
 20
-21.565277
 11
-102.331451
 21
-22.065277
  0
LINE
  8
0
 10
-102.331451
 20
-21.565277
 11
-108.731445
 21
-21.565277
  0
LINE
  8
0
 10
-75.591446
 20
-43.065277
 11
-96.051453
 21
-43.065277
  0
LINE
  8
0
 10
-97.051453
 20
-46.065277
 11
-110.231445
 21
-46.065277
  0
LINE
  8
0
 10
-96.051453
 20
-45.065281
 11
-97.051460
 21
-46.065289
  0
LINE
  8
0
 10
-69.771469
 20
-46.065285
 11
-70.771461
 21
-45.065281
  0
LINE
  8
0
 10
-106.531448
 20
-23.065277
 11
-59.931458
 21
-23.065277
  0
LINE
  8
0
 10
-110.231445
 20
-22.065277
 11
-110.231445
 21
-23.065277
  0
LINE
  8
0
 10
-106.231445
 20
-27.065277
 11
-106.231445
 21
-41.065277
  0
LINE
  8
0
 10
-106.531448
 20
-41.065277
 11
-106.231445
 21
-41.065277
  0
LINE
  8
0
 10
-106.531448
 20
-27.065277
 11
-106.231445
 21
-27.065277
  0
LINE
  8
0
 10
-110.231461
 20
-22.065275
 11
-111.231461
 21
-23.065277
  0
LINE
  8
0
 10
-110.231461
 20
-46.065281
 11
-111.231461
 21
-45.065277
  0
LINE
  8
0
 10
-108.731445
 20
-21.565277
 11
-108.731445
 21
-22.065277
  0
LINE
  8
0
 10
-85.931458
 20
-53.565277
 11
-85.931458
 21
-56.065277
  0
LINE
  8
0
 10
-80.531448
 20
-53.565277
 11
-80.531448
 21
-56.065277
  0
LINE
  8
0
 10
-80.531448
 20
-53.565277
 11
-85.931458
 21
-53.565277
  0
LINE
  8
0
 10
-80.531448
 20
-55.565277
 11
-63.731445
 21
-55.565277
  0
LINE
  8
0
 10
-63.731449
 20
-55.565266
 11
-63.581451
 21
-47.045280
  0
LINE
  8
0
 10
-102.741455
 20
-55.555271
 11
-102.891457
 21
-47.045277
  0
LINE
  8
0
 10
-63.731457
 20
-55.565281
 11
-64.241463
 21
-56.065285
  0
LINE
  8
0
 10
-102.231453
 20
-56.065269
 11
-102.741447
 21
-55.555275
  0
LINE
  8
0
 10
-96.051460
 20
-43.065285
 11
-94.481453
 21
-42.065273
  0
LINE
  8
0
 10
-96.051453
 20
-43.065277
 11
-96.051453
 21
-45.065277
  0
LINE
  8
0
 10
-65.231445
 20
-65.365265
 11
-101.231445
 21
-65.365265
  0
LINE
  8
0
 10
-102.231445
 20
-58.365265
 11
-102.231445
 21
-64.365265
  0
LINE
  8
0
 10
-64.231445
 20
-58.365265
 11
-64.231445
 21
-64.365265
  0
LINE
  8
0
 10
-64.231445
 20
-64.365265
 11
-64.401459
 21
-64.365265
  0
LINE
  8
0
 10
-64.231445
 20
-60.365265
 11
-64.241455
 21
-60.365265
  0
LINE
  8
0
 10
-64.231453
 20
-64.365273
 11
-65.231453
 21
-65.365273
  0
LINE
  8
0
 10
-102.231453
 20
-64.365273
 11
-101.231453
 21
-65.365273
  0
LINE
  8
0
 10
-65.131454
 20
-61.065277
 11
-65.671448
 21
-61.065277
  0
LINE
  8
0
 10
-80.731445
 20
-60.365265
 11
-80.731445
 21
-64.365265
  0
LINE
  8
0
 10
-80.731468
 20
-60.365269
 11
-80.541473
 21
-61.065269
  0
LINE
  8
0
 10
-80.731445
 20
-64.365280
 11
-80.541451
 21
-65.065277
  0
LINE
  8
0
 10
-75.981461
 20
-60.365280
 11
-76.521454
 21
-61.065277
  0
LINE
  8
0
 10
-75.981461
 20
-64.365288
 11
-76.521446
 21
-65.065285
  0
LINE
  8
0
 10
-80.541458
 20
-61.065277
 11
-80.541458
 21
-65.065277
  0
LINE
  8
0
 10
-76.521454
 20
-61.065277
 11
-76.521454
 21
-65.065277
  0
LINE
  8
0
 10
-75.981445
 20
-60.365265
 11
-75.981445
 21
-64.365265
  0
LINE
  8
0
 10
-71.651459
 20
-60.365265
 11
-71.651459
 21
-64.365265
  0
LINE
  8
0
 10
-71.651459
 20
-64.365273
 11
-71.851456
 21
-65.065269
  0
LINE
  8
0
 10
-68.171455
 20
-60.365284
 11
-68.911446
 21
-61.065277
  0
LINE
  8
0
 10
-68.171455
 20
-64.365280
 11
-68.911469
 21
-65.065285
  0
LINE
  8
0
 10
-68.911453
 20
-65.065277
 11
-68.911453
 21
-61.065277
  0
LINE
  8
0
 10
-68.171448
 20
-60.365265
 11
-68.171448
 21
-64.365265
  0
LINE
  8
0
 10
-65.671448
 20
-60.365265
 11
-65.671448
 21
-64.365265
  0
LINE
  8
0
 10
-65.671455
 20
-64.365288
 11
-66.211456
 21
-65.065285
  0
LINE
  8
0
 10
-64.401451
 20
-60.365269
 11
-65.131462
 21
-61.065277
  0
LINE
  8
0
 10
-64.401459
 20
-64.365280
 11
-65.131462
 21
-65.065277
  0
LINE
  8
0
 10
-76.521454
 20
-61.065277
 11
-80.541458
 21
-61.065277
  0
LINE
  8
0
 10
-75.981445
 20
-60.365265
 11
-80.731445
 21
-60.365265
  0
LINE
  8
0
 10
-68.171448
 20
-60.365265
 11
-71.651459
 21
-60.365265
  0
LINE
  8
0
 10
-68.911453
 20
-61.065277
 11
-71.651459
 21
-61.065277
  0
LINE
  8
0
 10
-80.541458
 20
-65.065277
 11
-76.521454
 21
-65.065277
  0
LINE
  8
0
 10
-71.851456
 20
-65.065277
 11
-68.911453
 21
-65.065277
  0
LINE
  8
0
 10
-66.211456
 20
-65.065277
 11
-65.131454
 21
-65.065277
  0
LINE
  8
0
 10
-71.651459
 20
-64.365265
 11
-75.981445
 21
-64.365265
  0
LINE
  8
0
 10
-65.671448
 20
-64.365265
 11
-68.171448
 21
-64.365265
  0
LINE
  8
0
 10
-65.131454
 20
-61.065277
 11
-65.131454
 21
-65.065277
  0
LINE
  8
0
 10
-64.401459
 20
-60.365265
 11
-64.401459
 21
-64.365265
  0
LINE
  8
0
 10
-64.401459
 20
-60.365265
 11
-65.671448
 21
-60.365265
  0
LINE
  8
0
 10
-80.731445
 20
-64.365265
 11
-83.231445
 21
-64.365265
  0
LINE
  8
0
 10
-102.231445
 20
-64.365265
 11
-102.071457
 21
-64.365265
  0
LINE
  8
0
 10
-101.331451
 20
-61.065277
 11
-100.801453
 21
-61.065277
  0
LINE
  8
0
 10
-85.731445
 20
-60.365265
 11
-85.731445
 21
-64.365265
  0
LINE
  8
0
 10
-85.731445
 20
-60.365273
 11
-85.931450
 21
-61.065273
  0
LINE
  8
0
 10
-85.731461
 20
-64.365273
 11
-85.931465
 21
-65.065262
  0
LINE
  8
0
 10
-90.491455
 20
-60.365269
 11
-89.951454
 21
-61.065266
  0
LINE
  8
0
 10
-90.491463
 20
-64.365280
 11
-89.951462
 21
-65.065277
  0
LINE
  8
0
 10
-85.931458
 20
-61.065277
 11
-85.931458
 21
-65.065277
  0
LINE
  8
0
 10
-89.951447
 20
-61.065277
 11
-89.951447
 21
-65.065277
  0
LINE
  8
0
 10
-90.491455
 20
-60.365265
 11
-90.491455
 21
-64.365265
  0
LINE
  8
0
 10
-94.821457
 20
-60.365265
 11
-94.821457
 21
-64.365265
  0
LINE
  8
0
 10
-94.821457
 20
-64.365280
 11
-94.621460
 21
-65.065269
  0
LINE
  8
0
 10
-98.301453
 20
-60.365276
 11
-97.561447
 21
-61.065281
  0
LINE
  8
0
 10
-98.301460
 20
-64.365273
 11
-97.561462
 21
-65.065285
  0
LINE
  8
0
 10
-97.561447
 20
-65.065277
 11
-97.561447
 21
-61.065277
  0
LINE
  8
0
 10
-98.301453
 20
-60.365265
 11
-98.301453
 21
-64.365265
  0
LINE
  8
0
 10
-100.801453
 20
-60.365265
 11
-100.801453
 21
-64.365265
  0
LINE
  8
0
 10
-100.801453
 20
-64.365280
 11
-100.261452
 21
-65.065269
  0
LINE
  8
0
 10
-102.071457
 20
-60.365276
 11
-101.331459
 21
-61.065277
  0
LINE
  8
0
 10
-102.071465
 20
-64.365280
 11
-101.331459
 21
-65.065285
  0
LINE
  8
0
 10
-89.951447
 20
-61.065277
 11
-85.931458
 21
-61.065277
  0
LINE
  8
0
 10
-90.491455
 20
-60.365265
 11
-85.731445
 21
-60.365265
  0
LINE
  8
0
 10
-98.301453
 20
-60.365265
 11
-94.821457
 21
-60.365265
  0
LINE
  8
0
 10
-97.561447
 20
-61.065277
 11
-94.821457
 21
-61.065277
  0
LINE
  8
0
 10
-85.931458
 20
-65.065277
 11
-89.951447
 21
-65.065277
  0
LINE
  8
0
 10
-94.621460
 20
-65.065277
 11
-97.561447
 21
-65.065277
  0
LINE
  8
0
 10
-100.261459
 20
-65.065277
 11
-101.331451
 21
-65.065277
  0
LINE
  8
0
 10
-94.821457
 20
-64.365265
 11
-90.491455
 21
-64.365265
  0
LINE
  8
0
 10
-100.801453
 20
-64.365265
 11
-98.301453
 21
-64.365265
  0
LINE
  8
0
 10
-101.331451
 20
-61.065277
 11
-101.331451
 21
-65.065277
  0
LINE
  8
0
 10
-102.071457
 20
-60.365265
 11
-102.071457
 21
-64.365265
  0
LINE
  8
0
 10
-102.071457
 20
-60.365265
 11
-100.801453
 21
-60.365265
  0
LINE
  8
0
 10
-85.731445
 20
-64.365265
 11
-83.231445
 21
-64.365265
  0
LINE
  8
0
 10
-94.231445
 20
-66.565277
 11
-94.231445
 21
-68.565277
  0
LINE
  8
0
 10
-96.931458
 20
-66.065277
 11
-83.231445
 21
-66.065277
  0
LINE
  8
0
 10
-72.231445
 20
-66.565277
 11
-72.231445
 21
-68.565277
  0
LINE
  8
0
 10
-69.531448
 20
-66.065277
 11
-83.231445
 21
-66.065277
  0
LINE
  8
0
 10
-92.671448
 20
-66.065277
 11
-92.671448
 21
-68.565277
  0
LINE
  8
0
 10
-84.801453
 20
-66.065277
 11
-84.801453
 21
-68.565277
  0
LINE
  8
0
 10
-81.671448
 20
-66.065277
 11
-81.671448
 21
-68.565277
  0
LINE
  8
0
 10
-73.801453
 20
-66.065277
 11
-73.801453
 21
-68.565277
  0
LINE
  8
0
 10
-97.431458
 20
-56.065277
 11
-97.431458
 21
-58.365265
  0
LINE
  8
0
 10
-69.031448
 20
-56.065277
 11
-69.031448
 21
-58.365265
  0
LINE
  8
0
 10
-98.231445
 20
-65.365265
 11
-68.231445
 21
-65.365265
  0
LINE
  8
0
 10
-69.531448
 20
-68.565277
 11
-96.931458
 21
-68.565277
  0
LINE
  8
0
 10
-71.631454
 20
-93.565277
 11
-94.831451
 21
-93.565277
  0
LINE
  8
0
 10
-95.831459
 20
-91.565269
 11
-96.831459
 21
-90.985268
  0
LINE
  8
0
 10
-69.631462
 20
-90.985283
 11
-70.631454
 21
-91.565285
  0
LINE
  8
0
 10
-70.631454
 20
-91.565277
 11
-70.631454
 21
-92.565277
  0
LINE
  8
0
 10
-95.831451
 20
-91.565277
 11
-95.831451
 21
-92.565277
  0
LINE
  8
0
 10
-97.421448
 20
-69.045273
 11
-96.831444
 21
-90.985260
  0
LINE
  8
0
 10
-69.051453
 20
-69.045273
 11
-69.631454
 21
-90.985275
  0
LINE
  8
0
 10
-69.531456
 20
-68.565269
 11
-69.051445
 21
-69.045280
  0
LINE
  8
0
 10
-96.931450
 20
-68.565285
 11
-97.421463
 21
-69.045280
  0
LINE
  8
0
 10
-86.231453
 20
-71.065277
 11
-85.701454
 21
-90.985275
  0
LINE
  8
0
 10
-80.231453
 20
-71.065277
 11
-80.771446
 21
-90.985260
  0
LINE
  8
0
 10
-69.631454
 20
-90.985275
 11
-69.861450
 21
-90.985275
  0
LINE
  8
0
 10
-69.421448
 20
-71.065277
 11
-71.351456
 21
-71.065277
  0
LINE
  8
0
 10
-70.631454
 20
-91.565277
 11
-70.941452
 21
-91.565277
  0
LINE
  8
0
 10
-69.051453
 20
-69.045273
 11
-97.421448
 21
-69.045273
  0
LINE
  8
0
 10
-86.231445
 20
-71.065277
 11
-90.881454
 21
-71.065277
  0
LINE
  8
0
 10
-70.281448
 20
-71.515274
 11
-71.361450
 21
-71.515274
  0
LINE
  8
0
 10
-86.461456
 20
-71.515274
 11
-90.111450
 21
-71.515274
  0
LINE
  8
0
 10
-80.761459
 20
-90.985275
 11
-80.471458
 21
-91.565269
  0
LINE
  8
0
 10
-76.501450
 20
-91.565277
 11
-75.531441
 21
-90.985268
  0
LINE
  8
0
 10
-72.031456
 20
-90.985275
 11
-72.591454
 21
-91.565285
  0
LINE
  8
0
 10
-70.941452
 20
-91.565277
 11
-69.861443
 21
-90.985275
  0
LINE
  8
0
 10
-75.591461
 20
-71.065277
 11
-76.361458
 21
-71.515274
  0
LINE
  8
0
 10
-69.421455
 20
-71.065269
 11
-70.281464
 21
-71.515274
  0
LINE
  8
0
 10
-80.231468
 20
-71.065269
 11
-80.001465
 21
-71.515274
  0
LINE
  8
0
 10
-80.001450
 20
-71.515274
 11
-80.471451
 21
-91.565277
  0
LINE
  8
0
 10
-76.361458
 20
-71.515274
 11
-76.501457
 21
-91.565269
  0
LINE
  8
0
 10
-75.591446
 20
-71.065277
 11
-75.531448
 21
-90.985275
  0
LINE
  8
0
 10
-72.031448
 20
-90.985260
 11
-71.351448
 21
-71.065269
  0
LINE
  8
0
 10
-70.941452
 20
-91.565269
 11
-70.281448
 21
-71.515274
  0
LINE
  8
0
 10
-69.421455
 20
-71.065269
 11
-69.861458
 21
-90.985268
  0
LINE
  8
0
 10
-86.461449
 20
-71.515259
 11
-86.001450
 21
-91.565269
  0
LINE
  8
0
 10
-85.711456
 20
-90.985283
 11
-86.001450
 21
-91.565277
  0
LINE
  8
0
 10
-86.231453
 20
-71.065269
 11
-86.461456
 21
-71.515274
  0
LINE
  8
0
 10
-90.111458
 20
-71.515274
 11
-89.971458
 21
-91.565277
  0
LINE
  8
0
 10
-90.881454
 20
-71.065277
 11
-90.941452
 21
-90.985283
  0
LINE
  8
0
 10
-94.441437
 20
-90.985275
 11
-95.121437
 21
-71.065262
  0
LINE
  8
0
 10
-95.531448
 20
-91.565269
 11
-96.191444
 21
-71.515266
  0
LINE
  8
0
 10
-97.051453
 20
-71.065277
 11
-96.611458
 21
-90.985268
  0
LINE
  8
0
 10
-97.051453
 20
-71.065277
 11
-96.191452
 21
-71.515274
  0
LINE
  8
0
 10
-90.881447
 20
-71.065269
 11
-90.111450
 21
-71.515266
  0
LINE
  8
0
 10
-89.971451
 20
-91.565262
 11
-90.941452
 21
-90.985268
  0
LINE
  8
0
 10
-94.441444
 20
-90.985275
 11
-93.881447
 21
-91.565277
  0
LINE
  8
0
 10
-95.531448
 20
-91.565269
 11
-96.611450
 21
-90.985268
  0
LINE
  8
0
 10
-80.761459
 20
-90.985275
 11
-85.711456
 21
-90.985275
  0
LINE
  8
0
 10
-90.941452
 20
-90.985275
 11
-94.441452
 21
-90.985275
  0
LINE
  8
0
 10
-96.611450
 20
-90.985275
 11
-96.831451
 21
-90.985275
  0
LINE
  8
0
 10
-72.031448
 20
-90.985275
 11
-75.531448
 21
-90.985275
  0
LINE
  8
0
 10
-76.361450
 20
-71.515274
 11
-80.001450
 21
-71.515274
  0
LINE
  8
0
 10
-75.591446
 20
-71.065277
 11
-80.231445
 21
-71.065277
  0
LINE
  8
0
 10
-95.111450
 20
-71.515274
 11
-96.191452
 21
-71.515274
  0
LINE
  8
0
 10
-95.121460
 20
-71.065277
 11
-97.051453
 21
-71.065277
  0
LINE
  8
0
 10
-80.471451
 20
-91.565277
 11
-86.001450
 21
-91.565277
  0
LINE
  8
0
 10
-89.971451
 20
-91.565277
 11
-93.881454
 21
-91.565277
  0
LINE
  8
0
 10
-95.531448
 20
-91.565277
 11
-95.831451
 21
-91.565277
  0
LINE
  8
0
 10
-72.591446
 20
-91.565277
 11
-76.501450
 21
-91.565277
  0
LINE
  8
0
 10
-97.431450
 20
-65.065269
 11
-98.231445
 21
-64.265274
  0
LINE
  8
0
 10
-69.031464
 20
-65.065277
 11
-68.231461
 21
-64.265274
  0
LINE
  8
0
 10
-98.231445
 20
-56.065277
 11
-98.231445
 21
-58.365265
  0
LINE
  8
0
 10
-68.231445
 20
-56.065277
 11
-68.231445
 21
-58.365265
  0
LINE
  8
0
  6
CENTER
 62
     2
 10
-83.231445
 20
-5.525284
 11
-83.231445
 21
-96.495270
  0
LINE
  8
0
 10
-97.431458
 20
-65.365265
 11
-97.431458
 21
-65.565277
  0
LINE
  8
0
 10
-69.031448
 20
-65.365265
 11
-69.031448
 21
-65.565277
  0
LINE
  8
0
 10
-102.231445
 20
-58.365265
 11
-64.231445
 21
-58.365265
  0
LINE
  8
0
 10
-64.241455
 20
-56.065277
 11
-102.231445
 21
-56.065277
  0
LINE
  8
0
 10
-182.731445
 20
-64.065277
 11
-122.731445
 21
-64.065277
  0
LINE
  8
0
 10
-184.231445
 20
-46.065277
 11
-184.231445
 21
-23.065277
  0
LINE
  8
0
 10
-183.231445
 20
-22.065273
 11
-184.231445
 21
-23.065275
  0
LINE
  8
0
 10
-181.731445
 20
-22.065277
 11
-181.731445
 21
-21.565277
  0
LINE
  8
0
 10
-174.731445
 20
-22.065277
 11
-174.731445
 21
-21.565277
  0
LINE
  8
0
 10
-174.731445
 20
-21.565277
 11
-181.731445
 21
-21.565277
  0
LINE
  8
0
 10
-126.231445
 20
-41.065277
 11
-126.231445
 21
-27.065277
  0
LINE
  8
0
 10
-182.231445
 20
-41.065277
 11
-182.231445
 21
-27.065277
  0
LINE
  8
0
 10
-179.231445
 20
-41.065277
 11
-179.231445
 21
-27.065277
  0
LINE
  8
0
 10
-182.231445
 20
-27.065277
 11
-179.531448
 21
-27.065277
  0
LINE
  8
0
 10
-182.231445
 20
-41.065277
 11
-179.231445
 21
-41.065277
  0
LINE
  8
0
 10
-126.231445
 20
-27.065277
 11
-125.931458
 21
-27.065277
  0
LINE
  8
0
 10
-126.231445
 20
-41.065277
 11
-125.931458
 21
-41.065277
  0
LINE
  8
0
 10
-178.861450
 20
-45.065277
 11
-126.611450
 21
-45.065277
  0
LINE
  8
0
 10
-125.611458
 20
-46.065269
 11
-126.611458
 21
-45.065266
  0
LINE
  8
0
 10
-125.611458
 20
-46.065269
 11
-126.611458
 21
-45.065266
  0
LINE
  8
0
 10
-183.731445
 20
-46.065277
 11
-183.731445
 21
-63.065277
  0
LINE
  8
0
 10
-182.731461
 20
-64.065269
 11
-183.731445
 21
-63.065285
  0
LINE
  8
0
 10
-183.731445
 20
-63.065277
 11
-121.731445
 21
-63.065277
  0
LINE
  8
0
 10
-184.231445
 20
-46.065277
 11
-121.231445
 21
-46.065277
  0
LINE
  8
0
 10
-184.231445
 20
-23.065277
 11
-125.931458
 21
-23.065277
  0
LINE
  8
0
 10
-179.861450
 20
-46.065273
 11
-178.861450
 21
-45.065269
  0
LINE
  8
0
 10
-122.231445
 20
-22.065277
 11
-183.231445
 21
-22.065277
  0
LINE
  8
0
 10
-167.831451
 20
-24.065277
 11
-137.641449
 21
-24.065277
  0
LINE
  8
0
 10
-168.831451
 20
-25.065277
 11
-136.641449
 21
-25.065277
  0
LINE
  8
0
 10
-136.641449
 20
-25.065281
 11
-137.641449
 21
-24.065277
  0
LINE
  8
0
 10
-167.831451
 20
-24.065277
 11
-168.831451
 21
-25.065279
  0
LINE
  8
0
 10
-121.731445
 20
-46.065277
 11
-121.731445
 21
-63.065277
  0
LINE
  8
0
 10
-122.731468
 20
-64.065277
 11
-121.731461
 21
-63.065281
  0
LINE
  8
0
 10
-183.231445
 20
-22.065277
 11
-183.231445
 21
-46.065277
  0
LINE
  8
0
 10
-121.231445
 20
-46.065277
 11
-121.231445
 21
-45.065277
  0
LINE
  8
0
 10
-122.231445
 20
-22.065277
 11
-122.231445
 21
-23.065277
  0
LINE
  8
0
 10
-122.231453
 20
-22.065273
 11
-121.231453
 21
-23.065275
  0
LINE
  8
0
 10
-168.831451
 20
-25.065275
 11
-169.301453
 21
-45.065277
  0
LINE
  8
0
 10
-136.641449
 20
-25.065277
 11
-136.171448
 21
-45.065277
  0
LINE
  8
0
 10
-122.231445
 20
-45.065277
 11
-122.231445
 21
-46.065277
  0
LINE
  8
0
 10
-125.931458
 20
-45.065277
 11
-125.931458
 21
-23.065277
  0
LINE
  8
0
 10
-110.231445
 20
-45.065277
 11
-110.231445
 21
-46.065277
  0
LINE
  8
0
 10
-56.231445
 20
-45.065277
 11
-56.231445
 21
-46.065277
  0
LINE
  8
0
 10
-44.231445
 20
-45.065277
 11
-44.231445
 21
-46.065277
  0
LINE
  8
0
 10
-59.931458
 20
-45.065277
 11
-59.931458
 21
-23.065277
  0
LINE
  8
0
 10
-40.531448
 20
-45.065277
 11
-40.531448
 21
-23.065277
  0
LINE
  8
0
 10
-106.531448
 20
-45.065277
 11
-106.531448
 21
-23.065277
  0
LINE
  8
0
 10
-145.981445
 20
-162.145264
 11
-159.481445
 21
-162.145264
  0
LINE
  8
0
 10
-149.071457
 20
-161.645264
 11
-150.881454
 21
-161.645264
  0
LINE
  8
0
 10
-154.571457
 20
-161.645264
 11
-156.381454
 21
-161.645264
  0
LINE
  8
0
 10
-145.711456
 20
-161.645264
 11
-146.471451
 21
-161.645264
  0
LINE
  8
0
 10
-158.991455
 20
-161.645264
 11
-159.741455
 21
-161.645264
  0
LINE
  8
0
 10
-146.731445
 20
-163.645264
 11
-158.731445
 21
-163.645264
  0
LINE
  8
0
 10
-146.231445
 20
-163.145264
 11
-146.231445
 21
-162.145264
  0
LINE
  8
0
 10
-159.231445
 20
-163.145264
 11
-159.231445
 21
-162.145264
  0
LINE
  8
0
 10
-159.231445
 20
-163.145264
 11
-158.731445
 21
-163.645264
  0
LINE
  8
0
 10
-146.731445
 20
-163.645264
 11
-146.231445
 21
-163.145264
  0
LINE
  8
0
 10
-149.901459
 20
-170.745270
 11
-155.551453
 21
-170.745270
  0
LINE
  8
0
 10
-155.981445
 20
-168.345276
 11
-155.981445
 21
-168.145264
  0
LINE
  8
0
 10
-149.481445
 20
-168.345276
 11
-149.481445
 21
-168.145264
  0
LINE
  8
0
 10
-149.481445
 20
-168.145264
 11
-155.981445
 21
-168.145264
  0
LINE
  8
0
 10
-149.481445
 20
-165.545273
 11
-155.981445
 21
-165.545273
  0
LINE
  8
0
 10
-149.481445
 20
-165.745270
 11
-155.981445
 21
-165.745270
  0
LINE
  8
0
 10
-149.481445
 20
-168.345276
 11
-155.981445
 21
-168.345276
  0
LINE
  8
0
 10
-155.981445
 20
-165.745270
 11
-155.981445
 21
-165.545273
  0
LINE
  8
0
 10
-149.481445
 20
-165.745270
 11
-149.481445
 21
-165.545273
  0
LINE
  8
0
 10
-155.981445
 20
-165.745285
 11
-155.551453
 21
-168.145264
  0
LINE
  8
0
 10
-155.981445
 20
-168.345261
 11
-155.551453
 21
-170.745270
  0
LINE
  8
0
 10
-149.481461
 20
-168.345261
 11
-149.901459
 21
-170.745270
  0
LINE
  8
0
 10
-149.481445
 20
-165.745270
 11
-149.901443
 21
-168.145264
  0
LINE
  8
0
 10
-149.881454
 20
-165.545273
 11
-149.881454
 21
-163.645264
  0
LINE
  8
0
 10
-155.581451
 20
-165.545273
 11
-155.581451
 21
-163.645264
  0
LINE
  8
0
 10
-159.231445
 20
-163.145264
 11
-146.231445
 21
-163.145264
  0
LINE
  8
0
  6
CENTER
 62
     2
 10
27.728546
 20
-34.065277
 11
-198.471451
 21
-34.065277
  0
LINE
  8
0
 10
-281.250000
 20
195.500000
 11
282.099854
 21
195.500000
  0
LINE
  8
0
 10
-281.250000
 20
195.500000
 11
-281.250000
 21
-195.000000
  0
LINE
  8
0
 10
282.099854
 20
195.500000
 11
282.099854
 21
-195.000000
  0
LINE
  8
0
 10
-281.250000
 20
-195.000000
 11
282.099854
 21
-195.000000
  0
LINE
  8
0
 10
162.099976
 20
-175.000000
 11
162.099976
 21
-195.000000
  0
LINE
  8
0
 10
162.099976
 20
-175.000000
 11
282.099854
 21
-175.000000
  0
LINE
  8
0
 10
162.099976
 20
175.500000
 11
282.099854
 21
175.500000
  0
LINE
  8
0
 10
-281.250000
 20
175.500000
 11
-161.250000
 21
175.500000
  0
LINE
  8
0
 10
162.099976
 20
195.500000
 11
162.099976
 21
175.500000
  0
LINE
  8
0
 10
-161.250000
 20
195.500000
 11
-161.250000
 21
175.500000
  0
ARC
  8
0
 10
-152.695145
 20
99.727615
 40
31.000105
 50
30.170773
 51
151.061539
  0
ARC
  8
0
 10
-152.695145
 20
99.727623
 40
31.000099
 50
208.938461
 51
329.829224
  0
ARC
  8
0
 10
-152.699585
 20
99.727615
 40
30.003664
 50
29.995960
 51
150.004013
  0
ARC
  8
0
 10
-152.699585
 20
99.727615
 40
22.001116
 50
42.983181
 51
137.016769
  0
ARC
  8
0
 10
-152.699585
 20
99.727615
 40
20.998638
 50
45.588486
 51
134.411499
  0
ARC
  8
0
 10
-152.699585
 20
99.727615
 40
22.001114
 50
222.983231
 51
317.016815
  0
ARC
  8
0
 10
-152.699585
 20
99.727615
 40
20.998644
 50
225.588501
 51
314.411530
  0
ARC
  8
0
 10
-152.699585
 20
99.727615
 40
30.003662
 50
209.995987
 51
330.004028
  0
CIRCLE
  8
0
 10
-83.194595
 20
99.727615
 40
14.000000
  0
ARC
  8
0
 10
-82.194595
 20
115.727631
 40
1.000023
 50
270.001312
 51
359.998688
  0
ARC
  8
0
 10
-60.194565
 20
115.727631
 40
1.000015
 50
180.000870
 51
269.999115
  0
ARC
  8
0
 10
-60.194595
 20
83.727631
 40
0.999985
 50
89.999123
 51
180.000870
  0
ARC
  8
0
 10
-82.194565
 20
83.727623
 40
0.999992
 50
359.999573
 51
90.000435
  0
ARC
  8
0
 10
-83.216339
 20
99.736641
 40
13.292610
 50
56.628731
 51
78.184685
  0
ARC
  8
0
 10
-83.181351
 20
99.733116
 40
13.296362
 50
101.818344
 51
123.368141
  0
ARC
  8
0
 10
-83.205093
 20
99.702316
 40
13.301665
 50
146.636124
 51
168.177307
  0
ARC
  8
0
 10
-83.205093
 20
99.752914
 40
13.301663
 50
191.822693
 51
213.363876
  0
ARC
  8
0
 10
-83.181351
 20
99.722115
 40
13.296362
 50
236.631866
 51
258.181641
  0
ARC
  8
0
 10
-83.216339
 20
99.718590
 40
13.292605
 50
281.815308
 51
303.371277
  0
ARC
  8
0
 10
-83.185562
 20
99.749374
 40
13.292616
 50
326.628754
 51
348.184723
  0
ARC
  8
0
 10
-83.185562
 20
99.705856
 40
13.292619
 50
11.815270
 51
33.371250
  0
CIRCLE
  8
0
 10
-83.194595
 20
99.727615
 40
13.000001
  0
CIRCLE
  8
0
 10
-83.194595
 20
99.727615
 40
12.000000
  0
CIRCLE
  8
0
 10
-83.194595
 20
99.727615
 40
10.000000
  0
CIRCLE
  8
0
 10
-83.194595
 20
99.727615
 40
4.250000
  0
ARC
  8
0
 10
-83.204117
 20
99.724823
 40
19.496094
 50
83.048653
 51
129.688461
  0
ARC
  8
0
 10
-83.198105
 20
99.726692
 40
18.499725
 50
83.782661
 51
125.818710
  0
ARC
  8
0
 10
-83.204117
 20
99.730415
 40
19.496092
 50
230.311539
 51
276.951355
  0
ARC
  8
0
 10
-83.198105
 20
99.728546
 40
18.499725
 50
234.181290
 51
276.217346
  0
ARC
  8
0
 10
-53.194580
 20
63.227631
 40
3.000000
 50
0.000000
 51
90.000000
  0
ARC
  8
0
 10
-89.194580
 20
63.227631
 40
2.999992
 50
89.999855
 51
180.000153
  0
ARC
  8
0
 10
-13.694580
 20
99.727615
 40
29.999329
 50
30.000723
 51
149.999268
  0
ARC
  8
0
 10
-13.694016
 20
99.727615
 40
31.000109
 50
28.938433
 51
149.829208
  0
CIRCLE
  8
0
 10
-27.694580
 20
85.727608
 40
7.500000
  0
CIRCLE
  8
0
 10
-27.694580
 20
85.727608
 40
8.000000
  0
CIRCLE
  8
0
 10
-8.194580
 20
100.727608
 40
6.949997
  0
CIRCLE
  8
0
 10
-8.194580
 20
100.727608
 40
13.000000
  0
CIRCLE
  8
0
 10
-8.194580
 20
100.727608
 40
14.000000
  0
ARC
  8
0
 10
-13.694580
 20
99.727615
 40
29.999331
 50
210.000732
 51
329.999268
  0
ARC
  8
0
 10
-13.694580
 20
99.727615
 40
31.000597
 50
208.937973
 51
331.062073
  0
CIRCLE
  8
0
 10
-8.194580
 20
100.727608
 40
7.200000
  0
ARC
  8
0
 10
170.380173
 20
-137.307495
 40
10.001770
 50
270.008301
 51
359.531555
  0
ARC
  8
0
 10
139.319427
 20
-137.311172
 40
9.998108
 50
180.447632
 51
270.012665
  0
ARC
  8
0
 10
169.898346
 20
-128.312561
 40
0.996725
 50
179.811417
 51
270.188599
  0
ARC
  8
0
 10
169.898346
 20
-128.812561
 40
0.996725
 50
179.811417
 51
270.188599
  0
ARC
  8
0
 10
169.497299
 20
-129.313599
 40
0.995691
 50
179.751511
 51
270.248474
  0
ARC
  8
0
 10
169.497299
 20
-129.813599
 40
0.995691
 50
179.751511
 51
270.248474
  0
ARC
  8
0
 10
173.557816
 20
-128.305481
 40
1.003807
 50
270.216858
 51
359.783142
  0
ARC
  8
0
 10
175.370636
 20
-128.808304
 40
1.000977
 50
270.055908
 51
359.944092
  0
ARC
  8
0
 10
175.629227
 20
-129.306885
 40
1.002398
 50
270.136932
 51
359.863068
  0
ARC
  8
0
 10
176.218140
 20
-129.805801
 40
1.003485
 50
270.198639
 51
359.801361
  0
ARC
  8
0
 10
139.801224
 20
-128.308884
 40
1.000397
 50
270.022736
 51
359.977264
  0
ARC
  8
0
 10
139.801224
 20
-128.808884
 40
1.000397
 50
270.022736
 51
359.977264
  0
ARC
  8
0
 10
140.202271
 20
-129.309921
 40
0.999359
 50
269.963257
 51
0.036743
  0
ARC
  8
0
 10
140.202271
 20
-129.809921
 40
0.999359
 50
269.963257
 51
0.036743
  0
ARC
  8
0
 10
136.146759
 20
-128.314148
 40
0.995144
 50
179.719742
 51
270.280243
  0
ARC
  8
0
 10
134.328934
 20
-128.811981
 40
0.997303
 50
179.844833
 51
270.155151
  0
ARC
  8
0
 10
134.070343
 20
-129.310562
 40
0.998719
 50
179.926468
 51
270.073547
  0
ARC
  8
0
 10
133.486420
 20
-129.814484
 40
0.994810
 50
179.700317
 51
270.299683
  0
ARC
  8
0
 10
169.894409
 20
-103.312057
 40
0.992809
 50
89.583473
 51
180.416519
  0
ARC
  8
0
 10
169.894409
 20
-102.812057
 40
0.992809
 50
89.583473
 51
180.416519
  0
ARC
  8
0
 10
173.561722
 20
-103.319168
 40
0.999893
 50
359.993866
 51
90.006119
  0
ARC
  8
0
 10
175.374557
 20
-102.816330
 40
0.997059
 50
359.830780
 51
90.169228
  0
ARC
  8
0
 10
169.894409
 20
-72.312073
 40
0.992816
 50
89.583481
 51
180.416092
  0
ARC
  8
0
 10
169.894409
 20
-71.812073
 40
0.992816
 50
89.583481
 51
180.416092
  0
ARC
  8
0
 10
169.493362
 20
-71.311020
 40
0.991779
 50
89.523094
 51
180.476898
  0
ARC
  8
0
 10
169.493362
 20
-70.811020
 40
0.991779
 50
89.523094
 51
180.476898
  0
ARC
  8
0
 10
169.903381
 20
-96.317520
 40
1.001756
 50
180.100357
 51
269.899628
  0
ARC
  8
0
 10
169.903381
 20
-96.817520
 40
1.001756
 50
180.100357
 51
269.899628
  0
ARC
  8
0
 10
173.561722
 20
-72.319183
 40
0.999893
 50
359.994324
 51
90.006119
  0
ARC
  8
0
 10
175.374557
 20
-71.816345
 40
0.997075
 50
359.831207
 51
90.168350
  0
ARC
  8
0
 10
175.633133
 20
-71.317764
 40
0.998475
 50
359.912872
 51
90.087563
  0
ARC
  8
0
 10
176.222046
 20
-70.818848
 40
0.999558
 50
359.975067
 51
90.024490
  0
ARC
  8
0
 10
173.552811
 20
-96.310486
 40
1.008835
 50
270.500031
 51
359.500397
  0
ARC
  8
0
 10
175.365631
 20
-96.813293
 40
1.006007
 50
270.341522
 51
359.658905
  0
ARC
  8
0
 10
139.805161
 20
-103.315750
 40
0.996481
 50
359.796906
 51
90.202667
  0
ARC
  8
0
 10
139.805161
 20
-102.815750
 40
0.996481
 50
359.796906
 51
90.202667
  0
ARC
  8
0
 10
136.142807
 20
-103.310455
 40
0.991220
 50
89.490189
 51
180.509811
  0
ARC
  8
0
 10
134.324997
 20
-102.812637
 40
0.993385
 50
89.617157
 51
180.382843
  0
ARC
  8
0
 10
139.805145
 20
-72.315750
 40
0.996481
 50
359.797333
 51
90.202667
  0
ARC
  8
0
 10
139.805145
 20
-71.815750
 40
0.996481
 50
359.797333
 51
90.202667
  0
ARC
  8
0
 10
140.206192
 20
-71.314713
 40
0.995448
 50
359.737396
 51
90.262604
  0
ARC
  8
0
 10
140.206192
 20
-70.814713
 40
0.995448
 50
359.737396
 51
90.262604
  0
ARC
  8
0
 10
139.796219
 20
-96.313873
 40
1.005424
 50
270.307831
 51
359.691742
  0
ARC
  8
0
 10
139.796219
 20
-96.813873
 40
1.005424
 50
270.307831
 51
359.691742
  0
ARC
  8
0
 10
136.142822
 20
-72.310471
 40
0.991227
 50
89.491081
 51
180.509354
  0
ARC
  8
0
 10
134.324997
 20
-71.812653
 40
0.993392
 50
89.618042
 51
180.382401
  0
ARC
  8
0
 10
134.066422
 20
-71.314072
 40
0.994803
 50
89.700317
 51
180.300125
  0
ARC
  8
0
 10
133.482483
 20
-70.810135
 40
0.990894
 50
89.471497
 51
180.528946
  0
ARC
  8
0
 10
136.151794
 20
-96.319107
 40
1.000168
 50
180.009613
 51
269.990387
  0
ARC
  8
0
 10
134.333969
 20
-96.816940
 40
1.002337
 50
180.133453
 51
269.866547
  0
ARC
  8
0
 10
118.351608
 20
-53.519257
 40
3.000023
 50
270.000427
 51
359.999573
  0
ARC
  8
0
 10
118.351639
 20
-17.519287
 40
2.999985
 50
359.999695
 51
90.000290
  0
CIRCLE
  8
0
 10
154.851624
 20
-35.519287
 40
10.250000
  0
ARC
  8
0
 10
155.851624
 20
-5.469299
 40
6.949997
 50
0.000000
 51
179.999969
  0
CIRCLE
  8
0
 10
154.851624
 20
-35.519287
 40
7.474999
  0
CIRCLE
  8
0
 62
     2
 10
154.851624
 20
-35.519287
 40
8.331000
  0
ARC
  8
0
 10
-29.256790
 20
-135.860321
 40
9.994952
 50
180.429657
 51
269.973236
  0
ARC
  8
0
 10
1.798935
 20
-135.855347
 40
9.999924
 50
269.997772
 51
359.542053
  0
ARC
  8
0
 10
-28.771088
 20
-101.864914
 40
0.999641
 50
359.979462
 51
90.020554
  0
ARC
  8
0
 10
-28.771088
 20
-101.364914
 40
0.999641
 50
359.979462
 51
90.020554
  0
ARC
  8
0
 10
-28.775009
 20
-126.851715
 40
1.003562
 50
270.203094
 51
359.797028
  0
ARC
  8
0
 10
-28.775009
 20
-127.351715
 40
1.003562
 50
270.203094
 51
359.797028
  0
ARC
  8
0
 10
-28.373978
 20
-127.852753
 40
1.002521
 50
270.144012
 51
359.856110
  0
ARC
  8
0
 10
-28.373978
 20
-128.352753
 40
1.002521
 50
270.144012
 51
359.856110
  0
ARC
  8
0
 10
-32.438431
 20
-101.858292
 40
0.993051
 50
89.597664
 51
180.402344
  0
ARC
  8
0
 10
-32.434479
 20
-126.858307
 40
0.996976
 50
179.825928
 51
270.174072
  0
ARC
  8
0
 10
-34.256241
 20
-101.360489
 40
0.995228
 50
89.724823
 51
180.275391
  0
ARC
  8
0
 10
-34.252304
 20
-127.356110
 40
0.999153
 50
179.951431
 51
270.048553
  0
ARC
  8
0
 10
-34.505890
 20
-127.859711
 40
0.995577
 50
179.744904
 51
270.255096
  0
ARC
  8
0
 10
-35.094818
 20
-128.358627
 40
0.996645
 50
179.807007
 51
270.193207
  0
ARC
  8
0
 10
-28.771103
 20
-70.864914
 40
0.999649
 50
359.979889
 51
90.020119
  0
ARC
  8
0
 10
-28.771103
 20
-70.364914
 40
0.999649
 50
359.979889
 51
90.020119
  0
ARC
  8
0
 10
-28.370056
 20
-69.863876
 40
0.998607
 50
359.919891
 51
90.079994
  0
ARC
  8
0
 10
-28.370056
 20
-69.363876
 40
0.998607
 50
359.919891
 51
90.079994
  0
ARC
  8
0
 10
-28.779999
 20
-94.856720
 40
1.008589
 50
270.485870
 51
359.514130
  0
ARC
  8
0
 10
-28.779999
 20
-95.356720
 40
1.008589
 50
270.485870
 51
359.514130
  0
ARC
  8
0
 10
-32.438416
 20
-70.858307
 40
0.993059
 50
89.598106
 51
180.401901
  0
ARC
  8
0
 10
-34.256226
 20
-70.360504
 40
0.995235
 50
89.725266
 51
180.274948
  0
ARC
  8
0
 10
-34.509827
 20
-69.856888
 40
0.991658
 50
89.515984
 51
180.484009
  0
ARC
  8
0
 10
-35.098755
 20
-69.357971
 40
0.992733
 50
89.578819
 51
180.420959
  0
ARC
  8
0
 10
-32.429459
 20
-94.863266
 40
1.001997
 50
180.114304
 51
269.885925
  0
ARC
  8
0
 10
-34.247284
 20
-95.361099
 40
1.004178
 50
180.238113
 51
269.762115
  0
ARC
  8
0
 10
1.313171
 20
-101.859894
 40
0.994643
 50
89.690384
 51
180.309402
  0
ARC
  8
0
 10
1.313171
 20
-101.359894
 40
0.994643
 50
89.690384
 51
180.309402
  0
ARC
  8
0
 10
1.317108
 20
-126.856705
 40
0.998563
 50
179.917267
 51
270.082458
  0
ARC
  8
0
 10
1.317108
 20
-127.356705
 40
0.998563
 50
179.917267
 51
270.082458
  0
ARC
  8
0
 10
0.916077
 20
-127.857742
 40
0.997532
 50
179.858017
 51
270.141907
  0
ARC
  8
0
 10
0.916077
 20
-128.357742
 40
0.997532
 50
179.858017
 51
270.141907
  0
ARC
  8
0
 10
4.980515
 20
-101.863297
 40
0.998036
 50
359.886993
 51
90.112869
  0
ARC
  8
0
 10
4.976593
 20
-126.853317
 40
1.001955
 50
270.111938
 51
359.888306
  0
ARC
  8
0
 10
6.793350
 20
-101.360474
 40
0.995208
 50
359.723267
 51
90.276527
  0
ARC
  8
0
 10
6.789413
 20
-127.356140
 40
0.999131
 50
269.950165
 51
0.049876
  0
ARC
  8
0
 10
7.048004
 20
-127.854721
 40
1.000549
 50
270.031250
 51
359.968536
  0
ARC
  8
0
 10
7.636932
 20
-128.353653
 40
1.001619
 50
270.092590
 51
359.907471
  0
ARC
  8
0
 10
1.313187
 20
-70.859909
 40
0.994651
 50
89.690819
 51
180.308960
  0
ARC
  8
0
 10
1.313187
 20
-70.359909
 40
0.994651
 50
89.690819
 51
180.308960
  0
ARC
  8
0
 10
0.912140
 20
-69.858871
 40
0.993620
 50
89.630661
 51
180.369110
  0
ARC
  8
0
 10
0.912140
 20
-69.358871
 40
0.993620
 50
89.630661
 51
180.369110
  0
ARC
  8
0
 10
1.322128
 20
-94.861694
 40
1.003589
 50
180.204712
 51
269.795502
  0
ARC
  8
0
 10
1.322128
 20
-95.361694
 40
1.003589
 50
180.204712
 51
269.795502
  0
ARC
  8
0
 10
4.980499
 20
-70.863312
 40
0.998044
 50
359.887451
 51
90.112427
  0
ARC
  8
0
 10
6.793350
 20
-70.360474
 40
0.995216
 50
359.723724
 51
90.276085
  0
ARC
  8
0
 10
7.051926
 20
-69.861893
 40
0.996631
 50
359.806122
 51
90.194000
  0
ARC
  8
0
 10
7.640839
 20
-69.362976
 40
0.997704
 50
359.868134
 51
90.131935
  0
ARC
  8
0
 10
4.971588
 20
-94.858307
 40
1.006982
 50
270.396057
 51
359.604095
  0
ARC
  8
0
 10
6.784393
 20
-95.361115
 40
1.004159
 50
270.236725
 51
359.763184
  0
ARC
  8
0
 10
-42.164185
 20
-89.705933
 40
0.297418
 50
181.797806
 51
217.081985
  0
ARC
  8
0
 10
-168.256775
 20
-135.860321
 40
9.994956
 50
180.429657
 51
269.973236
  0
ARC
  8
0
 10
-137.201065
 20
-135.855347
 40
9.999924
 50
269.997803
 51
359.542053
  0
ARC
  8
0
 10
-167.771088
 20
-101.864914
 40
0.999634
 50
359.979462
 51
90.020988
  0
ARC
  8
0
 10
-167.771088
 20
-101.364914
 40
0.999634
 50
359.979462
 51
90.020988
  0
ARC
  8
0
 10
-167.775009
 20
-126.851715
 40
1.003562
 50
270.202972
 51
359.797028
  0
ARC
  8
0
 10
-167.775009
 20
-127.351715
 40
1.003562
 50
270.202972
 51
359.797028
  0
ARC
  8
0
 10
-167.373978
 20
-127.852753
 40
1.002521
 50
270.143890
 51
359.856110
  0
ARC
  8
0
 10
-167.373978
 20
-128.352753
 40
1.002521
 50
270.143890
 51
359.856110
  0
ARC
  8
0
 10
-171.438416
 20
-101.858292
 40
0.993051
 50
89.597664
 51
180.402344
  0
ARC
  8
0
 10
-171.434479
 20
-126.858307
 40
0.996968
 50
179.825928
 51
270.174500
  0
ARC
  8
0
 10
-173.256226
 20
-101.360489
 40
0.995228
 50
89.725044
 51
180.275391
  0
ARC
  8
0
 10
-173.252289
 20
-127.356110
 40
0.999161
 50
179.951431
 51
270.048126
  0
ARC
  8
0
 10
-173.505875
 20
-127.859711
 40
0.995570
 50
179.744888
 51
270.255554
  0
ARC
  8
0
 10
-174.094803
 20
-128.358627
 40
0.996649
 50
179.807022
 51
270.192993
  0
ARC
  8
0
 10
-167.771103
 20
-70.864914
 40
0.999649
 50
359.979889
 51
90.020119
  0
ARC
  8
0
 10
-167.771103
 20
-70.364914
 40
0.999649
 50
359.979889
 51
90.020119
  0
ARC
  8
0
 10
-167.370056
 20
-69.863876
 40
0.998612
 50
359.919891
 51
90.079666
  0
ARC
  8
0
 10
-167.370056
 20
-69.363876
 40
0.998612
 50
359.919891
 51
90.079666
  0
ARC
  8
0
 10
-167.779999
 20
-94.856720
 40
1.008589
 50
270.486298
 51
359.514130
  0
ARC
  8
0
 10
-167.779999
 20
-95.356720
 40
1.008589
 50
270.486298
 51
359.514130
  0
ARC
  8
0
 10
-171.438416
 20
-70.858307
 40
0.993059
 50
89.597664
 51
180.401886
  0
ARC
  8
0
 10
-173.256226
 20
-70.360504
 40
0.995235
 50
89.725044
 51
180.274963
  0
ARC
  8
0
 10
-173.509827
 20
-69.856888
 40
0.991658
 50
89.515984
 51
180.484009
  0
ARC
  8
0
 10
-174.098740
 20
-69.357971
 40
0.992733
 50
89.579041
 51
180.420959
  0
ARC
  8
0
 10
-171.429443
 20
-94.863266
 40
1.002001
 50
180.114304
 51
269.885712
  0
ARC
  8
0
 10
-173.247269
 20
-95.361099
 40
1.004174
 50
180.238113
 51
269.762329
  0
ARC
  8
0
 10
-137.686829
 20
-101.859894
 40
0.994643
 50
89.690598
 51
180.309402
  0
ARC
  8
0
 10
-137.686829
 20
-101.359894
 40
0.994643
 50
89.690598
 51
180.309402
  0
ARC
  8
0
 10
-137.682892
 20
-126.856705
 40
0.998567
 50
179.917267
 51
270.082306
  0
ARC
  8
0
 10
-137.682892
 20
-127.356705
 40
0.998567
 50
179.917267
 51
270.082306
  0
ARC
  8
0
 10
-138.083923
 20
-127.857742
 40
0.997531
 50
179.858017
 51
270.141968
  0
ARC
  8
0
 10
-138.083923
 20
-128.357742
 40
0.997531
 50
179.858017
 51
270.141968
  0
ARC
  8
0
 10
-134.019485
 20
-101.863297
 40
0.998034
 50
359.886993
 51
90.112999
  0
ARC
  8
0
 10
-134.023407
 20
-126.853317
 40
1.001955
 50
270.111694
 51
359.888306
  0
ARC
  8
0
 10
-132.206650
 20
-101.360474
 40
0.995205
 50
359.723267
 51
90.276718
  0
ARC
  8
0
 10
-132.210587
 20
-127.356140
 40
0.999131
 50
269.950134
 51
0.049876
  0
ARC
  8
0
 10
-131.951996
 20
-127.854721
 40
1.000549
 50
270.031464
 51
359.968536
  0
ARC
  8
0
 10
-131.363068
 20
-128.353653
 40
1.001619
 50
270.092529
 51
359.907471
  0
ARC
  8
0
 10
-137.686813
 20
-70.859909
 40
0.994651
 50
89.690605
 51
180.308960
  0
ARC
  8
0
 10
-137.686813
 20
-70.359909
 40
0.994651
 50
89.690605
 51
180.308960
  0
ARC
  8
0
 10
-138.087860
 20
-69.858871
 40
0.993620
 50
89.630447
 51
180.369110
  0
ARC
  8
0
 10
-138.087860
 20
-69.358871
 40
0.993620
 50
89.630447
 51
180.369110
  0
ARC
  8
0
 10
-137.677872
 20
-94.861694
 40
1.003592
 50
180.204712
 51
269.795288
  0
ARC
  8
0
 10
-137.677872
 20
-95.361694
 40
1.003592
 50
180.204712
 51
269.795288
  0
ARC
  8
0
 10
-134.019501
 20
-70.863312
 40
0.998049
 50
359.887451
 51
90.112129
  0
ARC
  8
0
 10
-132.206650
 20
-70.360474
 40
0.995220
 50
359.723724
 51
90.275841
  0
ARC
  8
0
 10
-131.948074
 20
-69.861893
 40
0.996634
 50
359.806122
 51
90.193863
  0
ARC
  8
0
 10
-131.359161
 20
-69.362976
 40
0.997699
 50
359.868134
 51
90.132317
  0
ARC
  8
0
 10
-134.028412
 20
-94.858307
 40
1.006982
 50
270.395905
 51
359.604095
  0
ARC
  8
0
 10
-132.215607
 20
-95.361115
 40
1.004159
 50
270.236816
 51
359.763184
  0
ARC
  8
0
 10
-181.164169
 20
-89.705933
 40
0.297418
 50
181.797806
 51
217.081543
  0
ARC
  8
0
 10
-8.231445
 20
-4.015289
 40
6.950000
 50
0.000000
 51
179.999969
  0
CIRCLE
  8
0
 10
-116.231461
 20
-34.065277
 40
4.000000
  0
CIRCLE
  8
0
 10
-116.231461
 20
-34.065277
 40
3.500000
  0
CIRCLE
  8
0
 10
-116.231461
 20
-65.065277
 40
3.500000
  0
CIRCLE
  8
0
 10
-116.231461
 20
-34.065277
 40
1.732051
  0
CIRCLE
  8
0
 10
-50.231445
 20
-34.065277
 40
4.000000
  0
CIRCLE
  8
0
 10
-50.231445
 20
-34.065277
 40
3.500000
  0
CIRCLE
  8
0
 10
-50.231461
 20
-65.065277
 40
3.500000
  0
CIRCLE
  8
0
 10
-50.231445
 20
-34.065277
 40
1.732051
  0
CIRCLE
  8
0
 10
-71.231476
 20
-34.065277
 40
10.000000
  0
CIRCLE
  8
0
 10
-71.231476
 20
-34.065277
 40
9.000000
  0
ARC
  8
0
 10
-79.717300
 20
-41.066460
 40
0.998826
 50
269.762360
 51
39.936638
  0
CIRCLE
  8
0
 62
     2
 10
-71.231476
 20
-34.065277
 40
6.578500
  0
CIRCLE
  8
0
 10
-71.231476
 20
-34.065277
 40
5.722500
  0
ARC
  8
0
 10
-103.890030
 20
-47.064022
 40
0.998749
 50
1.075442
 51
90.081848
  0
ARC
  8
0
 10
-62.577988
 20
-47.069012
 40
1.003741
 50
90.197502
 51
178.645020
  0
ARC
  8
0
 10
-94.831451
 20
-92.565262
 40
1.000000
 50
180.000443
 51
269.999573
  0
ARC
  8
0
 10
-94.731461
 20
-66.565277
 40
0.500008
 50
0.000874
 51
89.999123
  0
ARC
  8
0
 10
-96.931473
 20
-65.565277
 40
0.499985
 50
179.998245
 51
270.001740
  0
ARC
  8
0
 10
-71.731461
 20
-66.565262
 40
0.499992
 50
89.999123
 51
180.000870
  0
ARC
  8
0
 10
-69.531464
 20
-65.565262
 40
0.500008
 50
270.000885
 51
359.999115
  0
ARC
  8
0
 10
-71.631454
 20
-92.565277
 40
1.000000
 50
270.000000
 51
0.000000
  0
CIRCLE
  8
0
  6
PHANTOM
 62
     2
 10
-71.231476
 20
-34.065277
 40
21.250000
  0
POLYLINE
  8
0
 66
     1
  0
VERTEX
  8
0
 10
-39.781448
 20
-76.035263
  0
VERTEX
  8
0
 10
-39.452808
 20
-76.854973
  0
VERTEX
  8
0
 10
-39.153255
 20
-77.669998
  0
VERTEX
  8
0
 10
-38.883636
 20
-78.487740
  0
VERTEX
  8
0
 10
-38.644787
 20
-79.315582
  0
VERTEX
  8
0
 10
-38.437546
 20
-80.160934
  0
VERTEX
  8
0
 10
-38.262753
 20
-81.031181
  0
VERTEX
  8
0
 10
-38.121246
 20
-81.933716
  0
VERTEX
  8
0
 10
-38.013866
 20
-82.875946
  0
VERTEX
  8
0
 10
-37.941452
 20
-83.865265
  0
VERTEX
  8
0
 10
-37.911800
 20
-84.792862
  0
VERTEX
  8
0
 10
-37.921867
 20
-85.721565
  0
VERTEX
  8
0
 10
-37.970573
 20
-86.649765
  0
VERTEX
  8
0
 10
-38.056839
 20
-87.575867
  0
VERTEX
  8
0
 10
-38.179577
 20
-88.498268
  0
VERTEX
  8
0
 10
-38.337711
 20
-89.415367
  0
VERTEX
  8
0
 10
-38.530159
 20
-90.325554
  0
VERTEX
  8
0
 10
-38.755840
 20
-91.227242
  0
VERTEX
  8
0
 10
-39.013672
 20
-92.118828
  0
VERTEX
  8
0
 10
-39.302570
 20
-92.998703
  0
VERTEX
  8
0
 10
-39.621460
 20
-93.865265
  0
SEQEND
  0
POLYLINE
  8
0
 66
     1
  0
VERTEX
  8
0
 10
-178.781448
 20
-76.035263
  0
VERTEX
  8
0
 10
-178.452805
 20
-76.854973
  0
VERTEX
  8
0
 10
-178.153259
 20
-77.669998
  0
VERTEX
  8
0
 10
-177.883636
 20
-78.487740
  0
VERTEX
  8
0
 10
-177.644791
 20
-79.315582
  0
VERTEX
  8
0
 10
-177.437546
 20
-80.160934
  0
VERTEX
  8
0
 10
-177.262756
 20
-81.031181
  0
VERTEX
  8
0
 10
-177.121246
 20
-81.933716
  0
VERTEX
  8
0
 10
-177.013870
 20
-82.875946
  0
VERTEX
  8
0
 10
-176.941452
 20
-83.865265
  0
VERTEX
  8
0
 10
-176.911804
 20
-84.792862
  0
VERTEX
  8
0
 10
-176.921860
 20
-85.721565
  0
VERTEX
  8
0
 10
-176.970566
 20
-86.649765
  0
VERTEX
  8
0
 10
-177.056839
 20
-87.575867
  0
VERTEX
  8
0
 10
-177.179565
 20
-88.498268
  0
VERTEX
  8
0
 10
-177.337708
 20
-89.415367
  0
VERTEX
  8
0
 10
-177.530151
 20
-90.325554
  0
VERTEX
  8
0
 10
-177.755829
 20
-91.227242
  0
VERTEX
  8
0
 10
-178.013657
 20
-92.118828
  0
VERTEX
  8
0
 10
-178.302551
 20
-92.998703
  0
VERTEX
  8
0
 10
-178.621445
 20
-93.865265
  0
SEQEND
  0
TEXT
  8
0
 10
-269.149719
 20
180.830002
 40
6.300000
  1
FRL COMBINATION
 50
0.000000
 41
1.052632
 51
0.000000
  7
STANDARD
  0
TEXT
  8
0
 10
30.916656
 20
-33.065384
 40
6.300000
  1
OUT
 50
0.000000
 41
1.052632
 51
0.000000
  7
STANDARD
  0
TEXT
  8
0
 10
-216.083344
 20
-33.065262
 40
6.300000
  1
IN
 50
0.000000
 41
1.052632
 51
0.000000
  7
STANDARD
  0
TEXT
  8
0
 10
-256.000000
 20
157.720001
 40
6.300000
  1
MODEL:C300-03-F1
 50
0.000000
 41
1.052632
 51
0.000000
  7
STANDARD
  0
TEXT
  8
0
 10
199.400253
 20
180.830002
 40
6.300000
  1
Ｖｅｒ．２．０
 50
0.000000
 41
0.833333
 51
0.000000
  7
STANDARD
  0
TEXT
  8
0
 10
167.564667
 20
-192.100006
 40
9.000000
  1
KOGANEI CORP.
 50
0.000000
 41
1.052632
 51
0.000000
  7
STANDARD
  0
LINE
  8
0
 10
52.768555
 20
-34.065384
 11
27.768555
 21
-34.065384
  0
LINE
  8
0
 10
52.768555
 20
-34.065384
 11
49.870777
 21
-33.288929
  0
LINE
  8
0
 10
52.768555
 20
-34.065384
 11
49.870777
 21
-34.841843
  0
LINE
  8
0
 10
-194.231445
 20
-34.065277
 11
-219.231445
 21
-34.065266
  0
LINE
  8
0
 10
-194.231445
 20
-34.065277
 11
-197.129227
 21
-33.288818
  0
LINE
  8
0
 10
-194.231445
 20
-34.065277
 11
-197.129227
 21
-34.841732
  0
ENDSEC
  0
EOF
