  0
SECTION
  2
HEADER
  0
ENDSEC
  0
SECTION
  2
TABLES
  0
TABLE
  2
LTYPE
 70
     4
  0
LTYPE
  2
CONTINUOUS
 70
    64
  3
Solid line
 72
    65
 73
     0
 40
0.000000
  0
LTYPE
  2
DASHED
 70
    64
  3
__ __ __ __ __ __ __ __ __ __ __ __ __ __ __
 72
    65
 73
     2
 40
3.500000
 49
2.000000
 49
-1.500000
  0
LTYPE
  2
CENTER
 70
    64
  3
____ _ ____ _ ____ _ ____ _ ____ _ ____ _ ____
 72
    65
 73
     4
 40
17.500000
 49
13.000000
 49
-1.500000
 49
1.500000
 49
-1.500000
  0
LTYPE
  2
PHANTOM
 70
    64
  3
_____ _ _ _____ _ _ _____ _ _ _____ _ _ ____  
 72
    65
 73
     6
 40
15.500000
 49
8.000000
 49
-1.500000
 49
1.500000
 49
-1.500000
 49
1.500000
 49
-1.500000
  0
LTYPE
  2
DASHED1
 70
    64
  3
__ __ __ __ __ __ __ __ __ __ __ __ __ __ __
 72
    65
 73
     2
 40
1.500000
 49
1.000000
 49
-0.500000
  0
LTYPE
  2
DASHED2
 70
    64
  3
__ __ __ __ __ __ __ __ __ __ __ __ __ __ __
 72
    65
 73
     2
 40
3.500000
 49
2.500000
 49
-1.000000
  0
LTYPE
  2
DASHED3
 70
    64
  3
__ __ __ __ __ __ __ __ __ __ __ __ __ __ __
 72
    65
 73
     2
 40
6.000000
 49
4.000000
 49
-2.000000
  0
LTYPE
  2
DASHED4
 70
    64
  3
__ __ __ __ __ __ __ __ __ __ __ __ __ __ __
 72
    65
 73
     2
 40
12.000000
 49
10.000000
 49
-2.000000
  0
LTYPE
  2
DASHED5
 70
    64
  3
__ __ __ __ __ __ __ __ __ __ __ __ __ __ __
 72
    65
 73
     2
 40
17.000000
 49
15.000000
 49
-2.000000
  0
LTYPE
  2
DASHED6
 70
    64
  3
__ __ __ __ __ __ __ __ __ __ __ __ __ __ __
 72
    65
 73
     2
 40
29.000000
 49
27.000000
 49
-2.000000
  0
LTYPE
  2
PHANTOM1
 70
    64
  3
_____ _ _ _____ _ _ _____ _ _ _____ _ _ ____  
 72
    65
 73
     6
 40
31.000000
 49
25.000000
 49
-1.500000
 49
1.000000
 49
-1.000000
 49
1.000000
 49
-1.500000
  0
LTYPE
  2
PHANTOM2
 70
    64
  3
_____ _ _ _____ _ _ _____ _ _ _____ _ _ ____  
 72
    65
 73
     6
 40
36.000000
 49
27.000000
 49
-1.500000
 49
2.500000
 49
-1.000000
 49
2.500000
 49
-1.500000
  0
LTYPE
  2
PHANTOM3
 70
    64
  3
_____ _ _ _____ _ _ _____ _ _ _____ _ _ ____  
 72
    65
 73
     6
 40
78.000000
 49
64.000000
 49
-2.000000
 49
4.000000
 49
-2.000000
 49
4.000000
 49
-2.000000
  0
LTYPE
  2
CENTER1
 70
    64
  3
____ _ ____ _ ____ _ ____ _ ____ _ ____ _ ____
 72
    65
 73
     4
 40
19.000000
 49
14.000000
 49
-1.000000
 49
3.000000
 49
-1.000000
  0
LTYPE
  2
CENTER2
 70
    64
  3
____ _ ____ _ ____ _ ____ _ ____ _ ____ _ ____
 72
    65
 73
     4
 40
28.500000
 49
25.000000
 49
-1.000000
 49
1.500000
 49
-1.000000
  0
LTYPE
  2
CENTER3
 70
    64
  3
____ _ ____ _ ____ _ ____ _ ____ _ ____ _ ____
 72
    65
 73
     4
 40
31.500000
 49
27.000000
 49
-1.000000
 49
2.500000
 49
-1.000000
  0
LTYPE
  2
CENTER4
 70
    64
  3
____ _ ____ _ ____ _ ____ _ ____ _ ____ _ ____
 72
    65
 73
     4
 40
50.000000
 49
45.000000
 49
-1.000000
 49
3.000000
 49
-1.000000
  0
LTYPE
  2
CENTER5
 70
    64
  3
____ _ ____ _ ____ _ ____ _ ____ _ ____ _ ____
 72
    65
 73
     4
 40
100.000000
 49
92.000000
 49
-2.000000
 49
4.000000
 49
-2.000000
  0
LTYPE
  2
SBK1
 70
    64
  3
______ _ _ _ ______ _ _ _ ______ _ _ _ _____  
 72
    65
 73
     8
 40
60.500000
 49
45.000000
 49
-2.000000
 49
2.500000
 49
-2.000000
 49
2.500000
 49
-2.000000
 49
2.500000
 49
-2.000000
  0
LTYPE
  2
SBK2
 70
    64
  3
______ _ _ _ ______ _ _ _ ______ _ _ _ _____  
 72
    65
 73
     8
 40
84.000000
 49
64.000000
 49
-2.000000
 49
4.000000
 49
-2.000000
 49
4.000000
 49
-2.000000
 49
4.000000
 49
-2.000000
  0
LTYPE
  2
STCH
 70
    64
  3
__ __ __ __ __ __ __ __ __ __ __ __ __ __ __
 72
    65
 73
     2
 40
3.000000
 49
1.000000
 49
-2.000000
  0
LTYPE
  2
MTCH
 70
    64
  3
_____ _ _ _____ _ _ _____ _ _ _____ _ _ ____  
 72
    65
 73
     6
 40
80.000000
 49
66.000000
 49
-2.000000
 49
4.000000
 49
-2.000000
 49
4.000000
 49
-2.000000
  0
ENDTAB
  0
TABLE
  2
LAYER
 70
     1
  0
LAYER
  2
0
 70
     0
 62
     7
  6
CONTINUOUS
  0
ENDTAB
  0
TABLE
  2
STYLE
 70
     1
  0
STYLE
  2
STANDARD
 70
     0
 40
0.000000
 41
1.000000
 50
0.000000
 71
     0
 42
0.200000
  3
txt
  4
BIGFONT
  0
ENDTAB
  0
TABLE
  2
VIEW
 70
     0
  0
ENDTAB
  0
ENDSEC
  0
SECTION
  2
BLOCKS
  0
ENDSEC
  0
SECTION
  2
ENTITIES
  0
LINE
  8
0
 10
-145.538574
 20
144.587524
 11
-114.538574
 21
144.587524
  0
LINE
  8
0
 10
-36.938583
 20
144.587524
 11
-67.938583
 21
144.587524
  0
LINE
  8
0
 10
-136.038574
 20
118.587524
 11
-136.038574
 21
80.587524
  0
LINE
  8
0
 10
-216.038574
 20
118.587524
 11
-216.038574
 21
80.587524
  0
LINE
  8
0
 10
-215.038574
 20
119.587524
 11
-137.038574
 21
119.587524
  0
LINE
  8
0
 10
-215.038574
 20
79.587524
 11
-137.038574
 21
79.587524
  0
LINE
  8
0
 10
-216.038559
 20
118.587524
 11
-215.038574
 21
119.587517
  0
LINE
  8
0
 10
-216.038574
 20
80.587517
 11
-215.038574
 21
79.587517
  0
LINE
  8
0
 10
-137.038574
 20
79.587524
 11
-136.038574
 21
80.587517
  0
LINE
  8
0
 10
-137.038574
 20
119.587517
 11
-136.038589
 21
118.587524
  0
LINE
  8
0
 10
-211.038574
 20
102.587524
 11
-211.038574
 21
96.587524
  0
LINE
  8
0
 10
-211.038574
 20
102.587524
 11
-202.798569
 21
99.587524
  0
LINE
  8
0
 10
-211.038574
 20
96.587524
 11
-202.798569
 21
99.587524
  0
LINE
  8
0
 10
-216.038574
 20
118.587524
 11
-136.038574
 21
118.587524
  0
LINE
  8
0
 10
-216.038574
 20
80.587524
 11
-136.038574
 21
80.587524
  0
LINE
  8
0
 10
-215.038574
 20
119.587524
 11
-215.038574
 21
79.587524
  0
LINE
  8
0
 10
-137.038574
 20
79.587524
 11
-137.038574
 21
119.587524
  0
LINE
  8
0
  6
CENTER
 62
     2
 10
-91.238586
 20
125.287521
 11
-91.238586
 21
75.477539
  0
LINE
  8
0
  6
CENTER
 62
     2
 10
-227.568573
 20
99.587524
 11
43.631348
 21
99.587524
  0
LINE
  8
0
 10
-119.238586
 20
113.587524
 11
-119.238586
 21
85.587524
  0
LINE
  8
0
 10
-63.238586
 20
113.587524
 11
-63.238586
 21
85.587524
  0
LINE
  8
0
 10
-118.238586
 20
84.587524
 11
-64.238586
 21
84.587524
  0
LINE
  8
0
 10
-118.238586
 20
114.587524
 11
-64.238586
 21
114.587524
  0
LINE
  8
0
 10
-119.238586
 20
113.587532
 11
-118.238586
 21
114.587532
  0
LINE
  8
0
 10
-119.238579
 20
85.587517
 11
-118.238579
 21
84.587509
  0
LINE
  8
0
 10
-64.238586
 20
84.587517
 11
-63.238590
 21
85.587517
  0
LINE
  8
0
 10
-64.238586
 20
114.587532
 11
-63.238594
 21
113.587532
  0
LINE
  8
0
  6
CENTER
 62
     2
 10
-79.238586
 20
122.747513
 11
-79.238586
 21
111.127525
  0
LINE
  8
0
 10
-88.238586
 20
79.587524
 11
-70.238586
 21
79.587524
  0
LINE
  8
0
 10
-88.238586
 20
119.587524
 11
-70.238586
 21
119.587524
  0
LINE
  8
0
 10
-89.238586
 20
118.587524
 11
-89.238586
 21
115.587524
  0
LINE
  8
0
 10
-69.238586
 20
118.587524
 11
-69.238586
 21
115.587524
  0
LINE
  8
0
 10
-89.238579
 20
118.587517
 11
-88.238579
 21
119.587517
  0
LINE
  8
0
 10
-70.238579
 20
119.587517
 11
-69.238579
 21
118.587517
  0
LINE
  8
0
 10
-89.238586
 20
80.587524
 11
-88.238586
 21
79.587524
  0
LINE
  8
0
 10
-70.238586
 20
79.587524
 11
-69.238586
 21
80.587524
  0
LINE
  8
0
 10
-89.238586
 20
83.587524
 11
-89.238586
 21
80.587524
  0
LINE
  8
0
 10
-69.238586
 20
83.587524
 11
-69.238586
 21
80.587524
  0
LINE
  8
0
 10
-89.238586
 20
118.587524
 11
-69.238586
 21
118.587524
  0
LINE
  8
0
 10
-89.238586
 20
80.587524
 11
-69.238586
 21
80.587524
  0
LINE
  8
0
 10
-118.238586
 20
114.587524
 11
-118.238586
 21
84.587524
  0
LINE
  8
0
 10
-64.238586
 20
84.587524
 11
-64.238586
 21
114.587524
  0
LINE
  8
0
 10
-119.238586
 20
113.587524
 11
-63.238586
 21
113.587524
  0
LINE
  8
0
 10
-119.238586
 20
85.587524
 11
-63.238586
 21
85.587524
  0
LINE
  8
0
 10
-83.948570
 20
110.697525
 11
-83.268585
 21
111.087517
  0
LINE
  8
0
 10
-79.738586
 20
107.557526
 11
-80.128586
 21
106.877525
  0
LINE
  8
0
 10
-93.948570
 20
112.607513
 11
-93.738571
 21
113.357513
  0
LINE
  8
0
 10
-88.738586
 20
113.357521
 11
-88.538582
 21
112.607513
  0
LINE
  8
0
 10
-102.358589
 20
106.877525
 11
-102.748589
 21
107.557533
  0
LINE
  8
0
 10
-99.218590
 20
111.087517
 11
-98.538582
 21
110.697510
  0
LINE
  8
0
 10
-104.268593
 20
96.887527
 11
-105.018578
 21
97.087524
  0
LINE
  8
0
 10
-105.018578
 20
102.087532
 11
-104.268585
 21
102.287529
  0
LINE
  8
0
 10
-98.538589
 20
88.477524
 11
-99.218590
 21
88.087524
  0
LINE
  8
0
 10
-102.748589
 20
91.617523
 11
-102.358589
 21
92.297531
  0
LINE
  8
0
 10
-88.538582
 20
86.567535
 11
-88.738586
 21
85.817528
  0
LINE
  8
0
 10
-93.738579
 20
85.817528
 11
-93.948578
 21
86.567535
  0
LINE
  8
0
 10
-80.128586
 20
92.297523
 11
-79.738586
 21
91.617523
  0
LINE
  8
0
 10
-83.268593
 20
88.087524
 11
-83.948578
 21
88.477516
  0
LINE
  8
0
 10
-78.218582
 20
102.287521
 11
-77.468590
 21
102.087524
  0
LINE
  8
0
 10
-77.468590
 20
97.087532
 11
-78.218575
 21
96.887535
  0
LINE
  8
0
 10
-116.738586
 20
102.087524
 11
-116.738586
 21
97.087524
  0
LINE
  8
0
 10
-116.738586
 20
102.087524
 11
-109.878586
 21
99.587517
  0
LINE
  8
0
 10
-116.738594
 20
97.087532
 11
-109.878593
 21
99.587540
  0
LINE
  8
0
 10
-58.238586
 20
42.587524
 11
-58.238586
 21
63.087524
  0
LINE
  8
0
 10
-100.488579
 20
40.087521
 11
-99.988571
 21
39.587521
  0
LINE
  8
0
 10
-57.988586
 20
40.087524
 11
-58.488590
 21
39.587524
  0
LINE
  8
0
 10
-84.968575
 20
79.587532
 11
-85.148575
 21
73.587532
  0
LINE
  8
0
 10
-72.668579
 20
79.587540
 11
-72.478584
 21
73.587524
  0
LINE
  8
0
 10
-86.238586
 20
73.587524
 11
-72.238586
 21
73.587524
  0
LINE
  8
0
 10
-85.818573
 20
79.587524
 11
-86.008575
 21
73.587532
  0
LINE
  8
0
 10
-73.518585
 20
79.587540
 11
-73.328590
 21
73.587540
  0
LINE
  8
0
 10
-100.238586
 20
42.587524
 11
-100.238586
 21
63.087524
  0
LINE
  8
0
 10
-99.988586
 20
39.587524
 11
-58.488586
 21
39.587524
  0
LINE
  8
0
 10
-57.988586
 20
40.087524
 11
-57.988586
 21
42.587524
  0
LINE
  8
0
 10
-100.488586
 20
40.087524
 11
-57.988586
 21
40.087524
  0
LINE
  8
0
 10
-97.238586
 20
66.087524
 11
-61.238586
 21
66.087524
  0
LINE
  8
0
 10
-100.488586
 20
42.587524
 11
-57.988586
 21
42.587524
  0
LINE
  8
0
 10
-72.238586
 20
73.587524
 11
-72.238586
 21
66.087524
  0
LINE
  8
0
 10
-86.238586
 20
73.587524
 11
-86.238586
 21
66.087524
  0
LINE
  8
0
 10
-72.238586
 20
73.587524
 11
-86.238579
 21
66.087524
  0
LINE
  8
0
 10
-72.238579
 20
66.087524
 11
-86.238594
 21
73.587524
  0
LINE
  8
0
 10
-100.488586
 20
40.087524
 11
-100.488586
 21
42.587524
  0
LINE
  8
0
 10
-100.488579
 20
40.087521
 11
-99.988571
 21
39.587521
  0
LINE
  8
0
 10
-84.638580
 20
121.257523
 11
-73.848587
 21
121.257523
  0
LINE
  8
0
 10
-85.848579
 20
120.557526
 11
-84.638580
 21
121.257523
  0
LINE
  8
0
 10
-73.848579
 20
121.257523
 11
-72.638588
 21
120.557526
  0
LINE
  8
0
 10
-85.848587
 20
120.557510
 11
-85.818581
 21
119.587524
  0
LINE
  8
0
 10
-84.968575
 20
119.587517
 11
-85.008575
 21
121.037521
  0
LINE
  8
0
 10
-73.478584
 20
121.037529
 11
-73.518585
 21
119.587524
  0
LINE
  8
0
 10
-72.638580
 20
120.557510
 11
-72.668579
 21
119.587517
  0
LINE
  8
0
 10
-85.848587
 20
120.557510
 11
-72.638580
 21
120.557510
  0
LINE
  8
0
 10
-137.038574
 20
79.587524
 11
-114.538574
 21
79.587524
  0
LINE
  8
0
 10
-137.038574
 20
119.587524
 11
-114.538574
 21
119.587524
  0
LINE
  8
0
 10
-144.538574
 20
136.587524
 11
-115.538574
 21
136.587524
  0
LINE
  8
0
 10
-145.538574
 20
127.587524
 11
-114.538574
 21
127.587524
  0
LINE
  8
0
 10
-119.238586
 20
114.587524
 11
-119.238586
 21
113.587524
  0
LINE
  8
0
 10
-136.038574
 20
119.587524
 11
-136.038574
 21
118.587524
  0
LINE
  8
0
 10
-136.038574
 20
80.587517
 11
-135.038589
 21
79.587532
  0
LINE
  8
0
 10
-119.238579
 20
80.587517
 11
-120.238564
 21
79.587524
  0
LINE
  8
0
 10
-120.238586
 20
114.587524
 11
-118.238586
 21
114.587524
  0
LINE
  8
0
 10
-135.038574
 20
79.587524
 11
-135.038574
 21
119.587524
  0
LINE
  8
0
 10
-120.238586
 20
79.587524
 11
-120.238586
 21
119.587524
  0
LINE
  8
0
 10
-136.038574
 20
80.587524
 11
-119.238586
 21
80.587524
  0
LINE
  8
0
 10
-145.538574
 20
137.587524
 11
-114.538574
 21
137.587524
  0
LINE
  8
0
 10
-144.538574
 20
136.587524
 11
-144.538574
 21
119.587524
  0
LINE
  8
0
 10
-115.538574
 20
136.587524
 11
-115.538574
 21
119.587524
  0
LINE
  8
0
 10
-144.538589
 20
136.587524
 11
-145.538589
 21
137.587540
  0
LINE
  8
0
 10
-115.538574
 20
136.587524
 11
-114.538574
 21
137.587524
  0
LINE
  8
0
 10
-142.128586
 20
136.587524
 11
-142.538574
 21
137.587524
  0
LINE
  8
0
 10
-117.958572
 20
136.587509
 11
-117.538574
 21
137.587524
  0
LINE
  8
0
 10
-140.038574
 20
72.087524
 11
-120.038574
 21
72.087524
  0
LINE
  8
0
 10
-145.538574
 20
77.587524
 11
-114.538574
 21
77.587524
  0
LINE
  8
0
 10
-145.538574
 20
79.587524
 11
-145.538574
 21
77.587524
  0
LINE
  8
0
 10
-114.538574
 20
84.587524
 11
-114.538574
 21
77.587524
  0
LINE
  8
0
 10
-119.038574
 20
84.587524
 11
-118.238586
 21
84.587524
  0
LINE
  8
0
 10
-119.038574
 20
84.587524
 11
-119.038574
 21
79.587524
  0
LINE
  8
0
 10
-145.538589
 20
77.587540
 11
-140.038574
 21
72.087524
  0
LINE
  8
0
 10
-114.538574
 20
77.587517
 11
-120.038574
 21
72.087524
  0
LINE
  8
0
 10
-135.538574
 20
79.587524
 11
-135.538574
 21
72.087524
  0
LINE
  8
0
 10
-120.038574
 20
72.087524
 11
-120.038574
 21
79.587524
  0
LINE
  8
0
 10
-135.038574
 20
70.987534
 11
-135.038574
 21
72.087524
  0
LINE
  8
0
 10
-135.038574
 20
70.987526
 11
-134.348572
 21
70.587524
  0
LINE
  8
0
 10
-134.348587
 20
70.587524
 11
-125.738586
 21
70.587524
  0
LINE
  8
0
 10
-135.038574
 20
70.987534
 11
-125.038574
 21
70.987534
  0
LINE
  8
0
 10
-125.038589
 20
70.987518
 11
-125.738586
 21
70.587524
  0
LINE
  8
0
 10
-125.038574
 20
70.987534
 11
-125.038574
 21
72.087524
  0
LINE
  8
0
 10
-63.438583
 20
84.587524
 11
-63.438583
 21
79.587524
  0
LINE
  8
0
 10
-63.438583
 20
84.587524
 11
-64.238586
 21
84.587524
  0
LINE
  8
0
 10
-67.938583
 20
84.587524
 11
-67.938583
 21
77.587524
  0
LINE
  8
0
 10
-36.938583
 20
79.587524
 11
-36.938583
 21
77.587524
  0
LINE
  8
0
 10
-36.938583
 20
77.587524
 11
-67.938583
 21
77.587524
  0
LINE
  8
0
 10
-42.438583
 20
72.087524
 11
-62.438583
 21
72.087524
  0
LINE
  8
0
 10
-36.938580
 20
77.587524
 11
-42.438583
 21
72.087517
  0
LINE
  8
0
 10
-37.938580
 20
136.587524
 11
-36.938576
 21
137.587524
  0
LINE
  8
0
 10
-66.938591
 20
136.587524
 11
-67.938583
 21
137.587524
  0
LINE
  8
0
 10
-40.358578
 20
136.587509
 11
-39.938572
 21
137.587524
  0
LINE
  8
0
 10
-64.528587
 20
136.587524
 11
-64.938583
 21
137.587524
  0
LINE
  8
0
 10
-57.438583
 20
70.987534
 11
-57.438583
 21
72.087524
  0
LINE
  8
0
 10
-57.438591
 20
70.987526
 11
-56.748589
 21
70.587524
  0
LINE
  8
0
 10
-47.438583
 20
70.987534
 11
-57.438583
 21
70.987534
  0
LINE
  8
0
 10
-48.138580
 20
70.587524
 11
-56.748581
 21
70.587524
  0
LINE
  8
0
 10
-47.438583
 20
70.987526
 11
-48.138584
 21
70.587524
  0
LINE
  8
0
 10
-47.438583
 20
70.987534
 11
-47.438583
 21
72.087524
  0
LINE
  8
0
 10
-62.438583
 20
72.087524
 11
-62.438583
 21
79.587524
  0
LINE
  8
0
 10
-46.938583
 20
79.587524
 11
-46.938583
 21
72.087524
  0
LINE
  8
0
 10
-67.938591
 20
77.587524
 11
-62.438583
 21
72.087517
  0
LINE
  8
0
 10
-45.438583
 20
79.587524
 11
-67.938583
 21
79.587524
  0
LINE
  8
0
 10
-45.438583
 20
119.587524
 11
-67.938583
 21
119.587524
  0
LINE
  8
0
 10
-37.938583
 20
136.587524
 11
-66.938583
 21
136.587524
  0
LINE
  8
0
 10
-36.938583
 20
127.587524
 11
-67.938583
 21
127.587524
  0
LINE
  8
0
 10
-63.238586
 20
114.587524
 11
-63.238586
 21
113.587524
  0
LINE
  8
0
 10
-46.438583
 20
119.587524
 11
-46.438583
 21
118.587524
  0
LINE
  8
0
 10
-46.438576
 20
80.587524
 11
-47.438580
 21
79.587524
  0
LINE
  8
0
 10
-63.238579
 20
80.587524
 11
-62.238575
 21
79.587524
  0
LINE
  8
0
 10
-62.238586
 20
114.587524
 11
-64.238586
 21
114.587524
  0
LINE
  8
0
 10
-47.438583
 20
79.587524
 11
-47.438583
 21
119.587524
  0
LINE
  8
0
 10
-62.238586
 20
79.587524
 11
-62.238586
 21
119.587524
  0
LINE
  8
0
 10
-46.438583
 20
80.587524
 11
-63.238586
 21
80.587524
  0
LINE
  8
0
 10
-36.938583
 20
137.587524
 11
-67.938583
 21
137.587524
  0
LINE
  8
0
 10
-37.938583
 20
136.587524
 11
-37.938583
 21
119.587524
  0
LINE
  8
0
 10
-66.938583
 20
136.587524
 11
-66.938583
 21
119.587524
  0
LINE
  8
0
 10
-119.238586
 20
85.587524
 11
-119.238586
 21
80.587524
  0
LINE
  8
0
 10
-63.238586
 20
85.587524
 11
-63.238586
 21
80.587524
  0
LINE
  8
0
 10
-46.438583
 20
80.587524
 11
-28.378586
 21
80.587524
  0
LINE
  8
0
 10
-45.438583
 20
79.587524
 11
-28.438583
 21
79.587524
  0
LINE
  8
0
 10
-46.438583
 20
118.587524
 11
33.561417
 21
118.587524
  0
LINE
  8
0
 10
-45.438583
 20
119.587524
 11
32.561417
 21
119.587524
  0
LINE
  8
0
 10
-45.438583
 20
119.587524
 11
-45.438583
 21
79.587524
  0
LINE
  8
0
 10
-46.438583
 20
118.587524
 11
-46.438583
 21
80.587524
  0
LINE
  8
0
 10
32.561417
 20
119.587524
 11
32.561417
 21
79.587524
  0
LINE
  8
0
 10
33.561417
 20
118.587524
 11
33.561417
 21
80.587524
  0
LINE
  8
0
 10
-46.438580
 20
118.587524
 11
-45.438576
 21
119.587524
  0
LINE
  8
0
 10
33.561428
 20
118.587524
 11
32.561424
 21
119.587532
  0
LINE
  8
0
 10
32.561420
 20
79.587524
 11
33.561424
 21
80.587524
  0
LINE
  8
0
 10
-45.438576
 20
79.587524
 11
-46.438572
 21
80.587524
  0
LINE
  8
0
 10
-12.438583
 20
79.587524
 11
32.561417
 21
79.587524
  0
LINE
  8
0
 10
-12.508575
 20
80.587524
 11
33.561417
 21
80.587524
  0
LINE
  8
0
  6
CENTER
 62
     2
 10
-0.938583
 20
123.587524
 11
-0.938583
 21
83.587524
  0
LINE
  8
0
  6
CENTER
 62
     2
 10
-20.438583
 20
92.087524
 11
-20.438583
 21
67.087524
  0
LINE
  8
0
 62
     2
 10
-32.938583
 20
79.587524
 11
-7.938583
 21
79.587524
  0
LINE
  8
0
  6
CENTER
 62
     2
 10
-20.938583
 20
103.587524
 11
19.061417
 21
103.587524
  0
LINE
  8
0
  6
CENTER
 62
     2
 10
-6.438583
 20
144.587524
 11
-6.438583
 21
54.587524
  0
LINE
  8
0
  6
CENTER
 62
     2
 10
-52.438583
 20
149.897522
 11
-52.438583
 21
65.907532
  0
LINE
  8
0
 10
-67.938583
 20
144.587524
 11
-67.938583
 21
114.587524
  0
LINE
  8
0
 10
-36.938583
 20
144.587524
 11
-36.938583
 21
119.587524
  0
LINE
  8
0
 10
-39.938583
 20
137.587524
 11
-39.938583
 21
144.587524
  0
LINE
  8
0
 10
-64.938583
 20
137.587524
 11
-64.938583
 21
144.587524
  0
LINE
  8
0
 10
-117.538574
 20
137.587524
 11
-117.538574
 21
144.587524
  0
LINE
  8
0
 10
-142.538574
 20
137.587524
 11
-142.538574
 21
144.587524
  0
LINE
  8
0
  6
CENTER
 62
     2
 10
-130.038574
 20
149.897522
 11
-130.038574
 21
65.907532
  0
LINE
  8
0
 10
-114.538574
 20
144.587524
 11
-114.538574
 21
114.587524
  0
LINE
  8
0
 10
-145.538574
 20
144.587524
 11
-145.538574
 21
119.587524
  0
LINE
  8
0
  6
CENTER
 62
     2
 10
-79.238586
 20
87.807526
 11
-79.238586
 21
36.907532
  0
LINE
  8
0
  6
CENTER
 62
     2
 10
-176.038574
 20
143.587524
 11
-176.038574
 21
55.587524
  0
LINE
  8
0
 10
146.957108
 20
-181.298386
 11
146.957108
 21
-179.398392
  0
LINE
  8
0
 10
152.657120
 20
-181.298386
 11
152.657120
 21
-179.398392
  0
LINE
  8
0
 10
156.557114
 20
-177.898392
 11
143.057114
 21
-177.898392
  0
LINE
  8
0
 10
157.557114
 20
-176.898376
 11
156.557114
 21
-177.898376
  0
LINE
  8
0
 10
143.057114
 20
-177.898376
 11
142.057114
 21
-176.898376
  0
LINE
  8
0
 10
157.557114
 20
-176.898392
 11
157.417114
 21
-176.898392
  0
LINE
  8
0
 10
151.307114
 20
-176.898392
 11
148.307114
 21
-176.898392
  0
LINE
  8
0
 10
145.497116
 20
-176.898392
 11
143.377121
 21
-176.898392
  0
LINE
  8
0
 10
142.207108
 20
-176.898392
 11
142.057114
 21
-176.898392
  0
LINE
  8
0
 10
156.247116
 20
-176.898392
 11
154.127106
 21
-176.898392
  0
LINE
  8
0
 10
153.467117
 20
-177.398392
 11
151.657120
 21
-177.398392
  0
LINE
  8
0
 10
156.827103
 20
-177.398392
 11
157.417114
 21
-176.898376
  0
LINE
  8
0
 10
153.467102
 20
-177.398392
 11
154.127106
 21
-176.898392
  0
LINE
  8
0
 10
151.657120
 20
-177.398392
 11
151.307114
 21
-176.898392
  0
LINE
  8
0
 10
148.307129
 20
-176.898376
 11
147.967133
 21
-177.398376
  0
LINE
  8
0
 10
146.157135
 20
-177.398392
 11
145.497131
 21
-176.898376
  0
LINE
  8
0
 10
142.797119
 20
-177.398392
 11
142.207123
 21
-176.898376
  0
LINE
  8
0
 10
156.247116
 20
-176.898392
 11
156.067123
 21
-177.398376
  0
LINE
  8
0
 10
143.377121
 20
-176.898392
 11
143.547119
 21
-177.398392
  0
LINE
  8
0
 10
147.967117
 20
-177.398392
 11
146.157120
 21
-177.398392
  0
LINE
  8
0
 10
156.827118
 20
-177.398392
 11
156.067108
 21
-177.398392
  0
LINE
  8
0
 10
143.547119
 20
-177.398392
 11
142.797119
 21
-177.398392
  0
LINE
  8
0
 10
155.807114
 20
-179.398392
 11
143.807114
 21
-179.398392
  0
LINE
  8
0
 10
156.307114
 20
-178.898392
 11
156.307114
 21
-177.898392
  0
LINE
  8
0
 10
143.307114
 20
-178.898392
 11
143.307114
 21
-177.898392
  0
LINE
  8
0
 10
143.307114
 20
-178.898376
 11
143.807114
 21
-179.398392
  0
LINE
  8
0
 10
155.807114
 20
-179.398392
 11
156.307114
 21
-178.898376
  0
LINE
  8
0
 10
143.307114
 20
-178.898392
 11
156.307114
 21
-178.898392
  0
LINE
  8
0
 10
152.637115
 20
-186.498383
 11
146.987122
 21
-186.498383
  0
LINE
  8
0
 10
146.557114
 20
-184.098389
 11
146.557114
 21
-183.898392
  0
LINE
  8
0
 10
153.057114
 20
-184.098389
 11
153.057114
 21
-183.898392
  0
LINE
  8
0
 10
153.057114
 20
-183.898392
 11
146.557114
 21
-183.898392
  0
LINE
  8
0
 10
153.057114
 20
-181.298386
 11
146.557114
 21
-181.298386
  0
LINE
  8
0
 10
153.057114
 20
-181.498383
 11
146.557114
 21
-181.498383
  0
LINE
  8
0
 10
153.057114
 20
-184.098389
 11
146.557114
 21
-184.098389
  0
LINE
  8
0
 10
146.557114
 20
-181.498383
 11
146.557114
 21
-181.298386
  0
LINE
  8
0
 10
153.057114
 20
-181.498383
 11
153.057114
 21
-181.298386
  0
LINE
  8
0
 10
146.557114
 20
-181.498398
 11
146.987106
 21
-183.898392
  0
LINE
  8
0
 10
146.557114
 20
-184.098389
 11
146.987122
 21
-186.498398
  0
LINE
  8
0
 10
153.057114
 20
-184.098389
 11
152.637115
 21
-186.498383
  0
LINE
  8
0
 10
153.057098
 20
-181.498398
 11
152.637115
 21
-183.898376
  0
LINE
  8
0
 10
169.767105
 20
-144.108383
 11
176.677109
 21
-144.108383
  0
LINE
  8
0
 10
169.767105
 20
-143.608383
 11
174.837112
 21
-143.608383
  0
LINE
  8
0
 10
169.387100
 20
-144.608383
 11
176.927109
 21
-144.608383
  0
LINE
  8
0
 10
169.387100
 20
-145.108383
 11
177.527100
 21
-145.108383
  0
LINE
  8
0
 10
129.857117
 20
-144.108383
 11
122.947128
 21
-144.108383
  0
LINE
  8
0
 10
129.857117
 20
-143.608383
 11
124.787125
 21
-143.608383
  0
LINE
  8
0
 10
130.237122
 20
-144.608383
 11
122.687119
 21
-144.608383
  0
LINE
  8
0
 10
130.237122
 20
-145.108383
 11
122.097122
 21
-145.108383
  0
LINE
  8
0
 10
168.227112
 20
-161.608383
 11
131.397125
 21
-161.608383
  0
LINE
  8
0
 10
142.237122
 20
-163.108383
 11
157.387115
 21
-163.108383
  0
LINE
  8
0
 10
141.737122
 20
-162.608383
 11
141.737122
 21
-161.608383
  0
LINE
  8
0
 10
157.887115
 20
-162.608383
 11
157.887115
 21
-161.608383
  0
LINE
  8
0
 10
157.387100
 20
-163.108383
 11
157.887100
 21
-162.608383
  0
LINE
  8
0
 10
142.237106
 20
-163.108383
 11
141.737106
 21
-162.608383
  0
LINE
  8
0
 10
157.057114
 20
-164.398392
 11
142.557114
 21
-164.398392
  0
LINE
  8
0
 10
157.057114
 20
-164.398392
 11
157.557098
 21
-164.898392
  0
LINE
  8
0
 10
142.557114
 20
-164.398392
 11
142.057114
 21
-164.898392
  0
LINE
  8
0
 10
155.807114
 20
-163.108383
 11
155.807114
 21
-164.398392
  0
LINE
  8
0
 10
143.807114
 20
-163.108383
 11
143.807114
 21
-164.398392
  0
LINE
  8
0
 62
     2
 10
144.557114
 20
-163.108383
 11
144.557114
 21
-164.398392
  0
LINE
  8
0
 62
     2
 10
155.057114
 20
-163.108383
 11
155.057114
 21
-164.398392
  0
LINE
  8
0
 10
157.417114
 20
-167.398392
 11
156.247116
 21
-167.398392
  0
LINE
  8
0
 10
156.827118
 20
-167.688385
 11
156.247116
 21
-167.688385
  0
LINE
  8
0
 10
148.307114
 20
-167.398392
 11
145.497116
 21
-167.398392
  0
LINE
  8
0
 10
147.967117
 20
-167.688385
 11
146.157120
 21
-167.688385
  0
LINE
  8
0
 10
154.127106
 20
-167.398392
 11
151.307114
 21
-167.398392
  0
LINE
  8
0
 10
153.467117
 20
-167.688385
 11
151.657120
 21
-167.688385
  0
LINE
  8
0
 10
143.377121
 20
-167.398392
 11
142.207108
 21
-167.398392
  0
LINE
  8
0
 10
143.377121
 20
-167.688385
 11
142.797119
 21
-167.688385
  0
LINE
  8
0
 10
142.797119
 20
-167.688385
 11
142.207108
 21
-167.398392
  0
LINE
  8
0
 10
146.157104
 20
-167.688385
 11
145.497116
 21
-167.398392
  0
LINE
  8
0
 10
147.967102
 20
-167.688400
 11
148.307114
 21
-167.398392
  0
LINE
  8
0
 10
151.657120
 20
-167.688385
 11
151.307114
 21
-167.398376
  0
LINE
  8
0
 10
153.467117
 20
-167.688385
 11
154.127121
 21
-167.398392
  0
LINE
  8
0
 10
156.827118
 20
-167.688385
 11
157.417114
 21
-167.398392
  0
LINE
  8
0
 10
157.557114
 20
-164.898392
 11
142.057114
 21
-164.898392
  0
LINE
  8
0
 10
141.737122
 20
-162.608383
 11
157.887115
 21
-162.608383
  0
LINE
  8
0
 10
157.417114
 20
-167.398392
 11
157.417114
 21
-176.898392
  0
LINE
  8
0
 10
156.827118
 20
-167.688385
 11
156.827118
 21
-177.398392
  0
LINE
  8
0
 10
156.247116
 20
-167.398392
 11
156.247116
 21
-176.898392
  0
LINE
  8
0
 10
154.127106
 20
-167.398392
 11
154.127106
 21
-176.898392
  0
LINE
  8
0
 10
153.467117
 20
-167.688385
 11
153.467117
 21
-177.398392
  0
LINE
  8
0
 10
142.207108
 20
-167.398392
 11
142.207108
 21
-176.898392
  0
LINE
  8
0
 10
142.797119
 20
-167.688385
 11
142.797119
 21
-177.398392
  0
LINE
  8
0
 10
143.377121
 20
-167.398392
 11
143.377121
 21
-176.898392
  0
LINE
  8
0
 10
145.497116
 20
-167.398392
 11
145.497116
 21
-176.898392
  0
LINE
  8
0
 10
146.157120
 20
-167.688385
 11
146.157120
 21
-177.398392
  0
LINE
  8
0
 10
147.967117
 20
-167.688385
 11
147.967117
 21
-177.398392
  0
LINE
  8
0
 10
151.657120
 20
-167.688385
 11
151.657120
 21
-177.398392
  0
LINE
  8
0
 10
151.307114
 20
-167.398392
 11
151.307114
 21
-176.898392
  0
LINE
  8
0
 10
148.307114
 20
-167.398392
 11
148.307114
 21
-176.898392
  0
LINE
  8
0
 10
142.057114
 20
-164.898392
 11
142.057114
 21
-176.898392
  0
LINE
  8
0
 10
157.557114
 20
-164.898392
 11
157.557114
 21
-176.898392
  0
LINE
  8
0
 10
169.767105
 20
-108.118393
 11
176.677109
 21
-108.118393
  0
LINE
  8
0
 10
169.767105
 20
-102.118393
 11
176.677109
 21
-102.118393
  0
LINE
  8
0
 10
176.677109
 20
-68.118393
 11
169.767105
 21
-68.118393
  0
LINE
  8
0
 10
174.837112
 20
-68.618393
 11
169.767105
 21
-68.618393
  0
LINE
  8
0
 10
169.767105
 20
-108.618393
 11
174.837112
 21
-108.618393
  0
LINE
  8
0
 10
169.767105
 20
-101.618393
 11
174.837112
 21
-101.618393
  0
LINE
  8
0
 10
176.927109
 20
-67.618393
 11
169.387100
 21
-67.618393
  0
LINE
  8
0
 10
177.527100
 20
-67.118393
 11
169.387100
 21
-67.118393
  0
LINE
  8
0
 10
168.767105
 20
-69.118393
 11
168.767105
 21
-101.118393
  0
LINE
  8
0
 10
175.837112
 20
-69.618393
 11
175.837112
 21
-100.618393
  0
LINE
  8
0
 10
177.677109
 20
-69.118393
 11
177.677109
 21
-101.118393
  0
LINE
  8
0
 10
129.857117
 20
-108.118393
 11
122.947128
 21
-108.118393
  0
LINE
  8
0
 10
129.857117
 20
-102.118393
 11
122.947128
 21
-102.118393
  0
LINE
  8
0
 10
122.947128
 20
-68.118393
 11
129.857117
 21
-68.118393
  0
LINE
  8
0
 10
124.787125
 20
-68.618393
 11
129.857117
 21
-68.618393
  0
LINE
  8
0
 10
129.857117
 20
-108.618393
 11
124.787125
 21
-108.618393
  0
LINE
  8
0
 10
129.857117
 20
-101.618393
 11
124.787125
 21
-101.618393
  0
LINE
  8
0
 10
122.687119
 20
-67.618393
 11
130.237122
 21
-67.618393
  0
LINE
  8
0
 10
122.097122
 20
-67.118393
 11
130.237122
 21
-67.118393
  0
LINE
  8
0
 10
130.857117
 20
-69.118393
 11
130.857117
 21
-101.118393
  0
LINE
  8
0
 10
123.787125
 20
-69.618393
 11
123.787125
 21
-100.618393
  0
LINE
  8
0
 10
121.947128
 20
-69.118393
 11
121.947128
 21
-101.118393
  0
LINE
  8
0
 10
153.807114
 20
0.381592
 11
152.307114
 21
0.381592
  0
LINE
  8
0
 10
167.307114
 20
-4.618402
 11
167.807114
 21
-5.118403
  0
LINE
  8
0
 10
166.607101
 20
-4.618408
 11
167.307114
 21
-4.618408
  0
LINE
  8
0
 10
167.307114
 20
0.881592
 11
167.307114
 21
-4.618408
  0
LINE
  8
0
 10
164.607101
 20
-4.618404
 11
165.107101
 21
-5.118405
  0
LINE
  8
0
 10
166.607101
 20
-5.118408
 11
167.807114
 21
-5.118408
  0
LINE
  8
0
 10
166.107117
 20
0.881602
 11
166.607117
 21
0.381602
  0
LINE
  8
0
 10
166.107101
 20
0.881592
 11
167.307114
 21
0.881592
  0
LINE
  8
0
 10
164.607101
 20
0.881591
 11
165.107101
 21
0.381590
  0
LINE
  8
0
 10
161.557114
 20
0.881606
 11
162.057114
 21
0.381605
  0
LINE
  8
0
  6
CENTER
 62
     2
 10
83.147125
 20
-26.418396
 11
205.137100
 21
-26.418396
  0
LINE
  8
0
 10
168.807114
 20
-10.418396
 11
169.807114
 21
-11.418398
  0
LINE
  8
0
 10
129.807114
 20
-11.418400
 11
130.807114
 21
-10.418398
  0
LINE
  8
0
 10
172.807114
 20
-39.418396
 11
170.807114
 21
-39.418396
  0
LINE
  8
0
 10
172.807114
 20
-39.418396
 11
172.807114
 21
-41.418396
  0
LINE
  8
0
 10
120.807114
 20
-11.418396
 11
120.807114
 21
-41.418396
  0
LINE
  8
0
 10
171.807114
 20
-38.418396
 11
172.807114
 21
-39.418396
  0
LINE
  8
0
 10
171.807114
 20
-38.418396
 11
170.807114
 21
-38.418396
  0
LINE
  8
0
 62
     2
 10
129.807114
 20
-0.638397
 11
129.807114
 21
-12.738397
  0
LINE
  8
0
 10
139.807114
 20
-6.618408
 11
167.807114
 21
-6.618408
  0
LINE
  8
0
 10
140.307114
 20
-7.318405
 11
140.307114
 21
-10.418396
  0
LINE
  8
0
 10
167.307114
 20
-7.318405
 11
167.307114
 21
-10.418396
  0
LINE
  8
0
  6
CENTER
 62
     2
 10
153.807114
 20
17.501602
 11
153.807114
 21
-12.948397
  0
LINE
  8
0
 10
127.807114
 20
-38.418392
 11
126.807114
 21
-39.418396
  0
LINE
  8
0
 10
126.807114
 20
-39.418396
 11
128.807114
 21
-39.418396
  0
LINE
  8
0
 10
127.807114
 20
-38.418396
 11
128.807114
 21
-38.418396
  0
LINE
  8
0
 10
126.807114
 20
-39.418396
 11
126.807114
 21
-41.418396
  0
LINE
  8
0
 10
110.977127
 20
-61.418396
 11
188.637100
 21
-61.418396
  0
LINE
  8
0
 10
188.637115
 20
-61.418400
 11
187.567108
 21
-62.418400
  0
LINE
  8
0
 10
110.977119
 20
-61.418392
 11
112.047119
 21
-62.418392
  0
LINE
  8
0
 10
188.337112
 20
-41.418400
 11
189.307098
 21
-42.378391
  0
LINE
  8
0
 10
110.307114
 20
-42.408390
 11
111.247108
 21
-41.418392
  0
LINE
  8
0
 10
170.807114
 20
-41.418396
 11
188.337112
 21
-41.418396
  0
LINE
  8
0
 10
111.247116
 20
-41.418396
 11
128.807114
 21
-41.418396
  0
LINE
  8
0
 10
168.807114
 20
-10.418396
 11
168.807114
 21
-42.418396
  0
LINE
  8
0
 10
130.807114
 20
-10.418396
 11
130.807114
 21
-42.418396
  0
LINE
  8
0
 10
129.807114
 20
-11.418396
 11
169.807114
 21
-11.418396
  0
LINE
  8
0
 10
188.637115
 20
-61.418385
 11
189.307114
 21
-42.378395
  0
LINE
  8
0
 10
112.047119
 20
-62.418396
 11
187.567108
 21
-62.418396
  0
LINE
  8
0
 10
110.977127
 20
-61.418396
 11
110.307129
 21
-42.408394
  0
LINE
  8
0
 10
129.807114
 20
-11.418396
 11
129.807114
 21
-40.418396
  0
LINE
  8
0
 10
169.807114
 20
-11.418396
 11
169.807114
 21
-42.418396
  0
LINE
  8
0
 10
110.307114
 20
-42.418396
 11
189.307114
 21
-42.418396
  0
LINE
  8
0
 10
121.807114
 20
-10.418396
 11
168.807114
 21
-10.418396
  0
LINE
  8
0
 10
165.107117
 20
0.381592
 11
166.607101
 21
0.381592
  0
LINE
  8
0
 10
164.607117
 20
0.881592
 11
164.607117
 21
-4.618408
  0
LINE
  8
0
 10
162.057114
 20
-4.618408
 11
164.607117
 21
-4.618408
  0
LINE
  8
0
 10
161.557114
 20
0.881592
 11
164.607117
 21
0.881592
  0
LINE
  8
0
 10
159.467117
 20
0.381592
 11
162.057114
 21
0.381592
  0
LINE
  8
0
 10
155.307114
 20
-5.118403
 11
155.807114
 21
-4.618402
  0
LINE
  8
0
 10
158.967102
 20
-4.618410
 11
159.467102
 21
-5.118410
  0
LINE
  8
0
 10
158.967117
 20
0.881607
 11
159.467117
 21
0.381606
  0
LINE
  8
0
 10
155.807114
 20
0.881592
 11
158.967117
 21
0.881592
  0
LINE
  8
0
 10
155.307114
 20
0.381600
 11
155.807114
 21
0.881601
  0
LINE
  8
0
 10
153.807114
 20
0.381592
 11
155.307114
 21
0.381592
  0
LINE
  8
0
 10
158.967117
 20
0.881592
 11
158.967117
 21
-4.618408
  0
LINE
  8
0
 10
162.057114
 20
-5.118408
 11
165.107117
 21
-5.118408
  0
LINE
  8
0
 10
155.807114
 20
0.881592
 11
155.807114
 21
-4.618408
  0
LINE
  8
0
 10
155.807114
 20
-4.618408
 11
158.967117
 21
-4.618408
  0
LINE
  8
0
 10
155.307114
 20
-5.118408
 11
159.467117
 21
-5.118408
  0
LINE
  8
0
 10
166.607101
 20
0.381592
 11
166.607101
 21
-5.118408
  0
LINE
  8
0
 10
165.107117
 20
0.381592
 11
165.107117
 21
-5.118408
  0
LINE
  8
0
 10
162.057114
 20
0.381592
 11
162.057114
 21
-5.118408
  0
LINE
  8
0
 10
159.467117
 20
0.381592
 11
159.467117
 21
-5.118408
  0
LINE
  8
0
 10
155.307114
 20
0.381592
 11
155.307114
 21
-5.118408
  0
LINE
  8
0
 10
166.807114
 20
1.381599
 11
167.807114
 21
0.381603
  0
LINE
  8
0
 10
139.807129
 20
0.381588
 11
140.807129
 21
1.381589
  0
LINE
  8
0
 10
167.807114
 20
0.381592
 11
167.807114
 21
-6.618408
  0
LINE
  8
0
 10
139.807114
 20
0.381592
 11
139.807114
 21
-6.618408
  0
LINE
  8
0
 10
140.807114
 20
1.381592
 11
166.807114
 21
1.381592
  0
LINE
  8
0
 10
123.197128
 20
-8.918396
 11
121.807114
 21
-8.918396
  0
LINE
  8
0
 10
123.197128
 20
-8.418396
 11
122.307114
 21
-8.418396
  0
LINE
  8
0
 10
123.197128
 20
-2.918396
 11
123.197128
 21
-8.918396
  0
LINE
  8
0
 10
123.697113
 20
-2.418395
 11
123.197113
 21
-2.918395
  0
LINE
  8
0
 10
125.317123
 20
-2.918396
 11
123.197128
 21
-2.918396
  0
LINE
  8
0
 10
125.817116
 20
-2.418396
 11
125.317116
 21
-2.918396
  0
LINE
  8
0
 10
125.317123
 20
-2.918396
 11
125.317123
 21
-8.918396
  0
LINE
  8
0
 10
125.817116
 20
-8.418402
 11
125.317116
 21
-8.918403
  0
LINE
  8
0
 10
125.817123
 20
-2.418396
 11
125.817123
 21
-8.418396
  0
LINE
  8
0
 10
128.307114
 20
-8.918396
 11
125.317123
 21
-8.918396
  0
LINE
  8
0
 10
128.307114
 20
-8.918398
 11
127.807114
 21
-8.418397
  0
LINE
  8
0
 10
127.807114
 20
-8.418396
 11
125.817123
 21
-8.418396
  0
LINE
  8
0
 10
128.307114
 20
-2.918396
 11
128.307114
 21
-8.918396
  0
LINE
  8
0
 10
127.807114
 20
-2.418396
 11
127.807114
 21
-8.418396
  0
LINE
  8
0
 10
128.307129
 20
-2.918405
 11
127.807114
 21
-2.418402
  0
LINE
  8
0
 10
129.807114
 20
-2.918396
 11
128.307114
 21
-2.918396
  0
LINE
  8
0
 10
137.307129
 20
-8.418406
 11
137.807114
 21
-8.918400
  0
LINE
  8
0
 10
137.307114
 20
-2.418400
 11
137.807114
 21
-2.918401
  0
LINE
  8
0
 10
121.807121
 20
-2.918407
 11
122.307121
 21
-2.418406
  0
LINE
  8
0
 10
137.307114
 20
-2.418396
 11
137.307114
 21
-8.418396
  0
LINE
  8
0
 10
136.427109
 20
-8.418396
 11
137.307114
 21
-8.418396
  0
LINE
  8
0
 10
136.427109
 20
-8.918396
 11
137.807114
 21
-8.918396
  0
LINE
  8
0
 10
135.927109
 20
-2.418399
 11
136.427109
 21
-2.918400
  0
LINE
  8
0
 10
133.807114
 20
-8.418402
 11
134.307114
 21
-8.918403
  0
LINE
  8
0
 10
133.807114
 20
-2.418393
 11
134.307114
 21
-2.918394
  0
LINE
  8
0
 10
134.307114
 20
-2.918396
 11
136.427109
 21
-2.918396
  0
LINE
  8
0
 10
133.807114
 20
-2.418396
 11
133.807114
 21
-8.418396
  0
LINE
  8
0
 10
131.307114
 20
-8.918397
 11
131.807114
 21
-8.418397
  0
LINE
  8
0
 10
131.307129
 20
-2.918407
 11
131.807129
 21
-2.418406
  0
LINE
  8
0
 10
136.427109
 20
-2.918396
 11
136.427109
 21
-8.918396
  0
LINE
  8
0
 10
134.307114
 20
-2.918396
 11
134.307114
 21
-8.918396
  0
LINE
  8
0
 10
131.807114
 20
-8.418396
 11
133.807114
 21
-8.418396
  0
LINE
  8
0
 10
131.807114
 20
-2.418396
 11
131.807114
 21
-8.418396
  0
LINE
  8
0
 10
131.307114
 20
-8.918396
 11
134.307114
 21
-8.918396
  0
LINE
  8
0
 10
131.307114
 20
-2.918396
 11
131.307114
 21
-8.918396
  0
LINE
  8
0
 10
121.807114
 20
-2.918396
 11
121.807114
 21
-10.418396
  0
LINE
  8
0
 10
129.807114
 20
-2.918396
 11
131.307114
 21
-2.918396
  0
LINE
  8
0
 10
122.307114
 20
-2.418396
 11
137.307114
 21
-2.418396
  0
LINE
  8
0
 10
122.307114
 20
-2.418396
 11
122.307114
 21
-8.418396
  0
LINE
  8
0
 10
137.807114
 20
-2.918396
 11
137.807114
 21
-10.418396
  0
LINE
  8
0
 10
122.307114
 20
-8.418397
 11
121.807114
 21
-8.918397
  0
LINE
  8
0
 10
140.307114
 20
0.881592
 11
141.507111
 21
0.881592
  0
LINE
  8
0
 10
161.007111
 20
2.381592
 11
161.007111
 21
1.381592
  0
LINE
  8
0
 10
146.607117
 20
2.381592
 11
146.607117
 21
1.381592
  0
LINE
  8
0
 10
146.607117
 20
2.381592
 11
161.007111
 21
2.381592
  0
LINE
  8
0
 10
160.757111
 20
8.431595
 11
160.757111
 21
2.381592
  0
LINE
  8
0
 10
146.857117
 20
8.431595
 11
146.857117
 21
2.381592
  0
LINE
  8
0
 10
140.307114
 20
-4.618404
 11
139.807114
 21
-5.118405
  0
LINE
  8
0
 10
141.007111
 20
-5.118408
 11
139.807114
 21
-5.118408
  0
LINE
  8
0
 10
141.007111
 20
-4.618408
 11
140.307114
 21
-4.618408
  0
LINE
  8
0
 10
141.007111
 20
0.381592
 11
141.007111
 21
-5.118408
  0
LINE
  8
0
 10
140.307114
 20
0.881592
 11
140.307114
 21
-4.618408
  0
LINE
  8
0
 10
141.507126
 20
0.881594
 11
141.007126
 21
0.381593
  0
LINE
  8
0
 10
142.507111
 20
0.381592
 11
141.007111
 21
0.381592
  0
LINE
  8
0
 10
143.007111
 20
0.881599
 11
142.507111
 21
0.381598
  0
LINE
  8
0
 10
142.507111
 20
0.381592
 11
142.507111
 21
-5.118408
  0
LINE
  8
0
 10
143.007111
 20
-4.618403
 11
142.507111
 21
-5.118404
  0
LINE
  8
0
 10
143.007111
 20
0.881592
 11
143.007111
 21
-4.618408
  0
LINE
  8
0
 10
145.557114
 20
-5.118408
 11
142.507111
 21
-5.118408
  0
LINE
  8
0
 10
145.557114
 20
-4.618408
 11
143.007111
 21
-4.618408
  0
LINE
  8
0
 10
145.557114
 20
0.381592
 11
145.557114
 21
-5.118408
  0
LINE
  8
0
 10
146.057114
 20
0.881592
 11
143.007111
 21
0.881592
  0
LINE
  8
0
 10
146.057114
 20
0.881591
 11
145.557114
 21
0.381593
  0
LINE
  8
0
 10
148.647110
 20
-4.618398
 11
148.147110
 21
-5.118393
  0
LINE
  8
0
 10
148.147110
 20
0.381592
 11
145.557114
 21
0.381592
  0
LINE
  8
0
 10
148.147110
 20
0.381592
 11
148.147110
 21
-5.118408
  0
LINE
  8
0
 10
148.647110
 20
0.881592
 11
148.647110
 21
-4.618408
  0
LINE
  8
0
 10
148.647110
 20
0.881597
 11
148.147110
 21
0.381596
  0
LINE
  8
0
 10
151.807114
 20
0.881592
 11
148.647110
 21
0.881592
  0
LINE
  8
0
 10
152.307114
 20
-5.118408
 11
148.147110
 21
-5.118408
  0
LINE
  8
0
 10
151.807114
 20
-4.618408
 11
148.647110
 21
-4.618408
  0
LINE
  8
0
 10
152.307114
 20
-5.118405
 11
151.807114
 21
-4.618410
  0
LINE
  8
0
 10
151.807114
 20
0.881592
 11
151.807114
 21
-4.618408
  0
LINE
  8
0
 10
152.307114
 20
0.381592
 11
152.307114
 21
-5.118408
  0
LINE
  8
0
 10
152.307098
 20
0.381593
 11
151.807098
 21
0.881594
  0
LINE
  8
0
 10
194.807114
 20
18.581604
 11
194.807114
 21
-71.418396
  0
LINE
  8
0
 10
186.807114
 20
17.581604
 11
186.807114
 21
-1.418396
  0
LINE
  8
0
 10
187.807114
 20
18.581604
 11
194.807114
 21
18.581604
  0
LINE
  8
0
 10
187.807114
 20
-71.418396
 11
194.807114
 21
-71.418396
  0
LINE
  8
0
 10
177.807098
 20
-10.418401
 11
186.807098
 21
-1.418397
  0
LINE
  8
0
 10
186.807114
 20
-62.418396
 11
186.807114
 21
-70.418396
  0
LINE
  8
0
 10
187.807114
 20
15.581604
 11
194.807114
 21
15.581604
  0
LINE
  8
0
 10
187.807114
 20
-68.418396
 11
194.807114
 21
-68.418396
  0
LINE
  8
0
 10
187.807114
 20
-62.198395
 11
187.807114
 21
-71.418396
  0
LINE
  8
0
 10
178.217102
 20
-11.418397
 11
187.807098
 21
-1.838397
  0
LINE
  8
0
 10
187.807114
 20
18.581604
 11
187.807114
 21
-1.838409
  0
LINE
  8
0
 10
169.807114
 20
-10.418396
 11
169.807114
 21
-11.418396
  0
LINE
  8
0
 10
169.807114
 20
-11.418396
 11
178.217102
 21
-11.418396
  0
LINE
  8
0
 10
186.807114
 20
-1.418401
 11
187.807098
 21
-1.838400
  0
LINE
  8
0
 10
186.807098
 20
-70.418381
 11
187.807098
 21
-71.418381
  0
LINE
  8
0
 10
186.807098
 20
17.581602
 11
187.807098
 21
18.581604
  0
LINE
  8
0
 10
186.807114
 20
-67.418404
 11
187.807114
 21
-68.418404
  0
LINE
  8
0
 10
186.807129
 20
14.581602
 11
187.807129
 21
15.581603
  0
LINE
  8
0
 10
168.807114
 20
-10.418396
 11
177.807114
 21
-10.418396
  0
LINE
  8
0
 10
178.217102
 20
-11.418400
 11
177.807114
 21
-10.418395
  0
LINE
  8
0
 10
169.807114
 20
-11.418396
 11
178.217102
 21
-11.418396
  0
LINE
  8
0
  6
CENTER
 62
     2
 10
182.967102
 20
-61.418396
 11
199.207108
 21
-61.418396
  0
LINE
  8
0
  6
CENTER
 62
     2
 10
183.307114
 20
8.581604
 11
199.207108
 21
8.581604
  0
LINE
  8
0
 10
139.807114
 20
-1.418396
 11
136.807114
 21
-1.418396
  0
LINE
  8
0
 10
135.807114
 20
-2.418402
 11
136.807114
 21
-1.418401
  0
LINE
  8
0
 10
138.757126
 20
-1.718401
 11
138.167114
 21
-2.418405
  0
LINE
  8
0
 10
138.167114
 20
-2.418396
 11
138.167114
 21
-8.418396
  0
LINE
  8
0
 10
138.167114
 20
-8.018402
 11
137.807114
 21
-8.018402
  0
LINE
  8
0
 10
137.807114
 20
-8.418396
 11
138.167114
 21
-8.418396
  0
LINE
  8
0
 10
136.767120
 20
-1.718399
 11
136.767120
 21
-2.418396
  0
LINE
  8
0
 10
136.807114
 20
-1.718399
 11
138.757111
 21
-1.718399
  0
LINE
  8
0
 10
136.767120
 20
-1.718407
 11
136.077118
 21
-2.418410
  0
LINE
  8
0
 10
138.757111
 20
-1.718399
 11
136.807114
 21
-1.718399
  0
LINE
  8
0
 10
138.167114
 20
-2.418396
 11
139.807114
 21
-2.418396
  0
LINE
  8
0
 10
92.807114
 20
-47.418396
 11
110.487122
 21
-47.418396
  0
LINE
  8
0
 10
90.307121
 20
-5.168397
 11
89.807121
 21
-5.668398
  0
LINE
  8
0
 10
90.307121
 20
-47.668392
 11
89.807121
 21
-47.168392
  0
LINE
  8
0
 10
92.807114
 20
-5.418396
 11
113.307114
 21
-5.418396
  0
LINE
  8
0
 10
89.807114
 20
-5.668396
 11
89.807114
 21
-47.168396
  0
LINE
  8
0
 10
90.307114
 20
-47.668396
 11
92.807114
 21
-47.668396
  0
LINE
  8
0
 10
90.307114
 20
-5.168396
 11
90.307114
 21
-47.668396
  0
LINE
  8
0
 10
116.307114
 20
-8.418396
 11
116.307114
 21
-41.418396
  0
LINE
  8
0
 10
92.807114
 20
-5.168396
 11
92.807114
 21
-47.668396
  0
LINE
  8
0
 10
120.807114
 20
-33.418396
 11
116.307114
 21
-33.418396
  0
LINE
  8
0
 10
120.807114
 20
-19.418396
 11
116.307114
 21
-19.418396
  0
LINE
  8
0
 10
120.807129
 20
-27.818390
 11
116.307121
 21
-19.418385
  0
LINE
  8
0
 10
116.307121
 20
-33.418404
 11
120.807121
 21
-25.018402
  0
LINE
  8
0
 10
90.307114
 20
-5.168396
 11
92.807114
 21
-5.168396
  0
LINE
  8
0
 10
90.307121
 20
-5.168397
 11
89.807121
 21
-5.668398
  0
LINE
  8
0
 10
171.477112
 20
-21.028397
 11
171.477112
 21
-31.808395
  0
LINE
  8
0
 10
170.777100
 20
-33.018391
 11
171.477097
 21
-31.808395
  0
LINE
  8
0
 10
170.777100
 20
-19.818396
 11
171.477097
 21
-21.028395
  0
LINE
  8
0
 10
170.777115
 20
-33.018394
 11
169.807098
 21
-32.988396
  0
LINE
  8
0
 10
169.807098
 20
-32.138397
 11
171.257111
 21
-32.178394
  0
LINE
  8
0
 10
169.807098
 20
-20.698399
 11
171.257111
 21
-20.658398
  0
LINE
  8
0
 10
169.807098
 20
-19.848398
 11
170.777115
 21
-19.818398
  0
LINE
  8
0
 10
170.777100
 20
-19.818398
 11
170.777100
 21
-33.018394
  0
LINE
  8
0
 10
92.807114
 20
-26.418396
 11
90.307114
 21
-26.418396
  0
LINE
  8
0
 10
116.397125
 20
-146.738388
 11
115.657127
 21
-62.418388
  0
LINE
  8
0
 10
183.227127
 20
-146.738388
 11
183.967133
 21
-62.418385
  0
LINE
  8
0
 10
177.677109
 20
-109.118393
 11
177.677109
 21
-143.108383
  0
LINE
  8
0
 10
175.837112
 20
-109.618393
 11
175.837112
 21
-142.608383
  0
LINE
  8
0
 10
168.767105
 20
-109.118393
 11
168.767105
 21
-143.108383
  0
LINE
  8
0
 10
168.387100
 20
-68.118393
 11
168.387100
 21
-144.108383
  0
LINE
  8
0
 10
177.927109
 20
-68.618393
 11
177.927109
 21
-143.608383
  0
LINE
  8
0
 10
178.527100
 20
-68.118393
 11
178.527100
 21
-144.108383
  0
LINE
  8
0
 10
121.947128
 20
-109.118393
 11
121.947128
 21
-143.108383
  0
LINE
  8
0
 10
123.787125
 20
-109.618393
 11
123.787125
 21
-142.608383
  0
LINE
  8
0
 10
130.857117
 20
-109.118393
 11
130.857117
 21
-143.108383
  0
LINE
  8
0
 10
131.237122
 20
-68.118393
 11
131.237122
 21
-144.108383
  0
LINE
  8
0
 10
121.687119
 20
-68.618393
 11
121.687119
 21
-143.608383
  0
LINE
  8
0
 10
121.097122
 20
-68.118393
 11
121.097122
 21
-144.108383
  0
LINE
  8
0
  6
CENTER
 62
     2
 10
149.807114
 20
-6.478409
 11
149.807114
 21
-190.678391
  0
LINE
  8
0
  6
CENTER
 62
     2
 10
-6.438583
 20
6.451599
 11
-6.438583
 21
-163.898392
  0
LINE
  8
0
 10
-43.704010
 20
-70.418396
 11
-64.528580
 21
-70.418396
  0
LINE
  8
0
 10
-26.398575
 20
-144.108383
 11
-33.298584
 21
-144.108383
  0
LINE
  8
0
 10
-26.398575
 20
-143.608383
 11
-31.468582
 21
-143.608383
  0
LINE
  8
0
 10
-26.008575
 20
-144.608383
 11
-33.558578
 21
-144.608383
  0
LINE
  8
0
 10
-26.008575
 20
-145.108383
 11
-34.158585
 21
-145.108383
  0
LINE
  8
0
 10
13.521423
 20
-144.108383
 11
20.421417
 21
-144.108383
  0
LINE
  8
0
 10
13.521423
 20
-143.608383
 11
18.591415
 21
-143.608383
  0
LINE
  8
0
 10
13.131424
 20
-144.608383
 11
20.681412
 21
-144.608383
  0
LINE
  8
0
 10
13.131424
 20
-145.108383
 11
21.281418
 21
-145.108383
  0
LINE
  8
0
 10
-43.358582
 20
-64.418388
 11
-42.278584
 21
-64.398384
  0
LINE
  8
0
 10
-43.838585
 20
-64.938393
 11
-43.358589
 21
-64.418388
  0
LINE
  8
0
 10
-42.328575
 20
-62.418381
 11
-42.278576
 21
-64.398392
  0
LINE
  8
0
 10
-42.898579
 20
-62.418381
 11
-42.858578
 21
-64.408386
  0
LINE
  8
0
 10
-26.398575
 20
-108.118393
 11
-33.298584
 21
-108.118393
  0
LINE
  8
0
 10
-26.398575
 20
-102.118393
 11
-33.298584
 21
-102.118393
  0
LINE
  8
0
 10
-33.298584
 20
-68.118393
 11
-26.398575
 21
-68.118393
  0
LINE
  8
0
 10
-31.468582
 20
-68.618393
 11
-26.398575
 21
-68.618393
  0
LINE
  8
0
 10
-26.398575
 20
-108.618393
 11
-31.468582
 21
-108.618393
  0
LINE
  8
0
 10
-26.398575
 20
-101.618393
 11
-31.468582
 21
-101.618393
  0
LINE
  8
0
 10
-33.558578
 20
-67.618393
 11
-26.008575
 21
-67.618393
  0
LINE
  8
0
 10
-34.158585
 20
-67.118393
 11
-26.008575
 21
-67.118393
  0
LINE
  8
0
 10
-25.398575
 20
-69.118393
 11
-25.398575
 21
-101.118393
  0
LINE
  8
0
 10
-32.468582
 20
-69.618393
 11
-32.468582
 21
-100.618393
  0
LINE
  8
0
 10
-34.298584
 20
-69.118393
 11
-34.298584
 21
-101.118393
  0
LINE
  8
0
 10
13.521423
 20
-108.118393
 11
20.421417
 21
-108.118393
  0
LINE
  8
0
 10
13.521423
 20
-102.118393
 11
20.421417
 21
-102.118393
  0
LINE
  8
0
 10
20.421417
 20
-68.118393
 11
13.521423
 21
-68.118393
  0
LINE
  8
0
 10
18.591415
 20
-68.618393
 11
13.521423
 21
-68.618393
  0
LINE
  8
0
 10
13.521423
 20
-108.618393
 11
18.591415
 21
-108.618393
  0
LINE
  8
0
 10
13.521423
 20
-101.618393
 11
18.591415
 21
-101.618393
  0
LINE
  8
0
 10
20.681412
 20
-67.618393
 11
13.131424
 21
-67.618393
  0
LINE
  8
0
 10
21.281418
 20
-67.118393
 11
13.131424
 21
-67.118393
  0
LINE
  8
0
 10
12.521423
 20
-69.118393
 11
12.521423
 21
-101.118393
  0
LINE
  8
0
 10
19.591415
 20
-69.618393
 11
19.591415
 21
-100.618393
  0
LINE
  8
0
 10
21.421417
 20
-69.118393
 11
21.421417
 21
-101.118393
  0
LINE
  8
0
 10
-40.328579
 20
-92.318398
 11
-43.108578
 21
-88.338402
  0
LINE
  8
0
 10
-43.168583
 20
-88.168388
 11
-43.248581
 21
-78.818382
  0
LINE
  8
0
 10
-40.478584
 20
-74.488388
 11
-43.248581
 21
-78.818390
  0
LINE
  8
0
 10
-43.298588
 20
-86.928398
 11
-43.178589
 21
-87.048401
  0
LINE
  8
0
 10
-43.358589
 20
-64.418388
 11
-43.008591
 21
-78.448387
  0
LINE
  8
0
 10
-43.838589
 20
-64.938393
 11
-43.298588
 21
-86.928391
  0
LINE
  8
0
 10
-40.478573
 20
-74.488388
 11
-40.588573
 21
-62.418388
  0
LINE
  8
0
 10
22.281418
 20
-68.118393
 11
22.281418
 21
-144.108383
  0
LINE
  8
0
 10
21.681412
 20
-68.618393
 11
21.681412
 21
-143.608383
  0
LINE
  8
0
 10
12.131424
 20
-68.118393
 11
12.131424
 21
-144.108383
  0
LINE
  8
0
 10
12.521423
 20
-109.118393
 11
12.521423
 21
-143.108383
  0
LINE
  8
0
 10
19.591415
 20
-109.618393
 11
19.591415
 21
-142.608383
  0
LINE
  8
0
 10
21.421417
 20
-109.118393
 11
21.421417
 21
-143.108383
  0
LINE
  8
0
 10
-35.158585
 20
-68.118393
 11
-35.158585
 21
-144.108383
  0
LINE
  8
0
 10
-34.558578
 20
-68.618393
 11
-34.558578
 21
-143.608383
  0
LINE
  8
0
 10
-25.008575
 20
-68.118393
 11
-25.008575
 21
-144.108383
  0
LINE
  8
0
 10
-25.398575
 20
-109.118393
 11
-25.398575
 21
-143.108383
  0
LINE
  8
0
 10
-32.468582
 20
-109.618393
 11
-32.468582
 21
-142.608383
  0
LINE
  8
0
 10
-34.298584
 20
-109.118393
 11
-34.298584
 21
-143.108383
  0
LINE
  8
0
 10
-39.848583
 20
-146.738388
 11
-40.328583
 21
-92.318382
  0
LINE
  8
0
 10
26.981422
 20
-146.738388
 11
27.711422
 21
-62.418388
  0
LINE
  8
0
 10
-195.998581
 20
-144.108383
 11
-202.898575
 21
-144.108383
  0
LINE
  8
0
 10
-195.998581
 20
-143.608383
 11
-201.068573
 21
-143.608383
  0
LINE
  8
0
 10
-195.608582
 20
-144.608383
 11
-203.158569
 21
-144.608383
  0
LINE
  8
0
 10
-195.608582
 20
-145.108383
 11
-203.758575
 21
-145.108383
  0
LINE
  8
0
 10
-156.078583
 20
-144.108383
 11
-149.178589
 21
-144.108383
  0
LINE
  8
0
 10
-156.078583
 20
-143.608383
 11
-151.008575
 21
-143.608383
  0
LINE
  8
0
 10
-156.468582
 20
-144.608383
 11
-148.918579
 21
-144.608383
  0
LINE
  8
0
 10
-156.468582
 20
-145.108383
 11
-148.318588
 21
-145.108383
  0
LINE
  8
0
 10
-212.958572
 20
-64.418388
 11
-211.878571
 21
-64.398392
  0
LINE
  8
0
 10
-213.438583
 20
-64.938393
 11
-212.958572
 21
-64.418381
  0
LINE
  8
0
 10
-211.928574
 20
-62.418385
 11
-211.878571
 21
-64.398392
  0
LINE
  8
0
 10
-212.498566
 20
-62.418385
 11
-212.458557
 21
-64.408386
  0
LINE
  8
0
 10
-195.998581
 20
-108.118393
 11
-202.898575
 21
-108.118393
  0
LINE
  8
0
 10
-195.998581
 20
-102.118393
 11
-202.898575
 21
-102.118393
  0
LINE
  8
0
 10
-202.898575
 20
-68.118393
 11
-195.998581
 21
-68.118393
  0
LINE
  8
0
 10
-201.068573
 20
-68.618393
 11
-195.998581
 21
-68.618393
  0
LINE
  8
0
 10
-195.998581
 20
-108.618393
 11
-201.068573
 21
-108.618393
  0
LINE
  8
0
 10
-195.998581
 20
-101.618393
 11
-201.068573
 21
-101.618393
  0
LINE
  8
0
 10
-203.158569
 20
-67.618393
 11
-195.608582
 21
-67.618393
  0
LINE
  8
0
 10
-203.758575
 20
-67.118393
 11
-195.608582
 21
-67.118393
  0
LINE
  8
0
 10
-194.998581
 20
-69.118393
 11
-194.998581
 21
-101.118393
  0
LINE
  8
0
 10
-202.068573
 20
-69.618393
 11
-202.068573
 21
-100.618393
  0
LINE
  8
0
 10
-203.898575
 20
-69.118393
 11
-203.898575
 21
-101.118393
  0
LINE
  8
0
 10
-156.078583
 20
-108.118393
 11
-149.178589
 21
-108.118393
  0
LINE
  8
0
 10
-156.078583
 20
-102.118393
 11
-149.178589
 21
-102.118393
  0
LINE
  8
0
 10
-149.178589
 20
-68.118393
 11
-156.078583
 21
-68.118393
  0
LINE
  8
0
 10
-151.008575
 20
-68.618393
 11
-156.078583
 21
-68.618393
  0
LINE
  8
0
 10
-156.078583
 20
-108.618393
 11
-151.008575
 21
-108.618393
  0
LINE
  8
0
 10
-156.078583
 20
-101.618393
 11
-151.008575
 21
-101.618393
  0
LINE
  8
0
 10
-148.918579
 20
-67.618393
 11
-156.468582
 21
-67.618393
  0
LINE
  8
0
 10
-148.318588
 20
-67.118393
 11
-156.468582
 21
-67.118393
  0
LINE
  8
0
 10
-157.078583
 20
-69.118393
 11
-157.078583
 21
-101.118393
  0
LINE
  8
0
 10
-150.008575
 20
-69.618393
 11
-150.008575
 21
-100.618393
  0
LINE
  8
0
 10
-148.178589
 20
-69.118393
 11
-148.178589
 21
-101.118393
  0
LINE
  8
0
 10
-209.928574
 20
-92.318390
 11
-212.708572
 21
-88.338394
  0
LINE
  8
0
 10
-212.768570
 20
-88.168388
 11
-212.848572
 21
-78.818390
  0
LINE
  8
0
 10
-210.078568
 20
-74.488373
 11
-212.848587
 21
-78.818382
  0
LINE
  8
0
 10
-212.898575
 20
-86.928391
 11
-212.778580
 21
-87.048393
  0
LINE
  8
0
 10
-212.958557
 20
-64.418388
 11
-212.608566
 21
-78.448387
  0
LINE
  8
0
 10
-213.438568
 20
-64.938385
 11
-212.898575
 21
-86.928398
  0
LINE
  8
0
 10
-210.078568
 20
-74.488396
 11
-210.188568
 21
-62.418385
  0
LINE
  8
0
 10
-147.318588
 20
-68.118393
 11
-147.318588
 21
-144.108383
  0
LINE
  8
0
 10
-147.918579
 20
-68.618393
 11
-147.918579
 21
-143.608383
  0
LINE
  8
0
 10
-157.468582
 20
-68.118393
 11
-157.468582
 21
-144.108383
  0
LINE
  8
0
 10
-157.078583
 20
-109.118393
 11
-157.078583
 21
-143.108383
  0
LINE
  8
0
 10
-150.008575
 20
-109.618393
 11
-150.008575
 21
-142.608383
  0
LINE
  8
0
 10
-148.178589
 20
-109.118393
 11
-148.178589
 21
-143.108383
  0
LINE
  8
0
 10
-204.758575
 20
-68.118393
 11
-204.758575
 21
-144.108383
  0
LINE
  8
0
 10
-204.158569
 20
-68.618393
 11
-204.158569
 21
-143.608383
  0
LINE
  8
0
 10
-194.608582
 20
-68.118393
 11
-194.608582
 21
-144.108383
  0
LINE
  8
0
 10
-194.998581
 20
-109.118393
 11
-194.998581
 21
-143.108383
  0
LINE
  8
0
 10
-202.068573
 20
-109.618393
 11
-202.068573
 21
-142.608383
  0
LINE
  8
0
 10
-203.898575
 20
-109.118393
 11
-203.898575
 21
-143.108383
  0
LINE
  8
0
 10
-209.448578
 20
-146.738388
 11
-209.928574
 21
-92.318398
  0
LINE
  8
0
 10
-142.618576
 20
-146.738388
 11
-141.888580
 21
-62.418392
  0
LINE
  8
0
 10
-214.538574
 20
-62.418396
 11
-137.538574
 21
-62.418396
  0
LINE
  8
0
 10
-215.538574
 20
-42.418396
 11
-215.538574
 21
-61.418396
  0
LINE
  8
0
 10
-136.538574
 20
-42.418396
 11
-136.538574
 21
-61.418396
  0
LINE
  8
0
 10
-215.538559
 20
-61.418377
 11
-214.538574
 21
-62.418373
  0
LINE
  8
0
 10
-136.538589
 20
-61.418396
 11
-137.538574
 21
-62.418385
  0
LINE
  8
0
 10
-215.538574
 20
-61.418396
 11
-136.538574
 21
-61.418396
  0
LINE
  8
0
 10
-209.108582
 20
-41.418396
 11
-145.538574
 21
-41.418396
  0
LINE
  8
0
 10
-210.108582
 20
-42.418396
 11
-209.108582
 21
-41.418392
  0
LINE
  8
0
 10
-141.978592
 20
-42.418396
 11
-142.978577
 21
-41.418404
  0
LINE
  8
0
 10
-216.038574
 20
-42.418396
 11
-136.038574
 21
-42.418396
  0
LINE
  8
0
 10
-215.038574
 20
-10.418396
 11
-137.038574
 21
-10.418396
  0
LINE
  8
0
 10
-216.038574
 20
-11.418396
 11
-216.038574
 21
-42.418396
  0
LINE
  8
0
 10
-136.038574
 20
-41.418396
 11
-136.038574
 21
-42.418396
  0
LINE
  8
0
 10
-196.348587
 20
-14.418396
 11
-196.348587
 21
-41.418396
  0
LINE
  8
0
 10
-155.738586
 20
-14.418396
 11
-155.738586
 21
-41.418396
  0
LINE
  8
0
 10
-195.348587
 20
-13.418396
 11
-156.738586
 21
-13.418396
  0
LINE
  8
0
 10
-215.038574
 20
-10.418396
 11
-215.038574
 21
-42.418396
  0
LINE
  8
0
 10
-137.038574
 20
-10.418396
 11
-137.038574
 21
-11.418396
  0
LINE
  8
0
 10
-216.038574
 20
-11.418396
 11
-145.538574
 21
-11.418396
  0
LINE
  8
0
 10
-215.038559
 20
-10.418399
 11
-216.038559
 21
-11.418400
  0
LINE
  8
0
 10
-137.038589
 20
-10.418395
 11
-136.038589
 21
-11.418397
  0
LINE
  8
0
 10
-196.348587
 20
-14.418396
 11
-155.738586
 21
-14.418396
  0
LINE
  8
0
 10
-156.738586
 20
-13.418400
 11
-155.738586
 21
-14.418402
  0
LINE
  8
0
 10
-196.348602
 20
-14.418408
 11
-195.348587
 21
-13.418406
  0
LINE
  8
0
 10
-211.038574
 20
-9.718399
 11
-211.038574
 21
-10.418396
  0
LINE
  8
0
 10
-203.038574
 20
-9.718399
 11
-203.038574
 21
-10.418396
  0
LINE
  8
0
 10
-211.038574
 20
-9.718399
 11
-203.038574
 21
-9.718399
  0
LINE
  8
0
 10
-151.038574
 20
-16.418396
 11
-151.038574
 21
-36.418396
  0
LINE
  8
0
 10
-151.038574
 20
-16.418396
 11
-145.538574
 21
-16.418396
  0
LINE
  8
0
 10
-151.038574
 20
-36.418396
 11
-145.538574
 21
-36.418396
  0
LINE
  8
0
 10
-150.338577
 20
-17.128395
 11
-145.538574
 21
-17.128395
  0
LINE
  8
0
 10
-150.338577
 20
-17.128395
 11
-150.338577
 21
-35.708397
  0
LINE
  8
0
 10
-150.338577
 20
-35.708397
 11
-145.538574
 21
-35.708397
  0
LINE
  8
0
 10
-151.038589
 20
-16.418396
 11
-150.338593
 21
-17.128397
  0
LINE
  8
0
 10
-151.038589
 20
-36.418392
 11
-150.338593
 21
-35.708397
  0
LINE
  8
0
 10
-211.038574
 20
-16.418396
 11
-211.038574
 21
-36.418396
  0
LINE
  8
0
 10
-201.038574
 20
-16.418396
 11
-201.038574
 21
-36.418396
  0
LINE
  8
0
 10
-201.038574
 20
-16.418396
 11
-211.038574
 21
-16.418396
  0
LINE
  8
0
 10
-201.038574
 20
-36.418396
 11
-211.038574
 21
-36.418396
  0
LINE
  8
0
 10
-210.338577
 20
-17.128395
 11
-210.338577
 21
-35.708397
  0
LINE
  8
0
 10
-201.748581
 20
-17.128395
 11
-210.338577
 21
-17.128395
  0
LINE
  8
0
 10
-201.748581
 20
-17.128395
 11
-201.748581
 21
-35.708397
  0
LINE
  8
0
 10
-201.748581
 20
-35.708397
 11
-210.338577
 21
-35.708397
  0
LINE
  8
0
 10
-201.038589
 20
-16.418411
 11
-201.748581
 21
-17.128403
  0
LINE
  8
0
 10
-211.038574
 20
-16.418400
 11
-210.338577
 21
-17.128408
  0
LINE
  8
0
 10
-211.038574
 20
-36.418400
 11
-210.338577
 21
-35.708401
  0
LINE
  8
0
 10
-201.038589
 20
-36.418385
 11
-201.748581
 21
-35.708385
  0
LINE
  8
0
 10
-67.938583
 20
-68.418396
 11
-67.938583
 21
-38.418396
  0
LINE
  8
0
 10
-39.938583
 20
18.581604
 11
-64.938583
 21
18.581604
  0
LINE
  8
0
 10
-43.679459
 20
-71.418396
 11
-64.938583
 21
-71.418396
  0
LINE
  8
0
 10
-45.438583
 20
-10.418396
 11
-66.938583
 21
-10.418396
  0
LINE
  8
0
 10
-46.438583
 20
-42.418396
 11
-66.938583
 21
-42.418396
  0
LINE
  8
0
 10
-66.938583
 20
-67.998383
 11
-66.938583
 21
-42.418396
  0
LINE
  8
0
 10
-66.938591
 20
-10.418401
 11
-67.938591
 21
-11.418402
  0
LINE
  8
0
 10
-66.938591
 20
-42.418392
 11
-67.938591
 21
-41.418392
  0
LINE
  8
0
 10
-37.938583
 20
-9.718399
 11
-37.938583
 21
15.161591
  0
LINE
  8
0
 10
-66.938583
 20
-10.418396
 11
-66.938583
 21
15.161591
  0
LINE
  8
0
 10
-36.938572
 20
15.581605
 11
-39.938580
 21
18.581610
  0
LINE
  8
0
 10
-64.938583
 20
-71.418404
 11
-67.938591
 21
-68.418396
  0
LINE
  8
0
 10
-64.938583
 20
18.581610
 11
-67.938591
 21
15.581605
  0
LINE
  8
0
 10
-40.358582
 20
17.581604
 11
-64.528580
 21
17.581604
  0
LINE
  8
0
 10
-64.528595
 20
-70.418396
 11
-66.938591
 21
-67.998398
  0
LINE
  8
0
 10
-37.938591
 20
15.161601
 11
-40.358585
 21
17.581598
  0
LINE
  8
0
 10
-64.528595
 20
17.581602
 11
-66.938591
 21
15.161608
  0
LINE
  8
0
 10
-37.938580
 20
15.161615
 11
-36.938591
 21
15.581612
  0
LINE
  8
0
 10
-40.358585
 20
17.581594
 11
-39.938583
 21
18.581600
  0
LINE
  8
0
 10
-64.528587
 20
17.581596
 11
-64.938583
 21
18.581591
  0
LINE
  8
0
 10
-66.938583
 20
15.161596
 11
-67.938583
 21
15.581595
  0
LINE
  8
0
 10
-64.938583
 20
-71.418388
 11
-64.528587
 21
-70.418388
  0
LINE
  8
0
 10
-67.938576
 20
-68.418388
 11
-66.938576
 21
-67.998390
  0
LINE
  8
0
  6
CENTER
 62
     2
 10
-43.898575
 20
8.581604
 11
-61.338577
 21
8.581604
  0
LINE
  8
0
  6
CENTER
 62
     2
 10
-52.438583
 20
-74.738388
 11
-52.438583
 21
22.361603
  0
LINE
  8
0
 10
-50.438583
 20
5.081604
 11
-54.438583
 21
5.081604
  0
LINE
  8
0
 10
-50.438583
 20
12.081604
 11
-54.438583
 21
12.081604
  0
LINE
  8
0
  6
CENTER
 62
     2
 10
-43.898575
 20
-61.418396
 11
-61.338577
 21
-61.418396
  0
LINE
  8
0
 10
-50.438583
 20
-57.918396
 11
-54.438583
 21
-57.918396
  0
LINE
  8
0
 10
-50.438583
 20
-64.918396
 11
-54.438583
 21
-64.918396
  0
LINE
  8
0
 10
-45.628586
 20
-51.418396
 11
-67.938583
 21
-51.418396
  0
LINE
  8
0
 10
-36.938583
 20
-1.418396
 11
-67.938583
 21
-1.418396
  0
LINE
  8
0
 10
-36.938583
 20
-41.418396
 11
-46.938583
 21
-41.418396
  0
LINE
  8
0
 10
-36.938583
 20
-11.418396
 11
-46.938583
 21
-11.418396
  0
LINE
  8
0
 10
-62.938583
 20
-15.418396
 11
-67.938583
 21
-15.418396
  0
LINE
  8
0
 10
-62.938583
 20
-37.418396
 11
-67.938583
 21
-37.418396
  0
LINE
  8
0
 10
-62.938583
 20
-37.418396
 11
-62.938583
 21
-15.418396
  0
LINE
  8
0
 10
-41.938583
 20
-35.918396
 11
-41.938583
 21
-16.918396
  0
LINE
  8
0
 10
-41.938583
 20
-35.918396
 11
-46.938583
 21
-35.918396
  0
LINE
  8
0
 10
-41.938583
 20
-16.918396
 11
-46.938583
 21
-16.918396
  0
LINE
  8
0
 10
-46.938587
 20
-41.418392
 11
-62.938583
 21
-37.418392
  0
LINE
  8
0
 10
-62.938583
 20
-15.418398
 11
-46.938591
 21
-11.418401
  0
LINE
  8
0
 10
-46.938580
 20
-35.918396
 11
-62.938580
 21
-31.918396
  0
LINE
  8
0
 10
-46.938583
 20
-16.918400
 11
-62.938576
 21
-20.918398
  0
LINE
  8
0
 10
-62.938595
 20
-20.918396
 11
-67.938591
 21
-15.418398
  0
LINE
  8
0
 10
-62.938595
 20
-31.918398
 11
-67.938591
 21
-37.418392
  0
LINE
  8
0
 10
-36.938595
 20
-41.418392
 11
-41.938587
 21
-35.918396
  0
LINE
  8
0
 10
-41.938583
 20
-16.918396
 11
-36.938591
 21
-11.418399
  0
LINE
  8
0
 10
-46.938583
 20
-11.418396
 11
-46.938583
 21
-16.918396
  0
LINE
  8
0
 10
-46.938583
 20
-35.918396
 11
-46.938583
 21
-41.418396
  0
LINE
  8
0
 10
-49.938583
 20
-27.858395
 11
-49.938583
 21
-24.978397
  0
LINE
  8
0
 10
-54.938583
 20
-27.858395
 11
-54.938583
 21
-24.978397
  0
LINE
  8
0
 10
-49.938583
 20
-27.858387
 11
-52.438591
 21
-29.298389
  0
LINE
  8
0
 10
-52.438583
 20
-23.538380
 11
-54.938587
 21
-24.978382
  0
LINE
  8
0
 10
-52.438583
 20
-29.298412
 11
-54.938587
 21
-27.858410
  0
LINE
  8
0
 10
-49.938583
 20
-24.978407
 11
-52.438591
 21
-23.538401
  0
LINE
  8
0
 10
-145.538574
 20
15.581604
 11
-145.538574
 21
-10.418396
  0
LINE
  8
0
 10
-114.538574
 20
15.581604
 11
-114.538574
 21
-13.918396
  0
LINE
  8
0
 10
-141.966492
 20
-71.418396
 11
-117.538574
 21
-71.418396
  0
LINE
  8
0
 10
-142.538574
 20
18.581604
 11
-117.538574
 21
18.581604
  0
LINE
  8
0
 10
-136.038574
 20
-42.418396
 11
-115.538574
 21
-42.418396
  0
LINE
  8
0
 10
-137.038574
 20
-10.418396
 11
-115.538574
 21
-10.418396
  0
LINE
  8
0
 10
-115.538574
 20
15.161591
 11
-115.538574
 21
-10.418396
  0
LINE
  8
0
 10
-144.538574
 20
15.161591
 11
-144.538574
 21
-10.418396
  0
LINE
  8
0
 10
-115.538574
 20
-42.418388
 11
-114.538582
 21
-41.418392
  0
LINE
  8
0
 10
-115.538589
 20
-10.418400
 11
-114.538589
 21
-11.418401
  0
LINE
  8
0
 10
-115.538574
 20
-42.418396
 11
-115.538574
 21
-67.998383
  0
LINE
  8
0
 10
-117.538597
 20
18.581612
 11
-114.538582
 21
15.581606
  0
LINE
  8
0
 10
-117.538589
 20
-71.418404
 11
-114.538582
 21
-68.418396
  0
LINE
  8
0
 10
-145.538589
 20
15.581595
 11
-142.538574
 21
18.581598
  0
LINE
  8
0
 10
-141.957840
 20
-70.418396
 11
-117.958588
 21
-70.418396
  0
LINE
  8
0
 10
-142.128586
 20
17.581604
 11
-117.958588
 21
17.581604
  0
LINE
  8
0
 10
-144.538605
 20
15.161600
 11
-142.128586
 21
17.581610
  0
LINE
  8
0
 10
-117.958580
 20
17.581608
 11
-115.538582
 21
15.161610
  0
LINE
  8
0
 10
-117.958572
 20
-70.418396
 11
-115.538574
 21
-67.998398
  0
LINE
  8
0
 10
-117.958588
 20
-70.418396
 11
-117.538589
 21
-71.418396
  0
LINE
  8
0
 10
-115.538589
 20
-67.998390
 11
-114.538582
 21
-68.418396
  0
LINE
  8
0
 10
-142.538574
 20
18.581593
 11
-142.128586
 21
17.581594
  0
LINE
  8
0
 10
-144.538559
 20
15.161600
 11
-145.538589
 21
15.581604
  0
LINE
  8
0
 10
-117.538582
 20
18.581600
 11
-117.958580
 21
17.581596
  0
LINE
  8
0
 10
-114.538582
 20
15.581604
 11
-115.538597
 21
15.161600
  0
LINE
  8
0
  6
CENTER
 62
     2
 10
-138.578583
 20
-61.418396
 11
-121.148575
 21
-61.418396
  0
LINE
  8
0
  6
CENTER
 62
     2
 10
-130.038574
 20
21.901596
 11
-130.038574
 21
-75.198395
  0
LINE
  8
0
 10
-132.038574
 20
-57.918396
 11
-128.038574
 21
-57.918396
  0
LINE
  8
0
 10
-132.038574
 20
-64.918396
 11
-128.038574
 21
-64.918396
  0
LINE
  8
0
  6
CENTER
 62
     2
 10
-138.578583
 20
8.581604
 11
-121.148575
 21
8.581604
  0
LINE
  8
0
 10
-132.038574
 20
5.081604
 11
-128.038574
 21
5.081604
  0
LINE
  8
0
 10
-132.038574
 20
12.081604
 11
-128.038574
 21
12.081604
  0
LINE
  8
0
 10
-145.538574
 20
-1.418396
 11
-114.538574
 21
-1.418396
  0
LINE
  8
0
 10
-136.538574
 20
-51.418396
 11
-114.538574
 21
-51.418396
  0
LINE
  8
0
 10
-145.538574
 20
-11.418396
 11
-135.538574
 21
-11.418396
  0
LINE
  8
0
 10
-145.538574
 20
-41.418396
 11
-135.538574
 21
-41.418396
  0
LINE
  8
0
 10
-119.538574
 20
-37.418396
 11
-114.538574
 21
-37.418396
  0
LINE
  8
0
 10
-119.538574
 20
-15.418396
 11
-114.538574
 21
-15.418396
  0
LINE
  8
0
 10
-119.538574
 20
-15.418396
 11
-119.538574
 21
-37.418396
  0
LINE
  8
0
 10
-140.538574
 20
-16.918396
 11
-140.538574
 21
-35.918396
  0
LINE
  8
0
 10
-140.538574
 20
-16.918396
 11
-135.538574
 21
-16.918396
  0
LINE
  8
0
 10
-140.538574
 20
-35.918396
 11
-135.538574
 21
-35.918396
  0
LINE
  8
0
 10
-135.538574
 20
-11.418400
 11
-119.538582
 21
-15.418398
  0
LINE
  8
0
 10
-119.538582
 20
-37.418392
 11
-135.538574
 21
-41.418392
  0
LINE
  8
0
 10
-135.538589
 20
-16.918402
 11
-119.538574
 21
-20.918406
  0
LINE
  8
0
 10
-135.538589
 20
-35.918392
 11
-119.538582
 21
-31.918390
  0
LINE
  8
0
 10
-119.538589
 20
-31.918394
 11
-114.538582
 21
-37.418392
  0
LINE
  8
0
 10
-119.538582
 20
-20.918396
 11
-114.538582
 21
-15.418402
  0
LINE
  8
0
 10
-145.538589
 20
-11.418397
 11
-140.538589
 21
-16.918392
  0
LINE
  8
0
 10
-140.538589
 20
-35.918400
 11
-145.538589
 21
-41.418400
  0
LINE
  8
0
 10
-135.538574
 20
-41.418396
 11
-135.538574
 21
-35.918396
  0
LINE
  8
0
 10
-135.538574
 20
-16.918396
 11
-135.538574
 21
-11.418396
  0
LINE
  8
0
 10
-132.538574
 20
-24.978397
 11
-132.538574
 21
-27.858395
  0
LINE
  8
0
 10
-127.538574
 20
-24.978397
 11
-127.538574
 21
-27.858395
  0
LINE
  8
0
 10
-132.538589
 20
-24.978397
 11
-130.038589
 21
-23.538391
  0
LINE
  8
0
 10
-130.038574
 20
-29.298393
 11
-127.538582
 21
-27.858398
  0
LINE
  8
0
 10
-130.038574
 20
-23.538395
 11
-127.538582
 21
-24.978390
  0
LINE
  8
0
 10
-132.538589
 20
-27.858397
 11
-130.038589
 21
-29.298403
  0
LINE
  8
0
  6
CENTER
 62
     2
 10
-79.238586
 20
-49.968384
 11
-79.238586
 21
-3.578400
  0
LINE
  8
0
 10
-95.238586
 20
-37.418396
 11
-98.238586
 21
-37.418396
  0
LINE
  8
0
 10
-67.938583
 20
-37.408394
 11
-114.538574
 21
-37.418396
  0
LINE
  8
0
 10
-72.248581
 20
-48.418396
 11
-110.238586
 21
-48.418396
  0
LINE
  8
0
 10
-110.748581
 20
-47.918396
 11
-93.938583
 21
-47.918396
  0
LINE
  8
0
 10
-64.238586
 20
-38.418396
 11
-77.778580
 21
-38.418396
  0
LINE
  8
0
 10
-64.238586
 20
-14.418396
 11
-118.238586
 21
-14.418396
  0
LINE
  8
0
 10
-64.238586
 20
-38.418396
 11
-63.238590
 21
-37.418396
  0
LINE
  8
0
 10
-68.238586
 20
-19.418396
 11
-68.238586
 21
-33.418396
  0
LINE
  8
0
 10
-67.938583
 20
-33.418396
 11
-68.238586
 21
-33.418396
  0
LINE
  8
0
 10
-67.938583
 20
-19.418396
 11
-68.238586
 21
-19.418396
  0
LINE
  8
0
 10
-105.238586
 20
-10.418396
 11
-77.238586
 21
-10.418396
  0
LINE
  8
0
 10
-77.238586
 20
-2.418396
 11
-77.238586
 21
-14.418396
  0
LINE
  8
0
 10
-105.238586
 20
-2.418396
 11
-105.238586
 21
-14.418396
  0
LINE
  8
0
 10
-104.238586
 20
-1.418396
 11
-78.238586
 21
-1.418396
  0
LINE
  8
0
 10
-77.238579
 20
-2.418401
 11
-78.238586
 21
-1.418401
  0
LINE
  8
0
 10
-104.238586
 20
-1.418402
 11
-105.238571
 21
-2.418392
  0
LINE
  8
0
 10
-104.968582
 20
-8.418396
 11
-102.878586
 21
-8.418396
  0
LINE
  8
0
 10
-88.648575
 20
-2.418396
 11
-93.838577
 21
-2.418396
  0
LINE
  8
0
 10
-88.648575
 20
-8.418396
 11
-83.468582
 21
-8.418396
  0
LINE
  8
0
 10
-93.978577
 20
-8.018402
 11
-98.628586
 21
-8.018402
  0
LINE
  8
0
 10
-98.628586
 20
-1.718399
 11
-98.628586
 21
-8.018402
  0
LINE
  8
0
 10
-99.018585
 20
-2.418396
 11
-99.018585
 21
-8.418396
  0
LINE
  8
0
 10
-102.878586
 20
-2.418396
 11
-102.878586
 21
-8.418396
  0
LINE
  8
0
 10
-83.848587
 20
-1.718399
 11
-83.848587
 21
-8.018402
  0
LINE
  8
0
 10
-83.468582
 20
-2.418396
 11
-83.468582
 21
-8.418396
  0
LINE
  8
0
 10
-88.508575
 20
-1.718399
 11
-88.508575
 21
-8.018402
  0
LINE
  8
0
 10
-88.648575
 20
-2.418396
 11
-88.648575
 21
-8.418396
  0
LINE
  8
0
 10
-93.838577
 20
-2.418396
 11
-93.838577
 21
-8.418396
  0
LINE
  8
0
 10
-93.978577
 20
-1.718399
 11
-93.978577
 21
-8.018402
  0
LINE
  8
0
 10
-99.018585
 20
-2.418396
 11
-102.878586
 21
-2.418396
  0
LINE
  8
0
 10
-102.878586
 20
-8.018402
 11
-104.288574
 21
-8.018402
  0
LINE
  8
0
 10
-99.018585
 20
-8.418396
 11
-93.838577
 21
-8.418396
  0
LINE
  8
0
 10
-98.628593
 20
-8.018391
 11
-99.018600
 21
-8.418399
  0
LINE
  8
0
 10
-93.978577
 20
-8.018389
 11
-93.838577
 21
-8.418394
  0
LINE
  8
0
 10
-88.508591
 20
-8.018386
 11
-88.648590
 21
-8.418392
  0
LINE
  8
0
 10
-83.858589
 20
-8.018392
 11
-83.468590
 21
-8.418387
  0
LINE
  8
0
 10
-83.848587
 20
-8.018402
 11
-88.508575
 21
-8.018402
  0
LINE
  8
0
 10
-104.288574
 20
-1.718399
 11
-104.288574
 21
-8.018402
  0
LINE
  8
0
 10
-104.968582
 20
-2.418396
 11
-104.968582
 21
-8.418396
  0
LINE
  8
0
 10
-104.968582
 20
-2.418396
 11
-105.238586
 21
-2.418396
  0
LINE
  8
0
 10
-104.288582
 20
-8.018386
 11
-104.968590
 21
-8.418388
  0
LINE
  8
0
 10
-104.238586
 20
-1.718399
 11
-102.298584
 21
-1.718399
  0
LINE
  8
0
 10
-102.298592
 20
-1.718392
 11
-102.878593
 21
-2.418399
  0
LINE
  8
0
 10
-99.018585
 20
-2.418403
 11
-98.628578
 21
-1.718399
  0
LINE
  8
0
 10
-98.628586
 20
-1.718399
 11
-93.978577
 21
-1.718399
  0
LINE
  8
0
 10
-88.508575
 20
-1.718399
 11
-83.848587
 21
-1.718399
  0
LINE
  8
0
 10
-88.648582
 20
-2.418399
 11
-88.548584
 21
-1.718398
  0
LINE
  8
0
 10
-93.978584
 20
-1.718400
 11
-93.838585
 21
-2.418401
  0
LINE
  8
0
 10
-83.858589
 20
-1.718397
 11
-83.468582
 21
-2.418401
  0
LINE
  8
0
 10
-104.288589
 20
-1.718389
 11
-104.978592
 21
-2.418394
  0
LINE
  8
0
 10
-80.188583
 20
-1.718388
 11
-79.598579
 21
-2.418390
  0
LINE
  8
0
 10
-79.598587
 20
-2.418396
 11
-79.598587
 21
-8.418396
  0
LINE
  8
0
 10
-79.598587
 20
-8.018402
 11
-78.198578
 21
-8.018402
  0
LINE
  8
0
 10
-77.508575
 20
-8.418396
 11
-79.598587
 21
-8.418396
  0
LINE
  8
0
 10
-78.198578
 20
-1.718399
 11
-78.198578
 21
-8.018402
  0
LINE
  8
0
 10
-78.198578
 20
-8.018394
 11
-77.508591
 21
-8.418387
  0
LINE
  8
0
 10
-78.238586
 20
-1.718399
 11
-80.188583
 21
-1.718399
  0
LINE
  8
0
 10
-78.198593
 20
-1.718390
 11
-77.508591
 21
-2.418395
  0
LINE
  8
0
 10
-77.508575
 20
-2.418396
 11
-77.508575
 21
-8.418396
  0
LINE
  8
0
 10
-77.508575
 20
-2.418396
 11
-77.238586
 21
-2.418396
  0
LINE
  8
0
 10
-80.188583
 20
-1.718399
 11
-78.238586
 21
-1.718399
  0
LINE
  8
0
 10
-79.598587
 20
-2.418396
 11
-83.468582
 21
-2.418396
  0
LINE
  8
0
 10
-64.238586
 20
-14.418397
 11
-63.238590
 21
-15.418398
  0
LINE
  8
0
 10
-64.238586
 20
-14.418396
 11
-64.238586
 21
-15.418396
  0
LINE
  8
0
 10
-87.728577
 20
-34.418396
 11
-102.478577
 21
-34.418396
  0
LINE
  8
0
 10
-78.778580
 20
-36.398396
 11
-78.778580
 21
-37.418396
  0
LINE
  8
0
 10
-110.338577
 20
-13.918396
 11
-110.338577
 21
-14.418396
  0
LINE
  8
0
 10
-110.338577
 20
-13.918396
 11
-116.738586
 21
-13.918396
  0
LINE
  8
0
 10
-83.598587
 20
-35.418396
 11
-104.058578
 21
-35.418396
  0
LINE
  8
0
 10
-105.058578
 20
-38.418396
 11
-118.238586
 21
-38.418396
  0
LINE
  8
0
 10
-104.058578
 20
-37.418396
 11
-105.058578
 21
-38.418400
  0
LINE
  8
0
 10
-77.778580
 20
-38.418404
 11
-78.778580
 21
-37.418400
  0
LINE
  8
0
 10
-114.538574
 20
-15.418396
 11
-67.938583
 21
-15.418396
  0
LINE
  8
0
 10
-118.238586
 20
-14.418396
 11
-118.238586
 21
-15.418396
  0
LINE
  8
0
 10
-114.238586
 20
-19.418396
 11
-114.238586
 21
-33.418396
  0
LINE
  8
0
 10
-114.538574
 20
-33.418396
 11
-114.238586
 21
-33.418396
  0
LINE
  8
0
 10
-114.538574
 20
-19.418396
 11
-114.238586
 21
-19.418396
  0
LINE
  8
0
 10
-118.238586
 20
-14.418388
 11
-119.238594
 21
-15.418389
  0
LINE
  8
0
 10
-118.238586
 20
-38.418400
 11
-119.238586
 21
-37.418396
  0
LINE
  8
0
 10
-116.738586
 20
-13.918396
 11
-116.738586
 21
-14.418396
  0
LINE
  8
0
 10
-93.938583
 20
-45.918396
 11
-93.938583
 21
-48.418396
  0
LINE
  8
0
 10
-88.538574
 20
-45.918396
 11
-88.538574
 21
-48.418396
  0
LINE
  8
0
 10
-88.538574
 20
-45.918396
 11
-93.938583
 21
-45.918396
  0
LINE
  8
0
 10
-88.538574
 20
-47.918396
 11
-71.738586
 21
-47.918396
  0
LINE
  8
0
 10
-71.738579
 20
-47.918385
 11
-71.588577
 21
-39.398396
  0
LINE
  8
0
 10
-110.748589
 20
-47.908390
 11
-110.898582
 21
-39.398396
  0
LINE
  8
0
 10
-71.738586
 20
-47.918400
 11
-72.248589
 21
-48.418404
  0
LINE
  8
0
 10
-110.238586
 20
-48.418396
 11
-110.748589
 21
-47.908394
  0
LINE
  8
0
 10
-104.058586
 20
-35.418407
 11
-102.478577
 21
-34.418407
  0
LINE
  8
0
 10
-104.058578
 20
-35.418396
 11
-104.058578
 21
-37.418396
  0
LINE
  8
0
 10
-73.238586
 20
-57.718384
 11
-109.238586
 21
-57.718384
  0
LINE
  8
0
 10
-110.238586
 20
-50.718384
 11
-110.238586
 21
-56.718384
  0
LINE
  8
0
 10
-72.238586
 20
-50.718384
 11
-72.238586
 21
-56.718384
  0
LINE
  8
0
 10
-72.238586
 20
-56.718384
 11
-72.408585
 21
-56.718384
  0
LINE
  8
0
 10
-72.238586
 20
-52.718384
 11
-72.248581
 21
-52.718384
  0
LINE
  8
0
 10
-72.238594
 20
-56.718403
 11
-73.238586
 21
-57.718403
  0
LINE
  8
0
 10
-110.238586
 20
-56.718403
 11
-109.238586
 21
-57.718407
  0
LINE
  8
0
 10
-73.138580
 20
-53.418396
 11
-73.678589
 21
-53.418396
  0
LINE
  8
0
 10
-88.738586
 20
-52.718384
 11
-88.738586
 21
-56.718384
  0
LINE
  8
0
 10
-88.738594
 20
-52.718399
 11
-88.548599
 21
-53.418400
  0
LINE
  8
0
 10
-88.738579
 20
-56.718391
 11
-88.548576
 21
-57.418392
  0
LINE
  8
0
 10
-83.988579
 20
-52.718399
 11
-84.528572
 21
-53.418396
  0
LINE
  8
0
 10
-83.988586
 20
-56.718395
 11
-84.528587
 21
-57.418392
  0
LINE
  8
0
 10
-88.548584
 20
-53.418396
 11
-88.548584
 21
-57.418396
  0
LINE
  8
0
 10
-84.528580
 20
-53.418396
 11
-84.528580
 21
-57.418396
  0
LINE
  8
0
 10
-83.988586
 20
-52.718384
 11
-83.988586
 21
-56.718384
  0
LINE
  8
0
 10
-79.658585
 20
-52.718384
 11
-79.658585
 21
-56.718384
  0
LINE
  8
0
 10
-79.658577
 20
-56.718388
 11
-79.858582
 21
-57.418396
  0
LINE
  8
0
 10
-76.178589
 20
-52.718399
 11
-76.918587
 21
-53.418388
  0
LINE
  8
0
 10
-76.178581
 20
-56.718403
 11
-76.918587
 21
-57.418404
  0
LINE
  8
0
 10
-76.918579
 20
-57.418396
 11
-76.918579
 21
-53.418396
  0
LINE
  8
0
 10
-76.178589
 20
-52.718384
 11
-76.178589
 21
-56.718384
  0
LINE
  8
0
 10
-73.678589
 20
-52.718384
 11
-73.678589
 21
-56.718384
  0
LINE
  8
0
 10
-73.678581
 20
-56.718407
 11
-74.218575
 21
-57.418404
  0
LINE
  8
0
 10
-72.408585
 20
-52.718391
 11
-73.138596
 21
-53.418400
  0
LINE
  8
0
 10
-72.408592
 20
-56.718395
 11
-73.138580
 21
-57.418392
  0
LINE
  8
0
 10
-84.528580
 20
-53.418396
 11
-88.548584
 21
-53.418396
  0
LINE
  8
0
 10
-83.988586
 20
-52.718384
 11
-88.738586
 21
-52.718384
  0
LINE
  8
0
 10
-76.178589
 20
-52.718384
 11
-79.658585
 21
-52.718384
  0
LINE
  8
0
 10
-76.918579
 20
-53.418396
 11
-79.658585
 21
-53.418396
  0
LINE
  8
0
 10
-88.548584
 20
-57.418396
 11
-84.528580
 21
-57.418396
  0
LINE
  8
0
 10
-79.858582
 20
-57.418396
 11
-76.918579
 21
-57.418396
  0
LINE
  8
0
 10
-74.218582
 20
-57.418396
 11
-73.138580
 21
-57.418396
  0
LINE
  8
0
 10
-79.658585
 20
-56.718384
 11
-83.988586
 21
-56.718384
  0
LINE
  8
0
 10
-73.678589
 20
-56.718384
 11
-76.178589
 21
-56.718384
  0
LINE
  8
0
 10
-73.138580
 20
-53.418396
 11
-73.138580
 21
-57.418396
  0
LINE
  8
0
 10
-72.408585
 20
-52.718384
 11
-72.408585
 21
-56.718384
  0
LINE
  8
0
 10
-72.408585
 20
-52.718384
 11
-73.678589
 21
-52.718384
  0
LINE
  8
0
 10
-88.738586
 20
-56.718384
 11
-91.238586
 21
-56.718384
  0
LINE
  8
0
 10
-110.238586
 20
-56.718384
 11
-110.078583
 21
-56.718384
  0
LINE
  8
0
 10
-109.338577
 20
-53.418396
 11
-108.808578
 21
-53.418396
  0
LINE
  8
0
 10
-93.738586
 20
-52.718384
 11
-93.738586
 21
-56.718384
  0
LINE
  8
0
 10
-93.738586
 20
-52.718395
 11
-93.938583
 21
-53.418392
  0
LINE
  8
0
 10
-93.738579
 20
-56.718399
 11
-93.938576
 21
-57.418400
  0
LINE
  8
0
 10
-98.498581
 20
-52.718388
 11
-97.958580
 21
-53.418385
  0
LINE
  8
0
 10
-98.498581
 20
-56.718399
 11
-97.958588
 21
-57.418400
  0
LINE
  8
0
 10
-93.938583
 20
-53.418396
 11
-93.938583
 21
-57.418396
  0
LINE
  8
0
 10
-97.958588
 20
-53.418396
 11
-97.958588
 21
-57.418396
  0
LINE
  8
0
 10
-98.498581
 20
-52.718384
 11
-98.498581
 21
-56.718384
  0
LINE
  8
0
 10
-102.828583
 20
-52.718384
 11
-102.828583
 21
-56.718384
  0
LINE
  8
0
 10
-102.828575
 20
-56.718395
 11
-102.628578
 21
-57.418396
  0
LINE
  8
0
 10
-106.308586
 20
-52.718399
 11
-105.568588
 21
-53.418404
  0
LINE
  8
0
 10
-106.308586
 20
-56.718388
 11
-105.568588
 21
-57.418392
  0
LINE
  8
0
 10
-105.568588
 20
-57.418396
 11
-105.568588
 21
-53.418396
  0
LINE
  8
0
 10
-106.308578
 20
-52.718384
 11
-106.308578
 21
-56.718384
  0
LINE
  8
0
 10
-108.808578
 20
-52.718384
 11
-108.808578
 21
-56.718384
  0
LINE
  8
0
 10
-108.808586
 20
-56.718384
 11
-108.268578
 21
-57.418396
  0
LINE
  8
0
 10
-110.078590
 20
-52.718399
 11
-109.338585
 21
-53.418407
  0
LINE
  8
0
 10
-110.078590
 20
-56.718395
 11
-109.338585
 21
-57.418396
  0
LINE
  8
0
 10
-97.958588
 20
-53.418396
 11
-93.938583
 21
-53.418396
  0
LINE
  8
0
 10
-98.498581
 20
-52.718384
 11
-93.738586
 21
-52.718384
  0
LINE
  8
0
 10
-106.308578
 20
-52.718384
 11
-102.828583
 21
-52.718384
  0
LINE
  8
0
 10
-105.568588
 20
-53.418396
 11
-102.828583
 21
-53.418396
  0
LINE
  8
0
 10
-93.938583
 20
-57.418396
 11
-97.958588
 21
-57.418396
  0
LINE
  8
0
 10
-102.628586
 20
-57.418396
 11
-105.568588
 21
-57.418396
  0
LINE
  8
0
 10
-108.268585
 20
-57.418396
 11
-109.338577
 21
-57.418396
  0
LINE
  8
0
 10
-102.828583
 20
-56.718384
 11
-98.498581
 21
-56.718384
  0
LINE
  8
0
 10
-108.808578
 20
-56.718384
 11
-106.308578
 21
-56.718384
  0
LINE
  8
0
 10
-109.338577
 20
-53.418396
 11
-109.338577
 21
-57.418396
  0
LINE
  8
0
 10
-110.078583
 20
-52.718384
 11
-110.078583
 21
-56.718384
  0
LINE
  8
0
 10
-110.078583
 20
-52.718384
 11
-108.808578
 21
-52.718384
  0
LINE
  8
0
 10
-93.738586
 20
-56.718384
 11
-91.238586
 21
-56.718384
  0
LINE
  8
0
 10
-102.238586
 20
-58.918396
 11
-102.238586
 21
-60.918396
  0
LINE
  8
0
 10
-104.938583
 20
-58.418396
 11
-91.238586
 21
-58.418396
  0
LINE
  8
0
 10
-80.238586
 20
-58.918396
 11
-80.238586
 21
-60.918396
  0
LINE
  8
0
 10
-77.538574
 20
-58.418396
 11
-91.238586
 21
-58.418396
  0
LINE
  8
0
 10
-100.678589
 20
-58.418396
 11
-100.678589
 21
-60.918396
  0
LINE
  8
0
 10
-92.808578
 20
-58.418396
 11
-92.808578
 21
-60.918396
  0
LINE
  8
0
 10
-89.678589
 20
-58.418396
 11
-89.678589
 21
-60.918396
  0
LINE
  8
0
 10
-81.808578
 20
-58.418396
 11
-81.808578
 21
-60.918396
  0
LINE
  8
0
 10
-105.438583
 20
-48.418396
 11
-105.438583
 21
-50.718384
  0
LINE
  8
0
 10
-77.038574
 20
-48.418396
 11
-77.038574
 21
-50.718384
  0
LINE
  8
0
 10
-106.238586
 20
-57.718384
 11
-76.238586
 21
-57.718384
  0
LINE
  8
0
 10
-77.538574
 20
-60.918396
 11
-104.938583
 21
-60.918396
  0
LINE
  8
0
 10
-79.638580
 20
-85.918396
 11
-102.838577
 21
-85.918396
  0
LINE
  8
0
 10
-103.838562
 20
-83.918396
 11
-104.838570
 21
-83.338379
  0
LINE
  8
0
 10
-77.638580
 20
-83.338387
 11
-78.638580
 21
-83.918396
  0
LINE
  8
0
 10
-78.638580
 20
-83.918396
 11
-78.638580
 21
-84.918396
  0
LINE
  8
0
 10
-103.838577
 20
-83.918396
 11
-103.838577
 21
-84.918396
  0
LINE
  8
0
 10
-105.428574
 20
-61.398392
 11
-104.838577
 21
-83.338379
  0
LINE
  8
0
 10
-77.058586
 20
-61.398380
 11
-77.638588
 21
-83.338394
  0
LINE
  8
0
 10
-77.538589
 20
-60.918400
 11
-77.058594
 21
-61.398399
  0
LINE
  8
0
 10
-104.938591
 20
-60.918400
 11
-105.428589
 21
-61.398399
  0
LINE
  8
0
 10
-94.238586
 20
-63.418400
 11
-93.708588
 21
-83.338394
  0
LINE
  8
0
 10
-88.238579
 20
-63.418392
 11
-88.778580
 21
-83.338379
  0
LINE
  8
0
 10
-77.638580
 20
-83.338394
 11
-77.868576
 21
-83.338394
  0
LINE
  8
0
 10
-77.428589
 20
-63.418396
 11
-79.358582
 21
-63.418396
  0
LINE
  8
0
 10
-78.638580
 20
-83.918396
 11
-78.948578
 21
-83.918396
  0
LINE
  8
0
 10
-77.058578
 20
-61.398392
 11
-105.428589
 21
-61.398392
  0
LINE
  8
0
 10
-94.238586
 20
-63.418396
 11
-98.888580
 21
-63.418396
  0
LINE
  8
0
 10
-78.288574
 20
-63.868393
 11
-79.368576
 21
-63.868393
  0
LINE
  8
0
 10
-94.468582
 20
-63.868393
 11
-98.118576
 21
-63.868393
  0
LINE
  8
0
 10
-88.768585
 20
-83.338394
 11
-88.478584
 21
-83.918388
  0
LINE
  8
0
 10
-84.508583
 20
-83.918396
 11
-83.538589
 21
-83.338394
  0
LINE
  8
0
 10
-80.038589
 20
-83.338409
 11
-80.598579
 21
-83.918388
  0
LINE
  8
0
 10
-78.948586
 20
-83.918388
 11
-77.868576
 21
-83.338387
  0
LINE
  8
0
 10
-83.598595
 20
-63.418404
 11
-84.368584
 21
-63.868401
  0
LINE
  8
0
 10
-77.428589
 20
-63.418385
 11
-78.288582
 21
-63.868382
  0
LINE
  8
0
 10
-88.238586
 20
-63.418392
 11
-88.008583
 21
-63.868393
  0
LINE
  8
0
 10
-88.008583
 20
-63.868389
 11
-88.478584
 21
-83.918396
  0
LINE
  8
0
 10
-84.368584
 20
-63.868385
 11
-84.508583
 21
-83.918388
  0
LINE
  8
0
 10
-83.598587
 20
-63.418392
 11
-83.538589
 21
-83.338394
  0
LINE
  8
0
 10
-80.038574
 20
-83.338394
 11
-79.358574
 21
-63.418381
  0
LINE
  8
0
 10
-78.948586
 20
-83.918388
 11
-78.288589
 21
-63.868397
  0
LINE
  8
0
 10
-77.428581
 20
-63.418396
 11
-77.868576
 21
-83.338387
  0
LINE
  8
0
 10
-94.468582
 20
-63.868389
 11
-94.008583
 21
-83.918381
  0
LINE
  8
0
 10
-93.718582
 20
-83.338387
 11
-94.008583
 21
-83.918396
  0
LINE
  8
0
 10
-94.238579
 20
-63.418404
 11
-94.468582
 21
-63.868404
  0
LINE
  8
0
 10
-98.118584
 20
-63.868393
 11
-97.978584
 21
-83.918396
  0
LINE
  8
0
 10
-98.888580
 20
-63.418381
 11
-98.948578
 21
-83.338394
  0
LINE
  8
0
 10
-102.448586
 20
-83.338387
 11
-103.128586
 21
-63.418385
  0
LINE
  8
0
 10
-103.538589
 20
-83.918388
 11
-104.198586
 21
-63.868389
  0
LINE
  8
0
 10
-105.058578
 20
-63.418392
 11
-104.618576
 21
-83.338387
  0
LINE
  8
0
 10
-105.058578
 20
-63.418392
 11
-104.198586
 21
-63.868389
  0
LINE
  8
0
 10
-98.888580
 20
-63.418396
 11
-98.118584
 21
-63.868393
  0
LINE
  8
0
 10
-97.978577
 20
-83.918388
 11
-98.948586
 21
-83.338379
  0
LINE
  8
0
 10
-102.448586
 20
-83.338402
 11
-101.888588
 21
-83.918388
  0
LINE
  8
0
 10
-103.538574
 20
-83.918388
 11
-104.618584
 21
-83.338387
  0
LINE
  8
0
 10
-88.768585
 20
-83.338394
 11
-93.718582
 21
-83.338394
  0
LINE
  8
0
 10
-98.948578
 20
-83.338394
 11
-102.448578
 21
-83.338394
  0
LINE
  8
0
 10
-104.618576
 20
-83.338394
 11
-104.838577
 21
-83.338394
  0
LINE
  8
0
 10
-80.038574
 20
-83.338394
 11
-83.538574
 21
-83.338394
  0
LINE
  8
0
 10
-84.368576
 20
-63.868393
 11
-88.008575
 21
-63.868393
  0
LINE
  8
0
 10
-83.598587
 20
-63.418396
 11
-88.238586
 21
-63.418396
  0
LINE
  8
0
 10
-103.118576
 20
-63.868393
 11
-104.198578
 21
-63.868393
  0
LINE
  8
0
 10
-103.128586
 20
-63.418396
 11
-105.058578
 21
-63.418396
  0
LINE
  8
0
 10
-88.478577
 20
-83.918396
 11
-94.008575
 21
-83.918396
  0
LINE
  8
0
 10
-97.978577
 20
-83.918396
 11
-101.888580
 21
-83.918396
  0
LINE
  8
0
 10
-103.538574
 20
-83.918396
 11
-103.838577
 21
-83.918396
  0
LINE
  8
0
 10
-80.598587
 20
-83.918396
 11
-84.508575
 21
-83.918396
  0
LINE
  8
0
 10
-105.438583
 20
-57.418396
 11
-106.238579
 21
-56.618404
  0
LINE
  8
0
 10
-77.038597
 20
-57.418400
 11
-76.238579
 21
-56.618393
  0
LINE
  8
0
 10
-106.238586
 20
-48.418396
 11
-106.238586
 21
-50.718384
  0
LINE
  8
0
 10
-76.238586
 20
-48.418396
 11
-76.238586
 21
-50.718384
  0
LINE
  8
0
  6
CENTER
 62
     2
 10
-91.238586
 20
2.121597
 11
-91.238586
 21
-88.848389
  0
LINE
  8
0
 10
-105.438583
 20
-57.718384
 11
-105.438583
 21
-57.918396
  0
LINE
  8
0
 10
-77.038574
 20
-57.718384
 11
-77.038574
 21
-57.918396
  0
LINE
  8
0
 10
-110.238586
 20
-50.718384
 11
-72.238586
 21
-50.718384
  0
LINE
  8
0
 10
-72.248581
 20
-48.418396
 11
-110.238586
 21
-48.418396
  0
LINE
  8
0
 10
-45.438583
 20
-10.418396
 11
32.561417
 21
-10.418396
  0
LINE
  8
0
 10
-46.438583
 20
-42.418396
 11
33.561417
 21
-42.418396
  0
LINE
  8
0
 10
-44.208588
 20
-62.418396
 11
31.321411
 21
-62.418396
  0
LINE
  8
0
 10
33.561417
 20
-11.418396
 11
33.561417
 21
-42.418396
  0
LINE
  8
0
 10
-46.438583
 20
-41.418396
 11
-46.438583
 21
-42.418396
  0
LINE
  8
0
 10
-45.278587
 20
-61.418388
 11
-45.938587
 21
-42.418388
  0
LINE
  8
0
 10
-45.438583
 20
-10.418396
 11
-45.438583
 21
-11.418396
  0
LINE
  8
0
 10
-36.938583
 20
-41.418396
 11
26.561417
 21
-41.418396
  0
LINE
  8
0
 10
32.561417
 20
-10.418396
 11
32.561417
 21
-42.418396
  0
LINE
  8
0
 10
-36.938583
 20
-11.418396
 11
-29.438583
 21
-11.418396
  0
LINE
  8
0
 10
-46.438587
 20
-11.418389
 11
-45.438587
 21
-10.418387
  0
LINE
  8
0
 10
32.561413
 20
-10.418389
 11
33.561413
 21
-11.418391
  0
LINE
  8
0
 10
-40.978584
 20
-42.418404
 11
-39.438583
 21
-41.418400
  0
LINE
  8
0
 10
28.101414
 20
-42.418388
 11
26.561422
 21
-41.418396
  0
LINE
  8
0
 10
32.391422
 20
-61.418388
 11
33.061424
 21
-42.418396
  0
LINE
  8
0
 10
-45.248581
 20
-61.418396
 11
32.391418
 21
-61.418396
  0
LINE
  8
0
 10
-45.278580
 20
-61.418388
 11
-44.208576
 21
-62.418392
  0
LINE
  8
0
 10
32.391415
 20
-61.418404
 11
31.321423
 21
-62.418396
  0
LINE
  8
0
 10
-11.438583
 20
-38.418396
 11
3.561417
 21
-38.418396
  0
LINE
  8
0
 10
4.561417
 20
-39.418396
 11
4.561417
 21
-41.418396
  0
LINE
  8
0
 10
-11.438583
 20
-39.418396
 11
4.561417
 21
-39.418396
  0
LINE
  8
0
 10
3.561424
 20
-38.418400
 11
4.561415
 21
-39.418388
  0
LINE
  8
0
  6
CENTER
 62
     2
 10
-20.438583
 20
-0.218399
 11
-20.438583
 21
-44.498383
  0
LINE
  8
0
 10
-29.438583
 20
-11.418396
 11
-29.438583
 21
-41.418396
  0
LINE
  8
0
 10
-11.438583
 20
-11.418396
 11
-11.438583
 21
-41.418396
  0
LINE
  8
0
 10
-11.438583
 20
-11.418396
 11
33.561417
 21
-11.418396
  0
LINE
  8
0
  6
CENTER
 62
     2
 10
-0.938583
 20
17.091599
 11
-0.938583
 21
-13.568397
  0
LINE
  8
0
 10
-12.438583
 20
-6.618408
 11
13.061417
 21
-6.618408
  0
LINE
  8
0
 10
12.561417
 20
-7.318405
 11
12.561417
 21
-9.418396
  0
LINE
  8
0
 10
-13.938583
 20
1.381592
 11
12.061417
 21
1.381592
  0
LINE
  8
0
 10
-14.938583
 20
0.381592
 11
-14.938583
 21
-2.418396
  0
LINE
  8
0
 10
13.061417
 20
0.381592
 11
13.061417
 21
-6.618408
  0
LINE
  8
0
 10
-14.938586
 20
0.381604
 11
-13.938585
 21
1.381606
  0
LINE
  8
0
 10
12.061421
 20
1.381606
 11
13.061422
 21
0.381605
  0
LINE
  8
0
 10
0.561417
 20
0.381592
 11
0.561417
 21
-5.118408
  0
LINE
  8
0
 10
4.721420
 20
0.381592
 11
4.721420
 21
-5.118408
  0
LINE
  8
0
 10
7.311417
 20
0.381592
 11
7.311417
 21
-5.118408
  0
LINE
  8
0
 10
10.361420
 20
0.381592
 11
10.361420
 21
-5.118408
  0
LINE
  8
0
 10
11.861420
 20
0.381592
 11
11.861420
 21
-5.118408
  0
LINE
  8
0
 10
0.561417
 20
-5.118408
 11
4.721420
 21
-5.118408
  0
LINE
  8
0
 10
1.061417
 20
-4.618408
 11
4.221420
 21
-4.618408
  0
LINE
  8
0
 10
1.061417
 20
0.881592
 11
1.061417
 21
-4.618408
  0
LINE
  8
0
 10
7.311417
 20
-5.118408
 11
10.361420
 21
-5.118408
  0
LINE
  8
0
 10
4.221420
 20
0.881592
 11
4.221420
 21
-4.618408
  0
LINE
  8
0
 10
-0.938583
 20
0.381592
 11
0.561417
 21
0.381592
  0
LINE
  8
0
 10
0.561420
 20
0.381605
 11
1.061420
 21
0.881605
  0
LINE
  8
0
 10
1.061417
 20
0.881592
 11
4.221420
 21
0.881592
  0
LINE
  8
0
 10
4.221412
 20
0.881605
 11
4.721412
 21
0.381605
  0
LINE
  8
0
 10
4.221412
 20
-4.618390
 11
4.721412
 21
-5.118390
  0
LINE
  8
0
 10
0.561420
 20
-5.118390
 11
1.061410
 21
-4.618401
  0
LINE
  8
0
 10
4.721420
 20
0.381592
 11
7.311417
 21
0.381592
  0
LINE
  8
0
 10
6.811417
 20
0.881592
 11
9.861420
 21
0.881592
  0
LINE
  8
0
 10
7.311417
 20
-4.618408
 11
9.861420
 21
-4.618408
  0
LINE
  8
0
 10
9.861420
 20
0.881592
 11
9.861420
 21
-4.618408
  0
LINE
  8
0
 10
10.361420
 20
0.381592
 11
11.861420
 21
0.381592
  0
LINE
  8
0
 10
6.811410
 20
0.881605
 11
7.311411
 21
0.381605
  0
LINE
  8
0
 10
9.861413
 20
0.881605
 11
10.361413
 21
0.381605
  0
LINE
  8
0
 10
11.361420
 20
0.881592
 11
12.561417
 21
0.881592
  0
LINE
  8
0
 10
11.361414
 20
0.881594
 11
11.861415
 21
0.381594
  0
LINE
  8
0
 10
11.861420
 20
-5.118408
 11
13.061417
 21
-5.118408
  0
LINE
  8
0
 10
9.861413
 20
-4.618390
 11
10.361414
 21
-5.118391
  0
LINE
  8
0
 10
12.561417
 20
0.881592
 11
12.561417
 21
-4.618408
  0
LINE
  8
0
 10
11.861420
 20
-4.618408
 11
12.561417
 21
-4.618408
  0
LINE
  8
0
 10
12.561411
 20
-4.618401
 11
13.061412
 21
-5.118402
  0
LINE
  8
0
 10
-0.938583
 20
0.381592
 11
-2.438583
 21
0.381592
  0
LINE
  8
0
 10
-2.438583
 20
0.381605
 11
-2.938584
 21
0.881605
  0
LINE
  8
0
 10
-2.438583
 20
0.381592
 11
-2.438583
 21
-5.118408
  0
LINE
  8
0
 10
-2.938583
 20
0.881592
 11
-2.938583
 21
-4.618408
  0
LINE
  8
0
 10
-2.438583
 20
-5.118390
 11
-2.938584
 21
-4.618390
  0
LINE
  8
0
 10
-2.938583
 20
-4.618408
 11
-6.098587
 21
-4.618408
  0
LINE
  8
0
 10
-2.438583
 20
-5.118408
 11
-6.598587
 21
-5.118408
  0
LINE
  8
0
 10
-2.938583
 20
0.881592
 11
-6.098587
 21
0.881592
  0
LINE
  8
0
 10
-6.098586
 20
0.881594
 11
-6.598575
 21
0.381605
  0
LINE
  8
0
 10
-6.098587
 20
0.881592
 11
-6.098587
 21
-4.618408
  0
LINE
  8
0
 10
-6.598587
 20
0.381592
 11
-6.598587
 21
-5.118408
  0
LINE
  8
0
 10
-6.598587
 20
0.381592
 11
-9.198578
 21
0.381592
  0
LINE
  8
0
 10
-6.098586
 20
-4.618401
 11
-6.598586
 21
-5.118401
  0
LINE
  8
0
 10
-8.698586
 20
0.881605
 11
-9.198587
 21
0.381605
  0
LINE
  8
0
 10
-8.698578
 20
0.881592
 11
-11.748581
 21
0.881592
  0
LINE
  8
0
 10
-9.198578
 20
0.381592
 11
-9.198578
 21
-5.118408
  0
LINE
  8
0
 10
-9.198578
 20
-4.618408
 11
-11.748581
 21
-4.618408
  0
LINE
  8
0
 10
-9.198578
 20
-5.118408
 11
-12.248581
 21
-5.118408
  0
LINE
  8
0
 10
-11.748581
 20
0.881592
 11
-11.748581
 21
-4.618408
  0
LINE
  8
0
 10
-11.748590
 20
-4.618390
 11
-12.248590
 21
-5.118391
  0
LINE
  8
0
 10
-12.248581
 20
0.381592
 11
-12.248581
 21
-5.118408
  0
LINE
  8
0
 10
-11.748589
 20
0.881606
 11
-12.248590
 21
0.381605
  0
LINE
  8
0
 10
-12.248581
 20
0.381592
 11
-13.748581
 21
0.381592
  0
LINE
  8
0
 10
-13.248580
 20
0.881605
 11
-13.748580
 21
0.381604
  0
LINE
  8
0
 10
-14.438583
 20
0.881592
 11
-14.438583
 21
-2.418396
  0
LINE
  8
0
 10
-13.748581
 20
0.381592
 11
-13.748581
 21
-2.418396
  0
LINE
  8
0
 10
-7.888580
 20
8.431595
 11
-7.888580
 21
2.381592
  0
LINE
  8
0
 10
6.011414
 20
8.431595
 11
6.011414
 21
2.381592
  0
LINE
  8
0
 10
-8.138580
 20
2.381592
 11
6.261414
 21
2.381592
  0
LINE
  8
0
 10
-8.138580
 20
2.381592
 11
-8.138580
 21
1.381592
  0
LINE
  8
0
 10
6.261414
 20
2.381592
 11
6.261414
 21
1.381592
  0
LINE
  8
0
 10
-14.438583
 20
0.881592
 11
-13.248581
 21
0.881592
  0
LINE
  8
0
 10
-27.938591
 20
-8.418399
 11
-28.438591
 21
-8.918400
  0
LINE
  8
0
 10
-12.438583
 20
-2.918396
 11
-12.438583
 21
-10.418396
  0
LINE
  8
0
 10
-27.938583
 20
-2.418396
 11
-27.938583
 21
-8.418396
  0
LINE
  8
0
 10
-27.938583
 20
-2.418396
 11
-12.938583
 21
-2.418396
  0
LINE
  8
0
 10
-20.438583
 20
-2.918396
 11
-18.938583
 21
-2.918396
  0
LINE
  8
0
 10
-28.438583
 20
-2.918396
 11
-28.438583
 21
-10.418396
  0
LINE
  8
0
 10
-18.938583
 20
-2.918396
 11
-18.938583
 21
-8.918396
  0
LINE
  8
0
 10
-18.938583
 20
-8.918396
 11
-15.948578
 21
-8.918396
  0
LINE
  8
0
 10
-18.438583
 20
-2.418396
 11
-18.438583
 21
-8.418396
  0
LINE
  8
0
 10
-18.438583
 20
-8.418396
 11
-16.448578
 21
-8.418396
  0
LINE
  8
0
 10
-15.948578
 20
-2.918396
 11
-15.948578
 21
-8.918396
  0
LINE
  8
0
 10
-13.828583
 20
-2.918396
 11
-13.828583
 21
-8.918396
  0
LINE
  8
0
 10
-18.938591
 20
-2.918392
 11
-18.438589
 21
-2.418391
  0
LINE
  8
0
 10
-18.938593
 20
-8.918399
 11
-18.438589
 21
-8.418398
  0
LINE
  8
0
 10
-16.448578
 20
-2.418396
 11
-16.448578
 21
-8.418396
  0
LINE
  8
0
 10
-15.948578
 20
-2.918396
 11
-13.828583
 21
-2.918396
  0
LINE
  8
0
 10
-16.448578
 20
-2.418392
 11
-15.948578
 21
-2.918393
  0
LINE
  8
0
 10
-16.448578
 20
-8.418398
 11
-15.948578
 21
-8.918399
  0
LINE
  8
0
 10
-14.328586
 20
-2.418402
 11
-13.828585
 21
-2.918403
  0
LINE
  8
0
 10
-13.828583
 20
-8.918396
 11
-12.438583
 21
-8.918396
  0
LINE
  8
0
 10
-13.828583
 20
-8.418396
 11
-12.938583
 21
-8.418396
  0
LINE
  8
0
 10
-12.938583
 20
-2.418396
 11
-12.938583
 21
-8.418396
  0
LINE
  8
0
 10
-28.438591
 20
-2.918392
 11
-27.938589
 21
-2.418391
  0
LINE
  8
0
 10
-12.938584
 20
-2.418402
 11
-12.438583
 21
-2.918403
  0
LINE
  8
0
 10
-12.938584
 20
-8.418387
 11
-12.438583
 21
-8.918388
  0
LINE
  8
0
 10
-20.438583
 20
-2.918396
 11
-21.938583
 21
-2.918396
  0
LINE
  8
0
 10
-21.938583
 20
-2.918403
 11
-22.438583
 21
-2.418403
  0
LINE
  8
0
 10
-22.438583
 20
-2.418396
 11
-22.438583
 21
-8.418396
  0
LINE
  8
0
 10
-21.938583
 20
-2.918396
 11
-21.938583
 21
-8.918396
  0
LINE
  8
0
 10
-22.438583
 20
-8.418396
 11
-24.438583
 21
-8.418396
  0
LINE
  8
0
 10
-21.938583
 20
-8.918389
 11
-22.438583
 21
-8.418388
  0
LINE
  8
0
 10
-21.938583
 20
-8.918396
 11
-24.938583
 21
-8.918396
  0
LINE
  8
0
 10
-24.438583
 20
-2.418396
 11
-24.438583
 21
-8.418396
  0
LINE
  8
0
 10
-24.438585
 20
-8.418388
 11
-24.938585
 21
-8.918389
  0
LINE
  8
0
 10
-24.938583
 20
-2.918396
 11
-24.938583
 21
-8.918396
  0
LINE
  8
0
 10
-24.438587
 20
-2.418402
 11
-24.938585
 21
-2.918402
  0
LINE
  8
0
 10
-24.938583
 20
-2.918396
 11
-27.058578
 21
-2.918396
  0
LINE
  8
0
 10
-26.558578
 20
-2.418391
 11
-27.058580
 21
-2.918391
  0
LINE
  8
0
 10
-27.058578
 20
-2.918396
 11
-27.058578
 21
-8.918396
  0
LINE
  8
0
 10
-27.058578
 20
-8.418396
 11
-27.938583
 21
-8.418396
  0
LINE
  8
0
 10
-27.058578
 20
-8.918396
 11
-28.438583
 21
-8.918396
  0
LINE
  8
0
 10
-43.018585
 20
-9.718399
 11
-34.258575
 21
-9.718399
  0
LINE
  8
0
 10
-43.018585
 20
-9.718399
 11
-43.018585
 21
-10.418396
  0
LINE
  8
0
 10
-34.258575
 20
-9.718399
 11
-34.258575
 21
-10.418396
  0
LINE
  8
0
 10
-31.438583
 20
-16.418396
 11
-31.438583
 21
-36.418396
  0
LINE
  8
0
 10
-36.938583
 20
-16.418396
 11
-31.438583
 21
-16.418396
  0
LINE
  8
0
 10
-36.938583
 20
-36.418396
 11
-31.438583
 21
-36.418396
  0
LINE
  8
0
 10
-36.938583
 20
-17.418396
 11
-32.438583
 21
-17.418396
  0
LINE
  8
0
 10
-32.438583
 20
-17.418396
 11
-32.438583
 21
-35.418396
  0
LINE
  8
0
 10
-36.938583
 20
-35.418396
 11
-32.438583
 21
-35.418396
  0
LINE
  8
0
 10
28.561417
 20
-16.418396
 11
18.561417
 21
-16.418396
  0
LINE
  8
0
 10
28.561417
 20
-16.418396
 11
28.561417
 21
-36.418396
  0
LINE
  8
0
 10
27.561417
 20
-17.418396
 11
19.561417
 21
-17.418396
  0
LINE
  8
0
 10
18.561417
 20
-16.418396
 11
18.561417
 21
-36.418396
  0
LINE
  8
0
 10
19.561417
 20
-17.418396
 11
19.561417
 21
-35.418396
  0
LINE
  8
0
 10
27.561417
 20
-17.418396
 11
27.561417
 21
-35.418396
  0
LINE
  8
0
 10
27.561417
 20
-35.418396
 11
19.561417
 21
-35.418396
  0
LINE
  8
0
 10
28.561417
 20
-36.418396
 11
18.561417
 21
-36.418396
  0
LINE
  8
0
 10
-137.038574
 20
-41.418396
 11
-137.038574
 21
-42.418396
  0
LINE
  8
0
 10
-114.538574
 20
-15.418396
 11
-114.538574
 21
-37.418396
  0
LINE
  8
0
 10
-118.238586
 20
-37.418396
 11
-118.238586
 21
-38.418396
  0
LINE
  8
0
 10
-114.538574
 20
-38.418396
 11
-114.538574
 21
-68.418396
  0
LINE
  8
0
 10
-145.538574
 20
-11.418396
 11
-145.538574
 21
-41.418396
  0
LINE
  8
0
 10
-67.938583
 20
-14.418396
 11
-67.938583
 21
15.581604
  0
LINE
  8
0
 10
-67.938583
 20
-37.418396
 11
-67.938583
 21
-15.418396
  0
LINE
  8
0
 10
-64.238586
 20
-37.418396
 11
-64.238586
 21
-38.418396
  0
LINE
  8
0
 10
-45.438583
 20
-41.418396
 11
-45.438583
 21
-42.418396
  0
LINE
  8
0
 10
-36.938583
 20
-41.418396
 11
-36.938583
 21
-11.418396
  0
LINE
  8
0
 10
-36.938583
 20
-9.718399
 11
-36.938583
 21
15.581604
  0
LINE
  8
0
 10
-24.848587
 20
-161.608383
 11
11.981415
 21
-161.608383
  0
LINE
  8
0
 10
-194.448578
 20
-161.608383
 11
-157.618576
 21
-161.608383
  0
LINE
  8
0
 10
-183.608582
 20
-163.108383
 11
-168.458588
 21
-163.108383
  0
LINE
  8
0
 10
-184.108582
 20
-162.608383
 11
-184.108582
 21
-161.608383
  0
LINE
  8
0
 10
-167.958588
 20
-162.608383
 11
-167.958588
 21
-161.608383
  0
LINE
  8
0
 10
-168.458588
 20
-163.108383
 11
-167.958572
 21
-162.608368
  0
LINE
  8
0
 10
-183.608582
 20
-163.108383
 11
-184.108582
 21
-162.608383
  0
LINE
  8
0
 10
-169.288574
 20
-177.898392
 11
-182.788574
 21
-177.898392
  0
LINE
  8
0
 10
-168.288574
 20
-164.898392
 11
-168.288574
 21
-176.898392
  0
LINE
  8
0
 10
-183.788574
 20
-164.898392
 11
-183.788574
 21
-176.898392
  0
LINE
  8
0
 10
-168.288574
 20
-176.898376
 11
-169.288574
 21
-177.898376
  0
LINE
  8
0
 10
-182.788574
 20
-177.898376
 11
-183.788574
 21
-176.898376
  0
LINE
  8
0
 10
-168.788574
 20
-164.398392
 11
-183.288574
 21
-164.398392
  0
LINE
  8
0
 10
-168.788574
 20
-164.398392
 11
-168.288574
 21
-164.898392
  0
LINE
  8
0
 10
-183.288574
 20
-164.398392
 11
-183.788574
 21
-164.898392
  0
LINE
  8
0
 10
-170.038574
 20
-163.108383
 11
-170.038574
 21
-164.398392
  0
LINE
  8
0
 10
-182.038574
 20
-163.108383
 11
-182.038574
 21
-164.398392
  0
LINE
  8
0
 62
     2
 10
-181.288574
 20
-163.108383
 11
-181.288574
 21
-164.398392
  0
LINE
  8
0
 62
     2
 10
-170.788574
 20
-163.108383
 11
-170.788574
 21
-164.398392
  0
LINE
  8
0
 10
-177.538574
 20
-167.398392
 11
-177.538574
 21
-176.898392
  0
LINE
  8
0
 10
-174.538574
 20
-167.398392
 11
-174.538574
 21
-176.898392
  0
LINE
  8
0
 10
-174.198578
 20
-167.688385
 11
-174.198578
 21
-177.398392
  0
LINE
  8
0
 10
-177.878586
 20
-167.688385
 11
-177.878586
 21
-177.398392
  0
LINE
  8
0
 10
-179.698578
 20
-167.688385
 11
-179.698578
 21
-177.398392
  0
LINE
  8
0
 10
-180.348587
 20
-167.398392
 11
-180.348587
 21
-176.898392
  0
LINE
  8
0
 10
-182.478577
 20
-167.398392
 11
-182.478577
 21
-176.898392
  0
LINE
  8
0
 10
-183.048584
 20
-167.688385
 11
-183.048584
 21
-177.398392
  0
LINE
  8
0
 10
-183.638580
 20
-167.398392
 11
-183.638580
 21
-176.898392
  0
LINE
  8
0
 10
-172.378586
 20
-167.688385
 11
-172.378586
 21
-177.398392
  0
LINE
  8
0
 10
-171.718582
 20
-167.398392
 11
-171.718582
 21
-176.898392
  0
LINE
  8
0
 10
-169.598587
 20
-167.398392
 11
-169.598587
 21
-176.898392
  0
LINE
  8
0
 10
-169.028580
 20
-167.688385
 11
-169.028580
 21
-177.398392
  0
LINE
  8
0
 10
-168.438583
 20
-167.398392
 11
-168.438583
 21
-176.898392
  0
LINE
  8
0
 10
-168.438583
 20
-167.398392
 11
-169.598587
 21
-167.398392
  0
LINE
  8
0
 10
-169.028580
 20
-167.688385
 11
-169.598587
 21
-167.688385
  0
LINE
  8
0
 10
-168.288574
 20
-176.898392
 11
-168.438583
 21
-176.898392
  0
LINE
  8
0
 10
-177.538574
 20
-167.398392
 11
-180.348587
 21
-167.398392
  0
LINE
  8
0
 10
-177.878586
 20
-167.688385
 11
-179.698578
 21
-167.688385
  0
LINE
  8
0
 10
-171.718582
 20
-167.398392
 11
-174.538574
 21
-167.398392
  0
LINE
  8
0
 10
-172.378586
 20
-167.688385
 11
-174.198578
 21
-167.688385
  0
LINE
  8
0
 10
-182.478577
 20
-167.398392
 11
-183.638580
 21
-167.398392
  0
LINE
  8
0
 10
-182.478577
 20
-167.688385
 11
-183.048584
 21
-167.688385
  0
LINE
  8
0
 10
-174.538574
 20
-176.898392
 11
-177.538574
 21
-176.898392
  0
LINE
  8
0
 10
-180.348587
 20
-176.898392
 11
-182.478577
 21
-176.898392
  0
LINE
  8
0
 10
-183.638580
 20
-176.898392
 11
-183.788574
 21
-176.898392
  0
LINE
  8
0
 10
-169.598587
 20
-176.898392
 11
-171.718582
 21
-176.898392
  0
LINE
  8
0
 10
-172.378586
 20
-177.398392
 11
-174.198578
 21
-177.398392
  0
LINE
  8
0
 10
-169.028580
 20
-177.398392
 11
-168.438568
 21
-176.898392
  0
LINE
  8
0
 10
-172.378586
 20
-177.398392
 11
-171.718582
 21
-176.898392
  0
LINE
  8
0
 10
-174.198578
 20
-177.398376
 11
-174.538574
 21
-176.898392
  0
LINE
  8
0
 10
-177.538559
 20
-176.898392
 11
-177.878571
 21
-177.398376
  0
LINE
  8
0
 10
-179.698578
 20
-177.398392
 11
-180.348557
 21
-176.898407
  0
LINE
  8
0
 10
-183.048569
 20
-177.398376
 11
-183.638580
 21
-176.898376
  0
LINE
  8
0
 10
-183.048569
 20
-167.688385
 11
-183.638580
 21
-167.398392
  0
LINE
  8
0
 10
-179.698578
 20
-167.688385
 11
-180.348587
 21
-167.398392
  0
LINE
  8
0
 10
-177.878571
 20
-167.688370
 11
-177.538574
 21
-167.398376
  0
LINE
  8
0
 10
-174.198563
 20
-167.688400
 11
-174.538574
 21
-167.398392
  0
LINE
  8
0
 10
-172.378571
 20
-167.688385
 11
-171.718582
 21
-167.398392
  0
LINE
  8
0
 10
-169.028580
 20
-167.688385
 11
-168.438568
 21
-167.398376
  0
LINE
  8
0
 10
-169.598572
 20
-176.898392
 11
-169.778564
 21
-177.398392
  0
LINE
  8
0
 10
-182.478577
 20
-176.898376
 11
-182.298584
 21
-177.398392
  0
LINE
  8
0
 10
-177.878586
 20
-177.398392
 11
-179.698578
 21
-177.398392
  0
LINE
  8
0
 10
-169.028580
 20
-177.398392
 11
-169.778580
 21
-177.398392
  0
LINE
  8
0
 10
-182.298584
 20
-177.398392
 11
-183.048584
 21
-177.398392
  0
LINE
  8
0
 10
-168.288574
 20
-164.898392
 11
-183.788574
 21
-164.898392
  0
LINE
  8
0
 10
-170.038574
 20
-179.398392
 11
-182.038574
 21
-179.398392
  0
LINE
  8
0
 10
-169.538574
 20
-178.898392
 11
-169.538574
 21
-177.898392
  0
LINE
  8
0
 10
-182.538574
 20
-178.898392
 11
-182.538574
 21
-177.898392
  0
LINE
  8
0
 10
-182.538574
 20
-178.898376
 11
-182.038574
 21
-179.398392
  0
LINE
  8
0
 10
-170.038574
 20
-179.398392
 11
-169.538574
 21
-178.898376
  0
LINE
  8
0
 10
-173.208588
 20
-186.498383
 11
-178.868576
 21
-186.498383
  0
LINE
  8
0
 10
-179.288574
 20
-184.098389
 11
-179.288574
 21
-183.898392
  0
LINE
  8
0
 10
-172.788574
 20
-184.098389
 11
-172.788574
 21
-183.898392
  0
LINE
  8
0
 10
-172.788574
 20
-183.898392
 11
-179.288574
 21
-183.898392
  0
LINE
  8
0
 10
-172.788574
 20
-181.298386
 11
-179.288574
 21
-181.298386
  0
LINE
  8
0
 10
-172.788574
 20
-181.498383
 11
-179.288574
 21
-181.498383
  0
LINE
  8
0
 10
-172.788574
 20
-184.098389
 11
-179.288574
 21
-184.098389
  0
LINE
  8
0
 10
-179.288574
 20
-181.498383
 11
-179.288574
 21
-181.298386
  0
LINE
  8
0
 10
-172.788574
 20
-181.498383
 11
-172.788574
 21
-181.298386
  0
LINE
  8
0
 10
-179.288574
 20
-181.498383
 11
-178.868576
 21
-183.898392
  0
LINE
  8
0
 10
-179.288589
 20
-184.098389
 11
-178.868576
 21
-186.498398
  0
LINE
  8
0
 10
-172.788574
 20
-184.098404
 11
-173.208572
 21
-186.498383
  0
LINE
  8
0
 10
-172.788589
 20
-181.498398
 11
-173.208588
 21
-183.898392
  0
LINE
  8
0
 10
-173.188583
 20
-181.298386
 11
-173.188583
 21
-179.398392
  0
LINE
  8
0
 10
-178.888580
 20
-181.298386
 11
-178.888580
 21
-179.398392
  0
LINE
  8
0
 10
-182.538574
 20
-178.898392
 11
-169.538574
 21
-178.898392
  0
LINE
  8
0
 10
-184.108582
 20
-162.608383
 11
-167.958588
 21
-162.608383
  0
LINE
  8
0
  6
CENTER
 62
     2
 10
48.668701
 20
-26.418396
 11
-229.531723
 21
-26.418396
  0
LINE
  8
0
  6
CENTER
 62
     2
 10
-176.038574
 20
-5.418396
 11
-176.038574
 21
-188.968384
  0
LINE
  8
0
 10
-281.250000
 20
195.500000
 11
282.099854
 21
195.500000
  0
LINE
  8
0
 10
-281.250000
 20
195.500000
 11
-281.250000
 21
-195.000000
  0
LINE
  8
0
 10
282.099854
 20
195.500000
 11
282.099854
 21
-195.000000
  0
LINE
  8
0
 10
-281.250000
 20
-195.000000
 11
282.099854
 21
-195.000000
  0
LINE
  8
0
 10
162.099976
 20
-175.000000
 11
162.099976
 21
-195.000000
  0
LINE
  8
0
 10
162.099976
 20
-175.000000
 11
282.099854
 21
-175.000000
  0
LINE
  8
0
 10
162.099976
 20
175.500000
 11
282.099854
 21
175.500000
  0
LINE
  8
0
 10
-281.250000
 20
175.500000
 11
-161.250000
 21
175.500000
  0
LINE
  8
0
 10
162.099976
 20
195.500000
 11
162.099976
 21
175.500000
  0
LINE
  8
0
 10
-161.250000
 20
195.500000
 11
-161.250000
 21
175.500000
  0
ARC
  8
0
 10
-176.042465
 20
99.587219
 40
39.503311
 50
39.449467
 51
149.582672
  0
ARC
  8
0
 10
-176.047058
 20
99.587952
 40
39.499424
 50
210.420868
 51
323.760712
  0
ARC
  8
0
 10
-176.041565
 20
99.587364
 40
38.499599
 50
37.599651
 51
148.701904
  0
ARC
  8
0
 10
-176.039673
 20
99.587570
 40
38.501163
 50
211.296448
 51
323.982300
  0
ARC
  8
0
 10
-176.043579
 20
99.587524
 40
28.500744
 50
44.566433
 51
135.433517
  0
ARC
  8
0
 10
-176.043579
 20
99.587524
 40
27.500278
 50
46.657604
 51
133.342346
  0
ARC
  8
0
 10
-176.043579
 20
99.587524
 40
28.500744
 50
224.566483
 51
315.433563
  0
ARC
  8
0
 10
-176.043579
 20
99.587524
 40
27.500278
 50
226.657654
 51
313.342407
  0
CIRCLE
  8
0
 10
-91.238586
 20
99.587524
 40
14.000000
  0
ARC
  8
0
 10
-90.238602
 20
115.587524
 40
1.000015
 50
270.000885
 51
359.999115
  0
ARC
  8
0
 10
-68.238571
 20
115.587540
 40
1.000015
 50
180.000870
 51
269.999115
  0
ARC
  8
0
 10
-68.238586
 20
83.587532
 40
0.999992
 50
89.999565
 51
180.000443
  0
ARC
  8
0
 10
-90.238571
 20
83.587532
 40
0.999992
 50
359.999573
 51
90.000435
  0
ARC
  8
0
 10
-91.260345
 20
99.596550
 40
13.292605
 50
56.628757
 51
78.184685
  0
ARC
  8
0
 10
-91.225357
 20
99.593025
 40
13.296362
 50
101.818344
 51
123.368141
  0
ARC
  8
0
 10
-91.249084
 20
99.562225
 40
13.301665
 50
146.636124
 51
168.177231
  0
ARC
  8
0
 10
-91.249084
 20
99.612823
 40
13.301666
 50
191.822769
 51
213.363876
  0
ARC
  8
0
 10
-91.225357
 20
99.582024
 40
13.296362
 50
236.631866
 51
258.181641
  0
ARC
  8
0
 10
-91.260345
 20
99.578499
 40
13.292605
 50
281.815308
 51
303.371246
  0
ARC
  8
0
 10
-91.229568
 20
99.609283
 40
13.292616
 50
326.628754
 51
348.184723
  0
ARC
  8
0
 10
-91.229568
 20
99.565765
 40
13.292611
 50
11.815278
 51
33.371250
  0
CIRCLE
  8
0
 10
-91.238586
 20
99.587524
 40
13.000001
  0
CIRCLE
  8
0
 10
-91.238586
 20
99.587524
 40
12.000000
  0
CIRCLE
  8
0
 10
-91.238586
 20
99.587524
 40
10.000000
  0
CIRCLE
  8
0
 10
-91.238586
 20
99.587524
 40
4.250000
  0
ARC
  8
0
 10
-91.248108
 20
99.584724
 40
19.496094
 50
83.048653
 51
129.688461
  0
ARC
  8
0
 10
-91.242111
 20
99.586594
 40
18.499725
 50
83.782661
 51
125.818710
  0
ARC
  8
0
 10
-91.248108
 20
99.590324
 40
19.496092
 50
230.311539
 51
276.951355
  0
ARC
  8
0
 10
-91.242111
 20
99.588455
 40
18.499725
 50
234.181290
 51
276.217346
  0
ARC
  8
0
 10
-61.238571
 20
63.087540
 40
2.999992
 50
359.999847
 51
90.000145
  0
ARC
  8
0
 10
-97.238586
 20
63.087540
 40
2.999992
 50
89.999855
 51
180.000076
  0
ARC
  8
0
 10
-6.439941
 20
99.587631
 40
39.499012
 50
30.420284
 51
140.546173
  0
ARC
  8
0
 10
-6.442261
 20
99.587730
 40
38.530746
 50
31.269260
 51
142.324051
  0
CIRCLE
  8
0
 10
-0.938568
 20
103.587540
 40
6.949997
  0
CIRCLE
  8
0
 10
-0.938583
 20
103.587509
 40
12.999985
  0
CIRCLE
  8
0
 10
-0.938583
 20
103.587509
 40
13.999985
  0
CIRCLE
  8
0
 10
-20.438568
 20
79.587540
 40
7.500000
  0
CIRCLE
  8
0
 10
-20.438568
 20
79.587524
 40
8.000008
  0
ARC
  8
0
 10
-6.443726
 20
99.587311
 40
38.531979
 50
216.020706
 51
328.731873
  0
ARC
  8
0
 10
-6.440079
 20
99.587448
 40
39.499146
 50
216.238678
 51
329.579773
  0
ARC
  8
0
 10
168.229858
 20
-146.610596
 40
14.997787
 50
269.989502
 51
359.511780
  0
ARC
  8
0
 10
169.769150
 20
-142.606339
 40
1.002047
 50
180.116913
 51
269.883087
  0
ARC
  8
0
 10
169.769150
 20
-143.106339
 40
1.002047
 50
180.116913
 51
269.883087
  0
ARC
  8
0
 10
169.387375
 20
-143.608124
 40
1.000259
 50
180.014862
 51
269.985138
  0
ARC
  8
0
 10
169.387375
 20
-144.108124
 40
1.000259
 50
180.014862
 51
269.985138
  0
ARC
  8
0
 10
174.840729
 20
-142.612000
 40
0.996390
 50
269.792053
 51
0.207952
  0
ARC
  8
0
 10
176.677963
 20
-143.109253
 40
0.999146
 50
269.950989
 51
0.049001
  0
ARC
  8
0
 10
176.931503
 20
-143.612778
 40
0.995615
 50
269.747101
 51
0.252898
  0
ARC
  8
0
 10
177.530090
 20
-144.111374
 40
0.997029
 50
269.829010
 51
0.170990
  0
ARC
  8
0
 10
129.858170
 20
-142.609436
 40
0.998963
 50
269.940491
 51
0.059512
  0
ARC
  8
0
 10
129.858170
 20
-143.109436
 40
0.998963
 50
269.940491
 51
0.059512
  0
ARC
  8
0
 10
130.239914
 20
-143.611176
 40
0.997212
 50
269.839569
 51
0.160438
  0
ARC
  8
0
 10
130.239914
 20
-144.111176
 40
0.997212
 50
269.839569
 51
0.160438
  0
ARC
  8
0
 10
124.786560
 20
-142.608948
 40
0.999443
 50
179.968506
 51
270.031494
  0
ARC
  8
0
 10
122.949448
 20
-143.106064
 40
1.002322
 50
180.132584
 51
269.867432
  0
ARC
  8
0
 10
122.690887
 20
-143.604614
 40
1.003776
 50
180.215134
 51
269.784882
  0
ARC
  8
0
 10
122.097229
 20
-144.108292
 40
1.000099
 50
180.006119
 51
269.994324
  0
ARC
  8
0
 10
131.397522
 20
-146.607422
 40
15.000969
 50
180.500290
 51
269.998535
  0
ARC
  8
0
 10
174.844666
 20
-109.610840
 40
0.992476
 50
359.563965
 51
90.436043
  0
ARC
  8
0
 10
169.765228
 20
-109.616516
 40
0.998133
 50
89.892265
 51
180.107300
  0
ARC
  8
0
 10
169.765228
 20
-109.116516
 40
0.998133
 50
89.892265
 51
180.107300
  0
ARC
  8
0
 10
176.681885
 20
-109.113602
 40
0.995236
 50
359.724609
 51
90.274956
  0
ARC
  8
0
 10
169.765244
 20
-69.616516
 40
0.998133
 50
89.892265
 51
180.107300
  0
ARC
  8
0
 10
169.765244
 20
-69.116516
 40
0.998133
 50
89.892265
 51
180.107300
  0
ARC
  8
0
 10
169.383453
 20
-68.614731
 40
0.996352
 50
89.790283
 51
180.210159
  0
ARC
  8
0
 10
169.383453
 20
-68.114731
 40
0.996352
 50
89.790283
 51
180.210159
  0
ARC
  8
0
 10
174.844650
 20
-69.610840
 40
0.992476
 50
359.563965
 51
90.436043
  0
ARC
  8
0
 10
176.681885
 20
-69.113602
 40
0.995236
 50
359.724609
 51
90.274956
  0
ARC
  8
0
 10
176.935440
 20
-68.610062
 40
0.991704
 50
359.518646
 51
90.481346
  0
ARC
  8
0
 10
177.534012
 20
-68.111481
 40
0.993112
 50
359.601196
 51
90.398788
  0
ARC
  8
0
 10
169.774139
 20
-100.611359
 40
1.007059
 50
180.400208
 51
269.599792
  0
ARC
  8
0
 10
169.774139
 20
-101.111359
 40
1.007059
 50
180.400208
 51
269.599792
  0
ARC
  8
0
 10
174.835709
 20
-100.616989
 40
1.001405
 50
270.080322
 51
359.919678
  0
ARC
  8
0
 10
176.672958
 20
-101.114243
 40
1.004159
 50
270.236816
 51
359.763184
  0
ARC
  8
0
 10
124.782639
 20
-109.613907
 40
0.995532
 50
89.742249
 51
180.257751
  0
ARC
  8
0
 10
129.862091
 20
-109.613419
 40
0.995038
 50
359.713562
 51
90.286430
  0
ARC
  8
0
 10
129.862091
 20
-109.113419
 40
0.995038
 50
359.713562
 51
90.286430
  0
ARC
  8
0
 10
122.945526
 20
-109.116791
 40
0.998407
 50
89.908493
 51
180.091064
  0
ARC
  8
0
 10
129.862091
 20
-69.613419
 40
0.995038
 50
359.714020
 51
90.286430
  0
ARC
  8
0
 10
129.862091
 20
-69.113419
 40
0.995038
 50
359.714020
 51
90.286430
  0
ARC
  8
0
 10
130.243851
 20
-68.611664
 40
0.993294
 50
359.612274
 51
90.388153
  0
ARC
  8
0
 10
130.243851
 20
-68.111664
 40
0.993294
 50
359.612274
 51
90.388153
  0
ARC
  8
0
 10
124.782639
 20
-69.613907
 40
0.995532
 50
89.742249
 51
180.257751
  0
ARC
  8
0
 10
122.945526
 20
-69.116806
 40
0.998414
 50
89.908936
 51
180.091064
  0
ARC
  8
0
 10
122.686996
 20
-68.618256
 40
0.999870
 50
89.992569
 51
180.007431
  0
ARC
  8
0
 10
122.093307
 20
-68.114578
 40
0.996193
 50
89.780159
 51
180.219406
  0
ARC
  8
0
 10
129.853165
 20
-100.614426
 40
1.003968
 50
270.226410
 51
359.774017
  0
ARC
  8
0
 10
129.853165
 20
-101.114426
 40
1.003968
 50
270.226410
 51
359.774017
  0
ARC
  8
0
 10
124.791580
 20
-100.613937
 40
1.004458
 50
180.254150
 51
269.746277
  0
ARC
  8
0
 10
122.954437
 20
-101.111069
 40
1.007343
 50
180.416153
 51
269.584290
  0
ARC
  8
0
 10
128.807114
 20
-40.418396
 40
1.000000
 50
270.000000
 51
0.000000
  0
ARC
  8
0
 10
170.807114
 20
-40.418396
 40
1.000000
 50
180.000000
 51
270.000000
  0
ARC
  8
0
 10
128.807114
 20
-37.418396
 40
1.000000
 50
270.000000
 51
0.000000
  0
ARC
  8
0
 10
128.807114
 20
-38.418396
 40
1.000000
 50
270.000000
 51
0.000000
  0
ARC
  8
0
 10
141.007111
 20
-7.318405
 40
0.700003
 50
90.000000
 51
179.999725
  0
ARC
  8
0
 10
166.607101
 20
-7.318405
 40
0.699997
 50
0.000234
 51
90.000000
  0
ARC
  8
0
 10
153.807114
 20
8.431595
 40
6.949997
 50
0.000000
 51
179.999954
  0
ARC
  8
0
 10
170.807114
 20
-37.418396
 40
1.000000
 50
180.000000
 51
270.000000
  0
ARC
  8
0
 10
170.807114
 20
-38.418396
 40
1.000000
 50
180.000000
 51
270.000000
  0
CIRCLE
  8
0
 10
149.807114
 20
-26.418396
 40
13.500000
  0
ARC
  8
0
 10
121.807114
 20
-11.418396
 40
1.000000
 50
90.000000
 51
179.999939
  0
ARC
  8
0
 10
113.307129
 20
-8.418396
 40
2.999985
 50
359.999695
 51
90.000290
  0
CIRCLE
  8
0
 10
149.807114
 20
-26.418396
 40
7.474999
  0
CIRCLE
  8
0
 62
     2
 10
149.807114
 20
-26.418396
 40
8.331000
  0
ARC
  8
0
 10
-157.617416
 20
-146.608994
 40
14.999390
 50
269.995575
 51
359.505737
  0
ARC
  8
0
 10
-194.449768
 20
-146.609024
 40
14.999368
 50
180.494217
 51
270.004547
  0
ARC
  8
0
 10
11.982590
 20
-146.608994
 40
14.999390
 50
269.995605
 51
359.505737
  0
ARC
  8
0
 10
-24.849777
 20
-146.609024
 40
14.999372
 50
180.494217
 51
270.004547
  0
ARC
  8
0
 10
-26.394135
 20
-142.612839
 40
0.995554
 50
269.744019
 51
0.256424
  0
ARC
  8
0
 10
-26.394135
 20
-143.112839
 40
0.995554
 50
269.744019
 51
0.256424
  0
ARC
  8
0
 10
-26.007370
 20
-143.609589
 40
0.998795
 50
269.930847
 51
0.069150
  0
ARC
  8
0
 10
-26.007370
 20
-144.109589
 40
0.998795
 50
269.930847
 51
0.069150
  0
ARC
  8
0
 10
-31.465714
 20
-142.605530
 40
1.002869
 50
180.163895
 51
269.836334
  0
ARC
  8
0
 10
-33.297852
 20
-143.107666
 40
1.000729
 50
180.041931
 51
269.958282
  0
ARC
  8
0
 10
-33.556412
 20
-143.606216
 40
1.002181
 50
180.124741
 51
269.875458
  0
ARC
  8
0
 10
-34.155060
 20
-144.104874
 40
1.003527
 50
180.201248
 51
269.798981
  0
ARC
  8
0
 10
13.521957
 20
-142.607849
 40
1.000533
 50
180.030579
 51
269.969482
  0
ARC
  8
0
 10
13.521957
 20
-143.107849
 40
1.000533
 50
180.030579
 51
269.969482
  0
ARC
  8
0
 10
13.135208
 20
-143.604599
 40
1.003801
 50
180.216873
 51
269.783417
  0
ARC
  8
0
 10
13.135208
 20
-144.104599
 40
1.003801
 50
180.216873
 51
269.783417
  0
ARC
  8
0
 10
18.593552
 20
-142.610519
 40
0.997866
 50
269.877655
 51
0.122658
  0
ARC
  8
0
 10
20.425674
 20
-143.112640
 40
0.995752
 50
269.755157
 51
0.244961
  0
ARC
  8
0
 10
20.684235
 20
-143.611206
 40
0.997196
 50
269.838348
 51
0.161318
  0
ARC
  8
0
 10
21.282898
 20
-144.109863
 40
0.998521
 50
269.915283
 51
0.084929
  0
ARC
  8
0
 10
-31.469635
 20
-109.617340
 40
0.998955
 50
89.939835
 51
180.059952
  0
ARC
  8
0
 10
-26.390198
 20
-109.610001
 40
0.991645
 50
359.515106
 51
90.484795
  0
ARC
  8
0
 10
-26.390198
 20
-109.110001
 40
0.991645
 50
359.515106
 51
90.484795
  0
ARC
  8
0
 10
-33.301773
 20
-109.115204
 40
0.996816
 50
89.816475
 51
180.183304
  0
ARC
  8
0
 10
-26.390198
 20
-69.610001
 40
0.991649
 50
359.515533
 51
90.484566
  0
ARC
  8
0
 10
-26.390198
 20
-69.110001
 40
0.991649
 50
359.515533
 51
90.484566
  0
ARC
  8
0
 10
-26.003448
 20
-68.613266
 40
0.994884
 50
359.704742
 51
90.295372
  0
ARC
  8
0
 10
-26.003448
 20
-68.113266
 40
0.994884
 50
359.704742
 51
90.295372
  0
ARC
  8
0
 10
-31.469620
 20
-69.617340
 40
0.998955
 50
89.940048
 51
180.059952
  0
ARC
  8
0
 10
-33.301773
 20
-69.115204
 40
0.996816
 50
89.816696
 51
180.183304
  0
ARC
  8
0
 10
-33.560318
 20
-68.616653
 40
0.998270
 50
89.900383
 51
180.099396
  0
ARC
  8
0
 10
-34.158966
 20
-68.118011
 40
0.999619
 50
89.977913
 51
180.021866
  0
ARC
  8
0
 10
-26.399155
 20
-100.617813
 40
1.000572
 50
270.032990
 51
359.967224
  0
ARC
  8
0
 10
-26.399155
 20
-101.117813
 40
1.000572
 50
270.032990
 51
359.967224
  0
ARC
  8
0
 10
-31.460724
 20
-100.610535
 40
1.007881
 50
180.446289
 51
269.553589
  0
ARC
  8
0
 10
-33.292847
 20
-101.112656
 40
1.005742
 50
180.326416
 51
269.673798
  0
ARC
  8
0
 10
18.597473
 20
-109.612320
 40
0.993957
 50
359.650360
 51
90.349419
  0
ARC
  8
0
 10
13.518036
 20
-109.615005
 40
0.996618
 50
89.805252
 51
180.194748
  0
ARC
  8
0
 10
13.518036
 20
-109.115005
 40
0.996618
 50
89.805252
 51
180.194748
  0
ARC
  8
0
 10
20.429611
 20
-109.110199
 40
0.991838
 50
359.526642
 51
90.473351
  0
ARC
  8
0
 10
13.518036
 20
-69.615005
 40
0.996618
 50
89.805473
 51
180.194305
  0
ARC
  8
0
 10
13.518036
 20
-69.115005
 40
0.996618
 50
89.805473
 51
180.194305
  0
ARC
  8
0
 10
13.131302
 20
-68.618271
 40
0.999893
 50
89.993660
 51
180.006119
  0
ARC
  8
0
 10
13.131302
 20
-68.118271
 40
0.999893
 50
89.993660
 51
180.006119
  0
ARC
  8
0
 10
18.597473
 20
-69.612335
 40
0.993961
 50
359.650818
 51
90.349197
  0
ARC
  8
0
 10
20.429611
 20
-69.110199
 40
0.991842
 50
359.526642
 51
90.473129
  0
ARC
  8
0
 10
20.688156
 20
-68.611649
 40
0.993279
 50
359.610962
 51
90.389046
  0
ARC
  8
0
 10
21.286819
 20
-68.112991
 40
0.994613
 50
359.688843
 51
90.311058
  0
ARC
  8
0
 10
13.526947
 20
-100.612854
 40
1.005548
 50
180.315170
 51
269.684723
  0
ARC
  8
0
 10
13.526947
 20
-101.112854
 40
1.005548
 50
180.315170
 51
269.684723
  0
ARC
  8
0
 10
18.588531
 20
-100.615509
 40
1.002888
 50
270.164764
 51
359.835236
  0
ARC
  8
0
 10
20.420654
 20
-101.117615
 40
1.000771
 50
270.044006
 51
359.955872
  0
ARC
  8
0
 10
-42.861435
 20
-88.155563
 40
0.307419
 50
182.389557
 51
216.490097
  0
ARC
  8
0
 10
-195.994125
 20
-142.612839
 40
0.995554
 50
269.743561
 51
0.256426
  0
ARC
  8
0
 10
-195.994125
 20
-143.112839
 40
0.995554
 50
269.743561
 51
0.256426
  0
ARC
  8
0
 10
-195.607376
 20
-143.609589
 40
0.998795
 50
269.930847
 51
0.069150
  0
ARC
  8
0
 10
-195.607376
 20
-144.109589
 40
0.998795
 50
269.930847
 51
0.069150
  0
ARC
  8
0
 10
-201.065704
 20
-142.605530
 40
1.002873
 50
180.163895
 51
269.836121
  0
ARC
  8
0
 10
-202.897842
 20
-143.107666
 40
1.000733
 50
180.041931
 51
269.958069
  0
ARC
  8
0
 10
-203.156403
 20
-143.606216
 40
1.002184
 50
180.124741
 51
269.875244
  0
ARC
  8
0
 10
-203.755051
 20
-144.104874
 40
1.003531
 50
180.201248
 51
269.798767
  0
ARC
  8
0
 10
-156.078049
 20
-142.607849
 40
1.000534
 50
180.030579
 51
269.969421
  0
ARC
  8
0
 10
-156.078049
 20
-143.107849
 40
1.000534
 50
180.030579
 51
269.969421
  0
ARC
  8
0
 10
-156.464783
 20
-143.604599
 40
1.003807
 50
180.216873
 51
269.783142
  0
ARC
  8
0
 10
-156.464783
 20
-144.104599
 40
1.003807
 50
180.216873
 51
269.783142
  0
ARC
  8
0
 10
-151.006454
 20
-142.610519
 40
0.997866
 50
269.877350
 51
0.122659
  0
ARC
  8
0
 10
-149.174332
 20
-143.112640
 40
0.995752
 50
269.755035
 51
0.244961
  0
ARC
  8
0
 10
-148.915771
 20
-143.611206
 40
0.997196
 50
269.838684
 51
0.161317
  0
ARC
  8
0
 10
-148.317108
 20
-144.109863
 40
0.998521
 50
269.915070
 51
0.084929
  0
ARC
  8
0
 10
-201.069626
 20
-109.617340
 40
0.998955
 50
89.939613
 51
180.059952
  0
ARC
  8
0
 10
-195.990189
 20
-109.610001
 40
0.991643
 50
359.515106
 51
90.484901
  0
ARC
  8
0
 10
-195.990189
 20
-109.110001
 40
0.991643
 50
359.515106
 51
90.484901
  0
ARC
  8
0
 10
-202.901764
 20
-109.115204
 40
0.996816
 50
89.816696
 51
180.183304
  0
ARC
  8
0
 10
-195.990189
 20
-69.610001
 40
0.991643
 50
359.515533
 51
90.484901
  0
ARC
  8
0
 10
-195.990189
 20
-69.110001
 40
0.991643
 50
359.515533
 51
90.484901
  0
ARC
  8
0
 10
-195.603455
 20
-68.613266
 40
0.994886
 50
359.704742
 51
90.295265
  0
ARC
  8
0
 10
-195.603455
 20
-68.113266
 40
0.994886
 50
359.704742
 51
90.295265
  0
ARC
  8
0
 10
-201.069626
 20
-69.617340
 40
0.998955
 50
89.940491
 51
180.059952
  0
ARC
  8
0
 10
-202.901764
 20
-69.115204
 40
0.996816
 50
89.816696
 51
180.183304
  0
ARC
  8
0
 10
-203.160309
 20
-68.616653
 40
0.998270
 50
89.900162
 51
180.099396
  0
ARC
  8
0
 10
-203.758957
 20
-68.118011
 40
0.999619
 50
89.978134
 51
180.021866
  0
ARC
  8
0
 10
-195.999161
 20
-100.617813
 40
1.000572
 50
270.033203
 51
359.967224
  0
ARC
  8
0
 10
-195.999161
 20
-101.117813
 40
1.000572
 50
270.033203
 51
359.967224
  0
ARC
  8
0
 10
-201.060730
 20
-100.610535
 40
1.007889
 50
180.446289
 51
269.553284
  0
ARC
  8
0
 10
-202.892853
 20
-101.112656
 40
1.005738
 50
180.326416
 51
269.674011
  0
ARC
  8
0
 10
-151.002518
 20
-109.612320
 40
0.993961
 50
359.650360
 51
90.349197
  0
ARC
  8
0
 10
-156.081970
 20
-109.615005
 40
0.996618
 50
89.805252
 51
180.194748
  0
ARC
  8
0
 10
-156.081970
 20
-109.115005
 40
0.996618
 50
89.805252
 51
180.194748
  0
ARC
  8
0
 10
-149.170380
 20
-109.110199
 40
0.991840
 50
359.526642
 51
90.473351
  0
ARC
  8
0
 10
-156.081970
 20
-69.615005
 40
0.996618
 50
89.805252
 51
180.194305
  0
ARC
  8
0
 10
-156.081970
 20
-69.115005
 40
0.996618
 50
89.805252
 51
180.194305
  0
ARC
  8
0
 10
-156.468689
 20
-68.618271
 40
0.999893
 50
89.993881
 51
180.006119
  0
ARC
  8
0
 10
-156.468689
 20
-68.118271
 40
0.999893
 50
89.993881
 51
180.006119
  0
ARC
  8
0
 10
-151.002518
 20
-69.612335
 40
0.993961
 50
359.650818
 51
90.349197
  0
ARC
  8
0
 10
-149.170395
 20
-69.110199
 40
0.991840
 50
359.526642
 51
90.473351
  0
ARC
  8
0
 10
-148.911835
 20
-68.611649
 40
0.993279
 50
359.610962
 51
90.389046
  0
ARC
  8
0
 10
-148.313187
 20
-68.112991
 40
0.994613
 50
359.688843
 51
90.311165
  0
ARC
  8
0
 10
-156.073044
 20
-100.612854
 40
1.005554
 50
180.315170
 51
269.684387
  0
ARC
  8
0
 10
-156.073044
 20
-101.112854
 40
1.005554
 50
180.315170
 51
269.684387
  0
ARC
  8
0
 10
-151.011459
 20
-100.615509
 40
1.002888
 50
270.164764
 51
359.835236
  0
ARC
  8
0
 10
-149.179352
 20
-101.117615
 40
1.000771
 50
270.043671
 51
359.955872
  0
ARC
  8
0
 10
-212.461426
 20
-88.155563
 40
0.307427
 50
182.389496
 51
216.490509
  0
ARC
  8
0
 10
-54.438583
 20
8.581604
 40
3.500000
 50
90.000000
 51
269.999939
  0
ARC
  8
0
 10
-50.438583
 20
8.581604
 40
3.500000
 50
270.000000
 51
90.000000
  0
ARC
  8
0
 10
-54.438583
 20
-61.418396
 40
3.500000
 50
90.000000
 51
269.999939
  0
ARC
  8
0
 10
-50.438583
 20
-61.418396
 40
3.500000
 50
270.000000
 51
90.000000
  0
CIRCLE
  8
0
 10
-52.438583
 20
-26.418392
 40
5.500000
  0
CIRCLE
  8
0
 10
-52.438583
 20
-26.418392
 40
5.000000
  0
CIRCLE
  8
0
 10
-52.438583
 20
-26.418392
 40
4.307179
  0
CIRCLE
  8
0
 10
-52.438583
 20
-26.418392
 40
2.886751
  0
ARC
  8
0
 10
-128.038574
 20
-61.418396
 40
3.500000
 50
270.000000
 51
90.000000
  0
ARC
  8
0
 10
-132.038574
 20
-61.418396
 40
3.500000
 50
90.000000
 51
270.000000
  0
ARC
  8
0
 10
-128.038574
 20
8.581604
 40
3.500000
 50
270.000000
 51
90.000000
  0
ARC
  8
0
 10
-132.038574
 20
8.581604
 40
3.500000
 50
90.000000
 51
270.000000
  0
CIRCLE
  8
0
 10
-130.038574
 20
-26.418392
 40
5.500000
  0
CIRCLE
  8
0
 10
-130.038574
 20
-26.418392
 40
5.000000
  0
CIRCLE
  8
0
 10
-130.038574
 20
-26.418392
 40
4.307179
  0
CIRCLE
  8
0
 10
-130.038574
 20
-26.418392
 40
2.886751
  0
CIRCLE
  8
0
 10
-79.238586
 20
-26.418396
 40
10.000000
  0
CIRCLE
  8
0
 10
-79.238586
 20
-26.418396
 40
9.000000
  0
ARC
  8
0
 10
-87.724442
 20
-33.419579
 40
0.998822
 50
269.761932
 51
39.936638
  0
CIRCLE
  8
0
 62
     2
 10
-79.238586
 20
-26.418396
 40
6.578500
  0
CIRCLE
  8
0
 10
-79.238586
 20
-26.418396
 40
5.722500
  0
ARC
  8
0
 10
-111.897156
 20
-39.417137
 40
0.998742
 50
1.075231
 51
90.082283
  0
ARC
  8
0
 10
-70.585114
 20
-39.422134
 40
1.003741
 50
90.197716
 51
178.644806
  0
ARC
  8
0
 10
-102.838577
 20
-84.918381
 40
1.000008
 50
180.000443
 51
269.999573
  0
ARC
  8
0
 10
-102.738586
 20
-58.918396
 40
0.500008
 50
0.000874
 51
89.999123
  0
ARC
  8
0
 10
-104.938599
 20
-57.918396
 40
0.499985
 50
179.998688
 51
270.001740
  0
ARC
  8
0
 10
-79.738586
 20
-58.918396
 40
0.500000
 50
90.000000
 51
180.000000
  0
ARC
  8
0
 10
-77.538589
 20
-57.918381
 40
0.500008
 50
270.000885
 51
359.999115
  0
ARC
  8
0
 10
-79.638580
 20
-84.918396
 40
0.999992
 50
269.999573
 51
0.000437
  0
CIRCLE
  8
0
  6
PHANTOM
 62
     2
 10
-79.238586
 20
-26.418396
 40
21.250000
  0
ARC
  8
0
 10
-28.438583
 20
-11.418400
 40
1.000003
 50
90.000107
 51
179.999786
  0
ARC
  8
0
 10
-12.438583
 20
-11.418393
 40
0.999997
 50
359.999847
 51
90.000160
  0
ARC
  8
0
 10
13.561417
 20
-9.418396
 40
1.000003
 50
180.000214
 51
269.999847
  0
ARC
  8
0
 10
-0.938583
 20
8.431595
 40
6.950000
 50
0.000000
 51
179.999954
  0
ARC
  8
0
 10
11.861420
 20
-7.318405
 40
0.700000
 50
0.000000
 51
90.000000
  0
POLYLINE
  8
0
 66
     1
  0
VERTEX
  8
0
 10
-40.478577
 20
-74.488388
  0
VERTEX
  8
0
 10
-40.207630
 20
-75.428894
  0
VERTEX
  8
0
 10
-39.965946
 20
-76.357384
  0
VERTEX
  8
0
 10
-39.753670
 20
-77.285332
  0
VERTEX
  8
0
 10
-39.570946
 20
-78.224205
  0
VERTEX
  8
0
 10
-39.417927
 20
-79.185478
  0
VERTEX
  8
0
 10
-39.294762
 20
-80.180618
  0
VERTEX
  8
0
 10
-39.201595
 20
-81.221100
  0
VERTEX
  8
0
 10
-39.138580
 20
-82.318390
  0
VERTEX
  8
0
 10
-39.113804
 20
-83.237465
  0
VERTEX
  8
0
 10
-39.117043
 20
-84.157204
  0
VERTEX
  8
0
 10
-39.147823
 20
-85.076721
  0
VERTEX
  8
0
 10
-39.205669
 20
-85.995125
  0
VERTEX
  8
0
 10
-39.290108
 20
-86.911530
  0
VERTEX
  8
0
 10
-39.400665
 20
-87.825058
  0
VERTEX
  8
0
 10
-39.536861
 20
-88.734810
  0
VERTEX
  8
0
 10
-39.698227
 20
-89.639908
  0
VERTEX
  8
0
 10
-39.884285
 20
-90.539467
  0
VERTEX
  8
0
 10
-40.094563
 20
-91.432587
  0
VERTEX
  8
0
 10
-40.328583
 20
-92.318390
  0
SEQEND
  0
POLYLINE
  8
0
 66
     1
  0
VERTEX
  8
0
 10
-210.078583
 20
-74.488388
  0
VERTEX
  8
0
 10
-209.807632
 20
-75.428894
  0
VERTEX
  8
0
 10
-209.565948
 20
-76.357384
  0
VERTEX
  8
0
 10
-209.353668
 20
-77.285332
  0
VERTEX
  8
0
 10
-209.170944
 20
-78.224205
  0
VERTEX
  8
0
 10
-209.017929
 20
-79.185478
  0
VERTEX
  8
0
 10
-208.894760
 20
-80.180618
  0
VERTEX
  8
0
 10
-208.801590
 20
-81.221100
  0
VERTEX
  8
0
 10
-208.738571
 20
-82.318390
  0
VERTEX
  8
0
 10
-208.713791
 20
-83.237465
  0
VERTEX
  8
0
 10
-208.717026
 20
-84.157204
  0
VERTEX
  8
0
 10
-208.747818
 20
-85.076721
  0
VERTEX
  8
0
 10
-208.805664
 20
-85.995125
  0
VERTEX
  8
0
 10
-208.890106
 20
-86.911530
  0
VERTEX
  8
0
 10
-209.000656
 20
-87.825058
  0
VERTEX
  8
0
 10
-209.136856
 20
-88.734810
  0
VERTEX
  8
0
 10
-209.298218
 20
-89.639908
  0
VERTEX
  8
0
 10
-209.484283
 20
-90.539467
  0
VERTEX
  8
0
 10
-209.694550
 20
-91.432587
  0
VERTEX
  8
0
 10
-209.928574
 20
-92.318390
  0
SEQEND
  0
TEXT
  8
0
 10
-269.149719
 20
180.830002
 40
6.300000
  1
FRL COMBINATION
 50
0.000000
 41
1.052632
 51
0.000000
  7
STANDARD
  0
TEXT
  8
0
 10
-256.000000
 20
157.720001
 40
6.300000
  1
MODEL:C400-03-F1
 50
0.000000
 41
1.052632
 51
0.000000
  7
STANDARD
  0
TEXT
  8
0
 10
45.916656
 20
-25.418488
 40
6.300000
  1
OUT
 50
0.000000
 41
1.052632
 51
0.000000
  7
STANDARD
  0
TEXT
  8
0
 10
-247.750000
 20
-25.418381
 40
6.300000
  1
IN
 50
0.000000
 41
1.052632
 51
0.000000
  7
STANDARD
  0
TEXT
  8
0
 10
196.250259
 20
180.830002
 40
6.300000
  1
　Ｖｅｒ．２．０
 50
0.000000
 41
0.833333
 51
0.000000
  7
STANDARD
  0
TEXT
  8
0
 10
167.564667
 20
-192.100006
 40
9.000000
  1
KOGANEI CORP.
 50
0.000000
 41
1.052632
 51
0.000000
  7
STANDARD
  0
LINE
  8
0
 10
68.561417
 20
-26.418488
 11
43.561417
 21
-26.418488
  0
LINE
  8
0
 10
68.561417
 20
-26.418488
 11
65.663635
 21
-25.642031
  0
LINE
  8
0
 10
68.561417
 20
-26.418488
 11
65.663643
 21
-27.194944
  0
LINE
  8
0
 10
-226.038559
 20
-26.418381
 11
-251.038559
 21
-26.418381
  0
LINE
  8
0
 10
-226.038559
 20
-26.418381
 11
-228.936340
 21
-25.641924
  0
LINE
  8
0
 10
-226.038559
 20
-26.418381
 11
-228.936340
 21
-27.194838
  0
ENDSEC
  0
EOF
