  0
SECTION
  2
HEADER
  9
$ACADVER
  1
AC1012
  9
$DWGCODEPAGE
  3
dos932
  9
$INSBASE
 10
0.0
 20
0.0
 30
0.0
  9
$EXTMIN
 10
-281.25
 20
-195.0
 30
0.0
  9
$EXTMAX
 10
285.5999755859375
 20
195.5
 30
0.0
  9
$LIMMIN
 10
-281.25
 20
-195.0
  9
$LIMMAX
 10
285.5999755859375
 20
195.5
  9
$ORTHOMODE
 70
               0
  9
$REGENMODE
 70
               1
  9
$FILLMODE
 70
               1
  9
$QTEXTMODE
 70
               0
  9
$MIRRTEXT
 70
               1
  9
$DRAGMODE
 70
               2
  9
$LTSCALE
 40
1.0
  9
$OSMODE
 70
               0
  9
$ATTMODE
 70
               1
  9
$TEXTSIZE
 40
3.2000000476837158
  9
$TRACEWID
 40
0.05
  9
$TEXTSTYLE
  7
MX_NOTE_STANDARD
  9
$CLAYER
  8
0
  9
$CELTYPE
  6
CONTINUOUS
  9
$CECOLOR
 62
             256
  9
$CELTSCALE
 40
1.0
  9
$DELOBJ
 70
               1
  9
$DISPSILH
 70
               0
  9
$DIMSCALE
 40
1.0
  9
$DIMASZ
 40
2.5
  9
$DIMEXO
 40
1.5
  9
$DIMDLI
 40
3.75
  9
$DIMRND
 40
0.0
  9
$DIMDLE
 40
0.0
  9
$DIMEXE
 40
1.5
  9
$DIMTP
 40
0.0
  9
$DIMTM
 40
0.0
  9
$DIMTXT
 40
3.2000000476837158
  9
$DIMCEN
 40
2.5
  9
$DIMTSZ
 40
0.0
  9
$DIMTOL
 70
               0
  9
$DIMLIM
 70
               0
  9
$DIMTIH
 70
               0
  9
$DIMTOH
 70
               0
  9
$DIMSE1
 70
               0
  9
$DIMSE2
 70
               0
  9
$DIMTAD
 70
               1
  9
$DIMZIN
 70
               8
  9
$DIMBLK
  1

  9
$DIMASO
 70
               1
  9
$DIMSHO
 70
               1
  9
$DIMPOST
  1

  9
$DIMAPOST
  1

  9
$DIMALT
 70
               0
  9
$DIMALTD
 70
               4
  9
$DIMALTF
 40
0.03937007874016
  9
$DIMLFAC
 40
1.0
  9
$DIMTOFL
 70
               1
  9
$DIMTVP
 40
0.0
  9
$DIMTIX
 70
               0
  9
$DIMSOXD
 70
               0
  9
$DIMSAH
 70
               0
  9
$DIMBLK1
  1

  9
$DIMBLK2
  1

  9
$DIMSTYLE
  2
MXDIMSTYLE
  9
$DIMCLRD
 70
               0
  9
$DIMCLRE
 70
               0
  9
$DIMCLRT
 70
               0
  9
$DIMTFAC
 40
1.0
  9
$DIMGAP
 40
1.0
  9
$DIMJUST
 70
               0
  9
$DIMSD1
 70
               0
  9
$DIMSD2
 70
               0
  9
$DIMTOLJ
 70
               1
  9
$DIMTZIN
 70
               0
  9
$DIMALTZ
 70
               0
  9
$DIMALTTZ
 70
               0
  9
$DIMFIT
 70
               3
  9
$DIMUPT
 70
               1
  9
$DIMUNIT
 70
               2
  9
$DIMDEC
 70
               4
  9
$DIMTDEC
 70
               4
  9
$DIMALTU
 70
               2
  9
$DIMALTTD
 70
               4
  9
$DIMTXSTY
  7
MX_NOTE_STANDARD
  9
$DIMAUNIT
 70
               0
  9
$LUNITS
 70
               2
  9
$LUPREC
 70
               4
  9
$SKETCHINC
 40
0.1
  9
$FILLETRAD
 40
0.0
  9
$AUNITS
 70
               0
  9
$AUPREC
 70
               0
  9
$MENU
  1
acad
  9
$ELEVATION
 40
0.0
  9
$PELEVATION
 40
0.0
  9
$THICKNESS
 40
0.0
  9
$LIMCHECK
 70
               0
  9
$BLIPMODE
 70
               1
  9
$CHAMFERA
 40
0.0
  9
$CHAMFERB
 40
0.0
  9
$CHAMFERC
 40
0.0
  9
$CHAMFERD
 40
0.0
  9
$SKPOLY
 70
               0
  9
$TDCREATE
 40
2453446.620983796
  9
$TDUPDATE
 40
2453446.620983796
  9
$TDINDWG
 40
0.0000000000
  9
$TDUSRTIMER
 40
0.0000000000
  9
$USRTIMER
 70
               1
  9
$ANGBASE
 50
0.0
  9
$ANGDIR
 70
               0
  9
$PDMODE
 70
               0
  9
$PDSIZE
 40
0.0
  9
$PLINEWID
 40
0.0
  9
$COORDS
 70
               1
  9
$SPLFRAME
 70
               0
  9
$SPLINETYPE
 70
               6
  9
$SPLINESEGS
 70
               8
  9
$ATTDIA
 70
               0
  9
$ATTREQ
 70
               1
  9
$HANDLING
 70
               1
  9
$HANDSEED
  5
1E6
  9
$SURFTAB1
 70
               6
  9
$SURFTAB2
 70
               6
  9
$SURFTYPE
 70
               6
  9
$SURFU
 70
               6
  9
$SURFV
 70
               6
  9
$UCSNAME
  2

  9
$UCSORG
 10
0.0
 20
0.0
 30
0.0
  9
$UCSXDIR
 10
1.0
 20
0.0
 30
0.0
  9
$UCSYDIR
 10
0.0
 20
1.0
 30
0.0
  9
$PUCSNAME
  2

  9
$PUCSORG
 10
0.0
 20
0.0
 30
0.0
  9
$PUCSXDIR
 10
1.0
 20
0.0
 30
0.0
  9
$PUCSYDIR
 10
0.0
 20
1.0
 30
0.0
  9
$USERI1
 70
               0
  9
$USERI2
 70
               0
  9
$USERI3
 70
               0
  9
$USERI4
 70
               0
  9
$USERI5
 70
               0
  9
$USERR1
 40
0.0
  9
$USERR2
 40
0.0
  9
$USERR3
 40
0.0
  9
$USERR4
 40
0.0
  9
$USERR5
 40
0.0
  9
$WORLDVIEW
 70
               1
  9
$SHADEDGE
 70
               3
  9
$SHADEDIF
 70
              70
  9
$TILEMODE
 70
               1
  9
$MAXACTVP
 70
              16
  9
$PINSBASE
 10
0.0
 20
0.0
 30
0.0
  9
$PLIMCHECK
 70
               0
  9
$PEXTMIN
 10
1.0000000000000000E+20
 20
1.0000000000000000E+20
 30
1.0000000000000000E+20
  9
$PEXTMAX
 10
-1.0000000000000000E+20
 20
-1.0000000000000000E+20
 30
-1.0000000000000000E+20
  9
$PLIMMIN
 10
0.0
 20
0.0
  9
$PLIMMAX
 10
12.0
 20
9.0
  9
$UNITMODE
 70
               0
  9
$VISRETAIN
 70
               0
  9
$PLINEGEN
 70
               1
  9
$PSLTSCALE
 70
               0
  9
$TREEDEPTH
 70
            3020
  9
$PICKSTYLE
 70
               1
  9
$CMLSTYLE
  2
Standard
  9
$CMLJUST
 70
               0
  9
$CMLSCALE
 40
1.0
  9
$SAVEIMAGES
 70
               0
  0
ENDSEC
  0
SECTION
  2
CLASSES
  0
CLASS
  1
LWPOLYLINE
  2
AcDbPolyline
  3
"AutoCAD"
 90
        0
280
               0
281
               1
  0
CLASS
  1
IMAGE
  2
AcDbRasterImage
  3
ISM
 90
      127
280
               0
281
               1
  0
CLASS
  1
OLE2FRAME
  2
AcDbOle2Frame
  3
""
 90
        0
280
               0
281
               1
  0
CLASS
  1
HATCH
  2
AcDbHatch
  3
"ACAD_SEDONA"
 90
        0
280
               0
281
               1
  0
CLASS
  1
DICTIONARYVAR
  2
AcDbDictionaryVar
  3
"AutoCAD"
 90
        0
280
               0
281
               0
  0
CLASS
  1
RASTERVARIABLES
  2
AcDbRasterVariables
  3
ISM
 90
        0
280
               0
281
               0
  0
CLASS
  1
IMAGEDEF
  2
AcDbRasterImageDef
  3
ISM
 90
        0
280
               0
281
               0
  0
CLASS
  1
IMAGEDEF_REACTOR
  2
AcDbRasterImageDefReactor
  3
ISM
 90
        1
280
               0
281
               0
  0
CLASS
  1
IDBUFFER
  2
AcDbIdBuffer
  3
"Acad"
 90
        0
280
               0
281
               0
  0
CLASS
  1
SPATIAL_FILTER
  2
AcDbSpatialFilter
  3
"Acad"
 90
        0
280
               0
281
               0
  0
CLASS
  1
XRECORD
  2
AcDbXrecord
  3
"<Built In>"
 90
        0
280
               0
281
               0
  0
CLASS
  1
SORTENTSTABLE
  2
AcDbSortentsTable
  3
"AutoCAD"
 90
        0
280
               0
281
               0
  0
CLASS
  1
LAYER_INDEX
  2
AcDbLayerIndex
  3
"Acad"
 90
        0
280
               0
281
               0
  0
CLASS
  1
SPATIAL_INDEX
  2
AcDbSpatialIndex
  3
"Acad"
 90
        0
280
               0
281
               0
  0
CLASS
  1
OBJECT_PTR
  2
CAseDLPNTableRecord
  3
"ASE-LPNTableRecord"
 90
        1
280
               0
281
               0
  0
CLASS
  1
LAYOUT
  2
AcDbLayout
  3
"AutoCAD 2000"
 90
        1
280
               0
281
               0
  0
CLASS
  1
PLOTSETTINGS
  2
AcDbPlotSettings
  3
"AutoCAD 2000"
 90
        1
280
               0
281
               0
  0
CLASS
  1
ACDBDICTIONARYWDFLT
  2
AcDbDictionaryWithDefault
  3
"AutoCAD 2000"
 90
        1
280
               0
281
               0
  0
CLASS
  1
ACDBPLACEHOLDER
  2
AcDbPlaceHolder
  3
"AutoCAD 2000"
 90
        1
280
               0
281
               0
  0
ENDSEC
  0
SECTION
  2
TABLES
  0
TABLE
  2
VPORT
  5
7
100
AcDbSymbolTable
 70
               1
  0
VPORT
  5
15
100
AcDbSymbolTableRecord
100
AcDbViewportTableRecord
  2
*ACTIVE
 70
               0
 10
0.0
 20
0.0
 11
1.0
 21
1.0
 12
2.17498779296875
 22
0.25
 13
0.0
 23
0.0
 14
1.0
 24
1.0
 15
0.0
 25
0.0
 16
0.0
 26
0.0
 36
1.0
 17
0.0
 27
0.0
 37
0.0
 40
394.40500000000003
 41
1.7320508075688772
 42
50.0
 43
0.0
 44
0.0
 50
0.0
 51
0.0
 71
               0
 72
             100
 73
               1
 74
               1
 75
               0
 76
               0
 77
               0
 78
               0
  0
ENDTAB
  0
TABLE
  2
LTYPE
  5
4
100
AcDbSymbolTable
 70
               5
  0
LTYPE
  5
11
100
AcDbSymbolTableRecord
100
AcDbLinetypeTableRecord
  2
BYBLOCK
 70
              64
  3

 72
              65
 73
               0
 40
0.0
  0
LTYPE
  5
12
100
AcDbSymbolTableRecord
100
AcDbLinetypeTableRecord
  2
BYLAYER
 70
              64
  3

 72
              65
 73
               0
 40
0.0
  0
LTYPE
  5
13
100
AcDbSymbolTableRecord
100
AcDbLinetypeTableRecord
  2
CONTINUOUS
 70
              64
  3
Solid line
 72
              65
 73
               0
 40
0.0
  0
LTYPE
  5
3A
100
AcDbSymbolTableRecord
100
AcDbLinetypeTableRecord
  2
CENTER
 70
              64
  3
Center ____ _ ____ _ ____ _ ____ _ ____ _ ____
 72
              65
 73
               4
 40
26.0
 49
20.0
 74
               0
 49
-2.0
 74
               0
 49
2.0
 74
               0
 49
-2.0
 74
               0
  0
LTYPE
  5
47
100
AcDbSymbolTableRecord
100
AcDbLinetypeTableRecord
  2
DASHED
 70
              64
  3
Dashed __ __ __ __ __ __ __ __ __ __ __ __ __ _
 72
              65
 73
               2
 40
4.0
 49
2.0
 74
               0
 49
-2.0
 74
               0
  0
ENDTAB
  0
TABLE
  2
LAYER
  5
2
100
AcDbSymbolTable
 70
               2
  0
LAYER
  5
14
100
AcDbSymbolTableRecord
100
AcDbLayerTableRecord
  2
0
 70
               0
 62
               7
  6
CONTINUOUS
  0
LAYER
  5
1D
100
AcDbSymbolTableRecord
100
AcDbLayerTableRecord
  2
DEFPOINTS
 70
               0
 62
               7
  6
CONTINUOUS
  0
ENDTAB
  0
TABLE
  2
STYLE
  5
3
100
AcDbSymbolTable
 70
               1
  0
STYLE
  5
17
100
AcDbSymbolTableRecord
100
AcDbTextStyleTableRecord
  2
MX_NOTE_STANDARD
 70
               0
 40
0.0
 41
1.0
 50
0.0
 71
               0
 42
3.2000000476837158
  3
txt.shx
  4
extfont.shx
  0
ENDTAB
  0
TABLE
  2
VIEW
  5
5
100
AcDbSymbolTable
 70
               0
  0
ENDTAB
  0
TABLE
  2
UCS
  5
6
100
AcDbSymbolTable
 70
               0
  0
ENDTAB
  0
TABLE
  2
APPID
  5
8
100
AcDbSymbolTable
 70
               1
  0
APPID
  5
16
100
AcDbSymbolTableRecord
100
AcDbRegAppTableRecord
  2
ACAD
 70
               0
  0
ENDTAB
  0
TABLE
  2
DIMSTYLE
  5
9
100
AcDbSymbolTable
 70
               1
  0
DIMSTYLE
105
18
100
AcDbSymbolTableRecord
100
AcDbDimStyleTableRecord
  2
MXDIMSTYLE
 70
               0
  3

  4

  5

  6

  7

 40
1.0
 41
2.5
 42
1.5
 43
3.75
 44
1.5
 45
0.0
 46
0.0
 47
0.0
 48
0.0
 71
               0
 72
               0
 73
               0
 74
               0
 75
               0
 76
               0
 77
               1
 78
               8
140
3.2000000476837158
141
2.5
142
0.0
143
0.03937007874016
144
1.0
145
0.0
146
1.0
147
1.0
170
               0
171
               4
172
               1
173
               0
174
               0
175
               0
176
               0
177
               0
178
               0
270
               2
271
               4
272
               4
273
               2
274
               4
275
               0
280
               0
281
               0
282
               0
283
               1
284
               0
285
               0
286
               0
287
               3
288
               1
340
17
  0
ENDTAB
  0
TABLE
  2
BLOCK_RECORD
  5
1
100
AcDbSymbolTable
 70
              18
  0
BLOCK_RECORD
  5
A
100
AcDbSymbolTableRecord
100
AcDbBlockTableRecord
  2
*MODEL_SPACE
  0
BLOCK_RECORD
  5
B
100
AcDbSymbolTableRecord
100
AcDbBlockTableRecord
  2
*PAPER_SPACE
  0
BLOCK_RECORD
  5
1E
100
AcDbSymbolTableRecord
100
AcDbBlockTableRecord
  2
JIG-C_FOOT1-1
  0
BLOCK_RECORD
  5
1F
100
AcDbSymbolTableRecord
100
AcDbBlockTableRecord
  2
JIG-C_FOOT1-2
  0
BLOCK_RECORD
  5
20
100
AcDbSymbolTableRecord
100
AcDbBlockTableRecord
  2
JIG-C_FOOT1-3
  0
BLOCK_RECORD
  5
21
100
AcDbSymbolTableRecord
100
AcDbBlockTableRecord
  2
JIG-C_FOOT1-4
  0
BLOCK_RECORD
  5
22
100
AcDbSymbolTableRecord
100
AcDbBlockTableRecord
  2
JIG-C_FOOT1-5
  0
BLOCK_RECORD
  5
23
100
AcDbSymbolTableRecord
100
AcDbBlockTableRecord
  2
JIG-C_FOOT1-6
  0
BLOCK_RECORD
  5
24
100
AcDbSymbolTableRecord
100
AcDbBlockTableRecord
  2
JIG-C_FOOT1-7
  0
BLOCK_RECORD
  5
25
100
AcDbSymbolTableRecord
100
AcDbBlockTableRecord
  2
JIG-C_FOOT1-8
  0
BLOCK_RECORD
  5
26
100
AcDbSymbolTableRecord
100
AcDbBlockTableRecord
  2
JIG-C_FOOT1-9
  0
BLOCK_RECORD
  5
27
100
AcDbSymbolTableRecord
100
AcDbBlockTableRecord
  2
JIG-C_FOOT1-10
  0
BLOCK_RECORD
  5
28
100
AcDbSymbolTableRecord
100
AcDbBlockTableRecord
  2
JIG-C_FOOT1-11
  0
BLOCK_RECORD
  5
29
100
AcDbSymbolTableRecord
100
AcDbBlockTableRecord
  2
JIG-C_FOOT1-12
  0
BLOCK_RECORD
  5
2A
100
AcDbSymbolTableRecord
100
AcDbBlockTableRecord
  2
JIG-C_FOOT1-13
  0
BLOCK_RECORD
  5
2B
100
AcDbSymbolTableRecord
100
AcDbBlockTableRecord
  2
JIG-C_FOOT1-14
  0
BLOCK_RECORD
  5
2C
100
AcDbSymbolTableRecord
100
AcDbBlockTableRecord
  2
JIG-C_FOOT1-15
  0
BLOCK_RECORD
  5
2D
100
AcDbSymbolTableRecord
100
AcDbBlockTableRecord
  2
JIG-C_FOOT1-16
  0
BLOCK_RECORD
  5
2E
100
AcDbSymbolTableRecord
100
AcDbBlockTableRecord
  2
JIG-C_FOOT1-17
  0
BLOCK_RECORD
  5
2F
100
AcDbSymbolTableRecord
100
AcDbBlockTableRecord
  2
JIG-C_FOOT1-18
  0
ENDTAB
  0
ENDSEC
  0
SECTION
  2
BLOCKS
  0
BLOCK
  5
D
100
AcDbEntity
  8
0
100
AcDbBlockBegin
  2
*MODEL_SPACE
 70
               0
 10
0.0
 20
0.0
 30
0.0
  3
*MODEL_SPACE
  1

  0
ENDBLK
  5
E
100
AcDbEntity
  8
0
100
AcDbBlockEnd
  0
BLOCK
  5
F
100
AcDbEntity
 67
               1
  8
0
100
AcDbBlockBegin
  2
*PAPER_SPACE
 70
               0
 10
0.0
 20
0.0
 30
0.0
  3
*PAPER_SPACE
  1

  0
ENDBLK
  5
10
100
AcDbEntity
 67
               1
  8
0
100
AcDbBlockEnd
  0
BLOCK
  5
30
100
AcDbEntity
  8
0
100
AcDbBlockBegin
  2
JIG-C_FOOT1-1
 70
               0
 10
0.0
 20
0.0
 30
0.0
  3
JIG-C_FOOT1-1
  1

  0
CIRCLE
  5
31
100
AcDbEntity
  8
0
  6
CONTINUOUS
 62
               4
100
AcDbCircle
 10
8.149993896484375
 20
-8.1500015258789062
 30
0.0
 40
2.75
  0
CIRCLE
  5
32
100
AcDbEntity
  8
0
  6
CONTINUOUS
 62
               4
100
AcDbCircle
 10
8.149993896484375
 20
8.1500015258789062
 30
0.0
 40
2.75
  0
ARC
  5
33
100
AcDbEntity
  8
0
  6
CONTINUOUS
 62
               4
100
AcDbCircle
 10
10.5
 20
10.5
 30
0.0
 40
2.0
100
AcDbArc
 50
0.0
 51
89.999982013910653
  0
CIRCLE
  5
34
100
AcDbEntity
  8
0
  6
CONTINUOUS
 62
               4
100
AcDbCircle
 10
0.0
 20
0.0
 30
0.0
 40
5.5
  0
ARC
  5
35
100
AcDbEntity
  8
0
  6
CONTINUOUS
 62
               4
100
AcDbCircle
 10
-10.5
 20
10.5
 30
0.0
 40
2.0
100
AcDbArc
 50
89.999982013910653
 51
179.99996402782131
  0
CIRCLE
  5
36
100
AcDbEntity
  8
0
  6
CONTINUOUS
 62
               4
100
AcDbCircle
 10
-8.149993896484375
 20
-8.1500015258789062
 30
0.0
 40
2.75
  0
CIRCLE
  5
37
100
AcDbEntity
  8
0
  6
CONTINUOUS
 62
               4
100
AcDbCircle
 10
-8.149993896484375
 20
8.1500015258789062
 30
0.0
 40
2.75
  0
LINE
  5
38
100
AcDbEntity
  8
0
  6
CONTINUOUS
 62
               4
100
AcDbLine
 10
12.500030522250199
 20
0.0000105862591226
 30
0.0
 11
22.000032039076359
 21
-12.499986582745805
 31
0.0
  0
LINE
  5
39
100
AcDbEntity
  8
0
  6
CONTINUOUS
 62
               4
100
AcDbLine
 10
-12.500044534754352
 20
0.0000093486289643
 30
0.0
 11
-22.000044179956831
 21
-12.499989691999644
 31
0.0
  0
LINE
  5
3B
100
AcDbEntity
  8
0
  6
CENTER
 62
             200
100
AcDbLine
 10
8.149993896484375
 20
-4.5723190307617187
 30
0.0
 11
8.149993896484375
 21
-11.813224792480469
 31
0.0
  0
LINE
  5
3C
100
AcDbEntity
  8
0
  6
CENTER
 62
             200
100
AcDbLine
 10
4.4988250732421875
 20
-8.1500015258789062
 30
0.0
 11
11.610427856445313
 21
-8.1500015258789062
 31
0.0
  0
LINE
  5
3D
100
AcDbEntity
  8
0
  6
CENTER
 62
             200
100
AcDbLine
 10
-8.149993896484375
 20
-4.5723190307617187
 30
0.0
 11
-8.149993896484375
 21
-11.813224792480469
 31
0.0
  0
LINE
  5
3E
100
AcDbEntity
  8
0
  6
CENTER
 62
             200
100
AcDbLine
 10
-4.4988250732421875
 20
-8.1500015258789062
 30
0.0
 11
-11.610427856445313
 21
-8.1500015258789062
 31
0.0
  0
LINE
  5
3F
100
AcDbEntity
  8
0
  6
CENTER
 62
             200
100
AcDbLine
 10
-8.149993896484375
 20
4.5723190307617187
 30
0.0
 11
-8.149993896484375
 21
11.813224792480469
 31
0.0
  0
LINE
  5
40
100
AcDbEntity
  8
0
  6
CENTER
 62
             200
100
AcDbLine
 10
-4.4988250732421875
 20
8.1500015258789062
 30
0.0
 11
-11.610427856445313
 21
8.1500015258789062
 31
0.0
  0
LINE
  5
41
100
AcDbEntity
  8
0
  6
CENTER
 62
             200
100
AcDbLine
 10
4.4988250732421875
 20
8.1500015258789062
 30
0.0
 11
11.610427856445313
 21
8.1500015258789062
 31
0.0
  0
LINE
  5
42
100
AcDbEntity
  8
0
  6
CENTER
 62
             200
100
AcDbLine
 10
8.149993896484375
 20
4.5723190307617187
 30
0.0
 11
8.149993896484375
 21
11.813224792480469
 31
0.0
  0
LINE
  5
43
100
AcDbEntity
  8
0
  6
CONTINUOUS
 62
               4
100
AcDbLine
 10
12.5
 20
0.0
 30
0.0
 11
12.5
 21
10.5
 31
0.0
  0
LINE
  5
44
100
AcDbEntity
  8
0
  6
CONTINUOUS
 62
               4
100
AcDbLine
 10
-12.5
 20
0.0
 30
0.0
 11
-12.5
 21
10.5
 31
0.0
  0
LINE
  5
45
100
AcDbEntity
  8
0
  6
CONTINUOUS
 62
               4
100
AcDbLine
 10
-10.5
 20
12.5
 30
0.0
 11
10.5
 21
12.5
 31
0.0
  0
LINE
  5
46
100
AcDbEntity
  8
0
  6
CENTER
 62
             200
100
AcDbLine
 10
-19.333328247070313
 20
0.0
 30
0.0
 11
18.333328247070313
 21
0.0
 31
0.0
  0
LINE
  5
48
100
AcDbEntity
  8
0
  6
DASHED
 62
             200
100
AcDbLine
 10
-10.0
 20
-15.0
 30
0.0
 11
-10.0
 21
-12.5
 31
0.0
  0
LINE
  5
49
100
AcDbEntity
  8
0
  6
DASHED
 62
             200
100
AcDbLine
 10
10.0
 20
-15.0
 30
0.0
 11
10.0
 21
-12.5
 31
0.0
  0
LINE
  5
4A
100
AcDbEntity
  8
0
  6
DASHED
 62
             200
100
AcDbLine
 10
-10.0
 20
-12.5
 30
0.0
 11
10.0
 21
-12.5
 31
0.0
  0
LINE
  5
4B
100
AcDbEntity
  8
0
  6
CENTER
 62
             200
100
AcDbLine
 10
-17.0
 20
-20.0
 30
0.0
 11
-17.0
 21
-12.0
 31
0.0
  0
LINE
  5
4C
100
AcDbEntity
  8
0
  6
CENTER
 62
             200
100
AcDbLine
 10
17.0
 20
-20.0
 30
0.0
 11
17.0
 21
-12.0
 31
0.0
  0
LINE
  5
4D
100
AcDbEntity
  8
0
  6
DASHED
 62
             200
100
AcDbLine
 10
-22.0
 20
-15.0
 30
0.0
 11
22.0
 21
-15.0
 31
0.0
  0
LINE
  5
4E
100
AcDbEntity
  8
0
  6
CONTINUOUS
 62
               4
100
AcDbLine
 10
22.0
 20
-17.0
 30
0.0
 11
22.0
 21
-12.5
 31
0.0
  0
LINE
  5
4F
100
AcDbEntity
  8
0
  6
CONTINUOUS
 62
               4
100
AcDbLine
 10
-22.0
 20
-17.0
 30
0.0
 11
-22.0
 21
-12.5
 31
0.0
  0
LINE
  5
50
100
AcDbEntity
  8
0
  6
CENTER
 62
             200
100
AcDbLine
 10
0.0
 20
-18.774330139160156
 30
0.0
 11
0.0
 21
14.895774841308594
 31
0.0
  0
LINE
  5
51
100
AcDbEntity
  8
0
  6
CONTINUOUS
 62
               4
100
AcDbLine
 10
-22.0
 20
-17.0
 30
0.0
 11
22.0
 21
-17.0
 31
0.0
  0
ENDBLK
  5
52
100
AcDbEntity
  8
0
100
AcDbBlockEnd
  0
BLOCK
  5
53
100
AcDbEntity
  8
0
100
AcDbBlockBegin
  2
JIG-C_FOOT1-2
 70
               0
 10
0.0
 20
0.0
 30
0.0
  3
JIG-C_FOOT1-2
  1

  0
ARC
  5
54
100
AcDbEntity
  8
0
  6
CONTINUOUS
 62
               4
100
AcDbCircle
 10
1.0
 20
-14.0
 30
0.0
 40
3.0
100
AcDbArc
 50
180.00003597217869
 51
270.00001798608935
  0
ARC
  5
55
100
AcDbEntity
  8
0
  6
CONTINUOUS
 62
               4
100
AcDbCircle
 10
2.0
 20
-13.0
 30
0.0
 40
2.0
100
AcDbArc
 50
180.00003597217869
 51
270.00001798608935
  0
LINE
  5
56
100
AcDbEntity
  8
0
  6
CONTINUOUS
 62
               4
100
AcDbLine
 10
10.0
 20
-15.0
 30
0.0
 11
10.0
 21
-12.5
 31
0.0
  0
LINE
  5
57
100
AcDbEntity
  8
0
  6
CONTINUOUS
 62
               4
100
AcDbLine
 10
3.0
 20
-15.0
 30
0.0
 11
3.0
 21
-12.5
 31
0.0
  0
LINE
  5
58
100
AcDbEntity
  8
0
  6
CONTINUOUS
 62
               4
100
AcDbLine
 10
10.0
 20
-12.5
 30
0.0
 11
3.0
 21
-12.5
 31
0.0
  0
LINE
  5
59
100
AcDbEntity
  8
0
  6
CENTER
 62
             200
100
AcDbLine
 10
6.0
 20
-17.998519897460938
 30
0.0
 11
6.0
 21
-13.472953796386719
 31
0.0
  0
LINE
  5
5A
100
AcDbEntity
  8
0
  6
CONTINUOUS
 62
               4
100
AcDbLine
 10
0.0
 20
-12.5
 30
0.0
 11
-2.0
 21
-12.5
 31
0.0
  0
LINE
  5
5B
100
AcDbEntity
  8
0
  6
CENTER
 62
             200
100
AcDbLine
 10
0.9739532470703125
 20
-8.1499748229980469
 30
0.0
 11
-3.0344085693359375
 21
-8.1499748229980469
 31
0.0
  0
LINE
  5
5C
100
AcDbEntity
  8
0
  6
CENTER
 62
             200
100
AcDbLine
 10
0.9739532470703125
 20
8.1500205993652344
 30
0.0
 11
-3.0344085693359375
 21
8.1500205993652344
 31
0.0
  0
LINE
  5
5D
100
AcDbEntity
  8
0
  6
CENTER
 62
             200
100
AcDbLine
 10
2.00836181640625
 20
0.0
 30
0.0
 11
-3.8102264404296875
 21
0.0
 31
0.0
  0
LINE
  5
5E
100
AcDbEntity
  8
0
  6
CONTINUOUS
 62
               4
100
AcDbLine
 10
0.0
 20
12.5
 30
0.0
 11
-2.0
 21
12.5
 31
0.0
  0
LINE
  5
5F
100
AcDbEntity
  8
0
  6
CONTINUOUS
 62
               4
100
AcDbLine
 10
10.5
 20
-17.0
 30
0.0
 11
10.5
 21
-15.0
 31
0.0
  0
LINE
  5
60
100
AcDbEntity
  8
0
  6
CONTINUOUS
 62
               4
100
AcDbLine
 10
10.5
 20
-15.0
 30
0.0
 11
2.0
 21
-15.0
 31
0.0
  0
LINE
  5
61
100
AcDbEntity
  8
0
  6
CONTINUOUS
 62
               4
100
AcDbLine
 10
10.5
 20
-17.0
 30
0.0
 11
1.0
 21
-17.0
 31
0.0
  0
LINE
  5
62
100
AcDbEntity
  8
0
  6
CONTINUOUS
 62
               4
100
AcDbLine
 10
0.0
 20
-13.0
 30
0.0
 11
0.0
 21
12.5
 31
0.0
  0
LINE
  5
63
100
AcDbEntity
  8
0
  6
CONTINUOUS
 62
               4
100
AcDbLine
 10
-2.0
 20
-14.0
 30
0.0
 11
-2.0
 21
12.5
 31
0.0
  0
ENDBLK
  5
64
100
AcDbEntity
  8
0
100
AcDbBlockEnd
  0
BLOCK
  5
65
100
AcDbEntity
  8
0
100
AcDbBlockBegin
  2
JIG-C_FOOT1-3
 70
               0
 10
0.0
 20
0.0
 30
0.0
  3
JIG-C_FOOT1-3
  1

  0
LINE
  5
66
100
AcDbEntity
  8
0
  6
CENTER
 62
             200
100
AcDbLine
 10
20.475914001464844
 20
6.0
 30
0.0
 11
13.493614196777344
 21
6.0
 31
0.0
  0
LINE
  5
67
100
AcDbEntity
  8
0
  6
CENTER
 62
             200
100
AcDbLine
 10
-20.475914001464844
 20
6.0
 30
0.0
 11
-13.493614196777344
 21
6.0
 31
0.0
  0
ARC
  5
68
100
AcDbEntity
  8
0
  6
CONTINUOUS
 62
               4
100
AcDbCircle
 10
-20.0
 20
8.5
 30
0.0
 40
2.0
100
AcDbArc
 50
89.999927372397295
 51
179.99996402782131
  0
ARC
  5
69
100
AcDbEntity
  8
0
  6
CONTINUOUS
 62
               4
100
AcDbCircle
 10
20.0
 20
8.5
 30
0.0
 40
2.0
100
AcDbArc
 50
359.99994535848663
 51
89.999927372397295
  0
CIRCLE
  5
6A
100
AcDbEntity
  8
0
  6
CONTINUOUS
 62
               4
100
AcDbCircle
 10
17.0
 20
6.0
 30
0.0
 40
2.25
  0
CIRCLE
  5
6B
100
AcDbEntity
  8
0
  6
CONTINUOUS
 62
               4
100
AcDbCircle
 10
-17.0
 20
6.0
 30
0.0
 40
2.25
  0
LINE
  5
6C
100
AcDbEntity
  8
0
  6
CENTER
 62
             200
100
AcDbLine
 10
-17.0
 20
9.4759140014648437
 30
0.0
 11
-17.0
 21
2.4936141967773437
 31
0.0
  0
LINE
  5
6D
100
AcDbEntity
  8
0
  6
CENTER
 62
             200
100
AcDbLine
 10
17.0
 20
9.4759140014648437
 30
0.0
 11
17.0
 21
2.4936141967773437
 31
0.0
  0
LINE
  5
6E
100
AcDbEntity
  8
0
  6
CONTINUOUS
 62
               4
100
AcDbLine
 10
-10.0
 20
3.0
 30
0.0
 11
10.0
 21
3.0
 31
0.0
  0
LINE
  5
6F
100
AcDbEntity
  8
0
  6
CONTINUOUS
 62
               4
100
AcDbLine
 10
-10.0
 20
10.0
 30
0.0
 11
-10.0
 21
3.0
 31
0.0
  0
LINE
  5
70
100
AcDbEntity
  8
0
  6
CONTINUOUS
 62
               4
100
AcDbLine
 10
10.0
 20
10.0
 30
0.0
 11
10.0
 21
3.0
 31
0.0
  0
LINE
  5
71
100
AcDbEntity
  8
0
  6
CONTINUOUS
 62
               4
100
AcDbLine
 10
-10.0
 20
10.0
 30
0.0
 11
10.0
 21
10.0
 31
0.0
  0
LINE
  5
72
100
AcDbEntity
  8
0
  6
CONTINUOUS
 62
               4
100
AcDbLine
 10
-12.5
 20
0.0
 30
0.0
 11
-12.5
 21
-2.0
 31
0.0
  0
LINE
  5
73
100
AcDbEntity
  8
0
  6
CONTINUOUS
 62
               4
100
AcDbLine
 10
12.5
 20
0.0
 30
0.0
 11
12.5
 21
-2.0
 31
0.0
  0
LINE
  5
74
100
AcDbEntity
  8
0
  6
CENTER
 62
             200
100
AcDbLine
 10
-8.149993896484375
 20
1.200592041015625
 30
0.0
 11
-8.149993896484375
 21
-3.4542770385742187
 31
0.0
  0
LINE
  5
75
100
AcDbEntity
  8
0
  6
CENTER
 62
             200
100
AcDbLine
 10
8.149993896484375
 20
1.32989501953125
 30
0.0
 11
8.149993896484375
 21
-3.4542770385742187
 31
0.0
  0
LINE
  5
76
100
AcDbEntity
  8
0
  6
CONTINUOUS
 62
               4
100
AcDbLine
 10
-22.0
 20
8.5
 30
0.0
 11
-22.0
 21
-2.0
 31
0.0
  0
LINE
  5
77
100
AcDbEntity
  8
0
  6
CONTINUOUS
 62
               4
100
AcDbLine
 10
22.0
 20
8.5
 30
0.0
 11
22.0
 21
-2.0
 31
0.0
  0
LINE
  5
78
100
AcDbEntity
  8
0
  6
CENTER
 62
             200
100
AcDbLine
 10
0.0
 20
12.191246032714844
 30
0.0
 11
0.0
 21
-4.8765945434570313
 31
0.0
  0
LINE
  5
79
100
AcDbEntity
  8
0
  6
CONTINUOUS
 62
               4
100
AcDbLine
 10
-22.0
 20
0.0
 30
0.0
 11
22.0
 21
0.0
 31
0.0
  0
LINE
  5
7A
100
AcDbEntity
  8
0
  6
CONTINUOUS
 62
               4
100
AcDbLine
 10
-20.0
 20
10.5
 30
0.0
 11
20.0
 21
10.5
 31
0.0
  0
LINE
  5
7B
100
AcDbEntity
  8
0
  6
CONTINUOUS
 62
               4
100
AcDbLine
 10
-22.0
 20
-2.0
 30
0.0
 11
22.0
 21
-2.0
 31
0.0
  0
ENDBLK
  5
7C
100
AcDbEntity
  8
0
100
AcDbBlockEnd
  0
BLOCK
  5
7D
100
AcDbEntity
  8
0
100
AcDbBlockBegin
  2
JIG-C_FOOT1-4
 70
               0
 10
0.0
 20
0.0
 30
0.0
  3
JIG-C_FOOT1-4
  1

  0
CIRCLE
  5
7E
100
AcDbEntity
  8
0
  6
CONTINUOUS
 62
               4
100
AcDbCircle
 10
-9.9000015258789062
 20
9.9000015258789062
 30
0.0
 40
2.75
  0
CIRCLE
  5
7F
100
AcDbEntity
  8
0
  6
CONTINUOUS
 62
               4
100
AcDbCircle
 10
9.8999977111816406
 20
9.9000015258789062
 30
0.0
 40
2.75
  0
CIRCLE
  5
80
100
AcDbEntity
  8
0
  6
CONTINUOUS
 62
               4
100
AcDbCircle
 10
0.0
 20
0.0
 30
0.0
 40
5.5
  0
ARC
  5
81
100
AcDbEntity
  8
0
  6
CONTINUOUS
 62
               4
100
AcDbCircle
 10
12.499998092651367
 20
12.5
 30
0.0
 40
2.0
100
AcDbArc
 50
0.0
 51
89.999982013910653
  0
ARC
  5
82
100
AcDbEntity
  8
0
  6
CONTINUOUS
 62
               4
100
AcDbCircle
 10
-12.5
 20
12.5
 30
0.0
 40
2.0
100
AcDbArc
 50
89.999982013910653
 51
179.99996402782131
  0
CIRCLE
  5
83
100
AcDbEntity
  8
0
  6
CONTINUOUS
 62
               4
100
AcDbCircle
 10
-9.9000015258789062
 20
-9.9000015258789062
 30
0.0
 40
2.75
  0
CIRCLE
  5
84
100
AcDbEntity
  8
0
  6
CONTINUOUS
 62
               4
100
AcDbCircle
 10
9.8999977111816406
 20
-9.9000015258789062
 30
0.0
 40
2.75
  0
LINE
  5
85
100
AcDbEntity
  8
0
  6
CENTER
 62
             200
100
AcDbLine
 10
-19.0
 20
-21.138641357421875
 30
0.0
 11
-19.0
 21
-15.150440216064453
 31
0.0
  0
LINE
  5
86
100
AcDbEntity
  8
0
  6
CENTER
 62
             200
100
AcDbLine
 10
18.999998092651367
 20
-21.138641357421875
 30
0.0
 11
18.999998092651367
 21
-15.150440216064453
 31
0.0
  0
LINE
  5
87
100
AcDbEntity
  8
0
  6
CENTER
 62
             200
100
AcDbLine
 10
9.8999977111816406
 20
-5.9648971557617188
 30
0.0
 11
9.8999977111816406
 21
-13.664012908935547
 31
0.0
  0
LINE
  5
88
100
AcDbEntity
  8
0
  6
CENTER
 62
             200
100
AcDbLine
 10
5.46636962890625
 20
-9.9000015258789062
 30
0.0
 11
13.849851608276367
 21
-9.9000015258789062
 31
0.0
  0
LINE
  5
89
100
AcDbEntity
  8
0
  6
CENTER
 62
             200
100
AcDbLine
 10
-9.9000015258789062
 20
-5.9648971557617188
 30
0.0
 11
-9.9000015258789062
 21
-13.664012908935547
 31
0.0
  0
LINE
  5
8A
100
AcDbEntity
  8
0
  6
CENTER
 62
             200
100
AcDbLine
 10
-5.4663734436035156
 20
-9.9000015258789062
 30
0.0
 11
-13.849857330322266
 21
-9.9000015258789062
 31
0.0
  0
LINE
  5
8B
100
AcDbEntity
  8
0
  6
CENTER
 62
             200
100
AcDbLine
 10
-9.9000015258789062
 20
5.9648971557617188
 30
0.0
 11
-9.9000015258789062
 21
13.664016723632813
 31
0.0
  0
LINE
  5
8C
100
AcDbEntity
  8
0
  6
CENTER
 62
             200
100
AcDbLine
 10
-5.4663734436035156
 20
9.9000015258789062
 30
0.0
 11
-13.849857330322266
 21
9.9000015258789062
 31
0.0
  0
LINE
  5
8D
100
AcDbEntity
  8
0
  6
CENTER
 62
             200
100
AcDbLine
 10
9.8999977111816406
 20
5.9648971557617188
 30
0.0
 11
9.8999977111816406
 21
13.664016723632813
 31
0.0
  0
LINE
  5
8E
100
AcDbEntity
  8
0
  6
CENTER
 62
             200
100
AcDbLine
 10
5.46636962890625
 20
9.9000015258789062
 30
0.0
 11
13.849851608276367
 21
9.9000015258789062
 31
0.0
  0
LINE
  5
8F
100
AcDbEntity
  8
0
  6
CONTINUOUS
 62
               4
100
AcDbLine
 10
23.999988625141953
 20
-14.499994190002781
 30
0.0
 11
14.499982128050135
 21
0.0000034908407542
 31
0.0
  0
LINE
  5
90
100
AcDbEntity
  8
0
  6
CONTINUOUS
 62
               4
100
AcDbLine
 10
-23.999950533566562
 20
-14.500045117177933
 30
0.0
 11
-14.499947658841904
 21
-0.0000461675601287
 31
0.0
  0
LINE
  5
91
100
AcDbEntity
  8
0
  6
CONTINUOUS
 62
               4
100
AcDbLine
 10
-14.5
 20
0.0
 30
0.0
 11
-14.5
 21
12.5
 31
0.0
  0
LINE
  5
92
100
AcDbEntity
  8
0
  6
CONTINUOUS
 62
               4
100
AcDbLine
 10
14.499998092651367
 20
0.0
 30
0.0
 11
14.499998092651367
 21
12.5
 31
0.0
  0
LINE
  5
93
100
AcDbEntity
  8
0
  6
CONTINUOUS
 62
               4
100
AcDbLine
 10
-12.5
 20
14.5
 30
0.0
 11
12.499998092651367
 21
14.5
 31
0.0
  0
LINE
  5
94
100
AcDbEntity
  8
0
  6
CENTER
 62
             200
100
AcDbLine
 10
-18.386428833007813
 20
0.0
 30
0.0
 11
18.740411758422852
 21
0.0
 31
0.0
  0
LINE
  5
95
100
AcDbEntity
  8
0
  6
DASHED
 62
             200
100
AcDbLine
 10
-10.0
 20
-17.0
 30
0.0
 11
-10.0
 21
-14.5
 31
0.0
  0
LINE
  5
96
100
AcDbEntity
  8
0
  6
DASHED
 62
             200
100
AcDbLine
 10
9.9999980926513672
 20
-17.0
 30
0.0
 11
9.9999980926513672
 21
-14.5
 31
0.0
  0
LINE
  5
97
100
AcDbEntity
  8
0
  6
DASHED
 62
             200
100
AcDbLine
 10
-10.0
 20
-14.5
 30
0.0
 11
9.9999980926513672
 21
-14.5
 31
0.0
  0
LINE
  5
98
100
AcDbEntity
  8
0
  6
DASHED
 62
             200
100
AcDbLine
 10
-24.000007629394531
 20
-17.0
 30
0.0
 11
23.999998092651367
 21
-17.0
 31
0.0
  0
LINE
  5
99
100
AcDbEntity
  8
0
  6
CONTINUOUS
 62
               4
100
AcDbLine
 10
-24.000007629394531
 20
-19.0
 30
0.0
 11
-24.000007629394531
 21
-14.5
 31
0.0
  0
LINE
  5
9A
100
AcDbEntity
  8
0
  6
CONTINUOUS
 62
               4
100
AcDbLine
 10
23.999998092651367
 20
-19.0
 30
0.0
 11
23.999998092651367
 21
-14.5
 31
0.0
  0
LINE
  5
9B
100
AcDbEntity
  8
0
  6
CENTER
 62
             200
100
AcDbLine
 10
0.0
 20
-22.507369995117188
 30
0.0
 11
0.0
 21
17.528030395507813
 31
0.0
  0
LINE
  5
9C
100
AcDbEntity
  8
0
  6
CONTINUOUS
 62
               4
100
AcDbLine
 10
-24.000007629394531
 20
-19.0
 30
0.0
 11
23.999998092651367
 21
-19.0
 31
0.0
  0
ENDBLK
  5
9D
100
AcDbEntity
  8
0
100
AcDbBlockEnd
  0
BLOCK
  5
9E
100
AcDbEntity
  8
0
100
AcDbBlockBegin
  2
JIG-C_FOOT1-5
 70
               0
 10
0.0
 20
0.0
 30
0.0
  3
JIG-C_FOOT1-5
  1

  0
ARC
  5
9F
100
AcDbEntity
  8
0
  6
CONTINUOUS
 62
               4
100
AcDbCircle
 10
1.0
 20
-16.0
 30
0.0
 40
3.0
100
AcDbArc
 50
180.00003597217869
 51
270.00001798608935
  0
ARC
  5
A0
100
AcDbEntity
  8
0
  6
CONTINUOUS
 62
               4
100
AcDbCircle
 10
2.0
 20
-15.0
 30
0.0
 40
2.0
100
AcDbArc
 50
180.00003597217869
 51
270.00001798608935
  0
LINE
  5
A1
100
AcDbEntity
  8
0
  6
CENTER
 62
             200
100
AcDbLine
 10
0.8407058715820313
 20
-9.9000015258789062
 30
0.0
 11
-3.094390869140625
 21
-9.9000015258789062
 31
0.0
  0
LINE
  5
A2
100
AcDbEntity
  8
0
  6
CENTER
 62
             200
100
AcDbLine
 10
1.0117950439453125
 20
9.9000015258789062
 30
0.0
 11
-3.094390869140625
 21
9.9000015258789062
 31
0.0
  0
LINE
  5
A3
100
AcDbEntity
  8
0
  6
CENTER
 62
             200
100
AcDbLine
 10
2.3805313110351562
 20
0.0
 30
0.0
 11
-4.4631271362304687
 21
0.0
 31
0.0
  0
LINE
  5
A4
100
AcDbEntity
  8
0
  6
CONTINUOUS
 62
               4
100
AcDbLine
 10
0.0
 20
-14.5
 30
0.0
 11
-2.0
 21
-14.5
 31
0.0
  0
LINE
  5
A5
100
AcDbEntity
  8
0
  6
CONTINUOUS
 62
               4
100
AcDbLine
 10
10.5
 20
-17.0
 30
0.0
 11
10.5
 21
-14.5
 31
0.0
  0
LINE
  5
A6
100
AcDbEntity
  8
0
  6
CONTINUOUS
 62
               4
100
AcDbLine
 10
3.5
 20
-17.0
 30
0.0
 11
3.5
 21
-14.5
 31
0.0
  0
LINE
  5
A7
100
AcDbEntity
  8
0
  6
CONTINUOUS
 62
               4
100
AcDbLine
 10
10.5
 20
-14.5
 30
0.0
 11
3.5
 21
-14.5
 31
0.0
  0
LINE
  5
A8
100
AcDbEntity
  8
0
  6
CENTER
 62
             200
100
AcDbLine
 10
6.0
 20
-20.112091064453125
 30
0.0
 11
6.0
 21
-15.150440216064453
 31
0.0
  0
LINE
  5
A9
100
AcDbEntity
  8
0
  6
CONTINUOUS
 62
               4
100
AcDbLine
 10
0.0
 20
14.5
 30
0.0
 11
-2.0
 21
14.5
 31
0.0
  0
LINE
  5
AA
100
AcDbEntity
  8
0
  6
CONTINUOUS
 62
               4
100
AcDbLine
 10
11.0
 20
-19.0
 30
0.0
 11
11.0
 21
-17.0
 31
0.0
  0
LINE
  5
AB
100
AcDbEntity
  8
0
  6
CONTINUOUS
 62
               4
100
AcDbLine
 10
11.0
 20
-17.0
 30
0.0
 11
2.0
 21
-17.0
 31
0.0
  0
LINE
  5
AC
100
AcDbEntity
  8
0
  6
CONTINUOUS
 62
               4
100
AcDbLine
 10
11.0
 20
-19.0
 30
0.0
 11
1.0
 21
-19.0
 31
0.0
  0
LINE
  5
AD
100
AcDbEntity
  8
0
  6
CONTINUOUS
 62
               4
100
AcDbLine
 10
0.0
 20
-15.0
 30
0.0
 11
0.0
 21
14.5
 31
0.0
  0
LINE
  5
AE
100
AcDbEntity
  8
0
  6
CONTINUOUS
 62
               4
100
AcDbLine
 10
-2.0
 20
-16.0
 30
0.0
 11
-2.0
 21
14.5
 31
0.0
  0
ENDBLK
  5
AF
100
AcDbEntity
  8
0
100
AcDbBlockEnd
  0
BLOCK
  5
B0
100
AcDbEntity
  8
0
100
AcDbBlockBegin
  2
JIG-C_FOOT1-6
 70
               0
 10
0.0
 20
0.0
 30
0.0
  3
JIG-C_FOOT1-6
  1

  0
ARC
  5
B1
100
AcDbEntity
  8
0
  6
CONTINUOUS
 62
               4
100
AcDbCircle
 10
-22.000007629394531
 20
9.0
 30
0.0
 40
2.0
100
AcDbArc
 50
89.999927372397295
 51
179.99996402782131
  0
ARC
  5
B2
100
AcDbEntity
  8
0
  6
CONTINUOUS
 62
               4
100
AcDbCircle
 10
21.999998092651367
 20
9.0
 30
0.0
 40
2.0
100
AcDbArc
 50
359.99994535848663
 51
89.999927372397295
  0
CIRCLE
  5
B3
100
AcDbEntity
  8
0
  6
CONTINUOUS
 62
               4
100
AcDbCircle
 10
18.999998092651367
 20
6.0
 30
0.0
 40
2.25
  0
CIRCLE
  5
B4
100
AcDbEntity
  8
0
  6
CONTINUOUS
 62
               4
100
AcDbCircle
 10
-19.0
 20
6.0
 30
0.0
 40
2.25
  0
LINE
  5
B5
100
AcDbEntity
  8
0
  6
CENTER
 62
             200
100
AcDbLine
 10
-14.976402282714844
 20
6.0
 30
0.0
 11
-22.675521850585938
 21
6.0
 31
0.0
  0
LINE
  5
B6
100
AcDbEntity
  8
0
  6
CENTER
 62
             200
100
AcDbLine
 10
-19.0
 20
9.6637115478515625
 30
0.0
 11
-19.0
 21
1.7935104370117187
 31
0.0
  0
LINE
  5
B7
100
AcDbEntity
  8
0
  6
CONTINUOUS
 62
               4
100
AcDbLine
 10
-10.0
 20
10.5
 30
0.0
 11
-10.0
 21
3.5
 31
0.0
  0
LINE
  5
B8
100
AcDbEntity
  8
0
  6
CENTER
 62
             200
100
AcDbLine
 10
18.999998092651367
 20
9.6637115478515625
 30
0.0
 11
18.999998092651367
 21
1.7935104370117187
 31
0.0
  0
LINE
  5
B9
100
AcDbEntity
  8
0
  6
CENTER
 62
             200
100
AcDbLine
 10
14.976400375366211
 20
6.0
 30
0.0
 11
22.675516128540039
 21
6.0
 31
0.0
  0
LINE
  5
BA
100
AcDbEntity
  8
0
  6
CONTINUOUS
 62
               4
100
AcDbLine
 10
-10.0
 20
10.5
 30
0.0
 11
-10.0
 21
3.5
 31
0.0
  0
LINE
  5
BB
100
AcDbEntity
  8
0
  6
CONTINUOUS
 62
               4
100
AcDbLine
 10
-10.0
 20
3.5
 30
0.0
 11
9.9999980926513672
 21
3.5
 31
0.0
  0
LINE
  5
BC
100
AcDbEntity
  8
0
  6
CONTINUOUS
 62
               4
100
AcDbLine
 10
9.9999980926513672
 20
10.5
 30
0.0
 11
9.9999980926513672
 21
3.5
 31
0.0
  0
LINE
  5
BD
100
AcDbEntity
  8
0
  6
CENTER
 62
             200
100
AcDbLine
 10
-9.9000015258789062
 20
1.451324462890625
 30
0.0
 11
-9.9000015258789062
 21
-3.3392333984375
 31
0.0
  0
LINE
  5
BE
100
AcDbEntity
  8
0
  6
CENTER
 62
             200
100
AcDbLine
 10
9.8999977111816406
 20
1.451324462890625
 30
0.0
 11
9.8999977111816406
 21
-3.852508544921875
 31
0.0
  0
LINE
  5
BF
100
AcDbEntity
  8
0
  6
CONTINUOUS
 62
               4
100
AcDbLine
 10
-14.5
 20
0.0
 30
0.0
 11
-14.5
 21
-2.0
 31
0.0
  0
LINE
  5
C0
100
AcDbEntity
  8
0
  6
CONTINUOUS
 62
               4
100
AcDbLine
 10
14.499998092651367
 20
0.0
 30
0.0
 11
14.499998092651367
 21
-2.0
 31
0.0
  0
LINE
  5
C1
100
AcDbEntity
  8
0
  6
CONTINUOUS
 62
               4
100
AcDbLine
 10
-24.000007629394531
 20
9.0
 30
0.0
 11
-24.000007629394531
 21
-2.0
 31
0.0
  0
LINE
  5
C2
100
AcDbEntity
  8
0
  6
CONTINUOUS
 62
               4
100
AcDbLine
 10
23.999998092651367
 20
9.0
 30
0.0
 11
23.999998092651367
 21
-2.0
 31
0.0
  0
LINE
  5
C3
100
AcDbEntity
  8
0
  6
CENTER
 62
             200
100
AcDbLine
 10
0.0
 20
13.427719116210937
 30
0.0
 11
0.0
 21
-5.56341552734375
 31
0.0
  0
LINE
  5
C4
100
AcDbEntity
  8
0
  6
CONTINUOUS
 62
               4
100
AcDbLine
 10
-10.0
 20
10.5
 30
0.0
 11
9.9999980926513672
 21
10.5
 31
0.0
  0
LINE
  5
C5
100
AcDbEntity
  8
0
  6
CONTINUOUS
 62
               4
100
AcDbLine
 10
-24.000007629394531
 20
0.0
 30
0.0
 11
23.999998092651367
 21
0.0
 31
0.0
  0
LINE
  5
C6
100
AcDbEntity
  8
0
  6
CONTINUOUS
 62
               4
100
AcDbLine
 10
-24.000007629394531
 20
-2.0
 30
0.0
 11
23.999998092651367
 21
-2.0
 31
0.0
  0
LINE
  5
C7
100
AcDbEntity
  8
0
  6
CONTINUOUS
 62
               4
100
AcDbLine
 10
-22.000007629394531
 20
11.0
 30
0.0
 11
21.999998092651367
 21
11.0
 31
0.0
  0
ENDBLK
  5
C8
100
AcDbEntity
  8
0
100
AcDbBlockEnd
  0
BLOCK
  5
C9
100
AcDbEntity
  8
0
100
AcDbBlockBegin
  2
JIG-C_FOOT1-7
 70
               0
 10
0.0
 20
0.0
 30
0.0
  3
JIG-C_FOOT1-7
  1

  0
CIRCLE
  5
CA
100
AcDbEntity
  8
0
  6
CONTINUOUS
 62
               4
100
AcDbCircle
 10
12.0
 20
-12.0
 30
0.0
 40
2.75
  0
CIRCLE
  5
CB
100
AcDbEntity
  8
0
  6
CONTINUOUS
 62
               4
100
AcDbCircle
 10
-12.0
 20
-12.0
 30
0.0
 40
2.75
  0
LINE
  5
CC
100
AcDbEntity
  8
0
  6
CENTER
 62
             200
100
AcDbLine
 10
-22.0
 20
-26.42822265625
 30
0.0
 11
-22.0
 21
-18.5
 31
0.0
  0
LINE
  5
CD
100
AcDbEntity
  8
0
  6
CENTER
 62
             200
100
AcDbLine
 10
0.0
 20
-27.036380767822266
 30
0.0
 11
0.0
 21
-4.2766265869140625
 31
0.0
  0
LINE
  5
CE
100
AcDbEntity
  8
0
  6
CENTER
 62
             200
100
AcDbLine
 10
-12.0
 20
-15.844211578369141
 30
0.0
 11
-12.0
 21
-7.8783035278320313
 31
0.0
  0
LINE
  5
CF
100
AcDbEntity
  8
0
  6
CENTER
 62
             200
100
AcDbLine
 10
-7.816131591796875
 20
-12.0
 30
0.0
 11
-16.269744873046875
 21
-12.0
 31
0.0
  0
LINE
  5
D0
100
AcDbEntity
  8
0
  6
CENTER
 62
             200
100
AcDbLine
 10
7.816131591796875
 20
-12.0
 30
0.0
 11
16.269744873046875
 21
-12.0
 31
0.0
  0
LINE
  5
D1
100
AcDbEntity
  8
0
  6
CENTER
 62
             200
100
AcDbLine
 10
12.0
 20
-15.844211578369141
 30
0.0
 11
12.0
 21
-7.8783035278320313
 31
0.0
  0
LINE
  5
D2
100
AcDbEntity
  8
0
  6
CONTINUOUS
 62
               4
100
AcDbLine
 10
16.999992665644868
 20
-7.5000076067738064
 30
0.0
 11
26.999996767496896
 21
-17.300011676661825
 31
0.0
  0
LINE
  5
D3
100
AcDbEntity
  8
0
  6
CONTINUOUS
 62
               4
100
AcDbLine
 10
-17.000008351986793
 20
-7.4999916003025362
 30
0.0
 11
-27.000007004827324
 21
-17.299990330159261
 31
0.0
  0
LINE
  5
D4
100
AcDbEntity
  8
0
  6
CONTINUOUS
 62
               4
100
AcDbLine
 10
-17.0
 20
-7.5
 30
0.0
 11
17.0
 21
-7.5
 31
0.0
  0
LINE
  5
D5
100
AcDbEntity
  8
0
  6
DASHED
 62
             200
100
AcDbLine
 10
-15.0
 20
-20.799999237060547
 30
0.0
 11
-15.0
 21
-17.0
 31
0.0
  0
LINE
  5
D6
100
AcDbEntity
  8
0
  6
DASHED
 62
             200
100
AcDbLine
 10
15.0
 20
-20.799999237060547
 30
0.0
 11
15.0
 21
-17.0
 31
0.0
  0
LINE
  5
D7
100
AcDbEntity
  8
0
  6
CENTER
 62
             200
100
AcDbLine
 10
22.0
 20
-25.833335876464844
 30
0.0
 11
22.0
 21
-18.5
 31
0.0
  0
LINE
  5
D8
100
AcDbEntity
  8
0
  6
DASHED
 62
             200
100
AcDbLine
 10
-15.0
 20
-17.0
 30
0.0
 11
15.0
 21
-17.0
 31
0.0
  0
LINE
  5
D9
100
AcDbEntity
  8
0
  6
DASHED
 62
             200
100
AcDbLine
 10
-27.0
 20
-20.799999237060547
 30
0.0
 11
27.0
 21
-20.799999237060547
 31
0.0
  0
LINE
  5
DA
100
AcDbEntity
  8
0
  6
CONTINUOUS
 62
               4
100
AcDbLine
 10
27.0
 20
-24.0
 30
0.0
 11
27.0
 21
-17.299999237060547
 31
0.0
  0
LINE
  5
DB
100
AcDbEntity
  8
0
  6
CONTINUOUS
 62
               4
100
AcDbLine
 10
-27.0
 20
-24.0
 30
0.0
 11
27.0
 21
-24.0
 31
0.0
  0
LINE
  5
DC
100
AcDbEntity
  8
0
  6
CONTINUOUS
 62
               4
100
AcDbLine
 10
-27.0
 20
-24.0
 30
0.0
 11
-27.0
 21
-17.299999237060547
 31
0.0
  0
ENDBLK
  5
DD
100
AcDbEntity
  8
0
100
AcDbBlockEnd
  0
BLOCK
  5
DE
100
AcDbEntity
  8
0
100
AcDbBlockBegin
  2
JIG-C_FOOT1-8
 70
               0
 10
0.0
 20
0.0
 30
0.0
  3
JIG-C_FOOT1-8
  1

  0
ARC
  5
DF
100
AcDbEntity
  8
0
  6
CONTINUOUS
 62
               4
100
AcDbCircle
 10
1.8000030517578125
 20
-19.0
 30
0.0
 40
5.0
100
AcDbArc
 50
180.00003597217869
 51
270.00001798608935
  0
ARC
  5
E0
100
AcDbEntity
  8
0
  6
CONTINUOUS
 62
               4
100
AcDbCircle
 10
2.0
 20
-18.799999237060547
 30
0.0
 40
2.0
100
AcDbArc
 50
180.00003597217869
 51
270.00001798608935
  0
LINE
  5
E1
100
AcDbEntity
  8
0
  6
CONTINUOUS
 62
               4
100
AcDbLine
 10
-3.1999969482421875
 20
-17.299991607666016
 30
0.0
 11
0.0
 21
-17.299991607666016
 31
0.0
  0
LINE
  5
E2
100
AcDbEntity
  8
0
  6
CONTINUOUS
 62
               4
100
AcDbLine
 10
4.3000030517578125
 20
-20.799999237060547
 30
0.0
 11
4.3000030517578125
 21
-16.999992370605469
 31
0.0
  0
LINE
  5
E3
100
AcDbEntity
  8
0
  6
CONTINUOUS
 62
               4
100
AcDbLine
 10
11.300003051757813
 20
-20.799999237060547
 30
0.0
 11
11.300003051757813
 21
-16.999992370605469
 31
0.0
  0
LINE
  5
E4
100
AcDbEntity
  8
0
  6
CONTINUOUS
 62
               4
100
AcDbLine
 10
11.300003051757813
 20
-16.999992370605469
 30
0.0
 11
4.3000030517578125
 21
-16.999992370605469
 31
0.0
  0
LINE
  5
E5
100
AcDbEntity
  8
0
  6
CENTER
 62
             200
100
AcDbLine
 10
6.0000028610229492
 20
-25.248115539550781
 30
0.0
 11
6.0000028610229492
 21
-19.720745086669922
 31
0.0
  0
LINE
  5
E6
100
AcDbEntity
  8
0
  6
CENTER
 62
             200
100
AcDbLine
 10
1.4342193603515625
 20
-12.0
 30
0.0
 11
-5.23114013671875
 21
-12.0
 31
0.0
  0
LINE
  5
E7
100
AcDbEntity
  8
0
  6
CONTINUOUS
 62
               4
100
AcDbLine
 10
0.0
 20
-7.5
 30
0.0
 11
-3.1999969482421875
 21
-7.5
 31
0.0
  0
LINE
  5
E8
100
AcDbEntity
  8
0
  6
CONTINUOUS
 62
               4
100
AcDbLine
 10
11.800003051757813
 20
-24.0
 30
0.0
 11
11.800003051757813
 21
-20.799999237060547
 31
0.0
  0
LINE
  5
E9
100
AcDbEntity
  8
0
  6
CONTINUOUS
 62
               4
100
AcDbLine
 10
11.800003051757813
 20
-20.799999237060547
 30
0.0
 11
2.0
 21
-20.799999237060547
 31
0.0
  0
LINE
  5
EA
100
AcDbEntity
  8
0
  6
CONTINUOUS
 62
               4
100
AcDbLine
 10
11.800003051757813
 20
-24.0
 30
0.0
 11
1.8000030517578125
 21
-24.0
 31
0.0
  0
LINE
  5
EB
100
AcDbEntity
  8
0
  6
CONTINUOUS
 62
               4
100
AcDbLine
 10
0.0
 20
-18.799999237060547
 30
0.0
 11
0.0
 21
-7.5
 31
0.0
  0
LINE
  5
EC
100
AcDbEntity
  8
0
  6
CONTINUOUS
 62
               4
100
AcDbLine
 10
-3.1999969482421875
 20
-19.0
 30
0.0
 11
-3.1999969482421875
 21
-7.5
 31
0.0
  0
ENDBLK
  5
ED
100
AcDbEntity
  8
0
100
AcDbBlockEnd
  0
BLOCK
  5
EE
100
AcDbEntity
  8
0
100
AcDbBlockBegin
  2
JIG-C_FOOT1-9
 70
               0
 10
0.0
 20
0.0
 30
0.0
  3
JIG-C_FOOT1-9
  1

  0
ARC
  5
EF
100
AcDbEntity
  8
0
  6
CONTINUOUS
 62
               4
100
AcDbCircle
 10
-25.0
 20
9.8000030517578125
 30
0.0
 40
2.0
100
AcDbArc
 50
89.999927372397295
 51
179.99996402782131
  0
ARC
  5
F0
100
AcDbEntity
  8
0
  6
CONTINUOUS
 62
               4
100
AcDbCircle
 10
25.0
 20
9.8000030517578125
 30
0.0
 40
2.0
100
AcDbArc
 50
359.99994535848663
 51
89.999927372397295
  0
CIRCLE
  5
F1
100
AcDbEntity
  8
0
  6
CONTINUOUS
 62
               4
100
AcDbCircle
 10
22.0
 20
5.9999954223632814
 30
0.0
 40
2.25
  0
CIRCLE
  5
F2
100
AcDbEntity
  8
0
  6
CONTINUOUS
 62
               4
100
AcDbCircle
 10
-22.0
 20
5.9999954223632814
 30
0.0
 40
2.25
  0
LINE
  5
F3
100
AcDbEntity
  8
0
  6
CONTINUOUS
 62
               4
100
AcDbLine
 10
16.999954223632813
 20
0.0
 30
0.0
 11
16.999954223632813
 21
-3.2000045776367187
 31
0.0
  0
LINE
  5
F4
100
AcDbEntity
  8
0
  6
CONTINUOUS
 62
               4
100
AcDbLine
 10
-17.000045776367188
 20
0.0
 30
0.0
 11
-17.000045776367188
 21
-3.2000045776367187
 31
0.0
  0
LINE
  5
F5
100
AcDbEntity
  8
0
  6
CENTER
 62
             200
100
AcDbLine
 10
-18.54571533203125
 20
5.9999954223632814
 30
0.0
 11
-25.3736572265625
 21
5.9999954223632814
 31
0.0
  0
LINE
  5
F6
100
AcDbEntity
  8
0
  6
CENTER
 62
             200
100
AcDbLine
 10
-22.0
 20
9.8023559570312493
 30
0.0
 11
-22.0
 21
2.1615783691406252
 31
0.0
  0
LINE
  5
F7
100
AcDbEntity
  8
0
  6
CONTINUOUS
 62
               4
100
AcDbLine
 10
-15.0
 20
11.300003051757813
 30
0.0
 11
-15.0
 21
4.2999954223632812
 31
0.0
  0
LINE
  5
F8
100
AcDbEntity
  8
0
  6
CONTINUOUS
 62
               4
100
AcDbLine
 10
15.0
 20
11.300003051757813
 30
0.0
 11
15.0
 21
4.2999954223632812
 31
0.0
  0
LINE
  5
F9
100
AcDbEntity
  8
0
  6
CONTINUOUS
 62
               4
100
AcDbLine
 10
-15.0
 20
4.2999954223632812
 30
0.0
 11
15.0
 21
4.2999954223632812
 31
0.0
  0
LINE
  5
FA
100
AcDbEntity
  8
0
  6
CONTINUOUS
 62
               4
100
AcDbLine
 10
-15.0
 20
11.300003051757813
 30
0.0
 11
15.0
 21
11.300003051757813
 31
0.0
  0
LINE
  5
FB
100
AcDbEntity
  8
0
  6
CENTER
 62
             200
100
AcDbLine
 10
18.545730590820312
 20
5.9999954223632814
 30
0.0
 11
25.3736572265625
 21
5.9999954223632814
 31
0.0
  0
LINE
  5
FC
100
AcDbEntity
  8
0
  6
CENTER
 62
             200
100
AcDbLine
 10
22.0
 20
9.8023559570312493
 30
0.0
 11
22.0
 21
2.1615783691406252
 31
0.0
  0
LINE
  5
FD
100
AcDbEntity
  8
0
  6
CONTINUOUS
 62
               4
100
AcDbLine
 10
27.0
 20
9.8000030517578125
 30
0.0
 11
27.0
 21
-3.2000045776367187
 31
0.0
  0
LINE
  5
FE
100
AcDbEntity
  8
0
  6
CONTINUOUS
 62
               4
100
AcDbLine
 10
-27.0
 20
9.8000030517578125
 30
0.0
 11
-27.0
 21
-3.2000045776367187
 31
0.0
  0
LINE
  5
FF
100
AcDbEntity
  8
0
  6
CONTINUOUS
 62
               4
100
AcDbLine
 10
-27.0
 20
0.0
 30
0.0
 11
27.0
 21
0.0
 31
0.0
  0
LINE
  5
100
100
AcDbEntity
  8
0
  6
CONTINUOUS
 62
               4
100
AcDbLine
 10
-27.0
 20
-3.2000045776367187
 30
0.0
 11
27.0
 21
-3.2000045776367187
 31
0.0
  0
LINE
  5
101
100
AcDbEntity
  8
0
  6
CONTINUOUS
 62
               4
100
AcDbLine
 10
-25.0
 20
11.800003051757813
 30
0.0
 11
25.0
 21
11.800003051757813
 31
0.0
  0
LINE
  5
102
100
AcDbEntity
  8
0
  6
CENTER
 62
             200
100
AcDbLine
 10
0.0
 20
15.129714965820313
 30
0.0
 11
0.0
 21
-7.46746826171875
 31
0.0
  0
ENDBLK
  5
103
100
AcDbEntity
  8
0
100
AcDbBlockEnd
  0
BLOCK
  5
104
100
AcDbEntity
  8
0
100
AcDbBlockBegin
  2
JIG-C_FOOT1-10
 70
               0
 10
0.0
 20
0.0
 30
0.0
  3
JIG-C_FOOT1-10
  1

  0
CIRCLE
  5
105
100
AcDbEntity
  8
0
  6
CONTINUOUS
 62
               4
100
AcDbCircle
 10
14.0
 20
-14.300003051757813
 30
0.0
 40
3.2999999523162842
  0
CIRCLE
  5
106
100
AcDbEntity
  8
0
  6
CONTINUOUS
 62
               4
100
AcDbCircle
 10
-14.0
 20
-14.300003051757813
 30
0.0
 40
3.2999999523162842
  0
LINE
  5
107
100
AcDbEntity
  8
0
  6
CENTER
 62
             200
100
AcDbLine
 10
26.0
 20
-27.948883056640625
 30
0.0
 11
26.0
 21
-21.16912841796875
 31
0.0
  0
LINE
  5
108
100
AcDbEntity
  8
0
  6
CENTER
 62
             200
100
AcDbLine
 10
-26.000030517578125
 20
-27.948883056640625
 30
0.0
 11
-26.000030517578125
 21
-21.16912841796875
 31
0.0
  0
LINE
  5
109
100
AcDbEntity
  8
0
  6
CENTER
 62
             200
100
AcDbLine
 10
-14.0
 20
-19.038360595703125
 30
0.0
 11
-14.0
 21
-9.546722412109375
 31
0.0
  0
LINE
  5
10A
100
AcDbEntity
  8
0
  6
CENTER
 62
             200
100
AcDbLine
 10
-8.8721771240234375
 20
-14.300003051757813
 30
0.0
 11
-18.557510375976562
 21
-14.300003051757813
 31
0.0
  0
LINE
  5
10B
100
AcDbEntity
  8
0
  6
CENTER
 62
             200
100
AcDbLine
 10
8.8721771240234375
 20
-14.300003051757813
 30
0.0
 11
18.557510375976562
 21
-14.300003051757813
 31
0.0
  0
LINE
  5
10C
100
AcDbEntity
  8
0
  6
CENTER
 62
             200
100
AcDbLine
 10
14.0
 20
-19.038360595703125
 30
0.0
 11
14.0
 21
-9.546722412109375
 31
0.0
  0
LINE
  5
10D
100
AcDbEntity
  8
0
  6
CONTINUOUS
 62
               4
100
AcDbLine
 10
19.999943941116953
 20
-8.5000271400957672
 30
0.0
 11
31.99994681294811
 21
-20.300028843900577
 31
0.0
  0
LINE
  5
10E
100
AcDbEntity
  8
0
  6
CONTINUOUS
 62
               4
100
AcDbLine
 10
-20.000036408747746
 20
-8.5000364786533851
 30
0.0
 11
-32.0000202407914
 21
-20.300019460002261
 31
0.0
  0
LINE
  5
10F
100
AcDbEntity
  8
0
  6
CONTINUOUS
 62
               4
100
AcDbLine
 10
-20.0
 20
-8.5
 30
0.0
 11
20.0
 21
-8.5
 31
0.0
  0
LINE
  5
110
100
AcDbEntity
  8
0
  6
DASHED
 62
             200
100
AcDbLine
 10
-15.0
 20
-22.800003051757813
 30
0.0
 11
-15.0
 21
-20.0
 31
0.0
  0
LINE
  5
111
100
AcDbEntity
  8
0
  6
DASHED
 62
             200
100
AcDbLine
 10
15.0
 20
-22.800003051757813
 30
0.0
 11
15.0
 21
-20.0
 31
0.0
  0
LINE
  5
112
100
AcDbEntity
  8
0
  6
DASHED
 62
             200
100
AcDbLine
 10
-15.0
 20
-20.0
 30
0.0
 11
15.0
 21
-20.0
 31
0.0
  0
LINE
  5
113
100
AcDbEntity
  8
0
  6
CENTER
 62
             200
100
AcDbLine
 10
0.0
 20
-31.241897583007812
 30
0.0
 11
0.0
 21
-2.5732574462890625
 31
0.0
  0
LINE
  5
114
100
AcDbEntity
  8
0
  6
DASHED
 62
             200
100
AcDbLine
 10
-32.000030517578125
 20
-22.800003051757813
 30
0.0
 11
32.0
 21
-22.800003051757813
 31
0.0
  0
LINE
  5
115
100
AcDbEntity
  8
0
  6
CONTINUOUS
 62
               4
100
AcDbLine
 10
32.0
 20
-26.0
 30
0.0
 11
32.0
 21
-20.300003051757813
 31
0.0
  0
LINE
  5
116
100
AcDbEntity
  8
0
  6
CONTINUOUS
 62
               4
100
AcDbLine
 10
-32.000030517578125
 20
-26.0
 30
0.0
 11
-32.000030517578125
 21
-20.300003051757813
 31
0.0
  0
LINE
  5
117
100
AcDbEntity
  8
0
  6
CONTINUOUS
 62
               4
100
AcDbLine
 10
-32.000030517578125
 20
-26.0
 30
0.0
 11
32.0
 21
-26.0
 31
0.0
  0
ENDBLK
  5
118
100
AcDbEntity
  8
0
100
AcDbBlockEnd
  0
BLOCK
  5
119
100
AcDbEntity
  8
0
100
AcDbBlockBegin
  2
JIG-C_FOOT1-11
 70
               0
 10
0.0
 20
0.0
 30
0.0
  3
JIG-C_FOOT1-11
  1

  0
ARC
  5
11A
100
AcDbEntity
  8
0
  6
CONTINUOUS
 62
               4
100
AcDbCircle
 10
1.8000030517578125
 20
-21.0
 30
0.0
 40
5.0
100
AcDbArc
 50
180.00003597217869
 51
270.00001798608935
  0
ARC
  5
11B
100
AcDbEntity
  8
0
  6
CONTINUOUS
 62
               4
100
AcDbCircle
 10
2.0
 20
-20.800003051757813
 30
0.0
 40
2.0
100
AcDbArc
 50
180.00003597217869
 51
270.00001798608935
  0
LINE
  5
11C
100
AcDbEntity
  8
0
  6
CONTINUOUS
 62
               4
100
AcDbLine
 10
12.800003051757812
 20
-22.800003051757813
 30
0.0
 11
12.800003051757812
 21
-19.999984741210937
 31
0.0
  0
LINE
  5
11D
100
AcDbEntity
  8
0
  6
CONTINUOUS
 62
               4
100
AcDbLine
 10
-3.1999969482421875
 20
-20.29998779296875
 30
0.0
 11
0.0
 21
-20.29998779296875
 31
0.0
  0
LINE
  5
11E
100
AcDbEntity
  8
0
  6
CENTER
 62
             200
100
AcDbLine
 10
2.140228271484375
 20
-14.000002861022949
 30
0.0
 11
-5.608062744140625
 21
-14.000002861022949
 31
0.0
  0
LINE
  5
11F
100
AcDbEntity
  8
0
  6
CONTINUOUS
 62
               4
100
AcDbLine
 10
5.8000030517578125
 20
-22.79998779296875
 30
0.0
 11
5.8000030517578125
 21
-19.999984741210937
 31
0.0
  0
LINE
  5
120
100
AcDbEntity
  8
0
  6
CONTINUOUS
 62
               4
100
AcDbLine
 10
12.800003051757812
 20
-19.999984741210937
 30
0.0
 11
5.8000030517578125
 21
-19.999984741210937
 31
0.0
  0
LINE
  5
121
100
AcDbEntity
  8
0
  6
CENTER
 62
             200
100
AcDbLine
 10
7.5
 20
-27.948883056640625
 30
0.0
 11
7.5
 21
-20.5880126953125
 31
0.0
  0
LINE
  5
122
100
AcDbEntity
  8
0
  6
CONTINUOUS
 62
               4
100
AcDbLine
 10
0.0
 20
-8.5
 30
0.0
 11
-3.1999969482421875
 21
-8.5
 31
0.0
  0
LINE
  5
123
100
AcDbEntity
  8
0
  6
CONTINUOUS
 62
               4
100
AcDbLine
 10
13.300003051757813
 20
-26.0
 30
0.0
 11
13.300003051757813
 21
-22.800003051757813
 31
0.0
  0
LINE
  5
124
100
AcDbEntity
  8
0
  6
CONTINUOUS
 62
               4
100
AcDbLine
 10
13.300003051757813
 20
-22.800003051757813
 30
0.0
 11
2.0
 21
-22.800003051757813
 31
0.0
  0
LINE
  5
125
100
AcDbEntity
  8
0
  6
CONTINUOUS
 62
               4
100
AcDbLine
 10
13.300003051757813
 20
-26.0
 30
0.0
 11
1.8000030517578125
 21
-26.0
 31
0.0
  0
LINE
  5
126
100
AcDbEntity
  8
0
  6
CONTINUOUS
 62
               4
100
AcDbLine
 10
0.0
 20
-20.800003051757813
 30
0.0
 11
0.0
 21
-8.5
 31
0.0
  0
LINE
  5
127
100
AcDbEntity
  8
0
  6
CONTINUOUS
 62
               4
100
AcDbLine
 10
-3.1999969482421875
 20
-21.0
 30
0.0
 11
-3.1999969482421875
 21
-8.5
 31
0.0
  0
ENDBLK
  5
128
100
AcDbEntity
  8
0
100
AcDbBlockEnd
  0
BLOCK
  5
129
100
AcDbEntity
  8
0
100
AcDbBlockBegin
  2
JIG-C_FOOT1-12
 70
               0
 10
0.0
 20
0.0
 30
0.0
  3
JIG-C_FOOT1-12
  1

  0
ARC
  5
12A
100
AcDbEntity
  8
0
  6
CONTINUOUS
 62
               4
100
AcDbCircle
 10
-30.000015258789063
 20
11.299995422363281
 30
0.0
 40
2.0
100
AcDbArc
 50
89.999927372397295
 51
179.99996402782131
  0
ARC
  5
12B
100
AcDbEntity
  8
0
  6
CONTINUOUS
 62
               4
100
AcDbCircle
 10
30.0
 20
11.299995422363281
 30
0.0
 40
2.0
100
AcDbArc
 50
359.99994535848663
 51
89.999927372397295
  0
CIRCLE
  5
12C
100
AcDbEntity
  8
0
  6
CONTINUOUS
 62
               4
100
AcDbCircle
 10
26.0
 20
7.4999923706054687
 30
0.0
 40
2.75
  0
CIRCLE
  5
12D
100
AcDbEntity
  8
0
  6
CONTINUOUS
 62
               4
100
AcDbCircle
 10
-26.000015258789063
 20
7.4999923706054687
 30
0.0
 40
2.75
  0
LINE
  5
12E
100
AcDbEntity
  8
0
  6
CENTER
 62
             200
100
AcDbLine
 10
-26.000015258789063
 20
11.792030334472656
 30
0.0
 11
-26.000015258789063
 21
2.1066818237304687
 31
0.0
  0
LINE
  5
12F
100
AcDbEntity
  8
0
  6
CONTINUOUS
 62
               4
100
AcDbLine
 10
20.0
 20
0.0
 30
0.0
 11
20.0
 21
-3.2000045776367187
 31
0.0
  0
LINE
  5
130
100
AcDbEntity
  8
0
  6
CENTER
 62
             200
100
AcDbLine
 10
-20.68829345703125
 20
7.4999923706054687
 30
0.0
 11
-30.567337036132813
 21
7.4999923706054687
 31
0.0
  0
LINE
  5
131
100
AcDbEntity
  8
0
  6
CENTER
 62
             200
100
AcDbLine
 10
26.0
 20
12.373146057128906
 30
0.0
 11
26.0
 21
2.1066818237304687
 31
0.0
  0
LINE
  5
132
100
AcDbEntity
  8
0
  6
CENTER
 62
             200
100
AcDbLine
 10
20.68829345703125
 20
7.4999923706054687
 30
0.0
 11
30.567352294921875
 21
7.4999923706054687
 31
0.0
  0
LINE
  5
133
100
AcDbEntity
  8
0
  6
CENTER
 62
             200
100
AcDbLine
 10
-14.0
 20
2.4878005981445312
 30
0.0
 11
-14.0
 21
-5.4541854858398437
 31
0.0
  0
LINE
  5
134
100
AcDbEntity
  8
0
  6
CONTINUOUS
 62
               4
100
AcDbLine
 10
-20.0
 20
0.0
 30
0.0
 11
-20.0
 21
-3.2000045776367187
 31
0.0
  0
LINE
  5
135
100
AcDbEntity
  8
0
  6
CENTER
 62
             200
100
AcDbLine
 10
14.0
 20
2.4878005981445312
 30
0.0
 11
14.0
 21
-5.4541854858398437
 31
0.0
  0
LINE
  5
136
100
AcDbEntity
  8
0
  6
CONTINUOUS
 62
               4
100
AcDbLine
 10
-15.0
 20
5.7999954223632812
 30
0.0
 11
15.0
 21
5.7999954223632812
 31
0.0
  0
LINE
  5
137
100
AcDbEntity
  8
0
  6
CONTINUOUS
 62
               4
100
AcDbLine
 10
-15.0
 20
12.799995422363281
 30
0.0
 11
-15.0
 21
5.7999954223632812
 31
0.0
  0
LINE
  5
138
100
AcDbEntity
  8
0
  6
CONTINUOUS
 62
               4
100
AcDbLine
 10
15.0
 20
12.799995422363281
 30
0.0
 11
15.0
 21
5.7999954223632812
 31
0.0
  0
LINE
  5
139
100
AcDbEntity
  8
0
  6
CONTINUOUS
 62
               4
100
AcDbLine
 10
-32.000015258789063
 20
11.299995422363281
 30
0.0
 11
-32.000015258789063
 21
-3.2000045776367187
 31
0.0
  0
LINE
  5
13A
100
AcDbEntity
  8
0
  6
CONTINUOUS
 62
               4
100
AcDbLine
 10
32.0
 20
11.299995422363281
 30
0.0
 11
32.0
 21
-3.2000045776367187
 31
0.0
  0
LINE
  5
13B
100
AcDbEntity
  8
0
  6
CONTINUOUS
 62
               4
100
AcDbLine
 10
-15.0
 20
12.799995422363281
 30
0.0
 11
15.0
 21
12.799995422363281
 31
0.0
  0
LINE
  5
13C
100
AcDbEntity
  8
0
  6
CONTINUOUS
 62
               4
100
AcDbLine
 10
-32.000015258789063
 20
0.0
 30
0.0
 11
32.0
 21
0.0
 31
0.0
  0
LINE
  5
13D
100
AcDbEntity
  8
0
  6
CONTINUOUS
 62
               4
100
AcDbLine
 10
-32.000015258789063
 20
-3.2000045776367187
 30
0.0
 11
32.0
 21
-3.2000045776367187
 31
0.0
  0
LINE
  5
13E
100
AcDbEntity
  8
0
  6
CONTINUOUS
 62
               4
100
AcDbLine
 10
-30.000015258789063
 20
13.299995422363281
 30
0.0
 11
30.0
 21
13.299995422363281
 31
0.0
  0
LINE
  5
13F
100
AcDbEntity
  8
0
  6
CENTER
 62
             200
100
AcDbLine
 10
0.0
 20
16.822113037109375
 30
0.0
 11
0.0
 21
-8.1660842895507813
 31
0.0
  0
ENDBLK
  5
140
100
AcDbEntity
  8
0
100
AcDbBlockEnd
  0
BLOCK
  5
141
100
AcDbEntity
  8
0
100
AcDbBlockBegin
  2
JIG-C_FOOT1-13
 70
               0
 10
0.0
 20
0.0
 30
0.0
  3
JIG-C_FOOT1-13
  1

  0
CIRCLE
  5
142
100
AcDbEntity
  8
0
  6
CONTINUOUS
 62
               4
100
AcDbCircle
 10
-16.999996185302734
 20
-17.0
 30
0.0
 40
3.2999999523162842
  0
CIRCLE
  5
143
100
AcDbEntity
  8
0
  6
CONTINUOUS
 62
               4
100
AcDbCircle
 10
17.0
 20
-17.0
 30
0.0
 40
3.2999999523162842
  0
LINE
  5
144
100
AcDbEntity
  8
0
  6
CENTER
 62
             200
100
AcDbLine
 10
-16.999996185302734
 20
-21.258026123046875
 30
0.0
 11
-16.999996185302734
 21
-12.347503662109375
 31
0.0
  0
LINE
  5
145
100
AcDbEntity
  8
0
  6
CENTER
 62
             200
100
AcDbLine
 10
-12.102264404296875
 20
-17.0
 30
0.0
 11
-21.787609100341797
 21
-17.0
 31
0.0
  0
LINE
  5
146
100
AcDbEntity
  8
0
  6
CENTER
 62
             200
100
AcDbLine
 10
-27.999996185302734
 20
-31.743377685546875
 30
0.0
 11
-27.999996185302734
 21
-24.963623046875
 31
0.0
  0
LINE
  5
147
100
AcDbEntity
  8
0
  6
CENTER
 62
             200
100
AcDbLine
 10
0.0
 20
-33.680435180664063
 30
0.0
 11
0.0
 21
-7.142578125
 31
0.0
  0
LINE
  5
148
100
AcDbEntity
  8
0
  6
CENTER
 62
             200
100
AcDbLine
 10
17.0
 20
-21.258026123046875
 30
0.0
 11
17.0
 21
-12.347503662109375
 31
0.0
  0
LINE
  5
149
100
AcDbEntity
  8
0
  6
CENTER
 62
             200
100
AcDbLine
 10
12.102256774902344
 20
-17.0
 30
0.0
 11
21.787607192993164
 21
-17.0
 31
0.0
  0
LINE
  5
14A
100
AcDbEntity
  8
0
  6
CONTINUOUS
 62
               4
100
AcDbLine
 10
21.999991857534724
 20
-11.000022902860763
 30
0.0
 11
33.999997449335524
 21
-22.800027281302135
 31
0.0
  0
LINE
  5
14B
100
AcDbEntity
  8
0
  6
CONTINUOUS
 62
               4
100
AcDbLine
 10
-21.999994107175553
 20
-11.000009733674915
 30
0.0
 11
-33.999999698976353
 21
-22.800014112116287
 31
0.0
  0
LINE
  5
14C
100
AcDbEntity
  8
0
  6
CONTINUOUS
 62
               4
100
AcDbLine
 10
-21.999996185302734
 20
-11.0
 30
0.0
 11
21.999998092651367
 21
-11.0
 31
0.0
  0
LINE
  5
14D
100
AcDbEntity
  8
0
  6
DASHED
 62
             200
100
AcDbLine
 10
-19.999996185302734
 20
-26.800003051757813
 30
0.0
 11
-19.999996185302734
 21
-22.0
 31
0.0
  0
LINE
  5
14E
100
AcDbEntity
  8
0
  6
DASHED
 62
             200
100
AcDbLine
 10
19.999998092651367
 20
-26.800003051757813
 30
0.0
 11
19.999998092651367
 21
-22.0
 31
0.0
  0
LINE
  5
14F
100
AcDbEntity
  8
0
  6
DASHED
 62
             200
100
AcDbLine
 10
-19.999996185302734
 20
-22.0
 30
0.0
 11
19.999998092651367
 21
-22.0
 31
0.0
  0
LINE
  5
150
100
AcDbEntity
  8
0
  6
DASHED
 62
             200
100
AcDbLine
 10
-33.999996185302734
 20
-26.800003051757813
 30
0.0
 11
34.0
 21
-26.800003051757813
 31
0.0
  0
LINE
  5
151
100
AcDbEntity
  8
0
  6
CENTER
 62
             200
100
AcDbLine
 10
27.999998092651367
 20
-31.743377685546875
 30
0.0
 11
27.999998092651367
 21
-24.963623046875
 31
0.0
  0
LINE
  5
152
100
AcDbEntity
  8
0
  6
CONTINUOUS
 62
               4
100
AcDbLine
 10
34.0
 20
-30.0
 30
0.0
 11
34.0
 21
-22.800003051757813
 31
0.0
  0
LINE
  5
153
100
AcDbEntity
  8
0
  6
CONTINUOUS
 62
               4
100
AcDbLine
 10
-33.999996185302734
 20
-30.0
 30
0.0
 11
34.0
 21
-30.0
 31
0.0
  0
LINE
  5
154
100
AcDbEntity
  8
0
  6
CONTINUOUS
 62
               4
100
AcDbLine
 10
-33.999996185302734
 20
-30.0
 30
0.0
 11
-33.999996185302734
 21
-22.800003051757813
 31
0.0
  0
ENDBLK
  5
155
100
AcDbEntity
  8
0
100
AcDbBlockEnd
  0
BLOCK
  5
156
100
AcDbEntity
  8
0
100
AcDbBlockBegin
  2
JIG-C_FOOT1-14
 70
               0
 10
0.0
 20
0.0
 30
0.0
  3
JIG-C_FOOT1-14
  1

  0
ARC
  5
157
100
AcDbEntity
  8
0
  6
CONTINUOUS
 62
               4
100
AcDbCircle
 10
2.0
 20
-24.800003051757813
 30
0.0
 40
2.0
100
AcDbArc
 50
180.00003597217869
 51
270.00001798608935
  0
ARC
  5
158
100
AcDbEntity
  8
0
  6
CONTINUOUS
 62
               4
100
AcDbCircle
 10
1.8000030517578125
 20
-25.0
 30
0.0
 40
5.0
100
AcDbArc
 50
180.00003597217869
 51
270.00001798608935
  0
LINE
  5
159
100
AcDbEntity
  8
0
  6
CONTINUOUS
 62
               4
100
AcDbLine
 10
0.0
 20
-22.800003051757813
 30
0.0
 11
-3.1999969482421875
 21
-22.800003051757813
 31
0.0
  0
LINE
  5
15A
100
AcDbEntity
  8
0
  6
CONTINUOUS
 62
               4
100
AcDbLine
 10
6.3000030517578125
 20
-26.800003051757813
 30
0.0
 11
6.3000030517578125
 21
-22.0
 31
0.0
  0
LINE
  5
15B
100
AcDbEntity
  8
0
  6
CONTINUOUS
 62
               4
100
AcDbLine
 10
13.300003051757813
 20
-22.0
 30
0.0
 11
6.3000030517578125
 21
-22.0
 31
0.0
  0
LINE
  5
15C
100
AcDbEntity
  8
0
  6
CONTINUOUS
 62
               4
100
AcDbLine
 10
13.300003051757813
 20
-26.800003051757813
 30
0.0
 11
13.300003051757813
 21
-22.0
 31
0.0
  0
LINE
  5
15D
100
AcDbEntity
  8
0
  6
CENTER
 62
             200
100
AcDbLine
 10
8.0000030517578118
 20
-31.549652099609375
 30
0.0
 11
8.0000030517578118
 21
-25.351043701171875
 31
0.0
  0
LINE
  5
15E
100
AcDbEntity
  8
0
  6
CENTER
 62
             200
100
AcDbLine
 10
2.7115097045898438
 20
-17.0
 30
0.0
 11
-5.2304763793945312
 21
-17.0
 31
0.0
  0
LINE
  5
15F
100
AcDbEntity
  8
0
  6
CONTINUOUS
 62
               4
100
AcDbLine
 10
0.0
 20
-11.0
 30
0.0
 11
-3.1999969482421875
 21
-11.0
 31
0.0
  0
LINE
  5
160
100
AcDbEntity
  8
0
  6
CONTINUOUS
 62
               4
100
AcDbLine
 10
13.800003051757812
 20
-30.0
 30
0.0
 11
13.800003051757812
 21
-26.800003051757813
 31
0.0
  0
LINE
  5
161
100
AcDbEntity
  8
0
  6
CONTINUOUS
 62
               4
100
AcDbLine
 10
13.800003051757812
 20
-26.800003051757813
 30
0.0
 11
2.0
 21
-26.800003051757813
 31
0.0
  0
LINE
  5
162
100
AcDbEntity
  8
0
  6
CONTINUOUS
 62
               4
100
AcDbLine
 10
13.800003051757812
 20
-30.0
 30
0.0
 11
1.8000030517578125
 21
-30.0
 31
0.0
  0
LINE
  5
163
100
AcDbEntity
  8
0
  6
CONTINUOUS
 62
               4
100
AcDbLine
 10
0.0
 20
-24.800003051757813
 30
0.0
 11
0.0
 21
-11.0
 31
0.0
  0
LINE
  5
164
100
AcDbEntity
  8
0
  6
CONTINUOUS
 62
               4
100
AcDbLine
 10
-3.1999969482421875
 20
-25.0
 30
0.0
 11
-3.1999969482421875
 21
-11.0
 31
0.0
  0
ENDBLK
  5
165
100
AcDbEntity
  8
0
100
AcDbBlockEnd
  0
BLOCK
  5
166
100
AcDbEntity
  8
0
100
AcDbBlockBegin
  2
JIG-C_FOOT1-15
 70
               0
 10
0.0
 20
0.0
 30
0.0
  3
JIG-C_FOOT1-15
  1

  0
CIRCLE
  5
167
100
AcDbEntity
  8
0
  6
CONTINUOUS
 62
               4
100
AcDbCircle
 10
-27.999996185302734
 20
7.9999954223632814
 30
0.0
 40
2.75
  0
CIRCLE
  5
168
100
AcDbEntity
  8
0
  6
CONTINUOUS
 62
               4
100
AcDbCircle
 10
27.999998092651367
 20
7.9999954223632814
 30
0.0
 40
2.75
  0
ARC
  5
169
100
AcDbEntity
  8
0
  6
CONTINUOUS
 62
               4
100
AcDbCircle
 10
31.499998092651367
 20
11.299995422363281
 30
0.0
 40
2.5
100
AcDbArc
 50
359.99994535848663
 51
89.999927372397295
  0
ARC
  5
16A
100
AcDbEntity
  8
0
  6
CONTINUOUS
 62
               4
100
AcDbCircle
 10
-31.499996185302734
 20
11.299995422363281
 30
0.0
 40
2.5
100
AcDbArc
 50
89.999927372397295
 51
179.99996402782131
  0
LINE
  5
16B
100
AcDbEntity
  8
0
  6
CONTINUOUS
 62
               4
100
AcDbLine
 10
-21.999996185302734
 20
0.0
 30
0.0
 11
-21.999996185302734
 21
-3.2000045776367187
 31
0.0
  0
LINE
  5
16C
100
AcDbEntity
  8
0
  6
CONTINUOUS
 62
               4
100
AcDbLine
 10
22.0
 20
0.0
 30
0.0
 11
22.0
 21
-3.2000045776367187
 31
0.0
  0
LINE
  5
16D
100
AcDbEntity
  8
0
  6
CENTER
 62
             200
100
AcDbLine
 10
-23.224681854248047
 20
7.9999954223632814
 30
0.0
 11
-32.716320037841797
 21
7.9999954223632814
 31
0.0
  0
LINE
  5
16E
100
AcDbEntity
  8
0
  6
CENTER
 62
             200
100
AcDbLine
 10
-27.999996185302734
 20
12.122904968261718
 30
0.0
 11
-27.999996185302734
 21
3.4060852050781252
 31
0.0
  0
LINE
  5
16F
100
AcDbEntity
  8
0
  6
CENTER
 62
             200
100
AcDbLine
 10
-16.999996185302734
 20
2.4312591552734375
 30
0.0
 11
-16.999996185302734
 21
-5.7044296264648437
 31
0.0
  0
LINE
  5
170
100
AcDbEntity
  8
0
  6
CENTER
 62
             200
100
AcDbLine
 10
17.0
 20
2.4312591552734375
 30
0.0
 11
17.0
 21
-5.7044296264648437
 31
0.0
  0
LINE
  5
171
100
AcDbEntity
  8
0
  6
CENTER
 62
             200
100
AcDbLine
 10
23.224676132202148
 20
7.9999954223632814
 30
0.0
 11
32.716316223144531
 21
7.9999954223632814
 31
0.0
  0
LINE
  5
172
100
AcDbEntity
  8
0
  6
CENTER
 62
             200
100
AcDbLine
 10
27.999998092651367
 20
12.122904968261718
 30
0.0
 11
27.999998092651367
 21
3.4060852050781252
 31
0.0
  0
LINE
  5
173
100
AcDbEntity
  8
0
  6
CONTINUOUS
 62
               4
100
AcDbLine
 10
-19.999996185302734
 20
13.299995422363281
 30
0.0
 11
-19.999996185302734
 21
6.2999954223632812
 31
0.0
  0
LINE
  5
174
100
AcDbEntity
  8
0
  6
CONTINUOUS
 62
               4
100
AcDbLine
 10
19.999998092651367
 20
13.299995422363281
 30
0.0
 11
19.999998092651367
 21
6.2999954223632812
 31
0.0
  0
LINE
  5
175
100
AcDbEntity
  8
0
  6
CONTINUOUS
 62
               4
100
AcDbLine
 10
-19.999996185302734
 20
6.2999954223632812
 30
0.0
 11
19.999998092651367
 21
6.2999954223632812
 31
0.0
  0
LINE
  5
176
100
AcDbEntity
  8
0
  6
CONTINUOUS
 62
               4
100
AcDbLine
 10
-19.999996185302734
 20
13.299995422363281
 30
0.0
 11
19.999998092651367
 21
13.299995422363281
 31
0.0
  0
LINE
  5
177
100
AcDbEntity
  8
0
  6
CONTINUOUS
 62
               4
100
AcDbLine
 10
34.0
 20
11.299995422363281
 30
0.0
 11
34.0
 21
-3.2000045776367187
 31
0.0
  0
LINE
  5
178
100
AcDbEntity
  8
0
  6
CONTINUOUS
 62
               4
100
AcDbLine
 10
-33.999996185302734
 20
11.299995422363281
 30
0.0
 11
-33.999996185302734
 21
-3.2000045776367187
 31
0.0
  0
LINE
  5
179
100
AcDbEntity
  8
0
  6
CONTINUOUS
 62
               4
100
AcDbLine
 10
-33.999996185302734
 20
0.0
 30
0.0
 11
34.0
 21
0.0
 31
0.0
  0
LINE
  5
17A
100
AcDbEntity
  8
0
  6
CONTINUOUS
 62
               4
100
AcDbLine
 10
-33.999996185302734
 20
-3.2000045776367187
 30
0.0
 11
34.0
 21
-3.2000045776367187
 31
0.0
  0
LINE
  5
17B
100
AcDbEntity
  8
0
  6
CONTINUOUS
 62
               4
100
AcDbLine
 10
-31.499996185302734
 20
13.799995422363281
 30
0.0
 11
31.499998092651367
 21
13.799995422363281
 31
0.0
  0
LINE
  5
17C
100
AcDbEntity
  8
0
  6
CENTER
 62
             200
100
AcDbLine
 10
0.0
 20
18.702651977539062
 30
0.0
 11
0.0
 21
-7.4477920532226563
 31
0.0
  0
ENDBLK
  5
17D
100
AcDbEntity
  8
0
100
AcDbBlockEnd
  0
BLOCK
  5
17E
100
AcDbEntity
  8
0
100
AcDbBlockBegin
  2
JIG-C_FOOT1-16
 70
               0
 10
0.0
 20
0.0
 30
0.0
  3
JIG-C_FOOT1-16
  1

  0
CIRCLE
  5
17F
100
AcDbEntity
  8
0
  6
CONTINUOUS
 62
               4
100
AcDbCircle
 10
-20.0
 20
-20.0
 30
0.0
 40
4.5
  0
CIRCLE
  5
180
100
AcDbEntity
  8
0
  6
CONTINUOUS
 62
               4
100
AcDbCircle
 10
20.0
 20
-20.0
 30
0.0
 40
4.5
  0
LINE
  5
181
100
AcDbEntity
  8
0
  6
CENTER
 62
             200
100
AcDbLine
 10
-32.0
 20
-34.743362426757812
 30
0.0
 11
-32.0
 21
-27.382492065429688
 31
0.0
  0
LINE
  5
182
100
AcDbEntity
  8
0
  6
CENTER
 62
             200
100
AcDbLine
 10
0.0
 20
-35.905609130859375
 30
0.0
 11
0.0
 21
-11.111106872558594
 31
0.0
  0
LINE
  5
183
100
AcDbEntity
  8
0
  6
CENTER
 62
             200
100
AcDbLine
 10
-20.0
 20
-26.666671752929688
 30
0.0
 11
-20.0
 21
-14.333343505859375
 31
0.0
  0
LINE
  5
184
100
AcDbEntity
  8
0
  6
CENTER
 62
             200
100
AcDbLine
 10
-14.083328247070313
 20
-20.0
 30
0.0
 11
-26.583328247070313
 21
-20.0
 31
0.0
  0
LINE
  5
185
100
AcDbEntity
  8
0
  6
CONTINUOUS
 62
               4
100
AcDbLine
 10
-25.999979786232984
 20
-14.000046229387635
 30
0.0
 11
-38.999974323595893
 21
-26.800040148149947
 31
0.0
  0
LINE
  5
186
100
AcDbEntity
  8
0
  6
CONTINUOUS
 62
               4
100
AcDbLine
 10
26.000023926052222
 20
-13.999998681327725
 30
0.0
 11
39.000019822528543
 21
-26.799993938293937
 31
0.0
  0
LINE
  5
187
100
AcDbEntity
  8
0
  6
CENTER
 62
             200
100
AcDbLine
 10
20.0
 20
-26.333343505859375
 30
0.0
 11
20.0
 21
-14.0
 31
0.0
  0
LINE
  5
188
100
AcDbEntity
  8
0
  6
CENTER
 62
             200
100
AcDbLine
 10
13.75
 20
-20.0
 30
0.0
 11
25.916671752929688
 21
-20.0
 31
0.0
  0
LINE
  5
189
100
AcDbEntity
  8
0
  6
CONTINUOUS
 62
               4
100
AcDbLine
 10
-26.0
 20
-14.0
 30
0.0
 11
26.0
 21
-14.0
 31
0.0
  0
LINE
  5
18A
100
AcDbEntity
  8
0
  6
DASHED
 62
             200
100
AcDbLine
 10
-15.0
 20
-29.800003051757813
 30
0.0
 11
-15.0
 21
-26.0
 31
0.0
  0
LINE
  5
18B
100
AcDbEntity
  8
0
  6
DASHED
 62
             200
100
AcDbLine
 10
15.0
 20
-29.800003051757813
 30
0.0
 11
15.0
 21
-26.0
 31
0.0
  0
LINE
  5
18C
100
AcDbEntity
  8
0
  6
DASHED
 62
             200
100
AcDbLine
 10
-15.0
 20
-26.0
 30
0.0
 11
15.0
 21
-26.0
 31
0.0
  0
LINE
  5
18D
100
AcDbEntity
  8
0
  6
DASHED
 62
             200
100
AcDbLine
 10
-39.0
 20
-29.800003051757813
 30
0.0
 11
39.0
 21
-29.800003051757813
 31
0.0
  0
LINE
  5
18E
100
AcDbEntity
  8
0
  6
CENTER
 62
             200
100
AcDbLine
 10
32.0
 20
-34.743362426757812
 30
0.0
 11
32.0
 21
-27.382492065429688
 31
0.0
  0
LINE
  5
18F
100
AcDbEntity
  8
0
  6
CONTINUOUS
 62
               4
100
AcDbLine
 10
39.0
 20
-33.0
 30
0.0
 11
39.0
 21
-26.800003051757813
 31
0.0
  0
LINE
  5
190
100
AcDbEntity
  8
0
  6
CONTINUOUS
 62
               4
100
AcDbLine
 10
-39.0
 20
-33.0
 30
0.0
 11
39.0
 21
-33.0
 31
0.0
  0
LINE
  5
191
100
AcDbEntity
  8
0
  6
CONTINUOUS
 62
               4
100
AcDbLine
 10
-39.0
 20
-33.0
 30
0.0
 11
-39.0
 21
-26.800003051757813
 31
0.0
  0
ENDBLK
  5
192
100
AcDbEntity
  8
0
100
AcDbBlockEnd
  0
BLOCK
  5
193
100
AcDbEntity
  8
0
100
AcDbBlockBegin
  2
JIG-C_FOOT1-17
 70
               0
 10
0.0
 20
0.0
 30
0.0
  3
JIG-C_FOOT1-17
  1

  0
ARC
  5
194
100
AcDbEntity
  8
0
  6
CONTINUOUS
 62
               4
100
AcDbCircle
 10
2.0
 20
-27.800003051757813
 30
0.0
 40
2.0
100
AcDbArc
 50
180.00003597217869
 51
270.00001798608935
  0
ARC
  5
195
100
AcDbEntity
  8
0
  6
CONTINUOUS
 62
               4
100
AcDbCircle
 10
1.8000030517578125
 20
-28.0
 30
0.0
 40
5.0
100
AcDbArc
 50
180.00003597217869
 51
270.00001798608935
  0
LINE
  5
196
100
AcDbEntity
  8
0
  6
CONTINUOUS
 62
               4
100
AcDbLine
 10
-3.1999969482421875
 20
-28.0
 30
0.0
 11
-3.1999969482421875
 21
-14.0
 31
0.0
  0
LINE
  5
197
100
AcDbEntity
  8
0
  6
CONTINUOUS
 62
               4
100
AcDbLine
 10
0.0
 20
-27.800003051757813
 30
0.0
 11
0.0
 21
-14.0
 31
0.0
  0
LINE
  5
198
100
AcDbEntity
  8
0
  6
CONTINUOUS
 62
               4
100
AcDbLine
 10
15.0
 20
-33.0
 30
0.0
 11
1.8000030517578125
 21
-33.0
 31
0.0
  0
LINE
  5
199
100
AcDbEntity
  8
0
  6
CONTINUOUS
 62
               4
100
AcDbLine
 10
15.0
 20
-29.800003051757813
 30
0.0
 11
2.0
 21
-29.800003051757813
 31
0.0
  0
LINE
  5
19A
100
AcDbEntity
  8
0
  6
CONTINUOUS
 62
               4
100
AcDbLine
 10
15.0
 20
-33.0
 30
0.0
 11
15.0
 21
-29.800003051757813
 31
0.0
  0
LINE
  5
19B
100
AcDbEntity
  8
0
  6
CONTINUOUS
 62
               4
100
AcDbLine
 10
0.0
 20
-14.0
 30
0.0
 11
-3.1999969482421875
 21
-14.0
 31
0.0
  0
LINE
  5
19C
100
AcDbEntity
  8
0
  6
CONTINUOUS
 62
               4
100
AcDbLine
 10
0.0
 20
-26.800003051757813
 30
0.0
 11
-3.1999969482421875
 21
-26.800003051757813
 31
0.0
  0
LINE
  5
19D
100
AcDbEntity
  8
0
  6
CENTER
 62
             200
100
AcDbLine
 10
2.481414794921875
 20
-20.0
 30
0.0
 11
-5.073150634765625
 21
-20.0
 31
0.0
  0
LINE
  5
19E
100
AcDbEntity
  8
0
  6
CENTER
 62
             200
100
AcDbLine
 10
8.0
 20
-34.743362426757812
 30
0.0
 11
8.0
 21
-27.769912719726562
 31
0.0
  0
LINE
  5
19F
100
AcDbEntity
  8
0
  6
CONTINUOUS
 62
               4
100
AcDbLine
 10
14.5
 20
-29.800003051757813
 30
0.0
 11
14.5
 21
-26.0
 31
0.0
  0
LINE
  5
1A0
100
AcDbEntity
  8
0
  6
CONTINUOUS
 62
               4
100
AcDbLine
 10
7.5
 20
-29.800003051757813
 30
0.0
 11
7.5
 21
-26.0
 31
0.0
  0
LINE
  5
1A1
100
AcDbEntity
  8
0
  6
CONTINUOUS
 62
               4
100
AcDbLine
 10
14.5
 20
-26.0
 30
0.0
 11
7.5
 21
-26.0
 31
0.0
  0
ENDBLK
  5
1A2
100
AcDbEntity
  8
0
100
AcDbBlockEnd
  0
BLOCK
  5
1A3
100
AcDbEntity
  8
0
100
AcDbBlockBegin
  2
JIG-C_FOOT1-18
 70
               0
 10
0.0
 20
0.0
 30
0.0
  3
JIG-C_FOOT1-18
  1

  0
ARC
  5
1A4
100
AcDbEntity
  8
0
  6
CONTINUOUS
 62
               4
100
AcDbCircle
 10
36.5
 20
12.5
 30
0.0
 40
2.5
100
AcDbArc
 50
359.99994535848663
 51
89.999927372397295
  0
ARC
  5
1A5
100
AcDbEntity
  8
0
  6
CONTINUOUS
 62
               4
100
AcDbCircle
 10
-36.5
 20
12.5
 30
0.0
 40
2.5
100
AcDbArc
 50
89.999927372397295
 51
179.99996402782131
  0
CIRCLE
  5
1A6
100
AcDbEntity
  8
0
  6
CONTINUOUS
 62
               4
100
AcDbCircle
 10
-32.0
 20
8.0
 30
0.0
 40
3.2999999523162842
  0
CIRCLE
  5
1A7
100
AcDbEntity
  8
0
  6
CONTINUOUS
 62
               4
100
AcDbCircle
 10
32.0
 20
8.0
 30
0.0
 40
3.2999999523162842
  0
LINE
  5
1A8
100
AcDbEntity
  8
0
  6
CONTINUOUS
 62
               4
100
AcDbLine
 10
26.0
 20
0.0
 30
0.0
 11
26.0
 21
-3.2000007629394531
 31
0.0
  0
LINE
  5
1A9
100
AcDbEntity
  8
0
  6
CONTINUOUS
 62
               4
100
AcDbLine
 10
-26.0
 20
0.0
 30
0.0
 11
-26.0
 21
-3.2000007629394531
 31
0.0
  0
LINE
  5
1AA
100
AcDbEntity
  8
0
  6
CENTER
 62
             200
100
AcDbLine
 10
-20.0
 20
1.2703971862792969
 30
0.0
 11
-20.0
 21
-4.9282264709472656
 31
0.0
  0
LINE
  5
1AB
100
AcDbEntity
  8
0
  6
CENTER
 62
             200
100
AcDbLine
 10
0.0
 20
18.513870239257813
 30
0.0
 11
0.0
 21
-7.0392265319824219
 31
0.0
  0
LINE
  5
1AC
100
AcDbEntity
  8
0
  6
CENTER
 62
             200
100
AcDbLine
 10
-27.441482543945313
 20
8.0
 30
0.0
 11
-36.545730590820313
 21
8.0
 31
0.0
  0
LINE
  5
1AD
100
AcDbEntity
  8
0
  6
CENTER
 62
             200
100
AcDbLine
 10
-32.0
 20
12.505401611328125
 30
0.0
 11
-32.0
 21
2.8200569152832031
 31
0.0
  0
LINE
  5
1AE
100
AcDbEntity
  8
0
  6
CENTER
 62
             200
100
AcDbLine
 10
27.441482543945313
 20
8.0
 30
0.0
 11
36.545730590820313
 21
8.0
 31
0.0
  0
LINE
  5
1AF
100
AcDbEntity
  8
0
  6
CENTER
 62
             200
100
AcDbLine
 10
32.0
 20
12.505401611328125
 30
0.0
 11
32.0
 21
2.8200569152832031
 31
0.0
  0
LINE
  5
1B0
100
AcDbEntity
  8
0
  6
CONTINUOUS
 62
               4
100
AcDbLine
 10
-15.0
 20
14.5
 30
0.0
 11
-15.0
 21
7.5
 31
0.0
  0
LINE
  5
1B1
100
AcDbEntity
  8
0
  6
CONTINUOUS
 62
               4
100
AcDbLine
 10
15.0
 20
14.5
 30
0.0
 11
15.0
 21
7.5
 31
0.0
  0
LINE
  5
1B2
100
AcDbEntity
  8
0
  6
CONTINUOUS
 62
               4
100
AcDbLine
 10
-15.0
 20
7.5
 30
0.0
 11
15.0
 21
7.5
 31
0.0
  0
LINE
  5
1B3
100
AcDbEntity
  8
0
  6
CONTINUOUS
 62
               4
100
AcDbLine
 10
-15.0
 20
14.5
 30
0.0
 11
15.0
 21
14.5
 31
0.0
  0
LINE
  5
1B4
100
AcDbEntity
  8
0
  6
CONTINUOUS
 62
               4
100
AcDbLine
 10
39.0
 20
12.5
 30
0.0
 11
39.0
 21
-3.2000007629394531
 31
0.0
  0
LINE
  5
1B5
100
AcDbEntity
  8
0
  6
CONTINUOUS
 62
               4
100
AcDbLine
 10
-39.0
 20
12.5
 30
0.0
 11
-39.0
 21
-3.2000007629394531
 31
0.0
  0
LINE
  5
1B6
100
AcDbEntity
  8
0
  6
CONTINUOUS
 62
               4
100
AcDbLine
 10
-39.0
 20
0.0
 30
0.0
 11
39.0
 21
0.0
 31
0.0
  0
LINE
  5
1B7
100
AcDbEntity
  8
0
  6
CONTINUOUS
 62
               4
100
AcDbLine
 10
-39.0
 20
-3.2000007629394531
 30
0.0
 11
39.0
 21
-3.2000007629394531
 31
0.0
  0
LINE
  5
1B8
100
AcDbEntity
  8
0
  6
CONTINUOUS
 62
               4
100
AcDbLine
 10
-36.5
 20
15.0
 30
0.0
 11
36.5
 21
15.0
 31
0.0
  0
LINE
  5
1B9
100
AcDbEntity
  8
0
  6
CENTER
 62
             200
100
AcDbLine
 10
20.0
 20
1.2703971862792969
 30
0.0
 11
20.0
 21
-4.9282264709472656
 31
0.0
  0
ENDBLK
  5
1BA
100
AcDbEntity
  8
0
100
AcDbBlockEnd
  0
ENDSEC
  0
SECTION
  2
ENTITIES
  0
INSERT
  5
1BB
100
AcDbEntity
  8
0
  6
ByBlock
100
AcDbBlockReference
  2
JIG-C_FOOT1-18
 10
144.33329772949219
 20
-60.366664886474609
 30
0.0
  0
INSERT
  5
1BC
100
AcDbEntity
  8
0
  6
ByBlock
100
AcDbBlockReference
  2
JIG-C_FOOT1-17
 10
233.33332824707031
 20
-115.86666870117187
 30
0.0
  0
INSERT
  5
1BD
100
AcDbEntity
  8
0
  6
ByBlock
100
AcDbBlockReference
  2
JIG-C_FOOT1-16
 10
144.33331298828125
 20
-115.86668395996094
 30
0.0
  0
INSERT
  5
1BE
100
AcDbEntity
  8
0
  6
ByBlock
100
AcDbBlockReference
  2
JIG-C_FOOT1-15
 10
-49.666690826416016
 20
-68.166671752929688
 30
0.0
  0
INSERT
  5
1BF
100
AcDbEntity
  8
0
  6
ByBlock
100
AcDbBlockReference
  2
JIG-C_FOOT1-14
 10
45.333328247070313
 20
-130.66665649414062
 30
0.0
  0
INSERT
  5
1C0
100
AcDbEntity
  8
0
  6
ByBlock
100
AcDbBlockReference
  2
JIG-C_FOOT1-13
 10
-49.666660308837891
 20
-130.66667175292969
 30
0.0
  0
INSERT
  5
1C1
100
AcDbEntity
  8
0
  6
ByBlock
100
AcDbBlockReference
  2
JIG-C_FOOT1-12
 10
-232.66658020019531
 20
-68.666633605957031
 30
0.0
  0
INSERT
  5
1C2
100
AcDbEntity
  8
0
  6
ByBlock
100
AcDbBlockReference
  2
JIG-C_FOOT1-11
 10
-140.66665649414062
 20
-134.16667175292969
 30
0.0
  0
INSERT
  5
1C3
100
AcDbEntity
  8
0
  6
ByBlock
100
AcDbBlockReference
  2
JIG-C_FOOT1-10
 10
-232.66665649414062
 20
-134.16665649414062
 30
0.0
  0
INSERT
  5
1C4
100
AcDbEntity
  8
0
  6
ByBlock
100
AcDbBlockReference
  2
JIG-C_FOOT1-9
 10
145.00004577636719
 20
118.66670227050781
 30
0.0
  0
INSERT
  5
1C5
100
AcDbEntity
  8
0
  6
ByBlock
100
AcDbBlockReference
  2
JIG-C_FOOT1-8
 10
234.0
 20
59.166656494140625
 30
0.0
  0
INSERT
  5
1C6
100
AcDbEntity
  8
0
  6
ByBlock
100
AcDbBlockReference
  2
JIG-C_FOOT1-7
 10
145.0
 20
59.166664123535156
 30
0.0
  0
INSERT
  5
1C7
100
AcDbEntity
  8
0
  6
ByBlock
100
AcDbBlockReference
  2
JIG-C_FOOT1-6
 10
-39.666675567626953
 20
115.50001525878906
 30
0.0
  0
INSERT
  5
1C8
100
AcDbEntity
  8
0
  6
ByBlock
100
AcDbBlockReference
  2
JIG-C_FOOT1-5
 10
38.333335876464844
 20
48.000007629394531
 30
0.0
  0
INSERT
  5
1C9
100
AcDbEntity
  8
0
  6
ByBlock
100
AcDbBlockReference
  2
JIG-C_FOOT1-4
 10
-39.666675567626953
 20
48.000007629394531
 30
0.0
  0
INSERT
  5
1CA
100
AcDbEntity
  8
0
  6
ByBlock
100
AcDbBlockReference
  2
JIG-C_FOOT1-3
 10
-222.33335876464844
 20
109.66667938232422
 30
0.0
  0
INSERT
  5
1CB
100
AcDbEntity
  8
0
  6
ByBlock
100
AcDbBlockReference
  2
JIG-C_FOOT1-2
 10
-148.37631225585937
 20
45.166645050048828
 30
0.0
  0
INSERT
  5
1CC
100
AcDbEntity
  8
0
  6
ByBlock
100
AcDbBlockReference
  2
JIG-C_FOOT1-1
 10
-222.33329772949219
 20
45.166667938232422
 30
0.0
  0
MTEXT
  5
1CD
100
AcDbEntity
  8
0
  6
CONTINUOUS
 62
               7
100
AcDbMText
 10
-257.89756208931686
 20
189.5
 30
0.0
 40
6.3000001907348633
 41
0.0
 71
               4
 72
               1
  1
\W1.098;\A1;JIG CYLINDER
  0
MTEXT
  5
1CE
100
AcDbEntity
  8
0
  6
CONTINUOUS
 62
               7
100
AcDbMText
 10
-81.819710827837085
 20
-22.666671752929687
 30
0.0
 40
6.3000001907348633
 41
0.0
 71
               4
 72
               1
  1
\W1.061;\A1;BORE 32
  0
MTEXT
  5
1CF
100
AcDbEntity
  8
0
  6
CONTINUOUS
 62
               7
100
AcDbMText
 10
108.20913985956051
 20
-22.666671752929687
 30
0.0
 40
6.3000001907348633
 41
0.0
 71
               4
 72
               1
  1
\W1.088;\A1;BORE 40
  0
MTEXT
  5
1D0
100
AcDbEntity
  8
0
  6
CONTINUOUS
 62
               7
100
AcDbMText
 10
104.20913985956051
 20
157.33332824707031
 30
0.0
 40
6.3000001907348633
 41
0.0
 71
               4
 72
               1
  1
\W1.088;\A1;BORE 20
  0
MTEXT
  5
1D1
100
AcDbEntity
  8
0
  6
CONTINUOUS
 62
               7
100
AcDbMText
 10
-83.760474852973076
 20
157.33332824707031
 30
0.0
 40
6.3000001907348633
 41
0.0
 71
               4
 72
               1
  1
\W1.117;\A1;BORE 16
  0
MTEXT
  5
1D2
100
AcDbEntity
  8
0
  6
CONTINUOUS
 62
               7
100
AcDbMText
 10
-262.54380004828556
 20
157.33332824707031
 30
0.0
 40
6.3000001907348633
 41
0.0
 71
               4
 72
               1
  1
\W1.117;\A1;BORE 12
  0
MTEXT
  5
1D3
100
AcDbEntity
  8
0
  6
CONTINUOUS
 62
               7
100
AcDbMText
 10
-263.81971082783707
 20
-22.666671752929687
 30
0.0
 40
6.3000001907348633
 41
0.0
 71
               4
 72
               1
  1
\W1.061;\A1;BORE 25
  0
MTEXT
  5
1D4
100
AcDbEntity
  8
0
  6
CONTINUOUS
 62
               7
100
AcDbMText
 10
-232.80000034968057
 20
181.5
 30
0.0
 40
6.3000001907348633
 41
0.0
 71
               4
 72
               1
  1
\A1;FOOT
  0
MTEXT
  5
1D5
100
AcDbEntity
  8
0
  6
CONTINUOUS
 62
               7
100
AcDbMText
 10
170.28101006437726
 20
-185.0
 30
0.0
 40
9.0
 41
0.0
 71
               4
 72
               1
  1
\W1.121;\A1;KOGANEI CORP.
  0
MTEXT
  5
1D6
100
AcDbEntity
  8
0
  6
CONTINUOUS
 62
               7
100
AcDbMText
 10
198.31570517923507
 20
185.5
 30
0.0
 40
6.3000001907348633
 41
0.0
 71
               4
 72
               1
  1
\W1.348;\A1;Ver. 1.1
  0
LINE
  5
1D7
100
AcDbEntity
  8
0
  6
CONTINUOUS
 62
               7
100
AcDbLine
 10
94.316650390625
 20
195.5
 30
0.0
 11
94.316650390625
 21
-195.0
 31
0.0
  0
LINE
  5
1D8
100
AcDbEntity
  8
0
  6
CONTINUOUS
 62
               7
100
AcDbLine
 10
-93.4666748046875
 20
195.5
 30
0.0
 11
-93.4666748046875
 21
-195.0
 31
0.0
  0
LINE
  5
1D9
100
AcDbEntity
  8
0
  6
CONTINUOUS
 62
               7
100
AcDbLine
 10
-281.25
 20
0.25
 30
0.0
 11
282.0999755859375
 21
0.25
 31
0.0
  0
LINE
  5
1DA
100
AcDbEntity
  8
0
  6
CONTINUOUS
 62
               7
100
AcDbLine
 10
-161.25
 20
195.5
 30
0.0
 11
-161.25
 21
175.5
 31
0.0
  0
LINE
  5
1DB
100
AcDbEntity
  8
0
  6
CONTINUOUS
 62
               7
100
AcDbLine
 10
162.0999755859375
 20
195.5
 30
0.0
 11
162.0999755859375
 21
175.5
 31
0.0
  0
LINE
  5
1DC
100
AcDbEntity
  8
0
  6
CONTINUOUS
 62
               7
100
AcDbLine
 10
-281.25
 20
175.5
 30
0.0
 11
-161.25
 21
175.5
 31
0.0
  0
LINE
  5
1DD
100
AcDbEntity
  8
0
  6
CONTINUOUS
 62
               7
100
AcDbLine
 10
162.0999755859375
 20
175.5
 30
0.0
 11
282.0999755859375
 21
175.5
 31
0.0
  0
LINE
  5
1DE
100
AcDbEntity
  8
0
  6
CONTINUOUS
 62
               7
100
AcDbLine
 10
162.0999755859375
 20
-175.0
 30
0.0
 11
282.0999755859375
 21
-175.0
 31
0.0
  0
LINE
  5
1DF
100
AcDbEntity
  8
0
  6
CONTINUOUS
 62
               7
100
AcDbLine
 10
162.0999755859375
 20
-175.0
 30
0.0
 11
162.0999755859375
 21
-195.0
 31
0.0
  0
LINE
  5
1E0
100
AcDbEntity
  8
0
  6
CONTINUOUS
 62
               7
100
AcDbLine
 10
-281.25
 20
-195.0
 30
0.0
 11
282.0999755859375
 21
-195.0
 31
0.0
  0
LINE
  5
1E1
100
AcDbEntity
  8
0
  6
CONTINUOUS
 62
               7
100
AcDbLine
 10
282.0999755859375
 20
195.5
 30
0.0
 11
282.0999755859375
 21
-195.0
 31
0.0
  0
LINE
  5
1E2
100
AcDbEntity
  8
0
  6
CONTINUOUS
 62
               7
100
AcDbLine
 10
-281.25
 20
195.5
 30
0.0
 11
-281.25
 21
-195.0
 31
0.0
  0
LINE
  5
1E3
100
AcDbEntity
  8
0
  6
CONTINUOUS
 62
               7
100
AcDbLine
 10
-281.25
 20
195.5
 30
0.0
 11
282.0999755859375
 21
195.5
 31
0.0
  0
ENDSEC
  0
SECTION
  2
OBJECTS
  0
DICTIONARY
  5
19
100
AcDbDictionary
  3
ACAD_GROUP
350
1A
  3
ACAD_MLINESTYLE
350
1B
  0
DICTIONARY
  5
1A
102
{ACAD_REACTORS
330
19
102
}
100
AcDbDictionary
  0
DICTIONARY
  5
1B
102
{ACAD_REACTORS
330
19
102
}
100
AcDbDictionary
  3
STANDARD
350
1C
  0
MLINESTYLE
  5
1C
102
{ACAD_REACTORS
330
1B
102
}
100
AcDbMlineStyle
  2
Standard
 70
               0
  3

 62
               0
 51
90.0
 52
90.0
 71
               2
 49
0.5
 62
             256
  6
ByLayer
 49
-0.5
 62
             256
  6
ByLayer
  0
ENDSEC
  0
EOF
