  0
SECTION
  2
HEADER
  9
$ACADVER
  1
AC1012
  9
$DWGCODEPAGE
  3
dos932
  9
$INSBASE
 10
0.0
 20
0.0
 30
0.0
  9
$EXTMIN
 10
-281.25
 20
-195.0
 30
0.0
  9
$EXTMAX
 10
285.5999755859375
 20
195.5
 30
0.0
  9
$LIMMIN
 10
-281.25
 20
-195.0
  9
$LIMMAX
 10
285.5999755859375
 20
195.5
  9
$ORTHOMODE
 70
               0
  9
$REGENMODE
 70
               1
  9
$FILLMODE
 70
               1
  9
$QTEXTMODE
 70
               0
  9
$MIRRTEXT
 70
               1
  9
$DRAGMODE
 70
               2
  9
$LTSCALE
 40
1.0
  9
$OSMODE
 70
               0
  9
$ATTMODE
 70
               1
  9
$TEXTSIZE
 40
3.2000000476837158
  9
$TRACEWID
 40
0.05
  9
$TEXTSTYLE
  7
MX_NOTE_STANDARD
  9
$CLAYER
  8
0
  9
$CELTYPE
  6
CONTINUOUS
  9
$CECOLOR
 62
             256
  9
$CELTSCALE
 40
1.0
  9
$DELOBJ
 70
               1
  9
$DISPSILH
 70
               0
  9
$DIMSCALE
 40
1.0
  9
$DIMASZ
 40
2.5
  9
$DIMEXO
 40
1.5
  9
$DIMDLI
 40
3.75
  9
$DIMRND
 40
0.0
  9
$DIMDLE
 40
0.0
  9
$DIMEXE
 40
1.5
  9
$DIMTP
 40
0.0
  9
$DIMTM
 40
0.0
  9
$DIMTXT
 40
3.2000000476837158
  9
$DIMCEN
 40
2.5
  9
$DIMTSZ
 40
0.0
  9
$DIMTOL
 70
               0
  9
$DIMLIM
 70
               0
  9
$DIMTIH
 70
               0
  9
$DIMTOH
 70
               0
  9
$DIMSE1
 70
               0
  9
$DIMSE2
 70
               0
  9
$DIMTAD
 70
               1
  9
$DIMZIN
 70
               8
  9
$DIMBLK
  1

  9
$DIMASO
 70
               1
  9
$DIMSHO
 70
               1
  9
$DIMPOST
  1

  9
$DIMAPOST
  1

  9
$DIMALT
 70
               0
  9
$DIMALTD
 70
               4
  9
$DIMALTF
 40
0.03937007874016
  9
$DIMLFAC
 40
1.0
  9
$DIMTOFL
 70
               1
  9
$DIMTVP
 40
0.0
  9
$DIMTIX
 70
               0
  9
$DIMSOXD
 70
               0
  9
$DIMSAH
 70
               0
  9
$DIMBLK1
  1

  9
$DIMBLK2
  1

  9
$DIMSTYLE
  2
MXDIMSTYLE
  9
$DIMCLRD
 70
               0
  9
$DIMCLRE
 70
               0
  9
$DIMCLRT
 70
               0
  9
$DIMTFAC
 40
1.0
  9
$DIMGAP
 40
1.0
  9
$DIMJUST
 70
               0
  9
$DIMSD1
 70
               0
  9
$DIMSD2
 70
               0
  9
$DIMTOLJ
 70
               1
  9
$DIMTZIN
 70
               0
  9
$DIMALTZ
 70
               0
  9
$DIMALTTZ
 70
               0
  9
$DIMFIT
 70
               3
  9
$DIMUPT
 70
               1
  9
$DIMUNIT
 70
               2
  9
$DIMDEC
 70
               4
  9
$DIMTDEC
 70
               4
  9
$DIMALTU
 70
               2
  9
$DIMALTTD
 70
               4
  9
$DIMTXSTY
  7
MX_NOTE_STANDARD
  9
$DIMAUNIT
 70
               0
  9
$LUNITS
 70
               2
  9
$LUPREC
 70
               4
  9
$SKETCHINC
 40
0.1
  9
$FILLETRAD
 40
0.0
  9
$AUNITS
 70
               0
  9
$AUPREC
 70
               0
  9
$MENU
  1
acad
  9
$ELEVATION
 40
0.0
  9
$PELEVATION
 40
0.0
  9
$THICKNESS
 40
0.0
  9
$LIMCHECK
 70
               0
  9
$BLIPMODE
 70
               1
  9
$CHAMFERA
 40
0.0
  9
$CHAMFERB
 40
0.0
  9
$CHAMFERC
 40
0.0
  9
$CHAMFERD
 40
0.0
  9
$SKPOLY
 70
               0
  9
$TDCREATE
 40
2453446.620173611
  9
$TDUPDATE
 40
2453446.620173611
  9
$TDINDWG
 40
0.0000000000
  9
$TDUSRTIMER
 40
0.0000000000
  9
$USRTIMER
 70
               1
  9
$ANGBASE
 50
0.0
  9
$ANGDIR
 70
               0
  9
$PDMODE
 70
               0
  9
$PDSIZE
 40
0.0
  9
$PLINEWID
 40
0.0
  9
$COORDS
 70
               1
  9
$SPLFRAME
 70
               0
  9
$SPLINETYPE
 70
               6
  9
$SPLINESEGS
 70
               8
  9
$ATTDIA
 70
               0
  9
$ATTREQ
 70
               1
  9
$HANDLING
 70
               1
  9
$HANDSEED
  5
14A
  9
$SURFTAB1
 70
               6
  9
$SURFTAB2
 70
               6
  9
$SURFTYPE
 70
               6
  9
$SURFU
 70
               6
  9
$SURFV
 70
               6
  9
$UCSNAME
  2

  9
$UCSORG
 10
0.0
 20
0.0
 30
0.0
  9
$UCSXDIR
 10
1.0
 20
0.0
 30
0.0
  9
$UCSYDIR
 10
0.0
 20
1.0
 30
0.0
  9
$PUCSNAME
  2

  9
$PUCSORG
 10
0.0
 20
0.0
 30
0.0
  9
$PUCSXDIR
 10
1.0
 20
0.0
 30
0.0
  9
$PUCSYDIR
 10
0.0
 20
1.0
 30
0.0
  9
$USERI1
 70
               0
  9
$USERI2
 70
               0
  9
$USERI3
 70
               0
  9
$USERI4
 70
               0
  9
$USERI5
 70
               0
  9
$USERR1
 40
0.0
  9
$USERR2
 40
0.0
  9
$USERR3
 40
0.0
  9
$USERR4
 40
0.0
  9
$USERR5
 40
0.0
  9
$WORLDVIEW
 70
               1
  9
$SHADEDGE
 70
               3
  9
$SHADEDIF
 70
              70
  9
$TILEMODE
 70
               1
  9
$MAXACTVP
 70
              16
  9
$PINSBASE
 10
0.0
 20
0.0
 30
0.0
  9
$PLIMCHECK
 70
               0
  9
$PEXTMIN
 10
1.0000000000000000E+20
 20
1.0000000000000000E+20
 30
1.0000000000000000E+20
  9
$PEXTMAX
 10
-1.0000000000000000E+20
 20
-1.0000000000000000E+20
 30
-1.0000000000000000E+20
  9
$PLIMMIN
 10
0.0
 20
0.0
  9
$PLIMMAX
 10
12.0
 20
9.0
  9
$UNITMODE
 70
               0
  9
$VISRETAIN
 70
               0
  9
$PLINEGEN
 70
               1
  9
$PSLTSCALE
 70
               0
  9
$TREEDEPTH
 70
            3020
  9
$PICKSTYLE
 70
               1
  9
$CMLSTYLE
  2
Standard
  9
$CMLJUST
 70
               0
  9
$CMLSCALE
 40
1.0
  9
$SAVEIMAGES
 70
               0
  0
ENDSEC
  0
SECTION
  2
CLASSES
  0
CLASS
  1
LWPOLYLINE
  2
AcDbPolyline
  3
"AutoCAD"
 90
        0
280
               0
281
               1
  0
CLASS
  1
IMAGE
  2
AcDbRasterImage
  3
ISM
 90
      127
280
               0
281
               1
  0
CLASS
  1
OLE2FRAME
  2
AcDbOle2Frame
  3
""
 90
        0
280
               0
281
               1
  0
CLASS
  1
HATCH
  2
AcDbHatch
  3
"ACAD_SEDONA"
 90
        0
280
               0
281
               1
  0
CLASS
  1
DICTIONARYVAR
  2
AcDbDictionaryVar
  3
"AutoCAD"
 90
        0
280
               0
281
               0
  0
CLASS
  1
RASTERVARIABLES
  2
AcDbRasterVariables
  3
ISM
 90
        0
280
               0
281
               0
  0
CLASS
  1
IMAGEDEF
  2
AcDbRasterImageDef
  3
ISM
 90
        0
280
               0
281
               0
  0
CLASS
  1
IMAGEDEF_REACTOR
  2
AcDbRasterImageDefReactor
  3
ISM
 90
        1
280
               0
281
               0
  0
CLASS
  1
IDBUFFER
  2
AcDbIdBuffer
  3
"Acad"
 90
        0
280
               0
281
               0
  0
CLASS
  1
SPATIAL_FILTER
  2
AcDbSpatialFilter
  3
"Acad"
 90
        0
280
               0
281
               0
  0
CLASS
  1
XRECORD
  2
AcDbXrecord
  3
"<Built In>"
 90
        0
280
               0
281
               0
  0
CLASS
  1
SORTENTSTABLE
  2
AcDbSortentsTable
  3
"AutoCAD"
 90
        0
280
               0
281
               0
  0
CLASS
  1
LAYER_INDEX
  2
AcDbLayerIndex
  3
"Acad"
 90
        0
280
               0
281
               0
  0
CLASS
  1
SPATIAL_INDEX
  2
AcDbSpatialIndex
  3
"Acad"
 90
        0
280
               0
281
               0
  0
CLASS
  1
OBJECT_PTR
  2
CAseDLPNTableRecord
  3
"ASE-LPNTableRecord"
 90
        1
280
               0
281
               0
  0
CLASS
  1
LAYOUT
  2
AcDbLayout
  3
"AutoCAD 2000"
 90
        1
280
               0
281
               0
  0
CLASS
  1
PLOTSETTINGS
  2
AcDbPlotSettings
  3
"AutoCAD 2000"
 90
        1
280
               0
281
               0
  0
CLASS
  1
ACDBDICTIONARYWDFLT
  2
AcDbDictionaryWithDefault
  3
"AutoCAD 2000"
 90
        1
280
               0
281
               0
  0
CLASS
  1
ACDBPLACEHOLDER
  2
AcDbPlaceHolder
  3
"AutoCAD 2000"
 90
        1
280
               0
281
               0
  0
ENDSEC
  0
SECTION
  2
TABLES
  0
TABLE
  2
VPORT
  5
7
100
AcDbSymbolTable
 70
               1
  0
VPORT
  5
15
100
AcDbSymbolTableRecord
100
AcDbViewportTableRecord
  2
*ACTIVE
 70
               0
 10
0.0
 20
0.0
 11
1.0
 21
1.0
 12
2.17498779296875
 22
0.25
 13
0.0
 23
0.0
 14
1.0
 24
1.0
 15
0.0
 25
0.0
 16
0.0
 26
0.0
 36
1.0
 17
0.0
 27
0.0
 37
0.0
 40
394.40500000000003
 41
1.7320508075688772
 42
50.0
 43
0.0
 44
0.0
 50
0.0
 51
0.0
 71
               0
 72
             100
 73
               1
 74
               1
 75
               0
 76
               0
 77
               0
 78
               0
  0
ENDTAB
  0
TABLE
  2
LTYPE
  5
4
100
AcDbSymbolTable
 70
               5
  0
LTYPE
  5
11
100
AcDbSymbolTableRecord
100
AcDbLinetypeTableRecord
  2
BYBLOCK
 70
              64
  3

 72
              65
 73
               0
 40
0.0
  0
LTYPE
  5
12
100
AcDbSymbolTableRecord
100
AcDbLinetypeTableRecord
  2
BYLAYER
 70
              64
  3

 72
              65
 73
               0
 40
0.0
  0
LTYPE
  5
13
100
AcDbSymbolTableRecord
100
AcDbLinetypeTableRecord
  2
CONTINUOUS
 70
              64
  3
Solid line
 72
              65
 73
               0
 40
0.0
  0
LTYPE
  5
2D
100
AcDbSymbolTableRecord
100
AcDbLinetypeTableRecord
  2
CENTER
 70
              64
  3
Center ____ _ ____ _ ____ _ ____ _ ____ _ ____
 72
              65
 73
               4
 40
26.0
 49
20.0
 74
               0
 49
-2.0
 74
               0
 49
2.0
 74
               0
 49
-2.0
 74
               0
  0
LTYPE
  5
3B
100
AcDbSymbolTableRecord
100
AcDbLinetypeTableRecord
  2
DASHED
 70
              64
  3
Dashed __ __ __ __ __ __ __ __ __ __ __ __ __ _
 72
              65
 73
               2
 40
4.0
 49
2.0
 74
               0
 49
-2.0
 74
               0
  0
ENDTAB
  0
TABLE
  2
LAYER
  5
2
100
AcDbSymbolTable
 70
               2
  0
LAYER
  5
14
100
AcDbSymbolTableRecord
100
AcDbLayerTableRecord
  2
0
 70
               0
 62
               7
  6
CONTINUOUS
  0
LAYER
  5
1D
100
AcDbSymbolTableRecord
100
AcDbLayerTableRecord
  2
DEFPOINTS
 70
               0
 62
               7
  6
CONTINUOUS
  0
ENDTAB
  0
TABLE
  2
STYLE
  5
3
100
AcDbSymbolTable
 70
               1
  0
STYLE
  5
17
100
AcDbSymbolTableRecord
100
AcDbTextStyleTableRecord
  2
MX_NOTE_STANDARD
 70
               0
 40
0.0
 41
1.0
 50
0.0
 71
               0
 42
3.2000000476837158
  3
txt.shx
  4
extfont.shx
  0
ENDTAB
  0
TABLE
  2
VIEW
  5
5
100
AcDbSymbolTable
 70
               0
  0
ENDTAB
  0
TABLE
  2
UCS
  5
6
100
AcDbSymbolTable
 70
               0
  0
ENDTAB
  0
TABLE
  2
APPID
  5
8
100
AcDbSymbolTable
 70
               1
  0
APPID
  5
16
100
AcDbSymbolTableRecord
100
AcDbRegAppTableRecord
  2
ACAD
 70
               0
  0
ENDTAB
  0
TABLE
  2
DIMSTYLE
  5
9
100
AcDbSymbolTable
 70
               1
  0
DIMSTYLE
105
18
100
AcDbSymbolTableRecord
100
AcDbDimStyleTableRecord
  2
MXDIMSTYLE
 70
               0
  3

  4

  5

  6

  7

 40
1.0
 41
2.5
 42
1.5
 43
3.75
 44
1.5
 45
0.0
 46
0.0
 47
0.0
 48
0.0
 71
               0
 72
               0
 73
               0
 74
               0
 75
               0
 76
               0
 77
               1
 78
               8
140
3.2000000476837158
141
2.5
142
0.0
143
0.03937007874016
144
1.0
145
0.0
146
1.0
147
1.0
170
               0
171
               4
172
               1
173
               0
174
               0
175
               0
176
               0
177
               0
178
               0
270
               2
271
               4
272
               4
273
               2
274
               4
275
               0
280
               0
281
               0
282
               0
283
               1
284
               0
285
               0
286
               0
287
               3
288
               1
340
17
  0
ENDTAB
  0
TABLE
  2
BLOCK_RECORD
  5
1
100
AcDbSymbolTable
 70
              12
  0
BLOCK_RECORD
  5
A
100
AcDbSymbolTableRecord
100
AcDbBlockTableRecord
  2
*MODEL_SPACE
  0
BLOCK_RECORD
  5
B
100
AcDbSymbolTableRecord
100
AcDbBlockTableRecord
  2
*PAPER_SPACE
  0
BLOCK_RECORD
  5
1E
100
AcDbSymbolTableRecord
100
AcDbBlockTableRecord
  2
JIG-C_FOOT2-1
  0
BLOCK_RECORD
  5
1F
100
AcDbSymbolTableRecord
100
AcDbBlockTableRecord
  2
JIG-C_FOOT2-2
  0
BLOCK_RECORD
  5
20
100
AcDbSymbolTableRecord
100
AcDbBlockTableRecord
  2
JIG-C_FOOT2-3
  0
BLOCK_RECORD
  5
21
100
AcDbSymbolTableRecord
100
AcDbBlockTableRecord
  2
JIG-C_FOOT2-4
  0
BLOCK_RECORD
  5
22
100
AcDbSymbolTableRecord
100
AcDbBlockTableRecord
  2
JIG-C_FOOT2-5
  0
BLOCK_RECORD
  5
23
100
AcDbSymbolTableRecord
100
AcDbBlockTableRecord
  2
JIG-C_FOOT2-6
  0
BLOCK_RECORD
  5
24
100
AcDbSymbolTableRecord
100
AcDbBlockTableRecord
  2
JIG-C_FOOT2-7
  0
BLOCK_RECORD
  5
25
100
AcDbSymbolTableRecord
100
AcDbBlockTableRecord
  2
JIG-C_FOOT2-8
  0
BLOCK_RECORD
  5
26
100
AcDbSymbolTableRecord
100
AcDbBlockTableRecord
  2
JIG-C_FOOT2-9
  0
BLOCK_RECORD
  5
27
100
AcDbSymbolTableRecord
100
AcDbBlockTableRecord
  2
JIG-C_FOOT2-10
  0
BLOCK_RECORD
  5
28
100
AcDbSymbolTableRecord
100
AcDbBlockTableRecord
  2
JIG-C_FOOT2-11
  0
BLOCK_RECORD
  5
29
100
AcDbSymbolTableRecord
100
AcDbBlockTableRecord
  2
JIG-C_FOOT2-12
  0
ENDTAB
  0
ENDSEC
  0
SECTION
  2
BLOCKS
  0
BLOCK
  5
D
100
AcDbEntity
  8
0
100
AcDbBlockBegin
  2
*MODEL_SPACE
 70
               0
 10
0.0
 20
0.0
 30
0.0
  3
*MODEL_SPACE
  1

  0
ENDBLK
  5
E
100
AcDbEntity
  8
0
100
AcDbBlockEnd
  0
BLOCK
  5
F
100
AcDbEntity
 67
               1
  8
0
100
AcDbBlockBegin
  2
*PAPER_SPACE
 70
               0
 10
0.0
 20
0.0
 30
0.0
  3
*PAPER_SPACE
  1

  0
ENDBLK
  5
10
100
AcDbEntity
 67
               1
  8
0
100
AcDbBlockEnd
  0
BLOCK
  5
2A
100
AcDbEntity
  8
0
100
AcDbBlockBegin
  2
JIG-C_FOOT2-1
 70
               0
 10
0.0
 20
0.0
 30
0.0
  3
JIG-C_FOOT2-1
  1

  0
CIRCLE
  5
2B
100
AcDbEntity
  8
0
  6
CONTINUOUS
 62
               4
100
AcDbCircle
 10
24.0
 20
-24.000003814697266
 30
0.0
 40
4.5
  0
CIRCLE
  5
2C
100
AcDbEntity
  8
0
  6
CONTINUOUS
 62
               4
100
AcDbCircle
 10
-24.0
 20
-24.000003814697266
 30
0.0
 40
4.5
  0
LINE
  5
2E
100
AcDbEntity
  8
0
  6
CENTER
 62
             200
100
AcDbLine
 10
-39.0
 20
-41.518196105957031
 30
0.0
 11
-39.0
 21
-32.607673645019531
 31
0.0
  0
LINE
  5
2F
100
AcDbEntity
  8
0
  6
CENTER
 62
             200
100
AcDbLine
 10
39.0
 20
-41.518196105957031
 30
0.0
 11
39.0
 21
-32.607673645019531
 31
0.0
  0
LINE
  5
30
100
AcDbEntity
  8
0
  6
CONTINUOUS
 62
               4
100
AcDbLine
 10
31.0
 20
-17.0
 30
0.0
 11
14.0
 21
-17.0
 31
0.0
  0
LINE
  5
31
100
AcDbEntity
  8
0
  6
CONTINUOUS
 62
               4
100
AcDbLine
 10
14.000008831674677
 20
-16.999996460942953
 30
0.0
 11
10.000008979517588
 21
-21.299995540659097
 31
0.0
  0
LINE
  5
32
100
AcDbEntity
  8
0
  6
CONTINUOUS
 62
               4
100
AcDbLine
 10
-14.000003440398586
 20
-16.999996655807877
 30
0.0
 11
-10.000003588241498
 21
-21.299995735524021
 31
0.0
  0
LINE
  5
33
100
AcDbEntity
  8
0
  6
CONTINUOUS
 62
               4
100
AcDbLine
 10
-10.0
 20
-21.300003051757813
 30
0.0
 11
10.0
 21
-21.300003051757813
 31
0.0
  0
LINE
  5
34
100
AcDbEntity
  8
0
  6
CENTER
 62
             200
100
AcDbLine
 10
-17.47296142578125
 20
-24.000003814697266
 30
0.0
 11
-30.063919067382812
 21
-24.000003814697266
 31
0.0
  0
LINE
  5
35
100
AcDbEntity
  8
0
  6
CENTER
 62
             200
100
AcDbLine
 10
-24.0
 20
-30.370601654052734
 30
0.0
 11
-24.0
 21
-18.167064666748047
 31
0.0
  0
LINE
  5
36
100
AcDbEntity
  8
0
  6
CENTER
 62
             200
100
AcDbLine
 10
17.47296142578125
 20
-24.000003814697266
 30
0.0
 11
30.063919067382812
 21
-24.000003814697266
 31
0.0
  0
LINE
  5
37
100
AcDbEntity
  8
0
  6
CENTER
 62
             200
100
AcDbLine
 10
24.0
 20
-30.370601654052734
 30
0.0
 11
24.0
 21
-18.167064666748047
 31
0.0
  0
LINE
  5
38
100
AcDbEntity
  8
0
  6
CONTINUOUS
 62
               4
100
AcDbLine
 10
30.999997240420441
 20
-17.00000344554752
 30
0.0
 11
47.999999641320017
 21
-31.300005449550156
 31
0.0
  0
LINE
  5
39
100
AcDbEntity
  8
0
  6
CONTINUOUS
 62
               4
100
AcDbLine
 10
-48.00000977065406
 20
-31.299993407684497
 30
0.0
 11
-31.000007369754485
 21
-16.999991403681861
 31
0.0
  0
LINE
  5
3A
100
AcDbEntity
  8
0
  6
CONTINUOUS
 62
               4
100
AcDbLine
 10
-31.0
 20
-17.0
 30
0.0
 11
-14.0
 21
-17.0
 31
0.0
  0
LINE
  5
3C
100
AcDbEntity
  8
0
  6
DASHED
 62
             200
100
AcDbLine
 10
-20.0
 20
-35.500003814697266
 30
0.0
 11
-20.0
 21
-31.000003814697266
 31
0.0
  0
LINE
  5
3D
100
AcDbEntity
  8
0
  6
DASHED
 62
             200
100
AcDbLine
 10
20.0
 20
-35.500003814697266
 30
0.0
 11
20.0
 21
-31.000003814697266
 31
0.0
  0
LINE
  5
3E
100
AcDbEntity
  8
0
  6
DASHED
 62
             200
100
AcDbLine
 10
-20.0
 20
-31.000003814697266
 30
0.0
 11
20.0
 21
-31.000003814697266
 31
0.0
  0
LINE
  5
3F
100
AcDbEntity
  8
0
  6
DASHED
 62
             200
100
AcDbLine
 10
-48.0
 20
-35.800003051757813
 30
0.0
 11
48.0
 21
-35.800003051757813
 31
0.0
  0
LINE
  5
40
100
AcDbEntity
  8
0
  6
CENTER
 62
             200
100
AcDbLine
 10
0.0
 20
-45.392333984375
 30
0.0
 11
0.0
 21
-17.692237854003906
 31
0.0
  0
LINE
  5
41
100
AcDbEntity
  8
0
  6
CONTINUOUS
 62
               4
100
AcDbLine
 10
48.0
 20
-39.000003814697266
 30
0.0
 11
48.0
 21
-31.300003051757813
 31
0.0
  0
LINE
  5
42
100
AcDbEntity
  8
0
  6
CONTINUOUS
 62
               4
100
AcDbLine
 10
-48.0
 20
-39.000003814697266
 30
0.0
 11
-48.0
 21
-31.300003051757813
 31
0.0
  0
LINE
  5
43
100
AcDbEntity
  8
0
  6
CONTINUOUS
 62
               4
100
AcDbLine
 10
-48.0
 20
-39.000003814697266
 30
0.0
 11
48.0
 21
-39.000003814697266
 31
0.0
  0
ENDBLK
  5
44
100
AcDbEntity
  8
0
100
AcDbBlockEnd
  0
BLOCK
  5
45
100
AcDbEntity
  8
0
100
AcDbBlockBegin
  2
JIG-C_FOOT2-2
 70
               0
 10
0.0
 20
0.0
 30
0.0
  3
JIG-C_FOOT2-2
  1

  0
ARC
  5
46
100
AcDbEntity
  8
0
  6
CONTINUOUS
 62
               4
100
AcDbCircle
 10
1.8000030517578125
 20
-34.000003814697266
 30
0.0
 40
5.0
100
AcDbArc
 50
180.00003597217869
 51
270.00001798608935
  0
ARC
  5
47
100
AcDbEntity
  8
0
  6
CONTINUOUS
 62
               4
100
AcDbCircle
 10
2.0
 20
-33.800003051757813
 30
0.0
 40
2.0
100
AcDbArc
 50
180.00003597217869
 51
270.00001798608935
  0
LINE
  5
48
100
AcDbEntity
  8
0
  6
CONTINUOUS
 62
               4
100
AcDbLine
 10
12.5
 20
-35.800003051757813
 30
0.0
 11
12.5
 21
-31.000003814697266
 31
0.0
  0
LINE
  5
49
100
AcDbEntity
  8
0
  6
CONTINUOUS
 62
               4
100
AcDbLine
 10
19.0
 20
-31.000003814697266
 30
0.0
 11
12.5
 21
-31.000003814697266
 31
0.0
  0
LINE
  5
4A
100
AcDbEntity
  8
0
  6
CONTINUOUS
 62
               4
100
AcDbLine
 10
19.0
 20
-35.800003051757813
 30
0.0
 11
19.0
 21
-31.000003814697266
 31
0.0
  0
LINE
  5
4B
100
AcDbEntity
  8
0
  6
CENTER
 62
             200
100
AcDbLine
 10
1.9602813720703125
 20
-24.000003814697266
 30
0.0
 11
-5.0131683349609375
 21
-24.000003814697266
 31
0.0
  0
LINE
  5
4C
100
AcDbEntity
  8
0
  6
CONTINUOUS
 62
               4
100
AcDbLine
 10
0.0
 20
-31.300003051757813
 30
0.0
 11
-3.1999969482421875
 21
-31.300003051757813
 31
0.0
  0
LINE
  5
4D
100
AcDbEntity
  8
0
  6
CENTER
 62
             200
100
AcDbLine
 10
11.5
 20
-41.130779266357422
 30
0.0
 11
11.5
 21
-33.382499694824219
 31
0.0
  0
LINE
  5
4E
100
AcDbEntity
  8
0
  6
CONTINUOUS
 62
               4
100
AcDbLine
 10
0.0
 20
-17.0
 30
0.0
 11
-3.1999969482421875
 21
-17.0
 31
0.0
  0
LINE
  5
4F
100
AcDbEntity
  8
0
  6
CONTINUOUS
 62
               4
100
AcDbLine
 10
19.5
 20
-39.000003814697266
 30
0.0
 11
19.5
 21
-35.800003051757813
 31
0.0
  0
LINE
  5
50
100
AcDbEntity
  8
0
  6
CONTINUOUS
 62
               4
100
AcDbLine
 10
19.5
 20
-35.800003051757813
 30
0.0
 11
2.0
 21
-35.800003051757813
 31
0.0
  0
LINE
  5
51
100
AcDbEntity
  8
0
  6
CONTINUOUS
 62
               4
100
AcDbLine
 10
19.5
 20
-39.000003814697266
 30
0.0
 11
1.8000030517578125
 21
-39.000003814697266
 31
0.0
  0
LINE
  5
52
100
AcDbEntity
  8
0
  6
CONTINUOUS
 62
               4
100
AcDbLine
 10
0.0
 20
-33.800003051757813
 30
0.0
 11
0.0
 21
-17.0
 31
0.0
  0
LINE
  5
53
100
AcDbEntity
  8
0
  6
CONTINUOUS
 62
               4
100
AcDbLine
 10
-3.1999969482421875
 20
-34.000003814697266
 30
0.0
 11
-3.1999969482421875
 21
-17.0
 31
0.0
  0
ENDBLK
  5
54
100
AcDbEntity
  8
0
100
AcDbBlockEnd
  0
BLOCK
  5
55
100
AcDbEntity
  8
0
100
AcDbBlockBegin
  2
JIG-C_FOOT2-3
 70
               0
 10
0.0
 20
0.0
 30
0.0
  3
JIG-C_FOOT2-3
  1

  0
ARC
  5
56
100
AcDbEntity
  8
0
  6
CONTINUOUS
 62
               4
100
AcDbCircle
 10
45.0
 20
16.499992370605469
 30
0.0
 40
3.0
100
AcDbArc
 50
359.99994535848663
 51
89.999927372397295
  0
ARC
  5
57
100
AcDbEntity
  8
0
  6
CONTINUOUS
 62
               4
100
AcDbCircle
 10
-45.0
 20
16.500007629394531
 30
0.0
 40
3.0
100
AcDbArc
 50
89.999927372397295
 51
179.99996402782131
  0
CIRCLE
  5
58
100
AcDbEntity
  8
0
  6
CONTINUOUS
 62
               4
100
AcDbCircle
 10
39.0
 20
11.499992370605469
 30
0.0
 40
4.5
  0
CIRCLE
  5
59
100
AcDbEntity
  8
0
  6
CONTINUOUS
 62
               4
100
AcDbCircle
 10
-39.0
 20
11.500007629394531
 30
0.0
 40
4.5
  0
LINE
  5
5A
100
AcDbEntity
  8
0
  6
CONTINUOUS
 62
               4
100
AcDbLine
 10
-10.0
 20
0.0
 30
0.0
 11
-10.0
 21
-3.1999969482421875
 31
0.0
  0
LINE
  5
5B
100
AcDbEntity
  8
0
  6
CONTINUOUS
 62
               4
100
AcDbLine
 10
10.0
 20
0.0
 30
0.0
 11
10.0
 21
-3.1999969482421875
 31
0.0
  0
LINE
  5
5C
100
AcDbEntity
  8
0
  6
CONTINUOUS
 62
               4
100
AcDbLine
 10
-20.0
 20
12.500007629394531
 30
0.0
 11
20.0
 21
12.500007629394531
 31
0.0
  0
LINE
  5
5D
100
AcDbEntity
  8
0
  6
CONTINUOUS
 62
               4
100
AcDbLine
 10
-20.0
 20
19.000007629394531
 30
0.0
 11
-20.0
 21
12.500007629394531
 31
0.0
  0
LINE
  5
5E
100
AcDbEntity
  8
0
  6
CONTINUOUS
 62
               4
100
AcDbLine
 10
20.0
 20
19.000007629394531
 30
0.0
 11
20.0
 21
12.500007629394531
 31
0.0
  0
LINE
  5
5F
100
AcDbEntity
  8
0
  6
CENTER
 62
             200
100
AcDbLine
 10
-32.566375732421875
 20
11.499992370605469
 30
0.0
 11
-45.157333374023438
 21
11.499992370605469
 31
0.0
  0
LINE
  5
60
100
AcDbEntity
  8
0
  6
CENTER
 62
             200
100
AcDbLine
 10
-39.0
 20
16.981819152832031
 30
0.0
 11
-39.0
 21
4.9719924926757812
 31
0.0
  0
LINE
  5
61
100
AcDbEntity
  8
0
  6
CENTER
 62
             200
100
AcDbLine
 10
39.0
 20
16.981803894042969
 30
0.0
 11
39.0
 21
4.9719772338867187
 31
0.0
  0
LINE
  5
62
100
AcDbEntity
  8
0
  6
CENTER
 62
             200
100
AcDbLine
 10
32.566375732421875
 20
11.499992370605469
 30
0.0
 11
45.157325744628906
 21
11.499992370605469
 31
0.0
  0
LINE
  5
63
100
AcDbEntity
  8
0
  6
CONTINUOUS
 62
               4
100
AcDbLine
 10
-20.0
 20
19.000007629394531
 30
0.0
 11
20.0
 21
19.000007629394531
 31
0.0
  0
LINE
  5
64
100
AcDbEntity
  8
0
  6
CENTER
 62
             200
100
AcDbLine
 10
-24.0
 20
2.45379638671875
 30
0.0
 11
-24.0
 21
-5.6818923950195313
 31
0.0
  0
LINE
  5
65
100
AcDbEntity
  8
0
  6
CENTER
 62
             200
100
AcDbLine
 10
24.0
 20
2.4537811279296875
 30
0.0
 11
24.0
 21
-5.6819076538085937
 31
0.0
  0
LINE
  5
66
100
AcDbEntity
  8
0
  6
CONTINUOUS
 62
               4
100
AcDbLine
 10
31.0
 20
-0.0000076293945313
 30
0.0
 11
31.0
 21
-3.2000045776367187
 31
0.0
  0
LINE
  5
67
100
AcDbEntity
  8
0
  6
CONTINUOUS
 62
               4
100
AcDbLine
 10
14.0
 20
0.0
 30
0.0
 11
14.0
 21
-3.1999969482421875
 31
0.0
  0
LINE
  5
68
100
AcDbEntity
  8
0
  6
CONTINUOUS
 62
               4
100
AcDbLine
 10
-14.0
 20
0.0
 30
0.0
 11
-14.0
 21
-3.1999969482421875
 31
0.0
  0
LINE
  5
69
100
AcDbEntity
  8
0
  6
CONTINUOUS
 62
               4
100
AcDbLine
 10
-31.0
 20
0.0000076293945313
 30
0.0
 11
-31.0
 21
-3.1999893188476562
 31
0.0
  0
LINE
  5
6A
100
AcDbEntity
  8
0
  6
CONTINUOUS
 62
               4
100
AcDbLine
 10
-48.0
 20
0.0
 30
0.0
 11
48.0
 21
0.0
 31
0.0
  0
LINE
  5
6B
100
AcDbEntity
  8
0
  6
CONTINUOUS
 62
               4
100
AcDbLine
 10
-48.0
 20
-3.1999969482421875
 30
0.0
 11
48.0
 21
-3.1999969482421875
 31
0.0
  0
LINE
  5
6C
100
AcDbEntity
  8
0
  6
CONTINUOUS
 62
               4
100
AcDbLine
 10
-48.0
 20
16.500007629394531
 30
0.0
 11
-48.0
 21
-3.1999893188476562
 31
0.0
  0
LINE
  5
6D
100
AcDbEntity
  8
0
  6
CONTINUOUS
 62
               4
100
AcDbLine
 10
48.0
 20
16.499992370605469
 30
0.0
 11
48.0
 21
-3.2000045776367187
 31
0.0
  0
LINE
  5
6E
100
AcDbEntity
  8
0
  6
CONTINUOUS
 62
               4
100
AcDbLine
 10
-45.0
 20
19.500007629394531
 30
0.0
 11
45.0
 21
19.500007629394531
 31
0.0
  0
LINE
  5
6F
100
AcDbEntity
  8
0
  6
CENTER
 62
             200
100
AcDbLine
 10
0.0
 20
22.986747741699219
 30
0.0
 11
0.0
 21
-8.2000961303710937
 31
0.0
  0
ENDBLK
  5
70
100
AcDbEntity
  8
0
100
AcDbBlockEnd
  0
BLOCK
  5
71
100
AcDbEntity
  8
0
100
AcDbBlockBegin
  2
JIG-C_FOOT2-4
 70
               0
 10
0.0
 20
0.0
 30
0.0
  3
JIG-C_FOOT2-4
  1

  0
CIRCLE
  5
72
100
AcDbEntity
  8
0
  6
CONTINUOUS
 62
               4
100
AcDbCircle
 10
-30.0
 20
-30.0
 30
0.0
 40
4.5
  0
CIRCLE
  5
73
100
AcDbEntity
  8
0
  6
CONTINUOUS
 62
               4
100
AcDbCircle
 10
30.0
 20
-30.0
 30
0.0
 40
4.5
  0
LINE
  5
74
100
AcDbEntity
  8
0
  6
CONTINUOUS
 62
               4
100
AcDbLine
 10
54.0
 20
-46.0
 30
0.0
 11
54.0
 21
-35.721019744873047
 31
0.0
  0
LINE
  5
75
100
AcDbEntity
  8
0
  6
CONTINUOUS
 62
               4
100
AcDbLine
 10
-54.0
 20
-46.0
 30
0.0
 11
-54.0
 21
-35.721050262451172
 31
0.0
  0
LINE
  5
76
100
AcDbEntity
  8
0
  6
CONTINUOUS
 62
               4
100
AcDbLine
 10
37.500023152291362
 20
-21.999962540203171
 30
0.0
 11
54.000015576324188
 21
-35.721008171631013
 31
0.0
  0
LINE
  5
77
100
AcDbEntity
  8
0
  6
CONTINUOUS
 62
               4
100
AcDbLine
 10
-54.000004515598846
 20
-35.721057269525033
 30
0.0
 11
-37.500017957687703
 21
-22.000016516240237
 31
0.0
  0
LINE
  5
78
100
AcDbEntity
  8
0
  6
CENTER
 62
             200
100
AcDbLine
 10
-22.514259338378906
 20
-30.0
 30
0.0
 11
-36.654869079589844
 21
-30.0
 31
0.0
  0
LINE
  5
79
100
AcDbEntity
  8
0
  6
CENTER
 62
             200
100
AcDbLine
 10
-30.0
 20
-35.820945739746094
 30
0.0
 11
-30.0
 21
-23.423698425292969
 31
0.0
  0
LINE
  5
7A
100
AcDbEntity
  8
0
  6
CENTER
 62
             200
100
AcDbLine
 10
22.514259338378906
 20
-30.0
 30
0.0
 11
36.654861450195312
 21
-30.0
 31
0.0
  0
LINE
  5
7B
100
AcDbEntity
  8
0
  6
CENTER
 62
             200
100
AcDbLine
 10
30.0
 20
-35.820945739746094
 30
0.0
 11
30.0
 21
-23.423698425292969
 31
0.0
  0
LINE
  5
7C
100
AcDbEntity
  8
0
  6
CENTER
 62
             200
100
AcDbLine
 10
-45.0
 20
-47.93707275390625
 30
0.0
 11
-45.0
 21
-40.188789367675781
 31
0.0
  0
LINE
  5
7D
100
AcDbEntity
  8
0
  6
CENTER
 62
             200
100
AcDbLine
 10
45.0
 20
-47.93707275390625
 30
0.0
 11
45.0
 21
-40.188789367675781
 31
0.0
  0
LINE
  5
7E
100
AcDbEntity
  8
0
  6
CONTINUOUS
 62
               4
100
AcDbLine
 10
-37.5
 20
-22.0
 30
0.0
 11
37.5
 21
-22.0
 31
0.0
  0
LINE
  5
7F
100
AcDbEntity
  8
0
  6
DASHED
 62
             200
100
AcDbLine
 10
-30.0
 20
-42.799999237060547
 30
0.0
 11
-30.0
 21
-37.49999923706055
 31
0.0
  0
LINE
  5
80
100
AcDbEntity
  8
0
  6
DASHED
 62
             200
100
AcDbLine
 10
30.0
 20
-42.799999237060547
 30
0.0
 11
30.0
 21
-37.49999923706055
 31
0.0
  0
LINE
  5
81
100
AcDbEntity
  8
0
  6
CENTER
 62
             200
100
AcDbLine
 10
0.0
 20
-49.874137878417969
 30
0.0
 11
0.0
 21
-17.718780517578125
 31
0.0
  0
LINE
  5
82
100
AcDbEntity
  8
0
  6
DASHED
 62
             200
100
AcDbLine
 10
-30.0
 20
-37.49999923706055
 30
0.0
 11
30.0
 21
-37.49999923706055
 31
0.0
  0
LINE
  5
83
100
AcDbEntity
  8
0
  6
DASHED
 62
             200
100
AcDbLine
 10
-54.0
 20
-42.799999237060547
 30
0.0
 11
54.0
 21
-42.799999237060547
 31
0.0
  0
LINE
  5
84
100
AcDbEntity
  8
0
  6
CONTINUOUS
 62
               4
100
AcDbLine
 10
-54.0
 20
-46.0
 30
0.0
 11
54.0
 21
-46.0
 31
0.0
  0
ENDBLK
  5
85
100
AcDbEntity
  8
0
100
AcDbBlockEnd
  0
BLOCK
  5
86
100
AcDbEntity
  8
0
100
AcDbBlockBegin
  2
JIG-C_FOOT2-5
 70
               0
 10
0.0
 20
0.0
 30
0.0
  3
JIG-C_FOOT2-5
  1

  0
ARC
  5
87
100
AcDbEntity
  8
0
  6
CONTINUOUS
 62
               4
100
AcDbCircle
 10
1.8000030517578125
 20
-41.0
 30
0.0
 40
5.0
100
AcDbArc
 50
180.00003597217869
 51
270.00001798608935
  0
ARC
  5
88
100
AcDbEntity
  8
0
  6
CONTINUOUS
 62
               4
100
AcDbCircle
 10
2.0
 20
-40.799999237060547
 30
0.0
 40
2.0
100
AcDbArc
 50
180.00003597217869
 51
270.00001798608935
  0
LINE
  5
89
100
AcDbEntity
  8
0
  6
CONTINUOUS
 62
               4
100
AcDbLine
 10
10.0
 20
-42.799999237060547
 30
0.0
 11
10.0
 21
-37.49999923706055
 31
0.0
  0
LINE
  5
8A
100
AcDbEntity
  8
0
  6
CONTINUOUS
 62
               4
100
AcDbLine
 10
20.0
 20
-37.49999923706055
 30
0.0
 11
10.0
 21
-37.49999923706055
 31
0.0
  0
LINE
  5
8B
100
AcDbEntity
  8
0
  6
CONTINUOUS
 62
               4
100
AcDbLine
 10
20.0
 20
-42.799999237060547
 30
0.0
 11
20.0
 21
-37.49999923706055
 31
0.0
  0
LINE
  5
8C
100
AcDbEntity
  8
0
  6
CENTER
 62
             200
100
AcDbLine
 10
1.935699462890625
 20
-30.0
 30
0.0
 11
-5.2314605712890625
 21
-30.0
 31
0.0
  0
LINE
  5
8D
100
AcDbEntity
  8
0
  6
CONTINUOUS
 62
               4
100
AcDbLine
 10
0.0
 20
-37.799999237060547
 30
0.0
 11
-3.1999969482421875
 21
-37.799999237060547
 31
0.0
  0
LINE
  5
8E
100
AcDbEntity
  8
0
  6
CENTER
 62
             200
100
AcDbLine
 10
13.0
 20
-47.549655914306641
 30
0.0
 11
13.0
 21
-40.382495880126953
 31
0.0
  0
LINE
  5
8F
100
AcDbEntity
  8
0
  6
CONTINUOUS
 62
               4
100
AcDbLine
 10
0.0
 20
-22.0
 30
0.0
 11
-3.1999969482421875
 21
-22.0
 31
0.0
  0
LINE
  5
90
100
AcDbEntity
  8
0
  6
CONTINUOUS
 62
               4
100
AcDbLine
 10
22.0
 20
-46.0
 30
0.0
 11
22.0
 21
-42.799999237060547
 31
0.0
  0
LINE
  5
91
100
AcDbEntity
  8
0
  6
CONTINUOUS
 62
               4
100
AcDbLine
 10
22.0
 20
-42.799999237060547
 30
0.0
 11
2.0
 21
-42.799999237060547
 31
0.0
  0
LINE
  5
92
100
AcDbEntity
  8
0
  6
CONTINUOUS
 62
               4
100
AcDbLine
 10
22.0
 20
-46.0
 30
0.0
 11
1.8000030517578125
 21
-46.0
 31
0.0
  0
LINE
  5
93
100
AcDbEntity
  8
0
  6
CONTINUOUS
 62
               4
100
AcDbLine
 10
0.0
 20
-40.799999237060547
 30
0.0
 11
0.0
 21
-22.0
 31
0.0
  0
LINE
  5
94
100
AcDbEntity
  8
0
  6
CONTINUOUS
 62
               4
100
AcDbLine
 10
-3.1999969482421875
 20
-41.0
 30
0.0
 11
-3.1999969482421875
 21
-22.0
 31
0.0
  0
ENDBLK
  5
95
100
AcDbEntity
  8
0
100
AcDbBlockEnd
  0
BLOCK
  5
96
100
AcDbEntity
  8
0
100
AcDbBlockBegin
  2
JIG-C_FOOT2-6
 70
               0
 10
0.0
 20
0.0
 30
0.0
  3
JIG-C_FOOT2-6
  1

  0
CIRCLE
  5
97
100
AcDbEntity
  8
0
  6
CONTINUOUS
 62
               4
100
AcDbCircle
 10
-45.0
 20
13.0
 30
0.0
 40
4.5
  0
CIRCLE
  5
98
100
AcDbEntity
  8
0
  6
CONTINUOUS
 62
               4
100
AcDbCircle
 10
45.0
 20
13.0
 30
0.0
 40
4.5
  0
ARC
  5
99
100
AcDbEntity
  8
0
  6
CONTINUOUS
 62
               4
100
AcDbCircle
 10
-49.000003814697266
 20
16.999984741210937
 30
0.0
 40
5.0
100
AcDbArc
 50
89.999927372397295
 51
179.99996402782131
  0
ARC
  5
9A
100
AcDbEntity
  8
0
  6
CONTINUOUS
 62
               4
100
AcDbCircle
 10
49.0
 20
17.000015258789063
 30
0.0
 40
5.0
100
AcDbArc
 50
359.99994535848663
 51
89.999927372397295
  0
LINE
  5
9B
100
AcDbEntity
  8
0
  6
CONTINUOUS
 62
               4
100
AcDbLine
 10
-37.5
 20
-0.0000076293945313
 30
0.0
 11
-37.5
 21
-3.2000045776367187
 31
0.0
  0
LINE
  5
9C
100
AcDbEntity
  8
0
  6
CONTINUOUS
 62
               4
100
AcDbLine
 10
37.5
 20
0.0000076293945313
 30
0.0
 11
37.5
 21
-3.1999893188476562
 31
0.0
  0
LINE
  5
9D
100
AcDbEntity
  8
0
  6
CENTER
 62
             200
100
AcDbLine
 10
-30.0
 20
1.8052978515625
 30
0.0
 11
-30.0
 21
-4.9744415283203125
 31
0.0
  0
LINE
  5
9E
100
AcDbEntity
  8
0
  6
CENTER
 62
             200
100
AcDbLine
 10
30.0
 20
1.805328369140625
 30
0.0
 11
30.0
 21
-4.97442626953125
 31
0.0
  0
LINE
  5
9F
100
AcDbEntity
  8
0
  6
CENTER
 62
             200
100
AcDbLine
 10
-37.54473876953125
 20
13.0
 30
0.0
 11
-52.266471862792969
 21
13.0
 31
0.0
  0
LINE
  5
A0
100
AcDbEntity
  8
0
  6
CENTER
 62
             200
100
AcDbLine
 10
-45.0
 20
20.013748168945313
 30
0.0
 11
-45.0
 21
5.292022705078125
 31
0.0
  0
LINE
  5
A1
100
AcDbEntity
  8
0
  6
CONTINUOUS
 62
               4
100
AcDbLine
 10
-30.0
 20
20.0
 30
0.0
 11
-30.0
 21
10.0
 31
0.0
  0
LINE
  5
A2
100
AcDbEntity
  8
0
  6
CONTINUOUS
 62
               4
100
AcDbLine
 10
30.0
 20
20.0
 30
0.0
 11
30.0
 21
10.0
 31
0.0
  0
LINE
  5
A3
100
AcDbEntity
  8
0
  6
CONTINUOUS
 62
               4
100
AcDbLine
 10
-30.0
 20
10.0
 30
0.0
 11
30.0
 21
10.0
 31
0.0
  0
LINE
  5
A4
100
AcDbEntity
  8
0
  6
CONTINUOUS
 62
               4
100
AcDbLine
 10
-30.000007629394531
 20
20.0
 30
0.0
 11
30.0
 21
20.0
 31
0.0
  0
LINE
  5
A5
100
AcDbEntity
  8
0
  6
CENTER
 62
             200
100
AcDbLine
 10
37.54473876953125
 20
13.0
 30
0.0
 11
52.266464233398438
 21
13.0
 31
0.0
  0
LINE
  5
A6
100
AcDbEntity
  8
0
  6
CENTER
 62
             200
100
AcDbLine
 10
45.0
 20
20.013778686523438
 30
0.0
 11
45.0
 21
5.29205322265625
 31
0.0
  0
LINE
  5
A7
100
AcDbEntity
  8
0
  6
CONTINUOUS
 62
               4
100
AcDbLine
 10
-54.0
 20
16.999984741210937
 30
0.0
 11
-54.0
 21
-3.20001220703125
 31
0.0
  0
LINE
  5
A8
100
AcDbEntity
  8
0
  6
CONTINUOUS
 62
               4
100
AcDbLine
 10
54.0
 20
17.000015258789063
 30
0.0
 11
54.0
 21
-3.199981689453125
 31
0.0
  0
LINE
  5
A9
100
AcDbEntity
  8
0
  6
CONTINUOUS
 62
               4
100
AcDbLine
 10
-54.0
 20
0.0
 30
0.0
 11
54.0
 21
0.0
 31
0.0
  0
LINE
  5
AA
100
AcDbEntity
  8
0
  6
CONTINUOUS
 62
               4
100
AcDbLine
 10
-54.0
 20
-3.1999969482421875
 30
0.0
 11
54.0
 21
-3.1999969482421875
 31
0.0
  0
LINE
  5
AB
100
AcDbEntity
  8
0
  6
CONTINUOUS
 62
               4
100
AcDbLine
 10
-49.000007629394531
 20
22.0
 30
0.0
 11
49.0
 21
22.0
 31
0.0
  0
LINE
  5
AC
100
AcDbEntity
  8
0
  6
CENTER
 62
             200
100
AcDbLine
 10
0.0
 20
26.0186767578125
 30
0.0
 11
0.0
 21
-7.298919677734375
 31
0.0
  0
ENDBLK
  5
AD
100
AcDbEntity
  8
0
100
AcDbBlockEnd
  0
BLOCK
  5
AE
100
AcDbEntity
  8
0
100
AcDbBlockBegin
  2
JIG-C_FOOT2-7
 70
               0
 10
0.0
 20
0.0
 30
0.0
  3
JIG-C_FOOT2-7
  1

  0
CIRCLE
  5
AF
100
AcDbEntity
  8
0
  6
CONTINUOUS
 62
               4
100
AcDbCircle
 10
37.0
 20
-37.000007629394531
 30
0.0
 40
7.0
  0
CIRCLE
  5
B0
100
AcDbEntity
  8
0
  6
CONTINUOUS
 62
               4
100
AcDbCircle
 10
-37.0
 20
-37.000007629394531
 30
0.0
 40
7.0
  0
LINE
  5
B1
100
AcDbEntity
  8
0
  6
CONTINUOUS
 62
               4
100
AcDbLine
 10
67.0
 20
-59.000007629394531
 30
0.0
 11
67.0
 21
-44.260932922363281
 31
0.0
  0
LINE
  5
B2
100
AcDbEntity
  8
0
  6
CONTINUOUS
 62
               4
100
AcDbLine
 10
-67.0
 20
-59.000007629394531
 30
0.0
 11
-67.0
 21
-44.260887145996094
 31
0.0
  0
LINE
  5
B3
100
AcDbEntity
  8
0
  6
CENTER
 62
             200
100
AcDbLine
 10
-56.0
 20
-62.000007629394531
 30
0.0
 11
-56.0
 21
-51.000007629394531
 31
0.0
  0
LINE
  5
B4
100
AcDbEntity
  8
0
  6
CENTER
 62
             200
100
AcDbLine
 10
56.0
 20
-62.000007629394531
 30
0.0
 11
56.0
 21
-51.000007629394531
 31
0.0
  0
LINE
  5
B5
100
AcDbEntity
  8
0
  6
CONTINUOUS
 62
               4
100
AcDbLine
 10
-46.999938863366594
 20
-25.999974178530692
 30
0.0
 11
-66.999988864329396
 21
-44.260884554069207
 31
0.0
  0
LINE
  5
B6
100
AcDbEntity
  8
0
  6
CENTER
 62
             200
100
AcDbLine
 10
-27.0
 20
-37.000007629394531
 30
0.0
 11
-46.666671752929687
 21
-37.000007629394531
 31
0.0
  0
LINE
  5
B7
100
AcDbEntity
  8
0
  6
CENTER
 62
             200
100
AcDbLine
 10
-37.0
 20
-47.000007629394531
 30
0.0
 11
-37.0
 21
-26.66668701171875
 31
0.0
  0
LINE
  5
B8
100
AcDbEntity
  8
0
  6
CONTINUOUS
 62
               4
100
AcDbLine
 10
46.99995239577504
 20
-26.000032440026075
 30
0.0
 11
66.999995148296534
 21
-44.260940899785396
 31
0.0
  0
LINE
  5
B9
100
AcDbEntity
  8
0
  6
CENTER
 62
             200
100
AcDbLine
 10
37.0
 20
-47.000007629394531
 30
0.0
 11
37.0
 21
-26.66668701171875
 31
0.0
  0
LINE
  5
BA
100
AcDbEntity
  8
0
  6
CENTER
 62
             200
100
AcDbLine
 10
27.0
 20
-37.000007629394531
 30
0.0
 11
46.666671752929687
 21
-37.000007629394531
 31
0.0
  0
LINE
  5
BB
100
AcDbEntity
  8
0
  6
CONTINUOUS
 62
               4
100
AcDbLine
 10
-47.0
 20
-26.0
 30
0.0
 11
47.0
 21
-26.0
 31
0.0
  0
LINE
  5
BC
100
AcDbEntity
  8
0
  6
DASHED
 62
             200
100
AcDbLine
 10
-30.0
 20
-54.500007629394531
 30
0.0
 11
-30.0
 21
-47.000007629394531
 31
0.0
  0
LINE
  5
BD
100
AcDbEntity
  8
0
  6
DASHED
 62
             200
100
AcDbLine
 10
30.0
 20
-54.500007629394531
 30
0.0
 11
30.0
 21
-47.000007629394531
 31
0.0
  0
LINE
  5
BE
100
AcDbEntity
  8
0
  6
DASHED
 62
             200
100
AcDbLine
 10
-30.0
 20
-47.000007629394531
 30
0.0
 11
30.0
 21
-47.000007629394531
 31
0.0
  0
LINE
  5
BF
100
AcDbEntity
  8
0
  6
CENTER
 62
             200
100
AcDbLine
 10
0.0
 20
-67.333351135253906
 30
0.0
 11
0.0
 21
-19.000015258789063
 31
0.0
  0
LINE
  5
C0
100
AcDbEntity
  8
0
  6
DASHED
 62
             200
100
AcDbLine
 10
-67.0
 20
-54.500007629394531
 30
0.0
 11
67.0
 21
-54.500007629394531
 31
0.0
  0
LINE
  5
C1
100
AcDbEntity
  8
0
  6
CONTINUOUS
 62
               4
100
AcDbLine
 10
-67.0
 20
-59.000007629394531
 30
0.0
 11
67.0
 21
-59.000007629394531
 31
0.0
  0
ENDBLK
  5
C2
100
AcDbEntity
  8
0
100
AcDbBlockEnd
  0
BLOCK
  5
C3
100
AcDbEntity
  8
0
100
AcDbBlockBegin
  2
JIG-C_FOOT2-8
 70
               0
 10
0.0
 20
0.0
 30
0.0
  3
JIG-C_FOOT2-8
  1

  0
ARC
  5
C4
100
AcDbEntity
  8
0
  6
CONTINUOUS
 62
               4
100
AcDbCircle
 10
0.5
 20
-54.000007629394531
 30
0.0
 40
5.0
100
AcDbArc
 50
180.00003597217869
 51
270.00001798608935
  0
ARC
  5
C5
100
AcDbEntity
  8
0
  6
CONTINUOUS
 62
               4
100
AcDbCircle
 10
2.0
 20
-52.500007629394531
 30
0.0
 40
2.0
100
AcDbArc
 50
180.00003597217869
 51
270.00001798608935
  0
LINE
  5
C6
100
AcDbEntity
  8
0
  6
CONTINUOUS
 62
               4
100
AcDbLine
 10
0.0
 20
-44.260932922363281
 30
0.0
 11
-4.5
 21
-44.260932922363281
 31
0.0
  0
LINE
  5
C7
100
AcDbEntity
  8
0
  6
CONTINUOUS
 62
               4
100
AcDbLine
 10
12.0
 20
-54.500007629394531
 30
0.0
 11
12.0
 21
-47.000007629394531
 31
0.0
  0
LINE
  5
C8
100
AcDbEntity
  8
0
  6
CONTINUOUS
 62
               4
100
AcDbLine
 10
24.0
 20
-47.000007629394531
 30
0.0
 11
12.0
 21
-47.000007629394531
 31
0.0
  0
LINE
  5
C9
100
AcDbEntity
  8
0
  6
CONTINUOUS
 62
               4
100
AcDbLine
 10
24.0
 20
-54.500007629394531
 30
0.0
 11
24.0
 21
-47.000007629394531
 31
0.0
  0
LINE
  5
CA
100
AcDbEntity
  8
0
  6
CENTER
 62
             200
100
AcDbLine
 10
2.166656494140625
 20
-37.000007629394531
 30
0.0
 11
-6.833343505859375
 21
-37.000007629394531
 31
0.0
  0
LINE
  5
CB
100
AcDbEntity
  8
0
  6
CENTER
 62
             200
100
AcDbLine
 10
15.0
 20
-62.666694641113281
 30
0.0
 11
15.0
 21
-51.000007629394531
 31
0.0
  0
LINE
  5
CC
100
AcDbEntity
  8
0
  6
CONTINUOUS
 62
               4
100
AcDbLine
 10
0.0
 20
-26.0
 30
0.0
 11
-4.5
 21
-26.0
 31
0.0
  0
LINE
  5
CD
100
AcDbEntity
  8
0
  6
CONTINUOUS
 62
               4
100
AcDbLine
 10
26.0
 20
-59.000007629394531
 30
0.0
 11
26.0
 21
-54.500007629394531
 31
0.0
  0
LINE
  5
CE
100
AcDbEntity
  8
0
  6
CONTINUOUS
 62
               4
100
AcDbLine
 10
26.0
 20
-54.500007629394531
 30
0.0
 11
2.0
 21
-54.500007629394531
 31
0.0
  0
LINE
  5
CF
100
AcDbEntity
  8
0
  6
CONTINUOUS
 62
               4
100
AcDbLine
 10
26.0
 20
-59.000007629394531
 30
0.0
 11
0.5
 21
-59.000007629394531
 31
0.0
  0
LINE
  5
D0
100
AcDbEntity
  8
0
  6
CONTINUOUS
 62
               4
100
AcDbLine
 10
0.0
 20
-52.500007629394531
 30
0.0
 11
0.0
 21
-26.0
 31
0.0
  0
LINE
  5
D1
100
AcDbEntity
  8
0
  6
CONTINUOUS
 62
               4
100
AcDbLine
 10
-4.5
 20
-54.000007629394531
 30
0.0
 11
-4.5
 21
-26.0
 31
0.0
  0
ENDBLK
  5
D2
100
AcDbEntity
  8
0
100
AcDbBlockEnd
  0
BLOCK
  5
D3
100
AcDbEntity
  8
0
100
AcDbBlockBegin
  2
JIG-C_FOOT2-9
 70
               0
 10
0.0
 20
0.0
 30
0.0
  3
JIG-C_FOOT2-9
  1

  0
ARC
  5
D4
100
AcDbEntity
  8
0
  6
CONTINUOUS
 62
               4
100
AcDbCircle
 10
62.0
 20
21.0
 30
0.0
 40
5.0
100
AcDbArc
 50
359.99994535848663
 51
89.999927372397295
  0
ARC
  5
D5
100
AcDbEntity
  8
0
  6
CONTINUOUS
 62
               4
100
AcDbCircle
 10
-62.0
 20
21.0
 30
0.0
 40
5.0
100
AcDbArc
 50
89.999927372397295
 51
179.99996402782131
  0
CIRCLE
  5
D6
100
AcDbEntity
  8
0
  6
CONTINUOUS
 62
               4
100
AcDbCircle
 10
-56.0
 20
15.0
 30
0.0
 40
5.5
  0
CIRCLE
  5
D7
100
AcDbEntity
  8
0
  6
CONTINUOUS
 62
               4
100
AcDbCircle
 10
56.0
 20
15.0
 30
0.0
 40
5.5
  0
LINE
  5
D8
100
AcDbEntity
  8
0
  6
CONTINUOUS
 62
               4
100
AcDbLine
 10
-47.0
 20
0.0
 30
0.0
 11
-47.0
 21
-4.5
 31
0.0
  0
LINE
  5
D9
100
AcDbEntity
  8
0
  6
CONTINUOUS
 62
               4
100
AcDbLine
 10
47.0
 20
0.0
 30
0.0
 11
47.0
 21
-4.5
 31
0.0
  0
LINE
  5
DA
100
AcDbEntity
  8
0
  6
CENTER
 62
             200
100
AcDbLine
 10
-37.0
 20
4.0000076293945312
 30
0.0
 11
-37.0
 21
-9.6666641235351562
 31
0.0
  0
LINE
  5
DB
100
AcDbEntity
  8
0
  6
CENTER
 62
             200
100
AcDbLine
 10
37.0
 20
4.0000076293945312
 30
0.0
 11
37.0
 21
-9.6666641235351562
 31
0.0
  0
LINE
  5
DC
100
AcDbEntity
  8
0
  6
CENTER
 62
             200
100
AcDbLine
 10
-56.0
 20
24.333335876464844
 30
0.0
 11
-56.0
 21
5.6666717529296875
 31
0.0
  0
LINE
  5
DD
100
AcDbEntity
  8
0
  6
CENTER
 62
             200
100
AcDbLine
 10
-47.083328247070313
 20
15.0
 30
0.0
 11
-65.083328247070312
 21
15.0
 31
0.0
  0
LINE
  5
DE
100
AcDbEntity
  8
0
  6
CONTINUOUS
 62
               4
100
AcDbLine
 10
-30.0
 20
24.0
 30
0.0
 11
-30.0
 21
12.0
 31
0.0
  0
LINE
  5
DF
100
AcDbEntity
  8
0
  6
CONTINUOUS
 62
               4
100
AcDbLine
 10
30.0
 20
24.0
 30
0.0
 11
30.0
 21
12.0
 31
0.0
  0
LINE
  5
E0
100
AcDbEntity
  8
0
  6
CONTINUOUS
 62
               4
100
AcDbLine
 10
-30.0
 20
12.0
 30
0.0
 11
30.0
 21
12.0
 31
0.0
  0
LINE
  5
E1
100
AcDbEntity
  8
0
  6
CENTER
 62
             200
100
AcDbLine
 10
47.083328247070313
 20
15.0
 30
0.0
 11
65.083335876464844
 21
15.0
 31
0.0
  0
LINE
  5
E2
100
AcDbEntity
  8
0
  6
CENTER
 62
             200
100
AcDbLine
 10
56.0
 20
24.333335876464844
 30
0.0
 11
56.0
 21
5.6666717529296875
 31
0.0
  0
LINE
  5
E3
100
AcDbEntity
  8
0
  6
CONTINUOUS
 62
               4
100
AcDbLine
 10
67.0
 20
21.0
 30
0.0
 11
67.0
 21
-4.5
 31
0.0
  0
LINE
  5
E4
100
AcDbEntity
  8
0
  6
CONTINUOUS
 62
               4
100
AcDbLine
 10
-67.000015258789062
 20
21.0
 30
0.0
 11
-67.000015258789062
 21
-4.5
 31
0.0
  0
LINE
  5
E5
100
AcDbEntity
  8
0
  6
CONTINUOUS
 62
               4
100
AcDbLine
 10
-30.0
 20
24.0
 30
0.0
 11
30.0
 21
24.0
 31
0.0
  0
LINE
  5
E6
100
AcDbEntity
  8
0
  6
CONTINUOUS
 62
               4
100
AcDbLine
 10
-67.000015258789062
 20
0.0
 30
0.0
 11
67.0
 21
0.0
 31
0.0
  0
LINE
  5
E7
100
AcDbEntity
  8
0
  6
CONTINUOUS
 62
               4
100
AcDbLine
 10
-67.000015258789062
 20
-4.5
 30
0.0
 11
67.0
 21
-4.5
 31
0.0
  0
LINE
  5
E8
100
AcDbEntity
  8
0
  6
CONTINUOUS
 62
               4
100
AcDbLine
 10
-62.0
 20
26.0
 30
0.0
 11
62.0
 21
26.0
 31
0.0
  0
LINE
  5
E9
100
AcDbEntity
  8
0
  6
CENTER
 62
             200
100
AcDbLine
 10
0.0
 20
35.0
 30
0.0
 11
0.0
 21
-13.333328247070313
 31
0.0
  0
ENDBLK
  5
EA
100
AcDbEntity
  8
0
100
AcDbBlockEnd
  0
BLOCK
  5
EB
100
AcDbEntity
  8
0
100
AcDbBlockBegin
  2
JIG-C_FOOT2-10
 70
               0
 10
0.0
 20
0.0
 30
0.0
  3
JIG-C_FOOT2-10
  1

  0
CIRCLE
  5
EC
100
AcDbEntity
  8
0
  6
CONTINUOUS
 62
               4
100
AcDbCircle
 10
44.999984741210937
 20
-45.000007629394531
 30
0.0
 40
8.0
  0
CIRCLE
  5
ED
100
AcDbEntity
  8
0
  6
CONTINUOUS
 62
               4
100
AcDbCircle
 10
-45.0
 20
-45.000007629394531
 30
0.0
 40
8.0
  0
LINE
  5
EE
100
AcDbEntity
  8
0
  6
CENTER
 62
             200
100
AcDbLine
 10
-67.0
 20
-76.666664123535156
 30
0.0
 11
-67.0
 21
-58.333320617675781
 31
0.0
  0
LINE
  5
EF
100
AcDbEntity
  8
0
  6
CENTER
 62
             200
100
AcDbLine
 10
66.999984741210938
 20
-76.666664123535156
 30
0.0
 11
66.999984741210938
 21
-58.333320617675781
 31
0.0
  0
LINE
  5
F0
100
AcDbEntity
  8
0
  6
CENTER
 62
             200
100
AcDbLine
 10
-32.666664123535156
 20
-45.000007629394531
 30
0.0
 11
-57.0
 21
-45.000007629394531
 31
0.0
  0
LINE
  5
F1
100
AcDbEntity
  8
0
  6
CENTER
 62
             200
100
AcDbLine
 10
-45.0
 20
-57.000007629394531
 30
0.0
 11
-45.0
 21
-33.333328247070313
 31
0.0
  0
LINE
  5
F2
100
AcDbEntity
  8
0
  6
CENTER
 62
             200
100
AcDbLine
 10
32.666671752929688
 20
-45.000007629394531
 30
0.0
 11
56.999984741210937
 21
-45.000007629394531
 31
0.0
  0
LINE
  5
F3
100
AcDbEntity
  8
0
  6
CENTER
 62
             200
100
AcDbLine
 10
44.999984741210937
 20
-57.000007629394531
 30
0.0
 11
44.999984741210937
 21
-33.333328247070313
 31
0.0
  0
LINE
  5
F4
100
AcDbEntity
  8
0
  6
CONTINUOUS
 62
               4
100
AcDbLine
 10
57.000078079332525
 20
-30.999945158453556
 30
0.0
 11
80.000076108475696
 21
-56.999942750609989
 31
0.0
  0
LINE
  5
F5
100
AcDbEntity
  8
0
  6
CONTINUOUS
 62
               4
100
AcDbLine
 10
-56.999910164160156
 20
-31.000083512644323
 30
0.0
 11
-79.999918303379218
 21
-57.000092533582119
 31
0.0
  0
LINE
  5
F6
100
AcDbEntity
  8
0
  6
CONTINUOUS
 62
               4
100
AcDbLine
 10
-57.0
 20
-31.0
 30
0.0
 11
56.999984741210937
 21
-31.0
 31
0.0
  0
LINE
  5
F7
100
AcDbEntity
  8
0
  6
DASHED
 62
             200
100
AcDbLine
 10
-40.0
 20
-65.000007629394531
 30
0.0
 11
-40.0
 21
-57.000007629394531
 31
0.0
  0
LINE
  5
F8
100
AcDbEntity
  8
0
  6
DASHED
 62
             200
100
AcDbLine
 10
39.999984741210937
 20
-65.000007629394531
 30
0.0
 11
39.999984741210937
 21
-57.000007629394531
 31
0.0
  0
LINE
  5
F9
100
AcDbEntity
  8
0
  6
CENTER
 62
             200
100
AcDbLine
 10
0.0
 20
-78.222572326660156
 30
0.0
 11
0.0
 21
-23.761131286621094
 31
0.0
  0
LINE
  5
FA
100
AcDbEntity
  8
0
  6
DASHED
 62
             200
100
AcDbLine
 10
-40.0
 20
-57.000007629394531
 30
0.0
 11
39.999984741210937
 21
-57.000007629394531
 31
0.0
  0
LINE
  5
FB
100
AcDbEntity
  8
0
  6
DASHED
 62
             200
100
AcDbLine
 10
-80.0
 20
-65.000007629394531
 30
0.0
 11
79.999984741210938
 21
-65.000007629394531
 31
0.0
  0
LINE
  5
FC
100
AcDbEntity
  8
0
  6
CONTINUOUS
 62
               4
100
AcDbLine
 10
79.999984741210938
 20
-71.000007629394531
 30
0.0
 11
79.999984741210938
 21
-57.000007629394531
 31
0.0
  0
LINE
  5
FD
100
AcDbEntity
  8
0
  6
CONTINUOUS
 62
               4
100
AcDbLine
 10
-80.0
 20
-71.000007629394531
 30
0.0
 11
79.999984741210938
 21
-71.000007629394531
 31
0.0
  0
LINE
  5
FE
100
AcDbEntity
  8
0
  6
CONTINUOUS
 62
               4
100
AcDbLine
 10
-80.0
 20
-71.000007629394531
 30
0.0
 11
-80.0
 21
-57.000007629394531
 31
0.0
  0
ENDBLK
  5
FF
100
AcDbEntity
  8
0
100
AcDbBlockEnd
  0
BLOCK
  5
100
100
AcDbEntity
  8
0
100
AcDbBlockBegin
  2
JIG-C_FOOT2-11
 70
               0
 10
0.0
 20
0.0
 30
0.0
  3
JIG-C_FOOT2-11
  1

  0
LINE
  5
101
100
AcDbEntity
  8
0
  6
CONTINUOUS
 62
               4
100
AcDbLine
 10
15.5
 20
-65.0
 30
0.0
 11
15.5
 21
-57.0
 31
0.0
  0
LINE
  5
102
100
AcDbEntity
  8
0
  6
CONTINUOUS
 62
               4
100
AcDbLine
 10
27.5
 20
-65.0
 30
0.0
 11
27.5
 21
-57.0
 31
0.0
  0
LINE
  5
103
100
AcDbEntity
  8
0
  6
CONTINUOUS
 62
               4
100
AcDbLine
 10
27.5
 20
-57.0
 30
0.0
 11
15.5
 21
-57.0
 31
0.0
  0
ARC
  5
104
100
AcDbEntity
  8
0
  6
CONTINUOUS
 62
               4
100
AcDbCircle
 10
3.0
 20
-62.0
 30
0.0
 40
3.0
100
AcDbArc
 50
180.00003597217869
 51
270.00001798608935
  0
ARC
  5
105
100
AcDbEntity
  8
0
  6
CONTINUOUS
 62
               4
100
AcDbCircle
 10
0.0
 20
-65.0
 30
0.0
 40
6.0
100
AcDbArc
 50
180.00003597217869
 51
270.00001798608935
  0
LINE
  5
106
100
AcDbEntity
  8
0
  6
CENTER
 62
             200
100
AcDbLine
 10
5.16668701171875
 20
-45.0
 30
0.0
 11
-11.166656494140625
 21
-45.0
 31
0.0
  0
LINE
  5
107
100
AcDbEntity
  8
0
  6
CONTINUOUS
 62
               4
100
AcDbLine
 10
0.0
 20
-57.0
 30
0.0
 11
-6.0
 21
-57.0
 31
0.0
  0
LINE
  5
108
100
AcDbEntity
  8
0
  6
CENTER
 62
             200
100
AcDbLine
 10
17.0
 20
-74.333343505859375
 30
0.0
 11
17.0
 21
-62.000015258789063
 31
0.0
  0
LINE
  5
109
100
AcDbEntity
  8
0
  6
CONTINUOUS
 62
               4
100
AcDbLine
 10
0.0
 20
-31.0
 30
0.0
 11
-6.0
 21
-31.0
 31
0.0
  0
LINE
  5
10A
100
AcDbEntity
  8
0
  6
CONTINUOUS
 62
               4
100
AcDbLine
 10
29.5
 20
-71.0
 30
0.0
 11
29.5
 21
-65.0
 31
0.0
  0
LINE
  5
10B
100
AcDbEntity
  8
0
  6
CONTINUOUS
 62
               4
100
AcDbLine
 10
29.5
 20
-65.0
 30
0.0
 11
3.0
 21
-65.0
 31
0.0
  0
LINE
  5
10C
100
AcDbEntity
  8
0
  6
CONTINUOUS
 62
               4
100
AcDbLine
 10
29.5
 20
-71.0
 30
0.0
 11
0.0
 21
-71.0
 31
0.0
  0
LINE
  5
10D
100
AcDbEntity
  8
0
  6
CONTINUOUS
 62
               4
100
AcDbLine
 10
-6.0
 20
-65.0
 30
0.0
 11
-6.0
 21
-31.0
 31
0.0
  0
LINE
  5
10E
100
AcDbEntity
  8
0
  6
CONTINUOUS
 62
               4
100
AcDbLine
 10
0.0
 20
-62.0
 30
0.0
 11
0.0
 21
-31.0
 31
0.0
  0
ENDBLK
  5
10F
100
AcDbEntity
  8
0
100
AcDbBlockEnd
  0
BLOCK
  5
110
100
AcDbEntity
  8
0
100
AcDbBlockBegin
  2
JIG-C_FOOT2-12
 70
               0
 10
0.0
 20
0.0
 30
0.0
  3
JIG-C_FOOT2-12
  1

  0
ARC
  5
111
100
AcDbEntity
  8
0
  6
CONTINUOUS
 62
               4
100
AcDbCircle
 10
-76.0
 20
25.499992370605469
 30
0.0
 40
4.0
100
AcDbArc
 50
89.999927372397295
 51
179.99996402782131
  0
ARC
  5
112
100
AcDbEntity
  8
0
  6
CONTINUOUS
 62
               4
100
AcDbCircle
 10
75.999984741210938
 20
25.500007629394531
 30
0.0
 40
4.0
100
AcDbArc
 50
359.99994535848663
 51
89.999927372397295
  0
CIRCLE
  5
113
100
AcDbEntity
  8
0
  6
CONTINUOUS
 62
               4
100
AcDbCircle
 10
66.999984741210938
 20
17.000005722045898
 30
0.0
 40
7.0
  0
CIRCLE
  5
114
100
AcDbEntity
  8
0
  6
CONTINUOUS
 62
               4
100
AcDbCircle
 10
-67.0
 20
16.999994277954102
 30
0.0
 40
7.0
  0
LINE
  5
115
100
AcDbEntity
  8
0
  6
CONTINUOUS
 62
               4
100
AcDbLine
 10
-40.0
 20
15.5
 30
0.0
 11
39.999984741210937
 21
15.5
 31
0.0
  0
LINE
  5
116
100
AcDbEntity
  8
0
  6
CONTINUOUS
 62
               4
100
AcDbLine
 10
-40.0
 20
27.499996185302734
 30
0.0
 11
-40.0
 21
15.499996185302734
 31
0.0
  0
LINE
  5
117
100
AcDbEntity
  8
0
  6
CONTINUOUS
 62
               4
100
AcDbLine
 10
39.999984741210937
 20
27.500003814697266
 30
0.0
 11
39.999984741210937
 21
15.500003814697266
 31
0.0
  0
LINE
  5
118
100
AcDbEntity
  8
0
  6
CONTINUOUS
 62
               4
100
AcDbLine
 10
-40.0
 20
27.5
 30
0.0
 11
39.999984741210937
 21
27.5
 31
0.0
  0
LINE
  5
119
100
AcDbEntity
  8
0
  6
CENTER
 62
             200
100
AcDbLine
 10
-45.0
 20
3.8333396911621094
 30
0.0
 11
-45.0
 21
-9.5000038146972656
 31
0.0
  0
LINE
  5
11A
100
AcDbEntity
  8
0
  6
CENTER
 62
             200
100
AcDbLine
 10
44.999984741210937
 20
3.8333473205566406
 30
0.0
 11
44.999984741210937
 21
-10.166652679443359
 31
0.0
  0
LINE
  5
11B
100
AcDbEntity
  8
0
  6
CONTINUOUS
 62
               4
100
AcDbLine
 10
-57.0
 20
-0.0000038146972656
 30
0.0
 11
-57.0
 21
-6.0000038146972656
 31
0.0
  0
LINE
  5
11C
100
AcDbEntity
  8
0
  6
CONTINUOUS
 62
               4
100
AcDbLine
 10
56.999984741210937
 20
0.0000038146972656
 30
0.0
 11
56.999984741210937
 21
-5.9999961853027344
 31
0.0
  0
LINE
  5
11D
100
AcDbEntity
  8
0
  6
CENTER
 62
             200
100
AcDbLine
 10
-67.0
 20
26.833335876464844
 30
0.0
 11
-67.0
 21
6.1666641235351563
 31
0.0
  0
LINE
  5
11E
100
AcDbEntity
  8
0
  6
CENTER
 62
             200
100
AcDbLine
 10
-57.166664123535156
 20
17.0
 30
0.0
 11
-76.833328247070313
 21
17.0
 31
0.0
  0
LINE
  5
11F
100
AcDbEntity
  8
0
  6
CENTER
 62
             200
100
AcDbLine
 10
57.166671752929688
 20
17.0
 30
0.0
 11
76.833328247070313
 21
17.0
 31
0.0
  0
LINE
  5
120
100
AcDbEntity
  8
0
  6
CENTER
 62
             200
100
AcDbLine
 10
66.999984741210938
 20
26.833351135253906
 30
0.0
 11
66.999984741210938
 21
6.1666793823242187
 31
0.0
  0
LINE
  5
121
100
AcDbEntity
  8
0
  6
CONTINUOUS
 62
               4
100
AcDbLine
 10
-80.0
 20
25.499992370605469
 30
0.0
 11
-80.0
 21
-6.0000076293945312
 31
0.0
  0
LINE
  5
122
100
AcDbEntity
  8
0
  6
CONTINUOUS
 62
               4
100
AcDbLine
 10
79.999984741210938
 20
25.500007629394531
 30
0.0
 11
79.999984741210938
 21
-5.9999923706054687
 31
0.0
  0
LINE
  5
123
100
AcDbEntity
  8
0
  6
CONTINUOUS
 62
               4
100
AcDbLine
 10
-80.0
 20
0.0
 30
0.0
 11
79.999984741210938
 21
0.0
 31
0.0
  0
LINE
  5
124
100
AcDbEntity
  8
0
  6
CONTINUOUS
 62
               4
100
AcDbLine
 10
-80.0
 20
-6.0
 30
0.0
 11
79.999984741210938
 21
-6.0
 31
0.0
  0
LINE
  5
125
100
AcDbEntity
  8
0
  6
CONTINUOUS
 62
               4
100
AcDbLine
 10
-76.0
 20
29.5
 30
0.0
 11
75.999984741210938
 21
29.5
 31
0.0
  0
LINE
  5
126
100
AcDbEntity
  8
0
  6
CENTER
 62
             200
100
AcDbLine
 10
0.0
 20
35.833343505859375
 30
0.0
 11
0.0
 21
-13.5
 31
0.0
  0
ENDBLK
  5
127
100
AcDbEntity
  8
0
100
AcDbBlockEnd
  0
ENDSEC
  0
SECTION
  2
ENTITIES
  0
INSERT
  5
128
100
AcDbEntity
  8
0
  6
ByBlock
100
AcDbBlockReference
  2
JIG-C_FOOT2-12
 10
96.716171264648438
 20
-38.729236602783203
 30
0.0
  0
INSERT
  5
129
100
AcDbEntity
  8
0
  6
ByBlock
100
AcDbBlockReference
  2
JIG-C_FOOT2-11
 10
223.7161865234375
 20
-87.229263305664062
 30
0.0
  0
INSERT
  5
12A
100
AcDbEntity
  8
0
  6
ByBlock
100
AcDbBlockReference
  2
JIG-C_FOOT2-10
 10
96.716171264648438
 20
-87.229240417480469
 30
0.0
  0
INSERT
  5
12B
100
AcDbEntity
  8
0
  6
ByBlock
100
AcDbBlockReference
  2
JIG-C_FOOT2-9
 10
-189.19334411621094
 20
-44.46661376953125
 30
0.0
  0
INSERT
  5
12C
100
AcDbEntity
  8
0
  6
ByBlock
100
AcDbBlockReference
  2
JIG-C_FOOT2-8
 10
-73.693321228027344
 20
-97.466560363769531
 30
0.0
  0
INSERT
  5
12D
100
AcDbEntity
  8
0
  6
ByBlock
100
AcDbBlockReference
  2
JIG-C_FOOT2-7
 10
-189.19338989257812
 20
-97.466636657714844
 30
0.0
  0
INSERT
  5
12E
100
AcDbEntity
  8
0
  6
ByBlock
100
AcDbBlockReference
  2
JIG-C_FOOT2-6
 10
103.26437377929687
 20
127.71958160400391
 30
0.0
  0
INSERT
  5
12F
100
AcDbEntity
  8
0
  6
ByBlock
100
AcDbBlockReference
  2
JIG-C_FOOT2-5
 10
214.06442260742187
 20
81.7196044921875
 30
0.0
  0
INSERT
  5
130
100
AcDbEntity
  8
0
  6
ByBlock
100
AcDbBlockReference
  2
JIG-C_FOOT2-4
 10
103.26441955566406
 20
81.719619750976563
 30
0.0
  0
INSERT
  5
131
100
AcDbEntity
  8
0
  6
ByBlock
100
AcDbBlockReference
  2
JIG-C_FOOT2-3
 10
-169.55833435058594
 20
123.25193023681641
 30
0.0
  0
INSERT
  5
132
100
AcDbEntity
  8
0
  6
ByBlock
100
AcDbBlockReference
  2
JIG-C_FOOT2-2
 10
-79.758331298828125
 20
80.019599914550781
 30
0.0
  0
INSERT
  5
133
100
AcDbEntity
  8
0
  6
ByBlock
100
AcDbBlockReference
  2
JIG-C_FOOT2-1
 10
-169.55836486816406
 20
80.019599914550781
 30
0.0
  0
MTEXT
  5
134
100
AcDbEntity
  8
0
  6
CONTINUOUS
 62
               7
100
AcDbMText
 10
-257.89756208931686
 20
189.5
 30
0.0
 40
6.3000001907348633
 41
0.0
 71
               4
 72
               1
  1
\W1.098;\A1;JIG CYLINDER
  0
MTEXT
  5
135
100
AcDbEntity
  8
0
  6
CONTINUOUS
 62
               7
100
AcDbMText
 10
-262.57420059454103
 20
163.33332824707031
 30
0.0
 40
6.3000001907348633
 41
0.0
 71
               4
 72
               1
  1
\W1.088;\A1;BORE 50
  0
MTEXT
  5
136
100
AcDbEntity
  8
0
  6
CONTINUOUS
 62
               7
100
AcDbMText
 10
19.396963976850412
 20
163.33332824707031
 30
0.0
 40
6.3000001907348633
 41
0.0
 71
               4
 72
               1
  1
\W1.061;\A1;BORE 63
  0
MTEXT
  5
137
100
AcDbEntity
  8
0
  6
CONTINUOUS
 62
               7
100
AcDbMText
 10
-262.57420059454103
 20
3.3333282470703125
 30
0.0
 40
6.3000001907348633
 41
0.0
 71
               4
 72
               1
  1
\W1.088;\A1;BORE 80
  0
MTEXT
  5
138
100
AcDbEntity
  8
0
  6
CONTINUOUS
 62
               7
100
AcDbMText
 10
16.344865985820896
 20
3.3333282470703125
 30
0.0
 40
6.3000001907348633
 41
0.0
 71
               4
 72
               1
  1
\W1.154;\A1;BORE 100
  0
MTEXT
  5
139
100
AcDbEntity
  8
0
  6
CONTINUOUS
 62
               7
100
AcDbMText
 10
-232.80000034968057
 20
181.5
 30
0.0
 40
6.3000001907348633
 41
0.0
 71
               4
 72
               1
  1
\A1;FOOT
  0
MTEXT
  5
13A
100
AcDbEntity
  8
0
  6
CONTINUOUS
 62
               7
100
AcDbMText
 10
170.28101006437726
 20
-185.0
 30
0.0
 40
9.0
 41
0.0
 71
               4
 72
               1
  1
\W1.121;\A1;KOGANEI CORP.
  0
MTEXT
  5
13B
100
AcDbEntity
  8
0
  6
CONTINUOUS
 62
               7
100
AcDbMText
 10
198.31570517923507
 20
185.5
 30
0.0
 40
6.3000001907348633
 41
0.0
 71
               4
 72
               1
  1
\W1.348;\A1;Ver. 1.1
  0
LINE
  5
13C
100
AcDbEntity
  8
0
  6
CONTINUOUS
 62
               7
100
AcDbLine
 10
0.42498779296875
 20
195.5
 30
0.0
 11
0.42498779296875
 21
-195.0
 31
0.0
  0
LINE
  5
13D
100
AcDbEntity
  8
0
  6
CONTINUOUS
 62
               7
100
AcDbLine
 10
-281.25
 20
14.25
 30
0.0
 11
282.0999755859375
 21
14.25
 31
0.0
  0
LINE
  5
13E
100
AcDbEntity
  8
0
  6
CONTINUOUS
 62
               7
100
AcDbLine
 10
-161.25
 20
195.5
 30
0.0
 11
-161.25
 21
175.5
 31
0.0
  0
LINE
  5
13F
100
AcDbEntity
  8
0
  6
CONTINUOUS
 62
               7
100
AcDbLine
 10
162.0999755859375
 20
195.5
 30
0.0
 11
162.0999755859375
 21
175.5
 31
0.0
  0
LINE
  5
140
100
AcDbEntity
  8
0
  6
CONTINUOUS
 62
               7
100
AcDbLine
 10
-281.25
 20
175.5
 30
0.0
 11
-161.25
 21
175.5
 31
0.0
  0
LINE
  5
141
100
AcDbEntity
  8
0
  6
CONTINUOUS
 62
               7
100
AcDbLine
 10
162.0999755859375
 20
175.5
 30
0.0
 11
282.0999755859375
 21
175.5
 31
0.0
  0
LINE
  5
142
100
AcDbEntity
  8
0
  6
CONTINUOUS
 62
               7
100
AcDbLine
 10
162.0999755859375
 20
-175.0
 30
0.0
 11
282.0999755859375
 21
-175.0
 31
0.0
  0
LINE
  5
143
100
AcDbEntity
  8
0
  6
CONTINUOUS
 62
               7
100
AcDbLine
 10
162.0999755859375
 20
-175.0
 30
0.0
 11
162.0999755859375
 21
-195.0
 31
0.0
  0
LINE
  5
144
100
AcDbEntity
  8
0
  6
CONTINUOUS
 62
               7
100
AcDbLine
 10
-281.25
 20
-195.0
 30
0.0
 11
282.0999755859375
 21
-195.0
 31
0.0
  0
LINE
  5
145
100
AcDbEntity
  8
0
  6
CONTINUOUS
 62
               7
100
AcDbLine
 10
282.0999755859375
 20
195.5
 30
0.0
 11
282.0999755859375
 21
-195.0
 31
0.0
  0
LINE
  5
146
100
AcDbEntity
  8
0
  6
CONTINUOUS
 62
               7
100
AcDbLine
 10
-281.25
 20
195.5
 30
0.0
 11
-281.25
 21
-195.0
 31
0.0
  0
LINE
  5
147
100
AcDbEntity
  8
0
  6
CONTINUOUS
 62
               7
100
AcDbLine
 10
-281.25
 20
195.5
 30
0.0
 11
282.0999755859375
 21
195.5
 31
0.0
  0
ENDSEC
  0
SECTION
  2
OBJECTS
  0
DICTIONARY
  5
19
100
AcDbDictionary
  3
ACAD_GROUP
350
1A
  3
ACAD_MLINESTYLE
350
1B
  0
DICTIONARY
  5
1A
102
{ACAD_REACTORS
330
19
102
}
100
AcDbDictionary
  0
DICTIONARY
  5
1B
102
{ACAD_REACTORS
330
19
102
}
100
AcDbDictionary
  3
STANDARD
350
1C
  0
MLINESTYLE
  5
1C
102
{ACAD_REACTORS
330
1B
102
}
100
AcDbMlineStyle
  2
Standard
 70
               0
  3

 62
               0
 51
90.0
 52
90.0
 71
               2
 49
0.5
 62
             256
  6
ByLayer
 49
-0.5
 62
             256
  6
ByLayer
  0
ENDSEC
  0
EOF
