  0
SECTION
  2
HEADER
  9
$ACADVER
  1
AC1012
  9
$DWGCODEPAGE
  3
dos932
  9
$INSBASE
 10
0.0
 20
0.0
 30
0.0
  9
$EXTMIN
 10
-246.11578369140625
 20
-249.72853088378906
 30
0.0
  9
$EXTMAX
 10
320.73419189453125
 20
140.77146911621094
 30
0.0
  9
$LIMMIN
 10
-246.11578369140625
 20
-249.72853088378906
  9
$LIMMAX
 10
320.73419189453125
 20
140.77146911621094
  9
$ORTHOMODE
 70
               0
  9
$REGENMODE
 70
               1
  9
$FILLMODE
 70
               1
  9
$QTEXTMODE
 70
               0
  9
$MIRRTEXT
 70
               1
  9
$DRAGMODE
 70
               2
  9
$LTSCALE
 40
1.0
  9
$OSMODE
 70
               0
  9
$ATTMODE
 70
               1
  9
$TEXTSIZE
 40
3.2000000476837158
  9
$TRACEWID
 40
0.05
  9
$TEXTSTYLE
  7
MX_NOTE_STANDARD
  9
$CLAYER
  8
0
  9
$CELTYPE
  6
CONTINUOUS
  9
$CECOLOR
 62
             256
  9
$CELTSCALE
 40
1.0
  9
$DELOBJ
 70
               1
  9
$DISPSILH
 70
               0
  9
$DIMSCALE
 40
1.0
  9
$DIMASZ
 40
2.5
  9
$DIMEXO
 40
1.5
  9
$DIMDLI
 40
3.75
  9
$DIMRND
 40
0.0
  9
$DIMDLE
 40
0.0
  9
$DIMEXE
 40
1.5
  9
$DIMTP
 40
0.0
  9
$DIMTM
 40
0.0
  9
$DIMTXT
 40
3.2000000476837158
  9
$DIMCEN
 40
2.5
  9
$DIMTSZ
 40
0.0
  9
$DIMTOL
 70
               0
  9
$DIMLIM
 70
               0
  9
$DIMTIH
 70
               0
  9
$DIMTOH
 70
               0
  9
$DIMSE1
 70
               0
  9
$DIMSE2
 70
               0
  9
$DIMTAD
 70
               1
  9
$DIMZIN
 70
               8
  9
$DIMBLK
  1

  9
$DIMASO
 70
               1
  9
$DIMSHO
 70
               1
  9
$DIMPOST
  1

  9
$DIMAPOST
  1

  9
$DIMALT
 70
               0
  9
$DIMALTD
 70
               4
  9
$DIMALTF
 40
0.03937007874016
  9
$DIMLFAC
 40
1.0
  9
$DIMTOFL
 70
               1
  9
$DIMTVP
 40
0.0
  9
$DIMTIX
 70
               0
  9
$DIMSOXD
 70
               0
  9
$DIMSAH
 70
               0
  9
$DIMBLK1
  1

  9
$DIMBLK2
  1

  9
$DIMSTYLE
  2
MXDIMSTYLE
  9
$DIMCLRD
 70
               0
  9
$DIMCLRE
 70
               0
  9
$DIMCLRT
 70
               0
  9
$DIMTFAC
 40
1.0
  9
$DIMGAP
 40
1.0
  9
$DIMJUST
 70
               0
  9
$DIMSD1
 70
               0
  9
$DIMSD2
 70
               0
  9
$DIMTOLJ
 70
               1
  9
$DIMTZIN
 70
               0
  9
$DIMALTZ
 70
               0
  9
$DIMALTTZ
 70
               0
  9
$DIMFIT
 70
               3
  9
$DIMUPT
 70
               1
  9
$DIMUNIT
 70
               2
  9
$DIMDEC
 70
               4
  9
$DIMTDEC
 70
               4
  9
$DIMALTU
 70
               2
  9
$DIMALTTD
 70
               4
  9
$DIMTXSTY
  7
MX_NOTE_STANDARD
  9
$DIMAUNIT
 70
               0
  9
$LUNITS
 70
               2
  9
$LUPREC
 70
               4
  9
$SKETCHINC
 40
0.1
  9
$FILLETRAD
 40
0.0
  9
$AUNITS
 70
               0
  9
$AUPREC
 70
               0
  9
$MENU
  1
acad
  9
$ELEVATION
 40
0.0
  9
$PELEVATION
 40
0.0
  9
$THICKNESS
 40
0.0
  9
$LIMCHECK
 70
               0
  9
$BLIPMODE
 70
               1
  9
$CHAMFERA
 40
0.0
  9
$CHAMFERB
 40
0.0
  9
$CHAMFERC
 40
0.0
  9
$CHAMFERD
 40
0.0
  9
$SKPOLY
 70
               0
  9
$TDCREATE
 40
2453446.620972222
  9
$TDUPDATE
 40
2453446.620972222
  9
$TDINDWG
 40
0.0000000000
  9
$TDUSRTIMER
 40
0.0000000000
  9
$USRTIMER
 70
               1
  9
$ANGBASE
 50
0.0
  9
$ANGDIR
 70
               0
  9
$PDMODE
 70
               0
  9
$PDSIZE
 40
0.0
  9
$PLINEWID
 40
0.0
  9
$COORDS
 70
               1
  9
$SPLFRAME
 70
               0
  9
$SPLINETYPE
 70
               6
  9
$SPLINESEGS
 70
               8
  9
$ATTDIA
 70
               0
  9
$ATTREQ
 70
               1
  9
$HANDLING
 70
               1
  9
$HANDSEED
  5
1D4
  9
$SURFTAB1
 70
               6
  9
$SURFTAB2
 70
               6
  9
$SURFTYPE
 70
               6
  9
$SURFU
 70
               6
  9
$SURFV
 70
               6
  9
$UCSNAME
  2

  9
$UCSORG
 10
0.0
 20
0.0
 30
0.0
  9
$UCSXDIR
 10
1.0
 20
0.0
 30
0.0
  9
$UCSYDIR
 10
0.0
 20
1.0
 30
0.0
  9
$PUCSNAME
  2

  9
$PUCSORG
 10
0.0
 20
0.0
 30
0.0
  9
$PUCSXDIR
 10
1.0
 20
0.0
 30
0.0
  9
$PUCSYDIR
 10
0.0
 20
1.0
 30
0.0
  9
$USERI1
 70
               0
  9
$USERI2
 70
               0
  9
$USERI3
 70
               0
  9
$USERI4
 70
               0
  9
$USERI5
 70
               0
  9
$USERR1
 40
0.0
  9
$USERR2
 40
0.0
  9
$USERR3
 40
0.0
  9
$USERR4
 40
0.0
  9
$USERR5
 40
0.0
  9
$WORLDVIEW
 70
               1
  9
$SHADEDGE
 70
               3
  9
$SHADEDIF
 70
              70
  9
$TILEMODE
 70
               1
  9
$MAXACTVP
 70
              16
  9
$PINSBASE
 10
0.0
 20
0.0
 30
0.0
  9
$PLIMCHECK
 70
               0
  9
$PEXTMIN
 10
1.0000000000000000E+20
 20
1.0000000000000000E+20
 30
1.0000000000000000E+20
  9
$PEXTMAX
 10
-1.0000000000000000E+20
 20
-1.0000000000000000E+20
 30
-1.0000000000000000E+20
  9
$PLIMMIN
 10
0.0
 20
0.0
  9
$PLIMMAX
 10
12.0
 20
9.0
  9
$UNITMODE
 70
               0
  9
$VISRETAIN
 70
               0
  9
$PLINEGEN
 70
               1
  9
$PSLTSCALE
 70
               0
  9
$TREEDEPTH
 70
            3020
  9
$PICKSTYLE
 70
               1
  9
$CMLSTYLE
  2
Standard
  9
$CMLJUST
 70
               0
  9
$CMLSCALE
 40
1.0
  9
$SAVEIMAGES
 70
               0
  0
ENDSEC
  0
SECTION
  2
CLASSES
  0
CLASS
  1
LWPOLYLINE
  2
AcDbPolyline
  3
"AutoCAD"
 90
        0
280
               0
281
               1
  0
CLASS
  1
IMAGE
  2
AcDbRasterImage
  3
ISM
 90
      127
280
               0
281
               1
  0
CLASS
  1
OLE2FRAME
  2
AcDbOle2Frame
  3
""
 90
        0
280
               0
281
               1
  0
CLASS
  1
HATCH
  2
AcDbHatch
  3
"ACAD_SEDONA"
 90
        0
280
               0
281
               1
  0
CLASS
  1
DICTIONARYVAR
  2
AcDbDictionaryVar
  3
"AutoCAD"
 90
        0
280
               0
281
               0
  0
CLASS
  1
RASTERVARIABLES
  2
AcDbRasterVariables
  3
ISM
 90
        0
280
               0
281
               0
  0
CLASS
  1
IMAGEDEF
  2
AcDbRasterImageDef
  3
ISM
 90
        0
280
               0
281
               0
  0
CLASS
  1
IMAGEDEF_REACTOR
  2
AcDbRasterImageDefReactor
  3
ISM
 90
        1
280
               0
281
               0
  0
CLASS
  1
IDBUFFER
  2
AcDbIdBuffer
  3
"Acad"
 90
        0
280
               0
281
               0
  0
CLASS
  1
SPATIAL_FILTER
  2
AcDbSpatialFilter
  3
"Acad"
 90
        0
280
               0
281
               0
  0
CLASS
  1
XRECORD
  2
AcDbXrecord
  3
"<Built In>"
 90
        0
280
               0
281
               0
  0
CLASS
  1
SORTENTSTABLE
  2
AcDbSortentsTable
  3
"AutoCAD"
 90
        0
280
               0
281
               0
  0
CLASS
  1
LAYER_INDEX
  2
AcDbLayerIndex
  3
"Acad"
 90
        0
280
               0
281
               0
  0
CLASS
  1
SPATIAL_INDEX
  2
AcDbSpatialIndex
  3
"Acad"
 90
        0
280
               0
281
               0
  0
CLASS
  1
OBJECT_PTR
  2
CAseDLPNTableRecord
  3
"ASE-LPNTableRecord"
 90
        1
280
               0
281
               0
  0
CLASS
  1
LAYOUT
  2
AcDbLayout
  3
"AutoCAD 2000"
 90
        1
280
               0
281
               0
  0
CLASS
  1
PLOTSETTINGS
  2
AcDbPlotSettings
  3
"AutoCAD 2000"
 90
        1
280
               0
281
               0
  0
CLASS
  1
ACDBDICTIONARYWDFLT
  2
AcDbDictionaryWithDefault
  3
"AutoCAD 2000"
 90
        1
280
               0
281
               0
  0
CLASS
  1
ACDBPLACEHOLDER
  2
AcDbPlaceHolder
  3
"AutoCAD 2000"
 90
        1
280
               0
281
               0
  0
ENDSEC
  0
SECTION
  2
TABLES
  0
TABLE
  2
VPORT
  5
7
100
AcDbSymbolTable
 70
               1
  0
VPORT
  5
15
100
AcDbSymbolTableRecord
100
AcDbViewportTableRecord
  2
*ACTIVE
 70
               0
 10
0.0
 20
0.0
 11
1.0
 21
1.0
 12
37.3092041015625
 22
-54.478530883789063
 13
0.0
 23
0.0
 14
1.0
 24
1.0
 15
0.0
 25
0.0
 16
0.0
 26
0.0
 36
1.0
 17
0.0
 27
0.0
 37
0.0
 40
394.40500000000003
 41
1.7320508075688772
 42
50.0
 43
0.0
 44
0.0
 50
0.0
 51
0.0
 71
               0
 72
             100
 73
               1
 74
               1
 75
               0
 76
               0
 77
               0
 78
               0
  0
ENDTAB
  0
TABLE
  2
LTYPE
  5
4
100
AcDbSymbolTable
 70
               5
  0
LTYPE
  5
11
100
AcDbSymbolTableRecord
100
AcDbLinetypeTableRecord
  2
BYBLOCK
 70
              64
  3

 72
              65
 73
               0
 40
0.0
  0
LTYPE
  5
12
100
AcDbSymbolTableRecord
100
AcDbLinetypeTableRecord
  2
BYLAYER
 70
              64
  3

 72
              65
 73
               0
 40
0.0
  0
LTYPE
  5
13
100
AcDbSymbolTableRecord
100
AcDbLinetypeTableRecord
  2
CONTINUOUS
 70
              64
  3
Solid line
 72
              65
 73
               0
 40
0.0
  0
LTYPE
  5
3C
100
AcDbSymbolTableRecord
100
AcDbLinetypeTableRecord
  2
CENTER
 70
              64
  3
Center ____ _ ____ _ ____ _ ____ _ ____ _ ____
 72
              65
 73
               4
 40
26.0
 49
20.0
 74
               0
 49
-2.0
 74
               0
 49
2.0
 74
               0
 49
-2.0
 74
               0
  0
LTYPE
  5
50
100
AcDbSymbolTableRecord
100
AcDbLinetypeTableRecord
  2
DASHED
 70
              64
  3
Dashed __ __ __ __ __ __ __ __ __ __ __ __ __ _
 72
              65
 73
               2
 40
4.0
 49
2.0
 74
               0
 49
-2.0
 74
               0
  0
ENDTAB
  0
TABLE
  2
LAYER
  5
2
100
AcDbSymbolTable
 70
               2
  0
LAYER
  5
14
100
AcDbSymbolTableRecord
100
AcDbLayerTableRecord
  2
0
 70
               0
 62
               7
  6
CONTINUOUS
  0
LAYER
  5
1D
100
AcDbSymbolTableRecord
100
AcDbLayerTableRecord
  2
DEFPOINTS
 70
               0
 62
               7
  6
CONTINUOUS
  0
ENDTAB
  0
TABLE
  2
STYLE
  5
3
100
AcDbSymbolTable
 70
               1
  0
STYLE
  5
17
100
AcDbSymbolTableRecord
100
AcDbTextStyleTableRecord
  2
MX_NOTE_STANDARD
 70
               0
 40
0.0
 41
1.0
 50
0.0
 71
               0
 42
3.2000000476837158
  3
txt.shx
  4
extfont.shx
  0
ENDTAB
  0
TABLE
  2
VIEW
  5
5
100
AcDbSymbolTable
 70
               0
  0
ENDTAB
  0
TABLE
  2
UCS
  5
6
100
AcDbSymbolTable
 70
               0
  0
ENDTAB
  0
TABLE
  2
APPID
  5
8
100
AcDbSymbolTable
 70
               1
  0
APPID
  5
16
100
AcDbSymbolTableRecord
100
AcDbRegAppTableRecord
  2
ACAD
 70
               0
  0
ENDTAB
  0
TABLE
  2
DIMSTYLE
  5
9
100
AcDbSymbolTable
 70
               1
  0
DIMSTYLE
105
18
100
AcDbSymbolTableRecord
100
AcDbDimStyleTableRecord
  2
MXDIMSTYLE
 70
               0
  3

  4

  5

  6

  7

 40
1.0
 41
2.5
 42
1.5
 43
3.75
 44
1.5
 45
0.0
 46
0.0
 47
0.0
 48
0.0
 71
               0
 72
               0
 73
               0
 74
               0
 75
               0
 76
               0
 77
               1
 78
               8
140
3.2000000476837158
141
2.5
142
0.0
143
0.03937007874016
144
1.0
145
0.0
146
1.0
147
1.0
170
               0
171
               4
172
               1
173
               0
174
               0
175
               0
176
               0
177
               0
178
               0
270
               2
271
               4
272
               4
273
               2
274
               4
275
               0
280
               0
281
               0
282
               0
283
               1
284
               0
285
               0
286
               0
287
               3
288
               1
340
17
  0
ENDTAB
  0
TABLE
  2
BLOCK_RECORD
  5
1
100
AcDbSymbolTable
 70
              18
  0
BLOCK_RECORD
  5
A
100
AcDbSymbolTableRecord
100
AcDbBlockTableRecord
  2
*MODEL_SPACE
  0
BLOCK_RECORD
  5
B
100
AcDbSymbolTableRecord
100
AcDbBlockTableRecord
  2
*PAPER_SPACE
  0
BLOCK_RECORD
  5
1E
100
AcDbSymbolTableRecord
100
AcDbBlockTableRecord
  2
JIG-C_FLANGE1-1
  0
BLOCK_RECORD
  5
1F
100
AcDbSymbolTableRecord
100
AcDbBlockTableRecord
  2
JIG-C_FLANGE1-2
  0
BLOCK_RECORD
  5
20
100
AcDbSymbolTableRecord
100
AcDbBlockTableRecord
  2
JIG-C_FLANGE1-3
  0
BLOCK_RECORD
  5
21
100
AcDbSymbolTableRecord
100
AcDbBlockTableRecord
  2
JIG-C_FLANGE1-4
  0
BLOCK_RECORD
  5
22
100
AcDbSymbolTableRecord
100
AcDbBlockTableRecord
  2
JIG-C_FLANGE1-5
  0
BLOCK_RECORD
  5
23
100
AcDbSymbolTableRecord
100
AcDbBlockTableRecord
  2
JIG-C_FLANGE1-6
  0
BLOCK_RECORD
  5
24
100
AcDbSymbolTableRecord
100
AcDbBlockTableRecord
  2
JIG-C_FLANGE1-7
  0
BLOCK_RECORD
  5
25
100
AcDbSymbolTableRecord
100
AcDbBlockTableRecord
  2
JIG-C_FLANGE1-8
  0
BLOCK_RECORD
  5
26
100
AcDbSymbolTableRecord
100
AcDbBlockTableRecord
  2
JIG-C_FLANGE1-9
  0
BLOCK_RECORD
  5
27
100
AcDbSymbolTableRecord
100
AcDbBlockTableRecord
  2
JIG-C_FLANGE1-10
  0
BLOCK_RECORD
  5
28
100
AcDbSymbolTableRecord
100
AcDbBlockTableRecord
  2
JIG-C_FLANGE1-11
  0
BLOCK_RECORD
  5
29
100
AcDbSymbolTableRecord
100
AcDbBlockTableRecord
  2
JIG-C_FLANGE1-12
  0
BLOCK_RECORD
  5
2A
100
AcDbSymbolTableRecord
100
AcDbBlockTableRecord
  2
JIG-C_FLANGE1-13
  0
BLOCK_RECORD
  5
2B
100
AcDbSymbolTableRecord
100
AcDbBlockTableRecord
  2
JIG-C_FLANGE1-14
  0
BLOCK_RECORD
  5
2C
100
AcDbSymbolTableRecord
100
AcDbBlockTableRecord
  2
JIG-C_FLANGE1-15
  0
BLOCK_RECORD
  5
2D
100
AcDbSymbolTableRecord
100
AcDbBlockTableRecord
  2
JIG-C_FLANGE1-16
  0
BLOCK_RECORD
  5
2E
100
AcDbSymbolTableRecord
100
AcDbBlockTableRecord
  2
JIG-C_FLANGE1-17
  0
BLOCK_RECORD
  5
2F
100
AcDbSymbolTableRecord
100
AcDbBlockTableRecord
  2
JIG-C_FLANGE1-18
  0
ENDTAB
  0
ENDSEC
  0
SECTION
  2
BLOCKS
  0
BLOCK
  5
D
100
AcDbEntity
  8
0
100
AcDbBlockBegin
  2
*MODEL_SPACE
 70
               0
 10
0.0
 20
0.0
 30
0.0
  3
*MODEL_SPACE
  1

  0
ENDBLK
  5
E
100
AcDbEntity
  8
0
100
AcDbBlockEnd
  0
BLOCK
  5
F
100
AcDbEntity
 67
               1
  8
0
100
AcDbBlockBegin
  2
*PAPER_SPACE
 70
               0
 10
0.0
 20
0.0
 30
0.0
  3
*PAPER_SPACE
  1

  0
ENDBLK
  5
10
100
AcDbEntity
 67
               1
  8
0
100
AcDbBlockEnd
  0
BLOCK
  5
30
100
AcDbEntity
  8
0
100
AcDbBlockBegin
  2
JIG-C_FLANGE1-1
 70
               0
 10
0.0
 20
0.0
 30
0.0
  3
JIG-C_FLANGE1-1
  1

  0
CIRCLE
  5
31
100
AcDbEntity
  8
0
  6
CONTINUOUS
 62
               4
100
AcDbCircle
 10
8.1500701904296875
 20
-8.1499900817871094
 30
0.0
 40
5.0
  0
CIRCLE
  5
32
100
AcDbEntity
  8
0
  6
CONTINUOUS
 62
               4
100
AcDbCircle
 10
8.1500701904296875
 20
-8.1499900817871094
 30
0.0
 40
2.75
  0
CIRCLE
  5
33
100
AcDbEntity
  8
0
  6
CONTINUOUS
 62
               4
100
AcDbCircle
 10
-8.1499481201171875
 20
-8.1499900817871094
 30
0.0
 40
5.0
  0
CIRCLE
  5
34
100
AcDbEntity
  8
0
  6
CONTINUOUS
 62
               4
100
AcDbCircle
 10
-8.1499481201171875
 20
-8.1499900817871094
 30
0.0
 40
2.75
  0
CIRCLE
  5
35
100
AcDbEntity
  8
0
  6
CONTINUOUS
 62
               4
100
AcDbCircle
 10
-8.1499481201171875
 20
8.1500129699707031
 30
0.0
 40
5.0
  0
CIRCLE
  5
36
100
AcDbEntity
  8
0
  6
CONTINUOUS
 62
               4
100
AcDbCircle
 10
-8.1499481201171875
 20
8.1500129699707031
 30
0.0
 40
2.75
  0
CIRCLE
  5
37
100
AcDbEntity
  8
0
  6
CONTINUOUS
 62
               4
100
AcDbCircle
 10
8.1500701904296875
 20
8.1500129699707031
 30
0.0
 40
2.75
  0
CIRCLE
  5
38
100
AcDbEntity
  8
0
  6
CONTINUOUS
 62
               4
100
AcDbCircle
 10
8.1500701904296875
 20
8.1500129699707031
 30
0.0
 40
5.0
  0
CIRCLE
  5
39
100
AcDbEntity
  8
0
  6
CONTINUOUS
 62
               4
100
AcDbCircle
 10
0.0000762939453125
 20
0.0000190734863281
 30
0.0
 40
5.5
  0
CIRCLE
  5
3A
100
AcDbEntity
  8
0
  6
CONTINUOUS
 62
               4
100
AcDbCircle
 10
19.000076293945313
 20
0.0000190734863281
 30
0.0
 40
2.25
  0
CIRCLE
  5
3B
100
AcDbEntity
  8
0
  6
CONTINUOUS
 62
               4
100
AcDbCircle
 10
-18.999923706054688
 20
0.0000190734863281
 30
0.0
 40
2.25
  0
LINE
  5
3D
100
AcDbEntity
  8
0
  6
CENTER
 62
             200
100
AcDbLine
 10
-19.0
 20
-4.2199999999999998
 30
0.0
 11
-19.0
 21
4.4400000000000004
 31
0.0
  0
LINE
  5
3E
100
AcDbEntity
  8
0
  6
CENTER
 62
             200
100
AcDbLine
 10
19.0
 20
-4.2199999999999998
 30
0.0
 11
19.0
 21
4.4400000000000004
 31
0.0
  0
LINE
  5
3F
100
AcDbEntity
  8
0
  6
CENTER
 62
             200
100
AcDbLine
 10
1.53
 20
-8.1500000000000004
 30
0.0
 11
14.619999999999999
 21
-8.1500000000000004
 31
0.0
  0
LINE
  5
40
100
AcDbEntity
  8
0
  6
CENTER
 62
             200
100
AcDbLine
 10
8.1500000000000004
 20
-1.49
 30
0.0
 11
8.1500000000000004
 21
-15.69
 31
0.0
  0
LINE
  5
41
100
AcDbEntity
  8
0
  6
CENTER
 62
             200
100
AcDbLine
 10
-8.1500000000000004
 20
-1.49
 30
0.0
 11
-8.1500000000000004
 21
-15.69
 31
0.0
  0
LINE
  5
42
100
AcDbEntity
  8
0
  6
CENTER
 62
             200
100
AcDbLine
 10
-1.53
 20
-8.1500000000000004
 30
0.0
 11
-14.619999999999999
 21
-8.1500000000000004
 31
0.0
  0
LINE
  5
43
100
AcDbEntity
  8
0
  6
CENTER
 62
             200
100
AcDbLine
 10
-8.1500000000000004
 20
1.49
 30
0.0
 11
-8.1500000000000004
 21
15.69
 31
0.0
  0
LINE
  5
44
100
AcDbEntity
  8
0
  6
CENTER
 62
             200
100
AcDbLine
 10
-1.53
 20
8.1500000000000004
 30
0.0
 11
-14.619999999999999
 21
8.1500000000000004
 31
0.0
  0
LINE
  5
45
100
AcDbEntity
  8
0
  6
CENTER
 62
             200
100
AcDbLine
 10
8.1500000000000004
 20
1.49
 30
0.0
 11
8.1500000000000004
 21
15.69
 31
0.0
  0
LINE
  5
46
100
AcDbEntity
  8
0
  6
CENTER
 62
             200
100
AcDbLine
 10
1.53
 20
8.1500000000000004
 30
0.0
 11
14.619999999999999
 21
8.1500000000000004
 31
0.0
  0
LINE
  5
47
100
AcDbEntity
  8
0
  6
CENTER
 62
             200
100
AcDbLine
 10
0.0
 20
-18.050000000000001
 30
0.0
 11
0.0
 21
17.350000000000001
 31
0.0
  0
LINE
  5
48
100
AcDbEntity
  8
0
  6
CENTER
 62
             200
100
AcDbLine
 10
-27.23
 20
0.0
 30
0.0
 11
26.43
 21
0.0
 31
0.0
  0
LINE
  5
49
100
AcDbEntity
  8
0
  6
CONTINUOUS
 62
               4
100
AcDbLine
 10
-25.0
 20
14.0
 30
0.0
 11
25.0
 21
14.0
 31
0.0
  0
LINE
  5
4A
100
AcDbEntity
  8
0
  6
CONTINUOUS
 62
               4
100
AcDbLine
 10
25.0
 20
-14.0
 30
0.0
 11
25.0
 21
14.0
 31
0.0
  0
LINE
  5
4B
100
AcDbEntity
  8
0
  6
CONTINUOUS
 62
               4
100
AcDbLine
 10
-25.0
 20
-14.0
 30
0.0
 11
-25.0
 21
14.0
 31
0.0
  0
LINE
  5
4C
100
AcDbEntity
  8
0
  6
CONTINUOUS
 62
               4
100
AcDbLine
 10
-25.0
 20
-14.0
 30
0.0
 11
25.0
 21
-14.0
 31
0.0
  0
ENDBLK
  5
4D
100
AcDbEntity
  8
0
100
AcDbBlockEnd
  0
BLOCK
  5
4E
100
AcDbEntity
  8
0
100
AcDbBlockBegin
  2
JIG-C_FLANGE1-2
 70
               0
 10
0.0
 20
0.0
 30
0.0
  3
JIG-C_FLANGE1-2
  1

  0
LINE
  5
4F
100
AcDbEntity
  8
0
  6
CENTER
 62
             200
100
AcDbLine
 10
-7.8099999999999996
 20
-8.1500000000000004
 30
0.0
 11
1.77
 21
-8.1500000000000004
 31
0.0
  0
LINE
  5
51
100
AcDbEntity
  8
0
  6
DASHED
 62
             200
100
AcDbLine
 10
-6.0
 20
-13.15
 30
0.0
 11
-2.3999999999999999
 21
-13.15
 31
0.0
  0
LINE
  5
52
100
AcDbEntity
  8
0
  6
DASHED
 62
             200
100
AcDbLine
 10
-2.3999999999999999
 20
-10.9
 30
0.0
 11
0.0
 21
-10.9
 31
0.0
  0
LINE
  5
53
100
AcDbEntity
  8
0
  6
DASHED
 62
             200
100
AcDbLine
 10
-2.3999999999999999
 20
-5.4000000000000004
 30
0.0
 11
0.0
 21
-5.4000000000000004
 31
0.0
  0
LINE
  5
54
100
AcDbEntity
  8
0
  6
DASHED
 62
             200
100
AcDbLine
 10
-2.3999999999999999
 20
-3.1499999999999999
 30
0.0
 11
-2.3999999999999999
 21
-13.15
 31
0.0
  0
LINE
  5
55
100
AcDbEntity
  8
0
  6
DASHED
 62
             200
100
AcDbLine
 10
-6.0
 20
-3.1499999999999999
 30
0.0
 11
-2.3999999999999999
 21
-3.1499999999999999
 31
0.0
  0
LINE
  5
56
100
AcDbEntity
  8
0
  6
DASHED
 62
             200
100
AcDbLine
 10
-2.3999999999999999
 20
5.4000000000000004
 30
0.0
 11
0.0
 21
5.4000000000000004
 31
0.0
  0
LINE
  5
57
100
AcDbEntity
  8
0
  6
DASHED
 62
             200
100
AcDbLine
 10
-2.3999999999999999
 20
10.9
 30
0.0
 11
0.0
 21
10.9
 31
0.0
  0
LINE
  5
58
100
AcDbEntity
  8
0
  6
DASHED
 62
             200
100
AcDbLine
 10
-6.0
 20
3.1499999999999999
 30
0.0
 11
-2.3999999999999999
 21
3.1499999999999999
 31
0.0
  0
LINE
  5
59
100
AcDbEntity
  8
0
  6
DASHED
 62
             200
100
AcDbLine
 10
-6.0
 20
13.15
 30
0.0
 11
-2.3999999999999999
 21
13.15
 31
0.0
  0
LINE
  5
5A
100
AcDbEntity
  8
0
  6
CENTER
 62
             200
100
AcDbLine
 10
-7.8099999999999996
 20
8.1500000000000004
 30
0.0
 11
1.77
 21
8.1500000000000004
 31
0.0
  0
LINE
  5
5B
100
AcDbEntity
  8
0
  6
CENTER
 62
             200
100
AcDbLine
 10
-7.8099999999999996
 20
0.0
 30
0.0
 11
1.77
 21
0.0
 31
0.0
  0
LINE
  5
5C
100
AcDbEntity
  8
0
  6
DASHED
 62
             200
100
AcDbLine
 10
-2.3999999999999999
 20
3.1499999999999999
 30
0.0
 11
-2.3999999999999999
 21
13.15
 31
0.0
  0
LINE
  5
5D
100
AcDbEntity
  8
0
  6
CONTINUOUS
 62
               4
100
AcDbLine
 10
-6.0
 20
-14.0
 30
0.0
 11
0.0
 21
-14.0
 31
0.0
  0
LINE
  5
5E
100
AcDbEntity
  8
0
  6
CONTINUOUS
 62
               4
100
AcDbLine
 10
-6.0
 20
14.0
 30
0.0
 11
0.0
 21
14.0
 31
0.0
  0
LINE
  5
5F
100
AcDbEntity
  8
0
  6
CONTINUOUS
 62
               4
100
AcDbLine
 10
-6.0
 20
-14.0
 30
0.0
 11
-6.0
 21
14.0
 31
0.0
  0
LINE
  5
60
100
AcDbEntity
  8
0
  6
CONTINUOUS
 62
               4
100
AcDbLine
 10
0.0
 20
-14.0
 30
0.0
 11
0.0
 21
14.0
 31
0.0
  0
ENDBLK
  5
61
100
AcDbEntity
  8
0
100
AcDbBlockEnd
  0
BLOCK
  5
62
100
AcDbEntity
  8
0
100
AcDbBlockBegin
  2
JIG-C_FLANGE1-3
 70
               0
 10
0.0
 20
0.0
 30
0.0
  3
JIG-C_FLANGE1-3
  1

  0
LINE
  5
63
100
AcDbEntity
  8
0
  6
CENTER
 62
             200
100
AcDbLine
 10
-19.0
 20
-2.4500000000000002
 30
0.0
 11
-19.0
 21
8.5999999999999996
 31
0.0
  0
LINE
  5
64
100
AcDbEntity
  8
0
  6
CENTER
 62
             200
100
AcDbLine
 10
19.0
 20
-2.0899999999999999
 30
0.0
 11
19.0
 21
8.2300000000000004
 31
0.0
  0
LINE
  5
65
100
AcDbEntity
  8
0
  6
CENTER
 62
             200
100
AcDbLine
 10
-8.1500000000000004
 20
-2.0899999999999999
 30
0.0
 11
-8.1500000000000004
 21
8.4199999999999999
 31
0.0
  0
LINE
  5
66
100
AcDbEntity
  8
0
  6
CENTER
 62
             200
100
AcDbLine
 10
8.1500000000000004
 20
-2.0899999999999999
 30
0.0
 11
8.1500000000000004
 21
8.4199999999999999
 31
0.0
  0
LINE
  5
67
100
AcDbEntity
  8
0
  6
CENTER
 62
             200
100
AcDbLine
 10
0.0
 20
-3.9300000000000002
 30
0.0
 11
0.0
 21
10.08
 31
0.0
  0
LINE
  5
68
100
AcDbEntity
  8
0
  6
CONTINUOUS
 62
               4
100
AcDbLine
 10
25.0
 20
0.0
 30
0.0
 11
25.0
 21
6.0
 31
0.0
  0
LINE
  5
69
100
AcDbEntity
  8
0
  6
CONTINUOUS
 62
               4
100
AcDbLine
 10
-25.0
 20
0.0
 30
0.0
 11
-25.0
 21
6.0
 31
0.0
  0
LINE
  5
6A
100
AcDbEntity
  8
0
  6
CONTINUOUS
 62
               4
100
AcDbLine
 10
-25.0
 20
6.0
 30
0.0
 11
25.0
 21
6.0
 31
0.0
  0
LINE
  5
6B
100
AcDbEntity
  8
0
  6
CONTINUOUS
 62
               4
100
AcDbLine
 10
-25.0
 20
0.0
 30
0.0
 11
25.0
 21
0.0
 31
0.0
  0
ENDBLK
  5
6C
100
AcDbEntity
  8
0
100
AcDbBlockEnd
  0
BLOCK
  5
6D
100
AcDbEntity
  8
0
100
AcDbBlockBegin
  2
JIG-C_FLANGE1-4
 70
               0
 10
0.0
 20
0.0
 30
0.0
  3
JIG-C_FLANGE1-4
  1

  0
CIRCLE
  5
6E
100
AcDbEntity
  8
0
  6
CONTINUOUS
 62
               4
100
AcDbCircle
 10
9.9000816345214844
 20
-9.9000282287597656
 30
0.0
 40
2.75
  0
CIRCLE
  5
6F
100
AcDbEntity
  8
0
  6
CONTINUOUS
 62
               4
100
AcDbCircle
 10
9.9000816345214844
 20
-9.9000282287597656
 30
0.0
 40
5.0
  0
CIRCLE
  5
70
100
AcDbEntity
  8
0
  6
CONTINUOUS
 62
               4
100
AcDbCircle
 10
-9.8999366760253906
 20
-9.9000282287597656
 30
0.0
 40
5.0
  0
CIRCLE
  5
71
100
AcDbEntity
  8
0
  6
CONTINUOUS
 62
               4
100
AcDbCircle
 10
-9.8999366760253906
 20
-9.9000282287597656
 30
0.0
 40
2.75
  0
CIRCLE
  5
72
100
AcDbEntity
  8
0
  6
CONTINUOUS
 62
               4
100
AcDbCircle
 10
-9.8999366760253906
 20
9.8999595642089844
 30
0.0
 40
5.0
  0
CIRCLE
  5
73
100
AcDbEntity
  8
0
  6
CONTINUOUS
 62
               4
100
AcDbCircle
 10
-9.8999366760253906
 20
9.8999595642089844
 30
0.0
 40
2.75
  0
CIRCLE
  5
74
100
AcDbEntity
  8
0
  6
CONTINUOUS
 62
               4
100
AcDbCircle
 10
9.9000816345214844
 20
9.8999595642089844
 30
0.0
 40
2.75
  0
CIRCLE
  5
75
100
AcDbEntity
  8
0
  6
CONTINUOUS
 62
               4
100
AcDbCircle
 10
9.9000816345214844
 20
9.8999595642089844
 30
0.0
 40
5.0
  0
CIRCLE
  5
76
100
AcDbEntity
  8
0
  6
CONTINUOUS
 62
               4
100
AcDbCircle
 10
0.0000724792480469
 20
-0.0000343322753906
 30
0.0
 40
5.5
  0
CIRCLE
  5
77
100
AcDbEntity
  8
0
  6
CONTINUOUS
 62
               4
100
AcDbCircle
 10
-20.999923706054688
 20
-0.0000343322753906
 30
0.0
 40
2.25
  0
CIRCLE
  5
78
100
AcDbEntity
  8
0
  6
CONTINUOUS
 62
               4
100
AcDbCircle
 10
21.00006103515625
 20
-0.0000343322753906
 30
0.0
 40
2.25
  0
LINE
  5
79
100
AcDbEntity
  8
0
  6
CENTER
 62
             200
100
AcDbLine
 10
21.0
 20
-4.3799999999999999
 30
0.0
 11
21.0
 21
4.4699999999999998
 31
0.0
  0
LINE
  5
7A
100
AcDbEntity
  8
0
  6
CENTER
 62
             200
100
AcDbLine
 10
-21.0
 20
-4.3799999999999999
 30
0.0
 11
-21.0
 21
4.4699999999999998
 31
0.0
  0
LINE
  5
7B
100
AcDbEntity
  8
0
  6
CENTER
 62
             200
100
AcDbLine
 10
9.9000000000000004
 20
-2.8100000000000001
 30
0.0
 11
9.9000000000000004
 21
-16.0
 31
0.0
  0
LINE
  5
7C
100
AcDbEntity
  8
0
  6
CENTER
 62
             200
100
AcDbLine
 10
3.2400000000000002
 20
-9.9000000000000004
 30
0.0
 11
16.699999999999999
 21
-9.9000000000000004
 31
0.0
  0
LINE
  5
7D
100
AcDbEntity
  8
0
  6
CENTER
 62
             200
100
AcDbLine
 10
-9.9000000000000004
 20
-2.8100000000000001
 30
0.0
 11
-9.9000000000000004
 21
-16.0
 31
0.0
  0
LINE
  5
7E
100
AcDbEntity
  8
0
  6
CENTER
 62
             200
100
AcDbLine
 10
-3.2400000000000002
 20
-9.9000000000000004
 30
0.0
 11
-16.699999999999999
 21
-9.9000000000000004
 31
0.0
  0
LINE
  5
7F
100
AcDbEntity
  8
0
  6
CENTER
 62
             200
100
AcDbLine
 10
-9.9000000000000004
 20
2.8100000000000001
 30
0.0
 11
-9.9000000000000004
 21
16.0
 31
0.0
  0
LINE
  5
80
100
AcDbEntity
  8
0
  6
CENTER
 62
             200
100
AcDbLine
 10
-3.2400000000000002
 20
9.9000000000000004
 30
0.0
 11
-16.699999999999999
 21
9.9000000000000004
 31
0.0
  0
LINE
  5
81
100
AcDbEntity
  8
0
  6
CENTER
 62
             200
100
AcDbLine
 10
3.2400000000000002
 20
9.9000000000000004
 30
0.0
 11
16.699999999999999
 21
9.9000000000000004
 31
0.0
  0
LINE
  5
82
100
AcDbEntity
  8
0
  6
CENTER
 62
             200
100
AcDbLine
 10
9.9000000000000004
 20
2.8100000000000001
 30
0.0
 11
9.9000000000000004
 21
16.0
 31
0.0
  0
LINE
  5
83
100
AcDbEntity
  8
0
  6
CENTER
 62
             200
100
AcDbLine
 10
-31.969999999999999
 20
0.0
 30
0.0
 11
30.899999999999999
 21
0.0
 31
0.0
  0
LINE
  5
84
100
AcDbEntity
  8
0
  6
CENTER
 62
             200
100
AcDbLine
 10
0.0
 20
-20.420000000000002
 30
0.0
 11
0.0
 21
20.329999999999998
 31
0.0
  0
LINE
  5
85
100
AcDbEntity
  8
0
  6
CONTINUOUS
 62
               4
100
AcDbLine
 10
-27.0
 20
16.0
 30
0.0
 11
27.0
 21
16.0
 31
0.0
  0
LINE
  5
86
100
AcDbEntity
  8
0
  6
CONTINUOUS
 62
               4
100
AcDbLine
 10
27.0
 20
-16.0
 30
0.0
 11
27.0
 21
16.0
 31
0.0
  0
LINE
  5
87
100
AcDbEntity
  8
0
  6
CONTINUOUS
 62
               4
100
AcDbLine
 10
-27.0
 20
-16.0
 30
0.0
 11
27.0
 21
-16.0
 31
0.0
  0
LINE
  5
88
100
AcDbEntity
  8
0
  6
CONTINUOUS
 62
               4
100
AcDbLine
 10
-27.0
 20
-16.0
 30
0.0
 11
-27.0
 21
16.0
 31
0.0
  0
ENDBLK
  5
89
100
AcDbEntity
  8
0
100
AcDbBlockEnd
  0
BLOCK
  5
8A
100
AcDbEntity
  8
0
100
AcDbBlockBegin
  2
JIG-C_FLANGE1-5
 70
               0
 10
0.0
 20
0.0
 30
0.0
  3
JIG-C_FLANGE1-5
  1

  0
LINE
  5
8B
100
AcDbEntity
  8
0
  6
DASHED
 62
             200
100
AcDbLine
 10
-6.0
 20
-4.9000000000000004
 30
0.0
 11
-2.3999999999999999
 21
-4.9000000000000004
 31
0.0
  0
LINE
  5
8C
100
AcDbEntity
  8
0
  6
DASHED
 62
             200
100
AcDbLine
 10
-2.3999999999999999
 20
-7.1500000000000004
 30
0.0
 11
0.0
 21
-7.1500000000000004
 31
0.0
  0
LINE
  5
8D
100
AcDbEntity
  8
0
  6
DASHED
 62
             200
100
AcDbLine
 10
-2.3999999999999999
 20
-12.65
 30
0.0
 11
0.0
 21
-12.65
 31
0.0
  0
LINE
  5
8E
100
AcDbEntity
  8
0
  6
DASHED
 62
             200
100
AcDbLine
 10
-2.3999999999999999
 20
-4.9000000000000004
 30
0.0
 11
-2.3999999999999999
 21
-14.9
 31
0.0
  0
LINE
  5
8F
100
AcDbEntity
  8
0
  6
DASHED
 62
             200
100
AcDbLine
 10
-6.0
 20
-14.9
 30
0.0
 11
-2.3999999999999999
 21
-14.9
 31
0.0
  0
LINE
  5
90
100
AcDbEntity
  8
0
  6
DASHED
 62
             200
100
AcDbLine
 10
-2.3999999999999999
 20
12.65
 30
0.0
 11
0.0
 21
12.65
 31
0.0
  0
LINE
  5
91
100
AcDbEntity
  8
0
  6
DASHED
 62
             200
100
AcDbLine
 10
-2.3999999999999999
 20
7.1500000000000004
 30
0.0
 11
0.0
 21
7.1500000000000004
 31
0.0
  0
LINE
  5
92
100
AcDbEntity
  8
0
  6
DASHED
 62
             200
100
AcDbLine
 10
-2.3999999999999999
 20
4.9000000000000004
 30
0.0
 11
-2.3999999999999999
 21
14.9
 31
0.0
  0
LINE
  5
93
100
AcDbEntity
  8
0
  6
DASHED
 62
             200
100
AcDbLine
 10
-6.0
 20
4.9000000000000004
 30
0.0
 11
-2.3999999999999999
 21
4.9000000000000004
 31
0.0
  0
LINE
  5
94
100
AcDbEntity
  8
0
  6
DASHED
 62
             200
100
AcDbLine
 10
-6.0
 20
14.9
 30
0.0
 11
-2.3999999999999999
 21
14.9
 31
0.0
  0
LINE
  5
95
100
AcDbEntity
  8
0
  6
CENTER
 62
             200
100
AcDbLine
 10
-7.8700000000000001
 20
9.9000000000000004
 30
0.0
 11
2.0800000000000001
 21
9.9000000000000004
 31
0.0
  0
LINE
  5
96
100
AcDbEntity
  8
0
  6
CENTER
 62
             200
100
AcDbLine
 10
-9.5299999999999994
 20
0.0
 30
0.0
 11
2.8199999999999998
 21
0.0
 31
0.0
  0
LINE
  5
97
100
AcDbEntity
  8
0
  6
CENTER
 62
             200
100
AcDbLine
 10
-7.8700000000000001
 20
-9.9000000000000004
 30
0.0
 11
2.0800000000000001
 21
-9.9000000000000004
 31
0.0
  0
LINE
  5
98
100
AcDbEntity
  8
0
  6
CONTINUOUS
 62
               4
100
AcDbLine
 10
-6.0
 20
-16.0
 30
0.0
 11
0.0
 21
-16.0
 31
0.0
  0
LINE
  5
99
100
AcDbEntity
  8
0
  6
CONTINUOUS
 62
               4
100
AcDbLine
 10
-6.0
 20
16.0
 30
0.0
 11
0.0
 21
16.0
 31
0.0
  0
LINE
  5
9A
100
AcDbEntity
  8
0
  6
CONTINUOUS
 62
               4
100
AcDbLine
 10
-6.0
 20
-16.0
 30
0.0
 11
-6.0
 21
16.0
 31
0.0
  0
LINE
  5
9B
100
AcDbEntity
  8
0
  6
CONTINUOUS
 62
               4
100
AcDbLine
 10
0.0
 20
-16.0
 30
0.0
 11
0.0
 21
16.0
 31
0.0
  0
ENDBLK
  5
9C
100
AcDbEntity
  8
0
100
AcDbBlockEnd
  0
BLOCK
  5
9D
100
AcDbEntity
  8
0
100
AcDbBlockBegin
  2
JIG-C_FLANGE1-6
 70
               0
 10
0.0
 20
0.0
 30
0.0
  3
JIG-C_FLANGE1-6
  1

  0
LINE
  5
9E
100
AcDbEntity
  8
0
  6
CENTER
 62
             200
100
AcDbLine
 10
21.0
 20
-1.6899999999999999
 30
0.0
 11
21.0
 21
7.71
 31
0.0
  0
LINE
  5
9F
100
AcDbEntity
  8
0
  6
CENTER
 62
             200
100
AcDbLine
 10
-9.9000000000000004
 20
-1.8700000000000001
 30
0.0
 11
-9.9000000000000004
 21
7.71
 31
0.0
  0
LINE
  5
A0
100
AcDbEntity
  8
0
  6
CENTER
 62
             200
100
AcDbLine
 10
9.9000000000000004
 20
-1.6899999999999999
 30
0.0
 11
9.9000000000000004
 21
7.71
 31
0.0
  0
LINE
  5
A1
100
AcDbEntity
  8
0
  6
CENTER
 62
             200
100
AcDbLine
 10
0.0
 20
-4.46
 30
0.0
 11
0.0
 21
10.470000000000001
 31
0.0
  0
LINE
  5
A2
100
AcDbEntity
  8
0
  6
CENTER
 62
             200
100
AcDbLine
 10
-21.0
 20
-1.6899999999999999
 30
0.0
 11
-21.0
 21
7.5199999999999996
 31
0.0
  0
LINE
  5
A3
100
AcDbEntity
  8
0
  6
CONTINUOUS
 62
               4
100
AcDbLine
 10
27.0
 20
0.0
 30
0.0
 11
27.0
 21
6.0
 31
0.0
  0
LINE
  5
A4
100
AcDbEntity
  8
0
  6
CONTINUOUS
 62
               4
100
AcDbLine
 10
-27.0
 20
0.0
 30
0.0
 11
-27.0
 21
6.0
 31
0.0
  0
LINE
  5
A5
100
AcDbEntity
  8
0
  6
CONTINUOUS
 62
               4
100
AcDbLine
 10
-27.0
 20
6.0
 30
0.0
 11
27.0
 21
6.0
 31
0.0
  0
LINE
  5
A6
100
AcDbEntity
  8
0
  6
CONTINUOUS
 62
               4
100
AcDbLine
 10
-27.0
 20
0.0
 30
0.0
 11
27.0
 21
0.0
 31
0.0
  0
ENDBLK
  5
A7
100
AcDbEntity
  8
0
100
AcDbBlockEnd
  0
BLOCK
  5
A8
100
AcDbEntity
  8
0
100
AcDbBlockBegin
  2
JIG-C_FLANGE1-7
 70
               0
 10
0.0
 20
0.0
 30
0.0
  3
JIG-C_FLANGE1-7
  1

  0
CIRCLE
  5
A9
100
AcDbEntity
  8
0
  6
CONTINUOUS
 62
               4
100
AcDbCircle
 10
23.000076293945313
 20
-11.999984741210938
 30
0.0
 40
2.25
  0
CIRCLE
  5
AA
100
AcDbEntity
  8
0
  6
CONTINUOUS
 62
               4
100
AcDbCircle
 10
23.000076293945313
 20
12.000015258789063
 30
0.0
 40
2.25
  0
CIRCLE
  5
AB
100
AcDbEntity
  8
0
  6
CONTINUOUS
 62
               4
100
AcDbCircle
 10
-11.999923706054688
 20
-11.999984741210938
 30
0.0
 40
5.0
  0
CIRCLE
  5
AC
100
AcDbEntity
  8
0
  6
CONTINUOUS
 62
               4
100
AcDbCircle
 10
-11.999923706054688
 20
-11.999984741210938
 30
0.0
 40
2.75
  0
CIRCLE
  5
AD
100
AcDbEntity
  8
0
  6
CONTINUOUS
 62
               4
100
AcDbCircle
 10
-11.999923706054688
 20
12.000015258789063
 30
0.0
 40
2.75
  0
CIRCLE
  5
AE
100
AcDbEntity
  8
0
  6
CONTINUOUS
 62
               4
100
AcDbCircle
 10
-11.999923706054688
 20
12.000015258789063
 30
0.0
 40
5.0
  0
CIRCLE
  5
AF
100
AcDbEntity
  8
0
  6
CONTINUOUS
 62
               4
100
AcDbCircle
 10
12.000076293945313
 20
-11.999984741210938
 30
0.0
 40
5.0
  0
CIRCLE
  5
B0
100
AcDbEntity
  8
0
  6
CONTINUOUS
 62
               4
100
AcDbCircle
 10
12.000076293945313
 20
-11.999984741210938
 30
0.0
 40
2.75
  0
CIRCLE
  5
B1
100
AcDbEntity
  8
0
  6
CONTINUOUS
 62
               4
100
AcDbCircle
 10
12.000076293945313
 20
12.000015258789063
 30
0.0
 40
2.75
  0
CIRCLE
  5
B2
100
AcDbEntity
  8
0
  6
CONTINUOUS
 62
               4
100
AcDbCircle
 10
12.000076293945313
 20
12.000015258789063
 30
0.0
 40
5.0
  0
CIRCLE
  5
B3
100
AcDbEntity
  8
0
  6
CONTINUOUS
 62
               4
100
AcDbCircle
 10
0.0000762939453125
 20
0.0000152587890625
 30
0.0
 40
5.5
  0
CIRCLE
  5
B4
100
AcDbEntity
  8
0
  6
CONTINUOUS
 62
               4
100
AcDbCircle
 10
-22.999923706054688
 20
-11.999984741210938
 30
0.0
 40
2.25
  0
CIRCLE
  5
B5
100
AcDbEntity
  8
0
  6
CONTINUOUS
 62
               4
100
AcDbCircle
 10
-22.999923706054688
 20
12.000015258789063
 30
0.0
 40
2.25
  0
LINE
  5
B6
100
AcDbEntity
  8
0
  6
CENTER
 62
             200
100
AcDbLine
 10
-23.0
 20
8.1799999999999997
 30
0.0
 11
-23.0
 21
15.75
 31
0.0
  0
LINE
  5
B7
100
AcDbEntity
  8
0
  6
CENTER
 62
             200
100
AcDbLine
 10
-19.77
 20
12.0
 30
0.0
 11
-26.879999999999999
 21
12.0
 31
0.0
  0
LINE
  5
B8
100
AcDbEntity
  8
0
  6
CENTER
 62
             200
100
AcDbLine
 10
-18.760000000000002
 20
-12.0
 30
0.0
 11
-26.879999999999999
 21
-12.0
 31
0.0
  0
LINE
  5
B9
100
AcDbEntity
  8
0
  6
CENTER
 62
             200
100
AcDbLine
 10
-23.0
 20
-8.1799999999999997
 30
0.0
 11
-23.0
 21
-15.75
 31
0.0
  0
LINE
  5
BA
100
AcDbEntity
  8
0
  6
CENTER
 62
             200
100
AcDbLine
 10
23.0
 20
-8.1799999999999997
 30
0.0
 11
23.0
 21
-15.75
 31
0.0
  0
LINE
  5
BB
100
AcDbEntity
  8
0
  6
CENTER
 62
             200
100
AcDbLine
 10
18.760000000000002
 20
-12.0
 30
0.0
 11
26.879999999999999
 21
-12.0
 31
0.0
  0
LINE
  5
BC
100
AcDbEntity
  8
0
  6
CENTER
 62
             200
100
AcDbLine
 10
23.0
 20
8.1799999999999997
 30
0.0
 11
23.0
 21
15.75
 31
0.0
  0
LINE
  5
BD
100
AcDbEntity
  8
0
  6
CENTER
 62
             200
100
AcDbLine
 10
18.760000000000002
 20
12.0
 30
0.0
 11
26.879999999999999
 21
12.0
 31
0.0
  0
LINE
  5
BE
100
AcDbEntity
  8
0
  6
CENTER
 62
             200
100
AcDbLine
 10
-5.0199999999999996
 20
-12.0
 30
0.0
 11
-18.300000000000001
 21
-12.0
 31
0.0
  0
LINE
  5
BF
100
AcDbEntity
  8
0
  6
CENTER
 62
             200
100
AcDbLine
 10
-12.0
 20
5.0499999999999998
 30
0.0
 11
-12.0
 21
19.25
 31
0.0
  0
LINE
  5
C0
100
AcDbEntity
  8
0
  6
CENTER
 62
             200
100
AcDbLine
 10
-12.0
 20
-5.0499999999999998
 30
0.0
 11
-12.0
 21
-19.289999999999999
 31
0.0
  0
LINE
  5
C1
100
AcDbEntity
  8
0
  6
CENTER
 62
             200
100
AcDbLine
 10
-5.5700000000000003
 20
12.0
 30
0.0
 11
-18.48
 21
12.0
 31
0.0
  0
LINE
  5
C2
100
AcDbEntity
  8
0
  6
CENTER
 62
             200
100
AcDbLine
 10
5.2999999999999998
 20
-12.0
 30
0.0
 11
18.760000000000002
 21
-12.0
 31
0.0
  0
LINE
  5
C3
100
AcDbEntity
  8
0
  6
CENTER
 62
             200
100
AcDbLine
 10
12.0
 20
-5.0499999999999998
 30
0.0
 11
12.0
 21
-19.469999999999999
 31
0.0
  0
LINE
  5
C4
100
AcDbEntity
  8
0
  6
CENTER
 62
             200
100
AcDbLine
 10
4.9299999999999997
 20
12.0
 30
0.0
 11
18.760000000000002
 21
12.0
 31
0.0
  0
LINE
  5
C5
100
AcDbEntity
  8
0
  6
CENTER
 62
             200
100
AcDbLine
 10
12.0
 20
5.0499999999999998
 30
0.0
 11
12.0
 21
19.059999999999999
 31
0.0
  0
LINE
  5
C6
100
AcDbEntity
  8
0
  6
CENTER
 62
             200
100
AcDbLine
 10
-32.68
 20
0.0
 30
0.0
 11
32.409999999999997
 21
0.0
 31
0.0
  0
LINE
  5
C7
100
AcDbEntity
  8
0
  6
CENTER
 62
             200
100
AcDbLine
 10
0.0
 20
-22.609999999999999
 30
0.0
 11
0.0
 21
23.120000000000001
 31
0.0
  0
LINE
  5
C8
100
AcDbEntity
  8
0
  6
CONTINUOUS
 62
               4
100
AcDbLine
 10
-29.0
 20
18.0
 30
0.0
 11
29.0
 21
18.0
 31
0.0
  0
LINE
  5
C9
100
AcDbEntity
  8
0
  6
CONTINUOUS
 62
               4
100
AcDbLine
 10
29.0
 20
-18.0
 30
0.0
 11
29.0
 21
18.0
 31
0.0
  0
LINE
  5
CA
100
AcDbEntity
  8
0
  6
CONTINUOUS
 62
               4
100
AcDbLine
 10
-29.0
 20
-18.0
 30
0.0
 11
-29.0
 21
18.0
 31
0.0
  0
LINE
  5
CB
100
AcDbEntity
  8
0
  6
CONTINUOUS
 62
               4
100
AcDbLine
 10
-29.0
 20
-18.0
 30
0.0
 11
29.0
 21
-18.0
 31
0.0
  0
ENDBLK
  5
CC
100
AcDbEntity
  8
0
100
AcDbBlockEnd
  0
BLOCK
  5
CD
100
AcDbEntity
  8
0
100
AcDbBlockBegin
  2
JIG-C_FLANGE1-8
 70
               0
 10
0.0
 20
0.0
 30
0.0
  3
JIG-C_FLANGE1-8
  1

  0
LINE
  5
CE
100
AcDbEntity
  8
0
  6
DASHED
 62
             200
100
AcDbLine
 10
-2.3999999999999999
 20
-14.75
 30
0.0
 11
0.0
 21
-14.75
 31
0.0
  0
LINE
  5
CF
100
AcDbEntity
  8
0
  6
DASHED
 62
             200
100
AcDbLine
 10
-6.0
 20
-17.0
 30
0.0
 11
-2.3999999999999999
 21
-17.0
 31
0.0
  0
LINE
  5
D0
100
AcDbEntity
  8
0
  6
DASHED
 62
             200
100
AcDbLine
 10
-2.3999999999999999
 20
-7.0
 30
0.0
 11
-2.3999999999999999
 21
-17.0
 31
0.0
  0
LINE
  5
D1
100
AcDbEntity
  8
0
  6
DASHED
 62
             200
100
AcDbLine
 10
-6.0
 20
-7.0
 30
0.0
 11
-2.3999999999999999
 21
-7.0
 31
0.0
  0
LINE
  5
D2
100
AcDbEntity
  8
0
  6
DASHED
 62
             200
100
AcDbLine
 10
-2.3999999999999999
 20
-9.25
 30
0.0
 11
0.0
 21
-9.25
 31
0.0
  0
LINE
  5
D3
100
AcDbEntity
  8
0
  6
DASHED
 62
             200
100
AcDbLine
 10
-2.3999999999999999
 20
9.25
 30
0.0
 11
0.0
 21
9.25
 31
0.0
  0
LINE
  5
D4
100
AcDbEntity
  8
0
  6
DASHED
 62
             200
100
AcDbLine
 10
-2.3999999999999999
 20
14.75
 30
0.0
 11
0.0
 21
14.75
 31
0.0
  0
LINE
  5
D5
100
AcDbEntity
  8
0
  6
DASHED
 62
             200
100
AcDbLine
 10
-2.3999999999999999
 20
7.0
 30
0.0
 11
-2.3999999999999999
 21
17.0
 31
0.0
  0
LINE
  5
D6
100
AcDbEntity
  8
0
  6
DASHED
 62
             200
100
AcDbLine
 10
-6.0
 20
7.0
 30
0.0
 11
-2.3999999999999999
 21
7.0
 31
0.0
  0
LINE
  5
D7
100
AcDbEntity
  8
0
  6
DASHED
 62
             200
100
AcDbLine
 10
-6.0
 20
17.0
 30
0.0
 11
-2.3999999999999999
 21
17.0
 31
0.0
  0
LINE
  5
D8
100
AcDbEntity
  8
0
  6
CENTER
 62
             200
100
AcDbLine
 10
-8.2400000000000002
 20
-12.0
 30
0.0
 11
1.8999999999999999
 21
-12.0
 31
0.0
  0
LINE
  5
D9
100
AcDbEntity
  8
0
  6
CENTER
 62
             200
100
AcDbLine
 10
-8.0500000000000007
 20
12.0
 30
0.0
 11
1.53
 21
12.0
 31
0.0
  0
LINE
  5
DA
100
AcDbEntity
  8
0
  6
CENTER
 62
             200
100
AcDbLine
 10
-9.3399999999999999
 20
0.0
 30
0.0
 11
3.1899999999999999
 21
0.0
 31
0.0
  0
LINE
  5
DB
100
AcDbEntity
  8
0
  6
CONTINUOUS
 62
               4
100
AcDbLine
 10
-6.0
 20
-18.0
 30
0.0
 11
0.0
 21
-18.0
 31
0.0
  0
LINE
  5
DC
100
AcDbEntity
  8
0
  6
CONTINUOUS
 62
               4
100
AcDbLine
 10
-6.0
 20
18.0
 30
0.0
 11
0.0
 21
18.0
 31
0.0
  0
LINE
  5
DD
100
AcDbEntity
  8
0
  6
CONTINUOUS
 62
               4
100
AcDbLine
 10
0.0
 20
-18.0
 30
0.0
 11
0.0
 21
18.0
 31
0.0
  0
LINE
  5
DE
100
AcDbEntity
  8
0
  6
CONTINUOUS
 62
               4
100
AcDbLine
 10
-6.0
 20
-18.0
 30
0.0
 11
-6.0
 21
18.0
 31
0.0
  0
ENDBLK
  5
DF
100
AcDbEntity
  8
0
100
AcDbBlockEnd
  0
BLOCK
  5
E0
100
AcDbEntity
  8
0
100
AcDbBlockBegin
  2
JIG-C_FLANGE1-9
 70
               0
 10
0.0
 20
0.0
 30
0.0
  3
JIG-C_FLANGE1-9
  1

  0
LINE
  5
E1
100
AcDbEntity
  8
0
  6
CENTER
 62
             200
100
AcDbLine
 10
-23.0
 20
-1.45
 30
0.0
 11
-23.0
 21
7.5800000000000001
 31
0.0
  0
LINE
  5
E2
100
AcDbEntity
  8
0
  6
CENTER
 62
             200
100
AcDbLine
 10
-12.0
 20
-1.45
 30
0.0
 11
-12.0
 21
7.7699999999999996
 31
0.0
  0
LINE
  5
E3
100
AcDbEntity
  8
0
  6
CENTER
 62
             200
100
AcDbLine
 10
23.0
 20
-1.45
 30
0.0
 11
23.0
 21
7.5800000000000001
 31
0.0
  0
LINE
  5
E4
100
AcDbEntity
  8
0
  6
CENTER
 62
             200
100
AcDbLine
 10
12.0
 20
-1.45
 30
0.0
 11
12.0
 21
7.7699999999999996
 31
0.0
  0
LINE
  5
E5
100
AcDbEntity
  8
0
  6
CENTER
 62
             200
100
AcDbLine
 10
0.0
 20
-2.5499999999999998
 30
0.0
 11
0.0
 21
9.2400000000000002
 31
0.0
  0
LINE
  5
E6
100
AcDbEntity
  8
0
  6
CONTINUOUS
 62
               4
100
AcDbLine
 10
29.0
 20
0.0
 30
0.0
 11
29.0
 21
6.0
 31
0.0
  0
LINE
  5
E7
100
AcDbEntity
  8
0
  6
CONTINUOUS
 62
               4
100
AcDbLine
 10
-29.0
 20
0.0
 30
0.0
 11
-29.0
 21
6.0
 31
0.0
  0
LINE
  5
E8
100
AcDbEntity
  8
0
  6
CONTINUOUS
 62
               4
100
AcDbLine
 10
-29.0
 20
6.0
 30
0.0
 11
29.0
 21
6.0
 31
0.0
  0
LINE
  5
E9
100
AcDbEntity
  8
0
  6
CONTINUOUS
 62
               4
100
AcDbLine
 10
-29.0
 20
0.0
 30
0.0
 11
29.0
 21
0.0
 31
0.0
  0
ENDBLK
  5
EA
100
AcDbEntity
  8
0
100
AcDbBlockEnd
  0
BLOCK
  5
EB
100
AcDbEntity
  8
0
100
AcDbBlockBegin
  2
JIG-C_FLANGE1-10
 70
               0
 10
0.0
 20
0.0
 30
0.0
  3
JIG-C_FLANGE1-10
  1

  0
CIRCLE
  5
EC
100
AcDbEntity
  8
0
  6
CONTINUOUS
 62
               4
100
AcDbCircle
 10
13.999801635742188
 20
-14.000091552734375
 30
0.0
 40
5.5
  0
CIRCLE
  5
ED
100
AcDbEntity
  8
0
  6
CONTINUOUS
 62
               4
100
AcDbCircle
 10
13.999801635742188
 20
-14.000091552734375
 30
0.0
 40
3.2999992370605469
  0
CIRCLE
  5
EE
100
AcDbEntity
  8
0
  6
CONTINUOUS
 62
               4
100
AcDbCircle
 10
-14.000198364257813
 20
-14.000091552734375
 30
0.0
 40
5.5
  0
CIRCLE
  5
EF
100
AcDbEntity
  8
0
  6
CONTINUOUS
 62
               4
100
AcDbCircle
 10
-14.000198364257813
 20
-14.000091552734375
 30
0.0
 40
3.2999992370605469
  0
CIRCLE
  5
F0
100
AcDbEntity
  8
0
  6
CONTINUOUS
 62
               4
100
AcDbCircle
 10
-27.000198364257812
 20
-14.000091552734375
 30
0.0
 40
2.75
  0
CIRCLE
  5
F1
100
AcDbEntity
  8
0
  6
CONTINUOUS
 62
               4
100
AcDbCircle
 10
26.999801635742188
 20
13.999923706054688
 30
0.0
 40
2.75
  0
CIRCLE
  5
F2
100
AcDbEntity
  8
0
  6
CONTINUOUS
 62
               4
100
AcDbCircle
 10
13.999801635742188
 20
13.999923706054688
 30
0.0
 40
3.2999992370605469
  0
CIRCLE
  5
F3
100
AcDbEntity
  8
0
  6
CONTINUOUS
 62
               4
100
AcDbCircle
 10
13.999801635742188
 20
13.999923706054688
 30
0.0
 40
5.5
  0
CIRCLE
  5
F4
100
AcDbEntity
  8
0
  6
CONTINUOUS
 62
               4
100
AcDbCircle
 10
-27.000198364257812
 20
13.999923706054688
 30
0.0
 40
2.75
  0
CIRCLE
  5
F5
100
AcDbEntity
  8
0
  6
CONTINUOUS
 62
               4
100
AcDbCircle
 10
-14.000198364257813
 20
13.999923706054688
 30
0.0
 40
3.2999992370605469
  0
CIRCLE
  5
F6
100
AcDbEntity
  8
0
  6
CONTINUOUS
 62
               4
100
AcDbCircle
 10
-14.000198364257813
 20
13.999923706054688
 30
0.0
 40
5.5
  0
CIRCLE
  5
F7
100
AcDbEntity
  8
0
  6
CONTINUOUS
 62
               4
100
AcDbCircle
 10
26.999801635742188
 20
-14.000091552734375
 30
0.0
 40
2.75
  0
CIRCLE
  5
F8
100
AcDbEntity
  8
0
  6
CONTINUOUS
 62
               4
100
AcDbCircle
 10
-0.0001983642578125
 20
-0.0000762939453125
 30
0.0
 40
8.5
  0
LINE
  5
F9
100
AcDbEntity
  8
0
  6
CONTINUOUS
 62
               4
100
AcDbLine
 10
34.0
 20
-21.0
 30
0.0
 11
34.0
 21
21.0
 31
0.0
  0
LINE
  5
FA
100
AcDbEntity
  8
0
  6
CENTER
 62
             200
100
AcDbLine
 10
27.0
 20
-9.4700000000000006
 30
0.0
 11
27.0
 21
-18.699999999999999
 31
0.0
  0
LINE
  5
FB
100
AcDbEntity
  8
0
  6
CENTER
 62
             200
100
AcDbLine
 10
14.0
 20
-6.6299999999999999
 30
0.0
 11
14.0
 21
-21.370000000000001
 31
0.0
  0
LINE
  5
FC
100
AcDbEntity
  8
0
  6
CENTER
 62
             200
100
AcDbLine
 10
31.699999999999999
 20
-14.0
 30
0.0
 11
6.5
 21
-14.0
 31
0.0
  0
LINE
  5
FD
100
AcDbEntity
  8
0
  6
CENTER
 62
             200
100
AcDbLine
 10
-14.0
 20
-6.6299999999999999
 30
0.0
 11
-14.0
 21
-21.370000000000001
 31
0.0
  0
LINE
  5
FE
100
AcDbEntity
  8
0
  6
CENTER
 62
             200
100
AcDbLine
 10
-31.699999999999999
 20
-14.0
 30
0.0
 11
-6.5
 21
-14.0
 31
0.0
  0
LINE
  5
FF
100
AcDbEntity
  8
0
  6
CENTER
 62
             200
100
AcDbLine
 10
-27.0
 20
-9.4700000000000006
 30
0.0
 11
-27.0
 21
-18.699999999999999
 31
0.0
  0
LINE
  5
100
100
AcDbEntity
  8
0
  6
CENTER
 62
             200
100
AcDbLine
 10
27.0
 20
9.4700000000000006
 30
0.0
 11
27.0
 21
18.699999999999999
 31
0.0
  0
LINE
  5
101
100
AcDbEntity
  8
0
  6
CENTER
 62
             200
100
AcDbLine
 10
14.0
 20
6.6299999999999999
 30
0.0
 11
14.0
 21
21.370000000000001
 31
0.0
  0
LINE
  5
102
100
AcDbEntity
  8
0
  6
CENTER
 62
             200
100
AcDbLine
 10
31.699999999999999
 20
14.0
 30
0.0
 11
6.5
 21
14.0
 31
0.0
  0
LINE
  5
103
100
AcDbEntity
  8
0
  6
CENTER
 62
             200
100
AcDbLine
 10
0.0
 20
-27.969999999999999
 30
0.0
 11
0.0
 21
27.760000000000002
 31
0.0
  0
LINE
  5
104
100
AcDbEntity
  8
0
  6
CENTER
 62
             200
100
AcDbLine
 10
-14.0
 20
6.6299999999999999
 30
0.0
 11
-14.0
 21
21.370000000000001
 31
0.0
  0
LINE
  5
105
100
AcDbEntity
  8
0
  6
CENTER
 62
             200
100
AcDbLine
 10
-31.699999999999999
 20
14.0
 30
0.0
 11
-6.5
 21
14.0
 31
0.0
  0
LINE
  5
106
100
AcDbEntity
  8
0
  6
CENTER
 62
             200
100
AcDbLine
 10
-41.469999999999999
 20
0.0
 30
0.0
 11
43.009999999999998
 21
0.0
 31
0.0
  0
LINE
  5
107
100
AcDbEntity
  8
0
  6
CENTER
 62
             200
100
AcDbLine
 10
-27.0
 20
9.4700000000000006
 30
0.0
 11
-27.0
 21
18.699999999999999
 31
0.0
  0
LINE
  5
108
100
AcDbEntity
  8
0
  6
CONTINUOUS
 62
               4
100
AcDbLine
 10
-34.0
 20
21.0
 30
0.0
 11
34.0
 21
21.0
 31
0.0
  0
LINE
  5
109
100
AcDbEntity
  8
0
  6
CONTINUOUS
 62
               4
100
AcDbLine
 10
-34.0
 20
-21.0
 30
0.0
 11
-34.0
 21
21.0
 31
0.0
  0
LINE
  5
10A
100
AcDbEntity
  8
0
  6
CONTINUOUS
 62
               4
100
AcDbLine
 10
-34.0
 20
-21.0
 30
0.0
 11
34.0
 21
-21.0
 31
0.0
  0
ENDBLK
  5
10B
100
AcDbEntity
  8
0
100
AcDbBlockEnd
  0
BLOCK
  5
10C
100
AcDbEntity
  8
0
100
AcDbBlockBegin
  2
JIG-C_FLANGE1-11
 70
               0
 10
0.0
 20
0.0
 30
0.0
  3
JIG-C_FLANGE1-11
  1

  0
LINE
  5
10D
100
AcDbEntity
  8
0
  6
DASHED
 62
             200
100
AcDbLine
 10
-8.0
 20
-19.5
 30
0.0
 11
-3.7000000000000002
 21
-19.5
 31
0.0
  0
LINE
  5
10E
100
AcDbEntity
  8
0
  6
DASHED
 62
             200
100
AcDbLine
 10
-3.7000000000000002
 20
-17.300000000000001
 30
0.0
 11
0.0
 21
-17.300000000000001
 31
0.0
  0
LINE
  5
10F
100
AcDbEntity
  8
0
  6
DASHED
 62
             200
100
AcDbLine
 10
-3.7000000000000002
 20
-10.699999999999999
 30
0.0
 11
0.0
 21
-10.699999999999999
 31
0.0
  0
LINE
  5
110
100
AcDbEntity
  8
0
  6
DASHED
 62
             200
100
AcDbLine
 10
-3.7000000000000002
 20
-8.5
 30
0.0
 11
-3.7000000000000002
 21
-19.5
 31
0.0
  0
LINE
  5
111
100
AcDbEntity
  8
0
  6
DASHED
 62
             200
100
AcDbLine
 10
-8.0
 20
-8.5
 30
0.0
 11
-3.7000000000000002
 21
-8.5
 31
0.0
  0
LINE
  5
112
100
AcDbEntity
  8
0
  6
DASHED
 62
             200
100
AcDbLine
 10
-3.7000000000000002
 20
17.300000000000001
 30
0.0
 11
0.0
 21
17.300000000000001
 31
0.0
  0
LINE
  5
113
100
AcDbEntity
  8
0
  6
DASHED
 62
             200
100
AcDbLine
 10
-3.7000000000000002
 20
10.699999999999999
 30
0.0
 11
0.0
 21
10.699999999999999
 31
0.0
  0
LINE
  5
114
100
AcDbEntity
  8
0
  6
DASHED
 62
             200
100
AcDbLine
 10
-3.7000000000000002
 20
8.5
 30
0.0
 11
-3.7000000000000002
 21
19.5
 31
0.0
  0
LINE
  5
115
100
AcDbEntity
  8
0
  6
DASHED
 62
             200
100
AcDbLine
 10
-8.0
 20
8.5
 30
0.0
 11
-3.7000000000000002
 21
8.5
 31
0.0
  0
LINE
  5
116
100
AcDbEntity
  8
0
  6
DASHED
 62
             200
100
AcDbLine
 10
-8.0
 20
19.5
 30
0.0
 11
-3.7000000000000002
 21
19.5
 31
0.0
  0
LINE
  5
117
100
AcDbEntity
  8
0
  6
CENTER
 62
             200
100
AcDbLine
 10
-10.4
 20
-14.0
 30
0.0
 11
2.5499999999999998
 21
-14.0
 31
0.0
  0
LINE
  5
118
100
AcDbEntity
  8
0
  6
CENTER
 62
             200
100
AcDbLine
 10
-9.5099999999999998
 20
14.0
 30
0.0
 11
2.5499999999999998
 21
14.0
 31
0.0
  0
LINE
  5
119
100
AcDbEntity
  8
0
  6
CENTER
 62
             200
100
AcDbLine
 10
-10.4
 20
0.0
 30
0.0
 11
2.5499999999999998
 21
0.0
 31
0.0
  0
LINE
  5
11A
100
AcDbEntity
  8
0
  6
CONTINUOUS
 62
               4
100
AcDbLine
 10
-8.0
 20
-21.0
 30
0.0
 11
0.0
 21
-21.0
 31
0.0
  0
LINE
  5
11B
100
AcDbEntity
  8
0
  6
CONTINUOUS
 62
               4
100
AcDbLine
 10
-8.0
 20
21.0
 30
0.0
 11
0.0
 21
21.0
 31
0.0
  0
LINE
  5
11C
100
AcDbEntity
  8
0
  6
CONTINUOUS
 62
               4
100
AcDbLine
 10
-8.0
 20
-21.0
 30
0.0
 11
-8.0
 21
21.0
 31
0.0
  0
LINE
  5
11D
100
AcDbEntity
  8
0
  6
CONTINUOUS
 62
               4
100
AcDbLine
 10
0.0
 20
-21.0
 30
0.0
 11
0.0
 21
21.0
 31
0.0
  0
ENDBLK
  5
11E
100
AcDbEntity
  8
0
100
AcDbBlockEnd
  0
BLOCK
  5
11F
100
AcDbEntity
  8
0
100
AcDbBlockBegin
  2
JIG-C_FLANGE1-12
 70
               0
 10
0.0
 20
0.0
 30
0.0
  3
JIG-C_FLANGE1-12
  1

  0
LINE
  5
120
100
AcDbEntity
  8
0
  6
CENTER
 62
             200
100
AcDbLine
 10
-27.0
 20
-1.76
 30
0.0
 11
-27.0
 21
9.9399999999999995
 31
0.0
  0
LINE
  5
121
100
AcDbEntity
  8
0
  6
CENTER
 62
             200
100
AcDbLine
 10
27.0
 20
-1.5800000000000001
 30
0.0
 11
27.0
 21
9.5899999999999999
 31
0.0
  0
LINE
  5
122
100
AcDbEntity
  8
0
  6
CENTER
 62
             200
100
AcDbLine
 10
-14.0
 20
-1.4099999999999999
 30
0.0
 11
-14.0
 21
9.5899999999999999
 31
0.0
  0
LINE
  5
123
100
AcDbEntity
  8
0
  6
CENTER
 62
             200
100
AcDbLine
 10
14.0
 20
-1.4099999999999999
 30
0.0
 11
14.0
 21
9.2300000000000004
 31
0.0
  0
LINE
  5
124
100
AcDbEntity
  8
0
  6
CENTER
 62
             200
100
AcDbLine
 10
0.0
 20
-2.4700000000000002
 30
0.0
 11
0.0
 21
10.48
 31
0.0
  0
LINE
  5
125
100
AcDbEntity
  8
0
  6
CONTINUOUS
 62
               4
100
AcDbLine
 10
34.0
 20
0.0
 30
0.0
 11
34.0
 21
8.0
 31
0.0
  0
LINE
  5
126
100
AcDbEntity
  8
0
  6
CONTINUOUS
 62
               4
100
AcDbLine
 10
-34.0
 20
0.0
 30
0.0
 11
-34.0
 21
8.0
 31
0.0
  0
LINE
  5
127
100
AcDbEntity
  8
0
  6
CONTINUOUS
 62
               4
100
AcDbLine
 10
-34.0
 20
8.0
 30
0.0
 11
34.0
 21
8.0
 31
0.0
  0
LINE
  5
128
100
AcDbEntity
  8
0
  6
CONTINUOUS
 62
               4
100
AcDbLine
 10
-34.0
 20
0.0
 30
0.0
 11
34.0
 21
0.0
 31
0.0
  0
ENDBLK
  5
129
100
AcDbEntity
  8
0
100
AcDbBlockEnd
  0
BLOCK
  5
12A
100
AcDbEntity
  8
0
100
AcDbBlockBegin
  2
JIG-C_FLANGE1-13
 70
               0
 10
0.0
 20
0.0
 30
0.0
  3
JIG-C_FLANGE1-13
  1

  0
CIRCLE
  5
12B
100
AcDbEntity
  8
0
  6
CONTINUOUS
 62
               4
100
AcDbCircle
 10
16.9998779296875
 20
-17.000106811523437
 30
0.0
 40
5.5
  0
CIRCLE
  5
12C
100
AcDbEntity
  8
0
  6
CONTINUOUS
 62
               4
100
AcDbCircle
 10
16.9998779296875
 20
-17.000106811523437
 30
0.0
 40
3.2999992370605469
  0
CIRCLE
  5
12D
100
AcDbEntity
  8
0
  6
CONTINUOUS
 62
               4
100
AcDbCircle
 10
-17.000106811523437
 20
-17.000106811523437
 30
0.0
 40
5.5
  0
CIRCLE
  5
12E
100
AcDbEntity
  8
0
  6
CONTINUOUS
 62
               4
100
AcDbCircle
 10
-17.000106811523437
 20
-17.000106811523437
 30
0.0
 40
3.2999992370605469
  0
CIRCLE
  5
12F
100
AcDbEntity
  8
0
  6
CONTINUOUS
 62
               4
100
AcDbCircle
 10
-29.000106811523438
 20
-17.000106811523437
 30
0.0
 40
2.75
  0
CIRCLE
  5
130
100
AcDbEntity
  8
0
  6
CONTINUOUS
 62
               4
100
AcDbCircle
 10
-29.000106811523438
 20
16.999893188476562
 30
0.0
 40
2.75
  0
CIRCLE
  5
131
100
AcDbEntity
  8
0
  6
CONTINUOUS
 62
               4
100
AcDbCircle
 10
-17.000106811523437
 20
16.999893188476562
 30
0.0
 40
3.2999992370605469
  0
CIRCLE
  5
132
100
AcDbEntity
  8
0
  6
CONTINUOUS
 62
               4
100
AcDbCircle
 10
-17.000106811523437
 20
16.999893188476562
 30
0.0
 40
5.5
  0
CIRCLE
  5
133
100
AcDbEntity
  8
0
  6
CONTINUOUS
 62
               4
100
AcDbCircle
 10
28.9998779296875
 20
16.999893188476562
 30
0.0
 40
2.75
  0
CIRCLE
  5
134
100
AcDbEntity
  8
0
  6
CONTINUOUS
 62
               4
100
AcDbCircle
 10
16.9998779296875
 20
16.999893188476562
 30
0.0
 40
3.2999992370605469
  0
CIRCLE
  5
135
100
AcDbEntity
  8
0
  6
CONTINUOUS
 62
               4
100
AcDbCircle
 10
16.9998779296875
 20
16.999893188476562
 30
0.0
 40
5.5
  0
CIRCLE
  5
136
100
AcDbEntity
  8
0
  6
CONTINUOUS
 62
               4
100
AcDbCircle
 10
-0.0001182556152344
 20
-0.0001068115234375
 30
0.0
 40
11.0
  0
CIRCLE
  5
137
100
AcDbEntity
  8
0
  6
CONTINUOUS
 62
               4
100
AcDbCircle
 10
28.9998779296875
 20
-17.000106811523437
 30
0.0
 40
2.75
  0
LINE
  5
138
100
AcDbEntity
  8
0
  6
CENTER
 62
             200
100
AcDbLine
 10
29.0
 20
-12.56
 30
0.0
 11
29.0
 21
-21.789999999999999
 31
0.0
  0
LINE
  5
139
100
AcDbEntity
  8
0
  6
CENTER
 62
             200
100
AcDbLine
 10
9.4299999999999997
 20
-17.0
 30
0.0
 11
33.75
 21
-17.0
 31
0.0
  0
LINE
  5
13A
100
AcDbEntity
  8
0
  6
CENTER
 62
             200
100
AcDbLine
 10
17.0
 20
-9.1799999999999997
 30
0.0
 11
17.0
 21
-25.34
 31
0.0
  0
LINE
  5
13B
100
AcDbEntity
  8
0
  6
CENTER
 62
             200
100
AcDbLine
 10
-17.0
 20
-9.1799999999999997
 30
0.0
 11
-17.0
 21
-25.34
 31
0.0
  0
LINE
  5
13C
100
AcDbEntity
  8
0
  6
CENTER
 62
             200
100
AcDbLine
 10
-29.0
 20
-12.56
 30
0.0
 11
-29.0
 21
-21.789999999999999
 31
0.0
  0
LINE
  5
13D
100
AcDbEntity
  8
0
  6
CENTER
 62
             200
100
AcDbLine
 10
-9.4299999999999997
 20
-17.0
 30
0.0
 11
-33.75
 21
-17.0
 31
0.0
  0
LINE
  5
13E
100
AcDbEntity
  8
0
  6
CENTER
 62
             200
100
AcDbLine
 10
-29.0
 20
12.56
 30
0.0
 11
-29.0
 21
21.789999999999999
 31
0.0
  0
LINE
  5
13F
100
AcDbEntity
  8
0
  6
CENTER
 62
             200
100
AcDbLine
 10
-17.0
 20
9.1799999999999997
 30
0.0
 11
-17.0
 21
25.34
 31
0.0
  0
LINE
  5
140
100
AcDbEntity
  8
0
  6
CENTER
 62
             200
100
AcDbLine
 10
-9.4299999999999997
 20
17.0
 30
0.0
 11
-33.75
 21
17.0
 31
0.0
  0
LINE
  5
141
100
AcDbEntity
  8
0
  6
CENTER
 62
             200
100
AcDbLine
 10
17.0
 20
9.1799999999999997
 30
0.0
 11
17.0
 21
25.34
 31
0.0
  0
LINE
  5
142
100
AcDbEntity
  8
0
  6
CENTER
 62
             200
100
AcDbLine
 10
9.4299999999999997
 20
17.0
 30
0.0
 11
33.75
 21
17.0
 31
0.0
  0
LINE
  5
143
100
AcDbEntity
  8
0
  6
CENTER
 62
             200
100
AcDbLine
 10
29.0
 20
12.56
 30
0.0
 11
29.0
 21
21.789999999999999
 31
0.0
  0
LINE
  5
144
100
AcDbEntity
  8
0
  6
CENTER
 62
             200
100
AcDbLine
 10
0.0
 20
-28.609999999999999
 30
0.0
 11
0.0
 21
29.239999999999998
 31
0.0
  0
LINE
  5
145
100
AcDbEntity
  8
0
  6
CONTINUOUS
 62
               4
100
AcDbLine
 10
-36.0
 20
24.0
 30
0.0
 11
36.0
 21
24.0
 31
0.0
  0
LINE
  5
146
100
AcDbEntity
  8
0
  6
CONTINUOUS
 62
               4
100
AcDbLine
 10
36.0
 20
-24.0
 30
0.0
 11
36.0
 21
24.0
 31
0.0
  0
LINE
  5
147
100
AcDbEntity
  8
0
  6
CONTINUOUS
 62
               4
100
AcDbLine
 10
-36.0
 20
-24.0
 30
0.0
 11
-36.0
 21
24.0
 31
0.0
  0
LINE
  5
148
100
AcDbEntity
  8
0
  6
CONTINUOUS
 62
               4
100
AcDbLine
 10
-36.0
 20
-24.0
 30
0.0
 11
36.0
 21
-24.0
 31
0.0
  0
LINE
  5
149
100
AcDbEntity
  8
0
  6
CENTER
 62
             200
100
AcDbLine
 10
-43.090000000000003
 20
0.0
 30
0.0
 11
42.270000000000003
 21
0.0
 31
0.0
  0
ENDBLK
  5
14A
100
AcDbEntity
  8
0
100
AcDbBlockEnd
  0
BLOCK
  5
14B
100
AcDbEntity
  8
0
100
AcDbBlockBegin
  2
JIG-C_FLANGE1-14
 70
               0
 10
0.0
 20
0.0
 30
0.0
  3
JIG-C_FLANGE1-14
  1

  0
LINE
  5
14C
100
AcDbEntity
  8
0
  6
DASHED
 62
             200
100
AcDbLine
 10
-8.0
 20
-22.5
 30
0.0
 11
-3.7000000000000002
 21
-22.5
 31
0.0
  0
LINE
  5
14D
100
AcDbEntity
  8
0
  6
DASHED
 62
             200
100
AcDbLine
 10
-3.7000000000000002
 20
-13.699999999999999
 30
0.0
 11
0.0
 21
-13.699999999999999
 31
0.0
  0
LINE
  5
14E
100
AcDbEntity
  8
0
  6
DASHED
 62
             200
100
AcDbLine
 10
-3.7000000000000002
 20
-20.300000000000001
 30
0.0
 11
0.0
 21
-20.300000000000001
 31
0.0
  0
LINE
  5
14F
100
AcDbEntity
  8
0
  6
DASHED
 62
             200
100
AcDbLine
 10
-3.7000000000000002
 20
-11.5
 30
0.0
 11
-3.7000000000000002
 21
-22.5
 31
0.0
  0
LINE
  5
150
100
AcDbEntity
  8
0
  6
DASHED
 62
             200
100
AcDbLine
 10
-8.0
 20
-11.5
 30
0.0
 11
-3.7000000000000002
 21
-11.5
 31
0.0
  0
LINE
  5
151
100
AcDbEntity
  8
0
  6
DASHED
 62
             200
100
AcDbLine
 10
-3.7000000000000002
 20
13.699999999999999
 30
0.0
 11
0.0
 21
13.699999999999999
 31
0.0
  0
LINE
  5
152
100
AcDbEntity
  8
0
  6
DASHED
 62
             200
100
AcDbLine
 10
-3.7000000000000002
 20
20.300000000000001
 30
0.0
 11
0.0
 21
20.300000000000001
 31
0.0
  0
LINE
  5
153
100
AcDbEntity
  8
0
  6
DASHED
 62
             200
100
AcDbLine
 10
-3.7000000000000002
 20
11.5
 30
0.0
 11
-3.7000000000000002
 21
22.5
 31
0.0
  0
LINE
  5
154
100
AcDbEntity
  8
0
  6
DASHED
 62
             200
100
AcDbLine
 10
-8.0
 20
22.5
 30
0.0
 11
-3.7000000000000002
 21
22.5
 31
0.0
  0
LINE
  5
155
100
AcDbEntity
  8
0
  6
DASHED
 62
             200
100
AcDbLine
 10
-8.0
 20
11.5
 30
0.0
 11
-3.7000000000000002
 21
11.5
 31
0.0
  0
LINE
  5
156
100
AcDbEntity
  8
0
  6
CENTER
 62
             200
100
AcDbLine
 10
-10.1
 20
17.0
 30
0.0
 11
4.0899999999999999
 21
17.0
 31
0.0
  0
LINE
  5
157
100
AcDbEntity
  8
0
  6
CENTER
 62
             200
100
AcDbLine
 10
-10.1
 20
0.0
 30
0.0
 11
4.0899999999999999
 21
0.0
 31
0.0
  0
LINE
  5
158
100
AcDbEntity
  8
0
  6
CENTER
 62
             200
100
AcDbLine
 10
-10.1
 20
-17.0
 30
0.0
 11
4.0899999999999999
 21
-17.0
 31
0.0
  0
LINE
  5
159
100
AcDbEntity
  8
0
  6
CONTINUOUS
 62
               4
100
AcDbLine
 10
-8.0
 20
-24.0
 30
0.0
 11
0.0
 21
-24.0
 31
0.0
  0
LINE
  5
15A
100
AcDbEntity
  8
0
  6
CONTINUOUS
 62
               4
100
AcDbLine
 10
-8.0
 20
24.0
 30
0.0
 11
0.0
 21
24.0
 31
0.0
  0
LINE
  5
15B
100
AcDbEntity
  8
0
  6
CONTINUOUS
 62
               4
100
AcDbLine
 10
0.0
 20
-24.0
 30
0.0
 11
0.0
 21
24.0
 31
0.0
  0
LINE
  5
15C
100
AcDbEntity
  8
0
  6
CONTINUOUS
 62
               4
100
AcDbLine
 10
-8.0
 20
-24.0
 30
0.0
 11
-8.0
 21
24.0
 31
0.0
  0
ENDBLK
  5
15D
100
AcDbEntity
  8
0
100
AcDbBlockEnd
  0
BLOCK
  5
15E
100
AcDbEntity
  8
0
100
AcDbBlockBegin
  2
JIG-C_FLANGE1-15
 70
               0
 10
0.0
 20
0.0
 30
0.0
  3
JIG-C_FLANGE1-15
  1

  0
LINE
  5
15F
100
AcDbEntity
  8
0
  6
CENTER
 62
             200
100
AcDbLine
 10
17.0
 20
-1.55
 30
0.0
 11
17.0
 21
9.6199999999999992
 31
0.0
  0
LINE
  5
160
100
AcDbEntity
  8
0
  6
CENTER
 62
             200
100
AcDbLine
 10
0.0
 20
-2.9700000000000002
 30
0.0
 11
0.0
 21
10.69
 31
0.0
  0
LINE
  5
161
100
AcDbEntity
  8
0
  6
CENTER
 62
             200
100
AcDbLine
 10
29.0
 20
-1.73
 30
0.0
 11
29.0
 21
9.6199999999999992
 31
0.0
  0
LINE
  5
162
100
AcDbEntity
  8
0
  6
CONTINUOUS
 62
               4
100
AcDbLine
 10
36.0
 20
0.0
 30
0.0
 11
36.0
 21
8.0
 31
0.0
  0
LINE
  5
163
100
AcDbEntity
  8
0
  6
CONTINUOUS
 62
               4
100
AcDbLine
 10
-36.0
 20
0.0
 30
0.0
 11
-36.0
 21
8.0
 31
0.0
  0
LINE
  5
164
100
AcDbEntity
  8
0
  6
CONTINUOUS
 62
               4
100
AcDbLine
 10
-36.0
 20
0.0
 30
0.0
 11
36.0
 21
0.0
 31
0.0
  0
LINE
  5
165
100
AcDbEntity
  8
0
  6
CONTINUOUS
 62
               4
100
AcDbLine
 10
-36.0
 20
8.0
 30
0.0
 11
36.0
 21
8.0
 31
0.0
  0
LINE
  5
166
100
AcDbEntity
  8
0
  6
CENTER
 62
             200
100
AcDbLine
 10
-17.0
 20
-1.1899999999999999
 30
0.0
 11
-17.0
 21
9.4499999999999993
 31
0.0
  0
LINE
  5
167
100
AcDbEntity
  8
0
  6
CENTER
 62
             200
100
AcDbLine
 10
-29.0
 20
-1.02
 30
0.0
 11
-29.0
 21
8.9100000000000001
 31
0.0
  0
ENDBLK
  5
168
100
AcDbEntity
  8
0
100
AcDbBlockEnd
  0
BLOCK
  5
169
100
AcDbEntity
  8
0
100
AcDbBlockBegin
  2
JIG-C_FLANGE1-16
 70
               0
 10
0.0
 20
0.0
 30
0.0
  3
JIG-C_FLANGE1-16
  1

  0
CIRCLE
  5
16A
100
AcDbEntity
  8
0
  6
CONTINUOUS
 62
               4
100
AcDbCircle
 10
-20.0001220703125
 20
19.999908447265625
 30
0.0
 40
4.5
  0
CIRCLE
  5
16B
100
AcDbEntity
  8
0
  6
CONTINUOUS
 62
               4
100
AcDbCircle
 10
-34.0001220703125
 20
-20.000106811523438
 30
0.0
 40
3.2999992370605469
  0
CIRCLE
  5
16C
100
AcDbEntity
  8
0
  6
CONTINUOUS
 62
               4
100
AcDbCircle
 10
-20.0001220703125
 20
-20.000106811523438
 30
0.0
 40
4.5
  0
CIRCLE
  5
16D
100
AcDbEntity
  8
0
  6
CONTINUOUS
 62
               4
100
AcDbCircle
 10
-20.0001220703125
 20
-20.000106811523438
 30
0.0
 40
7.5
  0
CIRCLE
  5
16E
100
AcDbEntity
  8
0
  6
CONTINUOUS
 62
               4
100
AcDbCircle
 10
33.9998779296875
 20
-20.000106811523438
 30
0.0
 40
3.2999992370605469
  0
CIRCLE
  5
16F
100
AcDbEntity
  8
0
  6
CONTINUOUS
 62
               4
100
AcDbCircle
 10
19.9998779296875
 20
-20.000106811523438
 30
0.0
 40
7.5
  0
CIRCLE
  5
170
100
AcDbEntity
  8
0
  6
CONTINUOUS
 62
               4
100
AcDbCircle
 10
19.9998779296875
 20
-20.000106811523438
 30
0.0
 40
4.5
  0
CIRCLE
  5
171
100
AcDbEntity
  8
0
  6
CONTINUOUS
 62
               4
100
AcDbCircle
 10
33.9998779296875
 20
19.999908447265625
 30
0.0
 40
3.2999992370605469
  0
CIRCLE
  5
172
100
AcDbEntity
  8
0
  6
CONTINUOUS
 62
               4
100
AcDbCircle
 10
19.9998779296875
 20
19.999908447265625
 30
0.0
 40
4.5
  0
CIRCLE
  5
173
100
AcDbEntity
  8
0
  6
CONTINUOUS
 62
               4
100
AcDbCircle
 10
19.9998779296875
 20
19.999908447265625
 30
0.0
 40
7.5
  0
CIRCLE
  5
174
100
AcDbEntity
  8
0
  6
CONTINUOUS
 62
               4
100
AcDbCircle
 10
-0.0001220703125
 20
-0.000091552734375
 30
0.0
 40
14.0
  0
CIRCLE
  5
175
100
AcDbEntity
  8
0
  6
CONTINUOUS
 62
               4
100
AcDbCircle
 10
-20.0001220703125
 20
19.999908447265625
 30
0.0
 40
7.5
  0
CIRCLE
  5
176
100
AcDbEntity
  8
0
  6
CONTINUOUS
 62
               4
100
AcDbCircle
 10
-34.0001220703125
 20
19.999908447265625
 30
0.0
 40
3.2999992370605469
  0
LINE
  5
177
100
AcDbEntity
  8
0
  6
CENTER
 62
             200
100
AcDbLine
 10
47.329999999999998
 20
0.0
 30
0.0
 11
-50.0
 21
0.0
 31
0.0
  0
LINE
  5
178
100
AcDbEntity
  8
0
  6
CENTER
 62
             200
100
AcDbLine
 10
-34.0
 20
14.0
 30
0.0
 11
-34.0
 21
25.66
 31
0.0
  0
LINE
  5
179
100
AcDbEntity
  8
0
  6
CENTER
 62
             200
100
AcDbLine
 10
-40.0
 20
20.0
 30
0.0
 11
-9.6600000000000001
 21
20.0
 31
0.0
  0
LINE
  5
17A
100
AcDbEntity
  8
0
  6
CENTER
 62
             200
100
AcDbLine
 10
-20.0
 20
10.33
 30
0.0
 11
-20.0
 21
29.66
 31
0.0
  0
LINE
  5
17B
100
AcDbEntity
  8
0
  6
CENTER
 62
             200
100
AcDbLine
 10
-40.0
 20
-20.0
 30
0.0
 11
-9.6600000000000001
 21
-20.0
 31
0.0
  0
LINE
  5
17C
100
AcDbEntity
  8
0
  6
CENTER
 62
             200
100
AcDbLine
 10
-34.0
 20
-14.0
 30
0.0
 11
-34.0
 21
-25.66
 31
0.0
  0
LINE
  5
17D
100
AcDbEntity
  8
0
  6
CENTER
 62
             200
100
AcDbLine
 10
-20.0
 20
-10.33
 30
0.0
 11
-20.0
 21
-29.66
 31
0.0
  0
LINE
  5
17E
100
AcDbEntity
  8
0
  6
CENTER
 62
             200
100
AcDbLine
 10
34.0
 20
-14.0
 30
0.0
 11
34.0
 21
-25.66
 31
0.0
  0
LINE
  5
17F
100
AcDbEntity
  8
0
  6
CENTER
 62
             200
100
AcDbLine
 10
20.0
 20
-10.33
 30
0.0
 11
20.0
 21
-29.66
 31
0.0
  0
LINE
  5
180
100
AcDbEntity
  8
0
  6
CENTER
 62
             200
100
AcDbLine
 10
40.0
 20
-20.0
 30
0.0
 11
9.6600000000000001
 21
-20.0
 31
0.0
  0
LINE
  5
181
100
AcDbEntity
  8
0
  6
CENTER
 62
             200
100
AcDbLine
 10
34.0
 20
14.0
 30
0.0
 11
34.0
 21
25.66
 31
0.0
  0
LINE
  5
182
100
AcDbEntity
  8
0
  6
CENTER
 62
             200
100
AcDbLine
 10
20.0
 20
10.33
 30
0.0
 11
20.0
 21
29.66
 31
0.0
  0
LINE
  5
183
100
AcDbEntity
  8
0
  6
CENTER
 62
             200
100
AcDbLine
 10
40.0
 20
20.0
 30
0.0
 11
9.6600000000000001
 21
20.0
 31
0.0
  0
LINE
  5
184
100
AcDbEntity
  8
0
  6
CENTER
 62
             200
100
AcDbLine
 10
0.0
 20
-36.0
 30
0.0
 11
0.0
 21
34.0
 31
0.0
  0
LINE
  5
185
100
AcDbEntity
  8
0
  6
CONTINUOUS
 62
               4
100
AcDbLine
 10
42.0
 20
29.0
 30
0.0
 11
-42.0
 21
29.0
 31
0.0
  0
LINE
  5
186
100
AcDbEntity
  8
0
  6
CONTINUOUS
 62
               4
100
AcDbLine
 10
42.0
 20
-29.0
 30
0.0
 11
42.0
 21
29.0
 31
0.0
  0
LINE
  5
187
100
AcDbEntity
  8
0
  6
CONTINUOUS
 62
               4
100
AcDbLine
 10
-42.0
 20
-29.0
 30
0.0
 11
-42.0
 21
29.0
 31
0.0
  0
LINE
  5
188
100
AcDbEntity
  8
0
  6
CONTINUOUS
 62
               4
100
AcDbLine
 10
42.0
 20
-29.0
 30
0.0
 11
-42.0
 21
-29.0
 31
0.0
  0
ENDBLK
  5
189
100
AcDbEntity
  8
0
100
AcDbBlockEnd
  0
BLOCK
  5
18A
100
AcDbEntity
  8
0
100
AcDbBlockBegin
  2
JIG-C_FLANGE1-17
 70
               0
 10
0.0
 20
0.0
 30
0.0
  3
JIG-C_FLANGE1-17
  1

  0
LINE
  5
18B
100
AcDbEntity
  8
0
  6
DASHED
 62
             200
100
AcDbLine
 10
-2.7000000000000002
 20
-12.5
 30
0.0
 11
-8.0
 21
-12.5
 31
0.0
  0
LINE
  5
18C
100
AcDbEntity
  8
0
  6
DASHED
 62
             200
100
AcDbLine
 10
-2.7000000000000002
 20
-27.5
 30
0.0
 11
-8.0
 21
-27.5
 31
0.0
  0
LINE
  5
18D
100
AcDbEntity
  8
0
  6
DASHED
 62
             200
100
AcDbLine
 10
-2.7000000000000002
 20
-12.5
 30
0.0
 11
-2.7000000000000002
 21
-27.5
 31
0.0
  0
LINE
  5
18E
100
AcDbEntity
  8
0
  6
DASHED
 62
             200
100
AcDbLine
 10
0.0
 20
-15.5
 30
0.0
 11
-2.7000000000000002
 21
-15.5
 31
0.0
  0
LINE
  5
18F
100
AcDbEntity
  8
0
  6
DASHED
 62
             200
100
AcDbLine
 10
0.0
 20
-24.5
 30
0.0
 11
-2.7000000000000002
 21
-24.5
 31
0.0
  0
LINE
  5
190
100
AcDbEntity
  8
0
  6
DASHED
 62
             200
100
AcDbLine
 10
0.0
 20
15.5
 30
0.0
 11
-2.7000000000000002
 21
15.5
 31
0.0
  0
LINE
  5
191
100
AcDbEntity
  8
0
  6
DASHED
 62
             200
100
AcDbLine
 10
0.0
 20
24.5
 30
0.0
 11
-2.7000000000000002
 21
24.5
 31
0.0
  0
LINE
  5
192
100
AcDbEntity
  8
0
  6
DASHED
 62
             200
100
AcDbLine
 10
-2.7000000000000002
 20
12.5
 30
0.0
 11
-2.7000000000000002
 21
27.5
 31
0.0
  0
LINE
  5
193
100
AcDbEntity
  8
0
  6
DASHED
 62
             200
100
AcDbLine
 10
-2.7000000000000002
 20
27.5
 30
0.0
 11
-8.0
 21
27.5
 31
0.0
  0
LINE
  5
194
100
AcDbEntity
  8
0
  6
DASHED
 62
             200
100
AcDbLine
 10
-2.7000000000000002
 20
12.5
 30
0.0
 11
-8.0
 21
12.5
 31
0.0
  0
LINE
  5
195
100
AcDbEntity
  8
0
  6
CENTER
 62
             200
100
AcDbLine
 10
2.6600000000000001
 20
-20.0
 30
0.0
 11
-11.66
 21
-20.0
 31
0.0
  0
LINE
  5
196
100
AcDbEntity
  8
0
  6
CENTER
 62
             200
100
AcDbLine
 10
3.6600000000000001
 20
20.0
 30
0.0
 11
-11.33
 21
20.0
 31
0.0
  0
LINE
  5
197
100
AcDbEntity
  8
0
  6
CONTINUOUS
 62
               4
100
AcDbLine
 10
-8.0
 20
-29.0
 30
0.0
 11
0.0
 21
-29.0
 31
0.0
  0
LINE
  5
198
100
AcDbEntity
  8
0
  6
CONTINUOUS
 62
               4
100
AcDbLine
 10
-8.0
 20
29.0
 30
0.0
 11
0.0
 21
29.0
 31
0.0
  0
LINE
  5
199
100
AcDbEntity
  8
0
  6
CONTINUOUS
 62
               4
100
AcDbLine
 10
0.0
 20
-29.0
 30
0.0
 11
0.0
 21
29.0
 31
0.0
  0
LINE
  5
19A
100
AcDbEntity
  8
0
  6
CONTINUOUS
 62
               4
100
AcDbLine
 10
-8.0
 20
-29.0
 30
0.0
 11
-8.0
 21
29.0
 31
0.0
  0
LINE
  5
19B
100
AcDbEntity
  8
0
  6
CENTER
 62
             200
100
AcDbLine
 10
5.0
 20
0.0
 30
0.0
 11
-14.0
 21
0.0
 31
0.0
  0
ENDBLK
  5
19C
100
AcDbEntity
  8
0
100
AcDbBlockEnd
  0
BLOCK
  5
19D
100
AcDbEntity
  8
0
100
AcDbBlockBegin
  2
JIG-C_FLANGE1-18
 70
               0
 10
0.0
 20
0.0
 30
0.0
  3
JIG-C_FLANGE1-18
  1

  0
LINE
  5
19E
100
AcDbEntity
  8
0
  6
CENTER
 62
             200
100
AcDbLine
 10
-20.0
 20
-2.3300000000000001
 30
0.0
 11
-20.0
 21
11.0
 31
0.0
  0
LINE
  5
19F
100
AcDbEntity
  8
0
  6
CENTER
 62
             200
100
AcDbLine
 10
-34.0
 20
-2.0
 30
0.0
 11
-34.0
 21
11.0
 31
0.0
  0
LINE
  5
1A0
100
AcDbEntity
  8
0
  6
CENTER
 62
             200
100
AcDbLine
 10
0.0
 20
-4.0
 30
0.0
 11
0.0
 21
14.33
 31
0.0
  0
LINE
  5
1A1
100
AcDbEntity
  8
0
  6
CENTER
 62
             200
100
AcDbLine
 10
20.0
 20
-2.3300000000000001
 30
0.0
 11
20.0
 21
11.66
 31
0.0
  0
LINE
  5
1A2
100
AcDbEntity
  8
0
  6
CENTER
 62
             200
100
AcDbLine
 10
0.0
 20
-4.0
 30
0.0
 11
0.0
 21
14.33
 31
0.0
  0
LINE
  5
1A3
100
AcDbEntity
  8
0
  6
CENTER
 62
             200
100
AcDbLine
 10
34.0
 20
-2.3300000000000001
 30
0.0
 11
34.0
 21
11.66
 31
0.0
  0
LINE
  5
1A4
100
AcDbEntity
  8
0
  6
CONTINUOUS
 62
               4
100
AcDbLine
 10
42.0
 20
0.0
 30
0.0
 11
42.0
 21
8.0
 31
0.0
  0
LINE
  5
1A5
100
AcDbEntity
  8
0
  6
CONTINUOUS
 62
               4
100
AcDbLine
 10
-42.0
 20
0.0
 30
0.0
 11
-42.0
 21
8.0
 31
0.0
  0
LINE
  5
1A6
100
AcDbEntity
  8
0
  6
CONTINUOUS
 62
               4
100
AcDbLine
 10
42.0
 20
8.0
 30
0.0
 11
-42.0
 21
8.0
 31
0.0
  0
LINE
  5
1A7
100
AcDbEntity
  8
0
  6
CONTINUOUS
 62
               4
100
AcDbLine
 10
42.0
 20
0.0
 30
0.0
 11
-42.0
 21
0.0
 31
0.0
  0
ENDBLK
  5
1A8
100
AcDbEntity
  8
0
100
AcDbBlockEnd
  0
ENDSEC
  0
SECTION
  2
ENTITIES
  0
INSERT
  5
1A9
100
AcDbEntity
  8
0
  6
ByBlock
100
AcDbBlockReference
  2
JIG-C_FLANGE1-18
 10
188.9998779296875
 20
-103.96761703471586
 30
0.0
 50
0.0000156119006388
  0
INSERT
  5
1AA
100
AcDbEntity
  8
0
  6
ByBlock
100
AcDbBlockReference
  2
JIG-C_FLANGE1-17
 10
275.99958801269531
 20
-168.9671935985271
 30
0.0
 50
0.0013113362921765
  0
INSERT
  5
1AB
100
AcDbEntity
  8
0
  6
ByBlock
100
AcDbBlockReference
  2
JIG-C_FLANGE1-16
 10
188.99998474121094
 20
-168.96723937489432
 30
0.0
  0
INSERT
  5
1AC
100
AcDbEntity
  8
0
  6
ByBlock
100
AcDbBlockReference
  2
JIG-C_FLANGE1-15
 10
-0.0000762939453125
 20
-103.96763992299157
 30
0.0
 50
0.0000182139381226
  0
INSERT
  5
1AD
100
AcDbEntity
  8
0
  6
ByBlock
100
AcDbBlockReference
  2
JIG-C_FLANGE1-14
 10
82.999740600585937
 20
-173.96757507081489
 30
0.0
 50
359.9994754582799
  0
INSERT
  5
1AE
100
AcDbEntity
  8
0
  6
ByBlock
100
AcDbBlockReference
  2
JIG-C_FLANGE1-13
 10
0.0
 20
-173.96742248292426
 30
0.0
 50
0.0002914249867399
  0
INSERT
  5
1AF
100
AcDbEntity
  8
0
  6
ByBlock
100
AcDbBlockReference
  2
JIG-C_FLANGE1-12
 10
-192.82264709472656
 20
-103.96769714355469
 30
0.0
 50
0.0000771410292796
  0
INSERT
  5
1B0
100
AcDbEntity
  8
0
  6
ByBlock
100
AcDbBlockReference
  2
JIG-C_FLANGE1-11
 10
-101.20423889160156
 20
-176.96783447265625
 30
0.0
 50
359.99912575179422
  0
INSERT
  5
1B1
100
AcDbEntity
  8
0
  6
ByBlock
100
AcDbBlockReference
  2
JIG-C_FLANGE1-10
 10
-192.82258605957031
 20
-176.96769714355469
 30
0.0
 50
0.0001542826124846
  0
INSERT
  5
1B2
100
AcDbEntity
  8
0
  6
ByBlock
100
AcDbBlockReference
  2
JIG-C_FLANGE1-9
 10
189.0001220703125
 20
62.623596191447206
 30
0.0
 50
359.99977389754298
  0
INSERT
  5
1B3
100
AcDbEntity
  8
0
  6
ByBlock
100
AcDbBlockReference
  2
JIG-C_FLANGE1-8
 10
266.00006103515625
 20
2.6235542305768362
 30
0.0
 50
0.0001748533763832
  0
INSERT
  5
1B4
100
AcDbEntity
  8
0
  6
ByBlock
100
AcDbBlockReference
  2
JIG-C_FLANGE1-7
 10
188.99998474121094
 20
2.6235084542096416
 30
0.0
 50
359.99996985302164
  0
INSERT
  5
1B5
100
AcDbEntity
  8
0
  6
ByBlock
100
AcDbBlockReference
  2
JIG-C_FLANGE1-6
 10
-0.0000248662023239
 20
62.623794555571806
 30
0.0
 50
0.0001780909590208
  0
INSERT
  5
1B6
100
AcDbEntity
  8
0
  6
ByBlock
100
AcDbBlockReference
  2
JIG-C_FLANGE1-5
 10
76.00006103515625
 20
0.623474121766737
 30
0.0
 50
359.99960658005324
  0
INSERT
  5
1B7
100
AcDbEntity
  8
0
  6
ByBlock
100
AcDbBlockReference
  2
JIG-C_FLANGE1-4
 10
0.0
 20
0.6235656745011089
 30
0.0
 50
0.0000890451775867
  0
INSERT
  5
1B8
100
AcDbEntity
  8
0
  6
ByBlock
100
AcDbBlockReference
  2
JIG-C_FLANGE1-3
 10
-192.8226318359375
 20
62.623687744140625
 30
0.0
 50
0.0000524555326818
  0
INSERT
  5
1B9
100
AcDbEntity
  8
0
  6
ByBlock
100
AcDbBlockReference
  2
JIG-C_FLANGE1-2
 10
-116.82249450683594
 20
-1.3763885498046893
 30
0.0
 50
0.0004808482524219
  0
INSERT
  5
1BA
100
AcDbEntity
  8
0
  6
ByBlock
100
AcDbBlockReference
  2
JIG-C_FLANGE1-1
 10
-192.82258605957031
 20
-1.37640380859375
 30
0.0
 50
359.99983389152294
  0
MTEXT
  5
1BB
100
AcDbEntity
  8
0
  6
CONTINUOUS
 62
               7
100
AcDbMText
 10
-222.76334578072311
 20
134.77146911621094
 30
0.0
 40
6.3000001907348633
 41
0.0
 71
               4
 72
               1
  1
\W1.098;\A1;JIG CYLINDER
  0
MTEXT
  5
1BC
100
AcDbEntity
  8
0
  6
CONTINUOUS
 62
               7
100
AcDbMText
 10
-51.136437512407397
 20
-67.80419921875
 30
0.0
 40
6.3000001907348633
 41
0.0
 71
               4
 72
               1
  1
\W1.061;\A1;BORE 32
  0
MTEXT
  5
1BD
100
AcDbEntity
  8
0
  6
CONTINUOUS
 62
               7
100
AcDbMText
 10
144.72180465448238
 20
-66.066068649291992
 30
0.0
 40
6.3000001907348633
 41
0.0
 71
               4
 72
               1
  1
\W1.088;\A1;BORE 40
  0
MTEXT
  5
1BE
100
AcDbEntity
  8
0
  6
CONTINUOUS
 62
               7
100
AcDbMText
 10
140.08677963006832
 20
100.79447937011719
 30
0.0
 40
6.3000001907348633
 41
0.0
 71
               4
 72
               1
  1
\W1.088;\A1;BORE 20
  0
MTEXT
  5
1BF
100
AcDbEntity
  8
0
  6
CONTINUOUS
 62
               7
100
AcDbMText
 10
-48.759681395941818
 20
101.37385559082031
 30
0.0
 40
6.3000001907348633
 41
0.0
 71
               4
 72
               1
  1
\W1.117;\A1;BORE 16
  0
MTEXT
  5
1C0
100
AcDbEntity
  8
0
  6
CONTINUOUS
 62
               7
100
AcDbMText
 10
-233.0015484613715
 20
98.476974487304688
 30
0.0
 40
6.3000001907348633
 41
0.0
 71
               4
 72
               1
  1
\W1.117;\A1;BORE 12
  0
MTEXT
  5
1C1
100
AcDbEntity
  8
0
  6
CONTINUOUS
 62
               7
100
AcDbMText
 10
-238.27517042256366
 20
-69.542329788208008
 30
0.0
 40
6.3000001907348633
 41
0.0
 71
               4
 72
               1
  1
\W1.061;\A1;BORE 25
  0
MTEXT
  5
1C2
100
AcDbEntity
  8
0
  6
CONTINUOUS
 62
               7
100
AcDbMText
 10
-203.96578423182169
 20
126.77146911621094
 30
0.0
 40
6.3000001907348633
 41
0.0
 71
               4
 72
               1
  1
\A1;FLANGE
  0
MTEXT
  5
1C3
100
AcDbEntity
  8
0
  6
CONTINUOUS
 62
               7
100
AcDbMText
 10
205.41522637297101
 20
-239.72853088378906
 30
0.0
 40
9.0
 41
0.0
 71
               4
 72
               1
  1
\W1.121;\A1;KOGANEI CORP.
  0
MTEXT
  5
1C4
100
AcDbEntity
  8
0
  6
CONTINUOUS
 62
               7
100
AcDbMText
 10
233.44992148782882
 20
130.77146911621094
 30
0.0
 40
6.3000001907348633
 41
0.0
 71
               4
 72
               1
  1
\W1.348;\A1;Ver. 1.1
  0
LINE
  5
1C5
100
AcDbEntity
  8
0
  6
CONTINUOUS
 62
               7
100
AcDbLine
 10
-246.11578369140625
 20
-54.478530883789063
 30
0.0
 11
317.23421630859377
 21
-54.478530883789063
 31
0.0
  0
LINE
  5
1C6
100
AcDbEntity
  8
0
  6
CONTINUOUS
 62
               7
100
AcDbLine
 10
129.44421630859375
 20
140.77146911621094
 30
0.0
 11
129.44421630859375
 21
-249.72853088378906
 31
0.0
  0
LINE
  5
1C7
100
AcDbEntity
  8
0
  6
CONTINUOUS
 62
               7
100
AcDbLine
 10
-58.32578369140623
 20
140.77146911621094
 30
0.0
 11
-58.32578369140623
 21
-249.72853088378906
 31
0.0
  0
LINE
  5
1C8
100
AcDbEntity
  8
0
  6
CONTINUOUS
 62
               7
100
AcDbLine
 10
-126.11578369140625
 20
140.77146911621094
 30
0.0
 11
-126.11578369140625
 21
120.77146911621094
 31
0.0
  0
LINE
  5
1C9
100
AcDbEntity
  8
0
  6
CONTINUOUS
 62
               7
100
AcDbLine
 10
197.23421630859377
 20
140.77146911621094
 30
0.0
 11
197.23421630859377
 21
120.77146911621094
 31
0.0
  0
LINE
  5
1CA
100
AcDbEntity
  8
0
  6
CONTINUOUS
 62
               7
100
AcDbLine
 10
-246.11578369140625
 20
120.77146911621094
 30
0.0
 11
-126.11578369140625
 21
120.77146911621094
 31
0.0
  0
LINE
  5
1CB
100
AcDbEntity
  8
0
  6
CONTINUOUS
 62
               7
100
AcDbLine
 10
197.23421630859377
 20
120.77146911621094
 30
0.0
 11
317.23421630859377
 21
120.77146911621094
 31
0.0
  0
LINE
  5
1CC
100
AcDbEntity
  8
0
  6
CONTINUOUS
 62
               7
100
AcDbLine
 10
197.23421630859377
 20
-229.72853088378906
 30
0.0
 11
317.23421630859377
 21
-229.72853088378906
 31
0.0
  0
LINE
  5
1CD
100
AcDbEntity
  8
0
  6
CONTINUOUS
 62
               7
100
AcDbLine
 10
197.23421630859377
 20
-229.72853088378906
 30
0.0
 11
197.23421630859377
 21
-249.72853088378906
 31
0.0
  0
LINE
  5
1CE
100
AcDbEntity
  8
0
  6
CONTINUOUS
 62
               7
100
AcDbLine
 10
-246.11578369140625
 20
-249.72853088378906
 30
0.0
 11
317.23421630859377
 21
-249.72853088378906
 31
0.0
  0
LINE
  5
1CF
100
AcDbEntity
  8
0
  6
CONTINUOUS
 62
               7
100
AcDbLine
 10
317.23421630859377
 20
140.77146911621094
 30
0.0
 11
317.23421630859377
 21
-249.72853088378906
 31
0.0
  0
LINE
  5
1D0
100
AcDbEntity
  8
0
  6
CONTINUOUS
 62
               7
100
AcDbLine
 10
-246.11578369140625
 20
140.77146911621094
 30
0.0
 11
-246.11578369140625
 21
-249.72853088378906
 31
0.0
  0
LINE
  5
1D1
100
AcDbEntity
  8
0
  6
CONTINUOUS
 62
               7
100
AcDbLine
 10
-246.11578369140625
 20
140.77146911621094
 30
0.0
 11
317.23421630859377
 21
140.77146911621094
 31
0.0
  0
ENDSEC
  0
SECTION
  2
OBJECTS
  0
DICTIONARY
  5
19
100
AcDbDictionary
  3
ACAD_GROUP
350
1A
  3
ACAD_MLINESTYLE
350
1B
  0
DICTIONARY
  5
1A
102
{ACAD_REACTORS
330
19
102
}
100
AcDbDictionary
  0
DICTIONARY
  5
1B
102
{ACAD_REACTORS
330
19
102
}
100
AcDbDictionary
  3
STANDARD
350
1C
  0
MLINESTYLE
  5
1C
102
{ACAD_REACTORS
330
1B
102
}
100
AcDbMlineStyle
  2
Standard
 70
               0
  3

 62
               0
 51
90.0
 52
90.0
 71
               2
 49
0.5
 62
             256
  6
ByLayer
 49
-0.5
 62
             256
  6
ByLayer
  0
ENDSEC
  0
EOF
