  0
SECTION
  2
HEADER
  9
$ACADVER
  1
AC1012
  9
$DWGCODEPAGE
  3
dos932
  9
$INSBASE
 10
0.0
 20
0.0
 30
0.0
  9
$EXTMIN
 10
-399.25
 20
-276.75
 30
0.0
  9
$EXTMAX
 10
406.05000019073486
 20
276.25
 30
0.0
  9
$LIMMIN
 10
-399.25
 20
-276.75
  9
$LIMMAX
 10
406.05000019073486
 20
276.25
  9
$ORTHOMODE
 70
               0
  9
$REGENMODE
 70
               1
  9
$FILLMODE
 70
               1
  9
$QTEXTMODE
 70
               0
  9
$MIRRTEXT
 70
               1
  9
$DRAGMODE
 70
               2
  9
$LTSCALE
 40
1.0
  9
$OSMODE
 70
               0
  9
$ATTMODE
 70
               1
  9
$TEXTSIZE
 40
3.2000000476837158
  9
$TRACEWID
 40
0.05
  9
$TEXTSTYLE
  7
MX_NOTE_STANDARD
  9
$CLAYER
  8
0
  9
$CELTYPE
  6
CONTINUOUS
  9
$CECOLOR
 62
             256
  9
$CELTSCALE
 40
1.0
  9
$DELOBJ
 70
               1
  9
$DISPSILH
 70
               0
  9
$DIMSCALE
 40
1.0
  9
$DIMASZ
 40
2.5
  9
$DIMEXO
 40
1.5
  9
$DIMDLI
 40
3.75
  9
$DIMRND
 40
0.0
  9
$DIMDLE
 40
0.0
  9
$DIMEXE
 40
1.5
  9
$DIMTP
 40
0.0
  9
$DIMTM
 40
0.0
  9
$DIMTXT
 40
3.2000000476837158
  9
$DIMCEN
 40
2.5
  9
$DIMTSZ
 40
0.0
  9
$DIMTOL
 70
               0
  9
$DIMLIM
 70
               0
  9
$DIMTIH
 70
               0
  9
$DIMTOH
 70
               0
  9
$DIMSE1
 70
               0
  9
$DIMSE2
 70
               0
  9
$DIMTAD
 70
               1
  9
$DIMZIN
 70
               8
  9
$DIMBLK
  1

  9
$DIMASO
 70
               1
  9
$DIMSHO
 70
               1
  9
$DIMPOST
  1

  9
$DIMAPOST
  1

  9
$DIMALT
 70
               0
  9
$DIMALTD
 70
               4
  9
$DIMALTF
 40
0.03937007874016
  9
$DIMLFAC
 40
1.0
  9
$DIMTOFL
 70
               1
  9
$DIMTVP
 40
0.0
  9
$DIMTIX
 70
               0
  9
$DIMSOXD
 70
               0
  9
$DIMSAH
 70
               0
  9
$DIMBLK1
  1

  9
$DIMBLK2
  1

  9
$DIMSTYLE
  2
MXDIMSTYLE
  9
$DIMCLRD
 70
               0
  9
$DIMCLRE
 70
               0
  9
$DIMCLRT
 70
               0
  9
$DIMTFAC
 40
1.0
  9
$DIMGAP
 40
1.0
  9
$DIMJUST
 70
               0
  9
$DIMSD1
 70
               0
  9
$DIMSD2
 70
               0
  9
$DIMTOLJ
 70
               1
  9
$DIMTZIN
 70
               0
  9
$DIMALTZ
 70
               0
  9
$DIMALTTZ
 70
               0
  9
$DIMFIT
 70
               3
  9
$DIMUPT
 70
               1
  9
$DIMUNIT
 70
               2
  9
$DIMDEC
 70
               4
  9
$DIMTDEC
 70
               4
  9
$DIMALTU
 70
               2
  9
$DIMALTTD
 70
               4
  9
$DIMTXSTY
  7
MX_NOTE_STANDARD
  9
$DIMAUNIT
 70
               0
  9
$LUNITS
 70
               2
  9
$LUPREC
 70
               4
  9
$SKETCHINC
 40
0.1
  9
$FILLETRAD
 40
0.0
  9
$AUNITS
 70
               0
  9
$AUPREC
 70
               0
  9
$MENU
  1
acad
  9
$ELEVATION
 40
0.0
  9
$PELEVATION
 40
0.0
  9
$THICKNESS
 40
0.0
  9
$LIMCHECK
 70
               0
  9
$BLIPMODE
 70
               1
  9
$CHAMFERA
 40
0.0
  9
$CHAMFERB
 40
0.0
  9
$CHAMFERC
 40
0.0
  9
$CHAMFERD
 40
0.0
  9
$SKPOLY
 70
               0
  9
$TDCREATE
 40
2453446.620972222
  9
$TDUPDATE
 40
2453446.620972222
  9
$TDINDWG
 40
0.0000000000
  9
$TDUSRTIMER
 40
0.0000000000
  9
$USRTIMER
 70
               1
  9
$ANGBASE
 50
0.0
  9
$ANGDIR
 70
               0
  9
$PDMODE
 70
               0
  9
$PDSIZE
 40
0.0
  9
$PLINEWID
 40
0.0
  9
$COORDS
 70
               1
  9
$SPLFRAME
 70
               0
  9
$SPLINETYPE
 70
               6
  9
$SPLINESEGS
 70
               8
  9
$ATTDIA
 70
               0
  9
$ATTREQ
 70
               1
  9
$HANDLING
 70
               1
  9
$HANDSEED
  5
308
  9
$SURFTAB1
 70
               6
  9
$SURFTAB2
 70
               6
  9
$SURFTYPE
 70
               6
  9
$SURFU
 70
               6
  9
$SURFV
 70
               6
  9
$UCSNAME
  2

  9
$UCSORG
 10
0.0
 20
0.0
 30
0.0
  9
$UCSXDIR
 10
1.0
 20
0.0
 30
0.0
  9
$UCSYDIR
 10
0.0
 20
1.0
 30
0.0
  9
$PUCSNAME
  2

  9
$PUCSORG
 10
0.0
 20
0.0
 30
0.0
  9
$PUCSXDIR
 10
1.0
 20
0.0
 30
0.0
  9
$PUCSYDIR
 10
0.0
 20
1.0
 30
0.0
  9
$USERI1
 70
               0
  9
$USERI2
 70
               0
  9
$USERI3
 70
               0
  9
$USERI4
 70
               0
  9
$USERI5
 70
               0
  9
$USERR1
 40
0.0
  9
$USERR2
 40
0.0
  9
$USERR3
 40
0.0
  9
$USERR4
 40
0.0
  9
$USERR5
 40
0.0
  9
$WORLDVIEW
 70
               1
  9
$SHADEDGE
 70
               3
  9
$SHADEDIF
 70
              70
  9
$TILEMODE
 70
               1
  9
$MAXACTVP
 70
              16
  9
$PINSBASE
 10
0.0
 20
0.0
 30
0.0
  9
$PLIMCHECK
 70
               0
  9
$PEXTMIN
 10
1.0000000000000000E+20
 20
1.0000000000000000E+20
 30
1.0000000000000000E+20
  9
$PEXTMAX
 10
-1.0000000000000000E+20
 20
-1.0000000000000000E+20
 30
-1.0000000000000000E+20
  9
$PLIMMIN
 10
0.0
 20
0.0
  9
$PLIMMAX
 10
12.0
 20
9.0
  9
$UNITMODE
 70
               0
  9
$VISRETAIN
 70
               0
  9
$PLINEGEN
 70
               1
  9
$PSLTSCALE
 70
               0
  9
$TREEDEPTH
 70
            3020
  9
$PICKSTYLE
 70
               1
  9
$CMLSTYLE
  2
Standard
  9
$CMLJUST
 70
               0
  9
$CMLSCALE
 40
1.0
  9
$SAVEIMAGES
 70
               0
  0
ENDSEC
  0
SECTION
  2
CLASSES
  0
CLASS
  1
LWPOLYLINE
  2
AcDbPolyline
  3
"AutoCAD"
 90
        0
280
               0
281
               1
  0
CLASS
  1
IMAGE
  2
AcDbRasterImage
  3
ISM
 90
      127
280
               0
281
               1
  0
CLASS
  1
OLE2FRAME
  2
AcDbOle2Frame
  3
""
 90
        0
280
               0
281
               1
  0
CLASS
  1
HATCH
  2
AcDbHatch
  3
"ACAD_SEDONA"
 90
        0
280
               0
281
               1
  0
CLASS
  1
DICTIONARYVAR
  2
AcDbDictionaryVar
  3
"AutoCAD"
 90
        0
280
               0
281
               0
  0
CLASS
  1
RASTERVARIABLES
  2
AcDbRasterVariables
  3
ISM
 90
        0
280
               0
281
               0
  0
CLASS
  1
IMAGEDEF
  2
AcDbRasterImageDef
  3
ISM
 90
        0
280
               0
281
               0
  0
CLASS
  1
IMAGEDEF_REACTOR
  2
AcDbRasterImageDefReactor
  3
ISM
 90
        1
280
               0
281
               0
  0
CLASS
  1
IDBUFFER
  2
AcDbIdBuffer
  3
"Acad"
 90
        0
280
               0
281
               0
  0
CLASS
  1
SPATIAL_FILTER
  2
AcDbSpatialFilter
  3
"Acad"
 90
        0
280
               0
281
               0
  0
CLASS
  1
XRECORD
  2
AcDbXrecord
  3
"<Built In>"
 90
        0
280
               0
281
               0
  0
CLASS
  1
SORTENTSTABLE
  2
AcDbSortentsTable
  3
"AutoCAD"
 90
        0
280
               0
281
               0
  0
CLASS
  1
LAYER_INDEX
  2
AcDbLayerIndex
  3
"Acad"
 90
        0
280
               0
281
               0
  0
CLASS
  1
SPATIAL_INDEX
  2
AcDbSpatialIndex
  3
"Acad"
 90
        0
280
               0
281
               0
  0
CLASS
  1
OBJECT_PTR
  2
CAseDLPNTableRecord
  3
"ASE-LPNTableRecord"
 90
        1
280
               0
281
               0
  0
CLASS
  1
LAYOUT
  2
AcDbLayout
  3
"AutoCAD 2000"
 90
        1
280
               0
281
               0
  0
CLASS
  1
PLOTSETTINGS
  2
AcDbPlotSettings
  3
"AutoCAD 2000"
 90
        1
280
               0
281
               0
  0
CLASS
  1
ACDBDICTIONARYWDFLT
  2
AcDbDictionaryWithDefault
  3
"AutoCAD 2000"
 90
        1
280
               0
281
               0
  0
CLASS
  1
ACDBPLACEHOLDER
  2
AcDbPlaceHolder
  3
"AutoCAD 2000"
 90
        1
280
               0
281
               0
  0
ENDSEC
  0
SECTION
  2
TABLES
  0
TABLE
  2
VPORT
  5
7
100
AcDbSymbolTable
 70
               1
  0
VPORT
  5
15
100
AcDbSymbolTableRecord
100
AcDbViewportTableRecord
  2
*ACTIVE
 70
               0
 10
0.0
 20
0.0
 11
1.0
 21
1.0
 12
3.4000000953674316
 22
-0.25
 13
0.0
 23
0.0
 14
1.0
 24
1.0
 15
0.0
 25
0.0
 16
0.0
 26
0.0
 36
1.0
 17
0.0
 27
0.0
 37
0.0
 40
558.52999999999997
 41
1.7320508075688772
 42
50.0
 43
0.0
 44
0.0
 50
0.0
 51
0.0
 71
               0
 72
             100
 73
               1
 74
               1
 75
               0
 76
               0
 77
               0
 78
               0
  0
ENDTAB
  0
TABLE
  2
LTYPE
  5
4
100
AcDbSymbolTable
 70
               5
  0
LTYPE
  5
11
100
AcDbSymbolTableRecord
100
AcDbLinetypeTableRecord
  2
BYBLOCK
 70
              64
  3

 72
              65
 73
               0
 40
0.0
  0
LTYPE
  5
12
100
AcDbSymbolTableRecord
100
AcDbLinetypeTableRecord
  2
BYLAYER
 70
              64
  3

 72
              65
 73
               0
 40
0.0
  0
LTYPE
  5
13
100
AcDbSymbolTableRecord
100
AcDbLinetypeTableRecord
  2
CONTINUOUS
 70
              64
  3
Solid line
 72
              65
 73
               0
 40
0.0
  0
LTYPE
  5
44
100
AcDbSymbolTableRecord
100
AcDbLinetypeTableRecord
  2
CENTER
 70
              64
  3
Center ____ _ ____ _ ____ _ ____ _ ____ _ ____
 72
              65
 73
               4
 40
26.0
 49
20.0
 74
               0
 49
-2.0
 74
               0
 49
2.0
 74
               0
 49
-2.0
 74
               0
  0
LTYPE
  5
46
100
AcDbSymbolTableRecord
100
AcDbLinetypeTableRecord
  2
DASHED
 70
              64
  3
Dashed __ __ __ __ __ __ __ __ __ __ __ __ __ _
 72
              65
 73
               2
 40
4.0
 49
2.0
 74
               0
 49
-2.0
 74
               0
  0
ENDTAB
  0
TABLE
  2
LAYER
  5
2
100
AcDbSymbolTable
 70
               2
  0
LAYER
  5
14
100
AcDbSymbolTableRecord
100
AcDbLayerTableRecord
  2
0
 70
               0
 62
               7
  6
CONTINUOUS
  0
LAYER
  5
1D
100
AcDbSymbolTableRecord
100
AcDbLayerTableRecord
  2
DEFPOINTS
 70
               0
 62
               7
  6
CONTINUOUS
  0
ENDTAB
  0
TABLE
  2
STYLE
  5
3
100
AcDbSymbolTable
 70
               1
  0
STYLE
  5
17
100
AcDbSymbolTableRecord
100
AcDbTextStyleTableRecord
  2
MX_NOTE_STANDARD
 70
               0
 40
0.0
 41
1.0
 50
0.0
 71
               0
 42
3.2000000476837158
  3
txt.shx
  4
extfont.shx
  0
ENDTAB
  0
TABLE
  2
VIEW
  5
5
100
AcDbSymbolTable
 70
               0
  0
ENDTAB
  0
TABLE
  2
UCS
  5
6
100
AcDbSymbolTable
 70
               0
  0
ENDTAB
  0
TABLE
  2
APPID
  5
8
100
AcDbSymbolTable
 70
               1
  0
APPID
  5
16
100
AcDbSymbolTableRecord
100
AcDbRegAppTableRecord
  2
ACAD
 70
               0
  0
ENDTAB
  0
TABLE
  2
DIMSTYLE
  5
9
100
AcDbSymbolTable
 70
               1
  0
DIMSTYLE
105
18
100
AcDbSymbolTableRecord
100
AcDbDimStyleTableRecord
  2
MXDIMSTYLE
 70
               0
  3

  4

  5

  6

  7

 40
1.0
 41
2.5
 42
1.5
 43
3.75
 44
1.5
 45
0.0
 46
0.0
 47
0.0
 48
0.0
 71
               0
 72
               0
 73
               0
 74
               0
 75
               0
 76
               0
 77
               1
 78
               8
140
3.2000000476837158
141
2.5
142
0.0
143
0.03937007874016
144
1.0
145
0.0
146
1.0
147
1.0
170
               0
171
               4
172
               1
173
               0
174
               0
175
               0
176
               0
177
               0
178
               0
270
               2
271
               4
272
               4
273
               2
274
               4
275
               0
280
               0
281
               0
282
               0
283
               1
284
               0
285
               0
286
               0
287
               3
288
               1
340
17
  0
ENDTAB
  0
TABLE
  2
BLOCK_RECORD
  5
1
100
AcDbSymbolTable
 70
              12
  0
BLOCK_RECORD
  5
A
100
AcDbSymbolTableRecord
100
AcDbBlockTableRecord
  2
*MODEL_SPACE
  0
BLOCK_RECORD
  5
B
100
AcDbSymbolTableRecord
100
AcDbBlockTableRecord
  2
*PAPER_SPACE
  0
BLOCK_RECORD
  5
1E
100
AcDbSymbolTableRecord
100
AcDbBlockTableRecord
  2
JIG-C_CLEVIS2-1
  0
BLOCK_RECORD
  5
1F
100
AcDbSymbolTableRecord
100
AcDbBlockTableRecord
  2
JIG-C_CLEVIS2-2
  0
BLOCK_RECORD
  5
20
100
AcDbSymbolTableRecord
100
AcDbBlockTableRecord
  2
JIG-C_CLEVIS2-3
  0
BLOCK_RECORD
  5
21
100
AcDbSymbolTableRecord
100
AcDbBlockTableRecord
  2
JIG-C_CLEVIS2-4
  0
BLOCK_RECORD
  5
22
100
AcDbSymbolTableRecord
100
AcDbBlockTableRecord
  2
JIG-C_CLEVIS2-5
  0
BLOCK_RECORD
  5
23
100
AcDbSymbolTableRecord
100
AcDbBlockTableRecord
  2
JIG-C_CLEVIS2-6
  0
BLOCK_RECORD
  5
24
100
AcDbSymbolTableRecord
100
AcDbBlockTableRecord
  2
JIG-C_CLEVIS2-7
  0
BLOCK_RECORD
  5
25
100
AcDbSymbolTableRecord
100
AcDbBlockTableRecord
  2
JIG-C_CLEVIS2-8
  0
BLOCK_RECORD
  5
26
100
AcDbSymbolTableRecord
100
AcDbBlockTableRecord
  2
JIG-C_CLEVIS2-9
  0
BLOCK_RECORD
  5
27
100
AcDbSymbolTableRecord
100
AcDbBlockTableRecord
  2
JIG-C_CLEVIS2-10
  0
BLOCK_RECORD
  5
28
100
AcDbSymbolTableRecord
100
AcDbBlockTableRecord
  2
JIG-C_CLEVIS2-11
  0
BLOCK_RECORD
  5
29
100
AcDbSymbolTableRecord
100
AcDbBlockTableRecord
  2
JIG-C_CLEVIS2-12
  0
ENDTAB
  0
ENDSEC
  0
SECTION
  2
BLOCKS
  0
BLOCK
  5
D
100
AcDbEntity
  8
0
100
AcDbBlockBegin
  2
*MODEL_SPACE
 70
               0
 10
0.0
 20
0.0
 30
0.0
  3
*MODEL_SPACE
  1

  0
ENDBLK
  5
E
100
AcDbEntity
  8
0
100
AcDbBlockEnd
  0
BLOCK
  5
F
100
AcDbEntity
 67
               1
  8
0
100
AcDbBlockBegin
  2
*PAPER_SPACE
 70
               0
 10
0.0
 20
0.0
 30
0.0
  3
*PAPER_SPACE
  1

  0
ENDBLK
  5
10
100
AcDbEntity
 67
               1
  8
0
100
AcDbBlockEnd
  0
BLOCK
  5
2A
100
AcDbEntity
  8
0
100
AcDbBlockBegin
  2
JIG-C_CLEVIS2-1
 70
               0
 10
0.0
 20
0.0
 30
0.0
  3
JIG-C_CLEVIS2-1
  1

  0
ARC
  5
2B
100
AcDbEntity
  8
0
  6
CONTINUOUS
 62
               4
100
AcDbCircle
 10
30.999984741210938
 20
9.1654281616210937
 30
0.0
 40
1.0
100
AcDbArc
 50
359.99994535848663
 51
79.695473688598355
  0
ARC
  5
2C
100
AcDbEntity
  8
0
  6
CONTINUOUS
 62
               4
100
AcDbCircle
 10
30.999984741210938
 20
-9.1654205322265625
 30
0.0
 40
1.0
100
AcDbArc
 50
280.3044716698883
 51
0.0
  0
ARC
  5
2D
100
AcDbEntity
  8
0
  6
CONTINUOUS
 62
               4
100
AcDbCircle
 10
10.0
 20
-16.0
 30
0.0
 40
2.0
100
AcDbArc
 50
89.999982013910653
 51
179.99996402782131
  0
ARC
  5
2E
100
AcDbEntity
  8
0
  6
CONTINUOUS
 62
               4
100
AcDbCircle
 10
5.0
 20
30.500015258789063
 30
0.0
 40
1.0
100
AcDbArc
 50
359.99994535848663
 51
89.999927372397295
  0
ARC
  5
2F
100
AcDbEntity
  8
0
  6
CONTINUOUS
 62
               4
100
AcDbCircle
 10
5.0
 20
-30.5
 30
0.0
 40
1.0
100
AcDbArc
 50
270.00001798608935
 51
0.0
  0
CIRCLE
  5
30
100
AcDbEntity
  8
0
  6
CONTINUOUS
 62
               4
100
AcDbCircle
 10
19.0
 20
0.0
 30
0.0
 40
7.0
  0
ARC
  5
31
100
AcDbEntity
  8
0
  6
CONTINUOUS
 62
               4
100
AcDbCircle
 10
19.0
 20
0.0
 30
0.0
 40
8.5
100
AcDbArc
 50
292.94758895568879
 51
247.05236824194338
  0
ARC
  5
32
100
AcDbEntity
  8
0
  6
CONTINUOUS
 62
               4
100
AcDbCircle
 10
10.0
 20
16.000007629394531
 30
0.0
 40
2.0
100
AcDbArc
 50
179.99998133066532
 51
269.99996334457597
  0
LINE
  5
33
100
AcDbEntity
  8
0
  6
CONTINUOUS
 62
               4
100
AcDbLine
 10
0.0
 20
-27.018516540527344
 30
0.0
 11
5.0
 21
-27.018516540527344
 31
0.0
  0
LINE
  5
34
100
AcDbEntity
  8
0
  6
CONTINUOUS
 62
               4
100
AcDbLine
 10
0.0
 20
27.018508911132812
 30
0.0
 11
5.0
 21
27.018508911132812
 31
0.0
  0
LINE
  5
35
100
AcDbEntity
  8
0
  6
CONTINUOUS
 62
               4
100
AcDbLine
 10
5.0
 20
18.169059753417969
 30
0.0
 11
6.0
 21
18.169059753417969
 31
0.0
  0
LINE
  5
36
100
AcDbEntity
  8
0
  6
CONTINUOUS
 62
               4
100
AcDbLine
 10
5.0
 20
-18.169052124023438
 30
0.0
 11
6.0
 21
-18.169052124023438
 31
0.0
  0
LINE
  5
37
100
AcDbEntity
  8
0
  6
CONTINUOUS
 62
               4
100
AcDbLine
 10
21.905109369246361
 20
-6.3686851310142742
 30
0.0
 11
22.313841258175103
 21
-7.8273961169855397
 31
0.0
  0
LINE
  5
38
100
AcDbEntity
  8
0
  6
CONTINUOUS
 62
               4
100
AcDbLine
 10
16.094560739044027
 20
-6.3685837034718134
 30
0.0
 11
15.68582170825357
 21
-7.827308569681918
 31
0.0
  0
LINE
  5
39
100
AcDbEntity
  8
0
  6
CONTINUOUS
 62
               4
100
AcDbLine
 10
5.0
 20
14.000007629394531
 30
0.0
 11
5.0
 21
31.500015258789063
 31
0.0
  0
LINE
  5
3A
100
AcDbEntity
  8
0
  6
CONTINUOUS
 62
               4
100
AcDbLine
 10
5.0
 20
-14.0
 30
0.0
 11
5.0
 21
-31.5
 31
0.0
  0
LINE
  5
3B
100
AcDbEntity
  8
0
  6
CONTINUOUS
 62
               4
100
AcDbLine
 10
5.0
 20
14.000007629394531
 30
0.0
 11
6.5
 21
14.000007629394531
 31
0.0
  0
LINE
  5
3C
100
AcDbEntity
  8
0
  6
CONTINUOUS
 62
               4
100
AcDbLine
 10
6.4998814924532553
 20
13.999994569207274
 30
0.0
 11
6.9998909161898837
 21
13.49998131002053
 31
0.0
  0
LINE
  5
3D
100
AcDbEntity
  8
0
  6
CONTINUOUS
 62
               4
100
AcDbLine
 10
6.4998774460918867
 20
-13.999925785564301
 30
0.0
 11
6.999886869828515
 21
-13.499912526377557
 31
0.0
  0
LINE
  5
3E
100
AcDbEntity
  8
0
  6
CONTINUOUS
 62
               4
100
AcDbLine
 10
5.0
 20
-14.0
 30
0.0
 11
6.5
 21
-14.0
 31
0.0
  0
LINE
  5
3F
100
AcDbEntity
  8
0
  6
CONTINUOUS
 62
               4
100
AcDbLine
 10
8.0001707558083694
 20
16.000005167391507
 30
0.0
 11
6.000168703733209
 21
30.500022716817554
 31
0.0
  0
LINE
  5
40
100
AcDbEntity
  8
0
  6
CONTINUOUS
 62
               4
100
AcDbLine
 10
9.9999852943088996
 20
13.999999016991865
 30
0.0
 11
31.178860018929882
 21
10.149295658859614
 31
0.0
  0
LINE
  5
41
100
AcDbEntity
  8
0
  6
CONTINUOUS
 62
               4
100
AcDbLine
 10
10.000002428790339
 20
-14.000002418299118
 30
0.0
 11
31.178892166074746
 21
-10.149295047536498
 31
0.0
  0
LINE
  5
42
100
AcDbEntity
  8
0
  6
CONTINUOUS
 62
               4
100
AcDbLine
 10
8.0001563893981711
 20
-16.000018589072454
 30
0.0
 11
6.0001564222438901
 21
-30.50002102281934
 31
0.0
  0
LINE
  5
43
100
AcDbEntity
  8
0
  6
CONTINUOUS
 62
               4
100
AcDbLine
 10
6.0
 20
30.500015258789063
 30
0.0
 11
6.0
 21
14.000007629394531
 31
0.0
  0
LINE
  5
45
100
AcDbEntity
  8
0
  6
CENTER
 62
             200
100
AcDbLine
 10
-1.66668701171875
 20
24.000007629394531
 30
0.0
 11
6.83331298828125
 21
24.000007629394531
 31
0.0
  0
LINE
  5
47
100
AcDbEntity
  8
0
  6
DASHED
 62
             200
100
AcDbLine
 10
0.0
 20
19.500007629394531
 30
0.0
 11
5.0
 21
19.500007629394531
 31
0.0
  0
LINE
  5
48
100
AcDbEntity
  8
0
  6
DASHED
 62
             200
100
AcDbLine
 10
0.0
 20
28.500015258789063
 30
0.0
 11
5.0
 21
28.500015258789063
 31
0.0
  0
LINE
  5
49
100
AcDbEntity
  8
0
  6
CONTINUOUS
 62
               4
100
AcDbLine
 10
5.0
 20
31.500015258789063
 30
0.0
 11
5.0
 21
14.000007629394531
 31
0.0
  0
LINE
  5
4A
100
AcDbEntity
  8
0
  6
CENTER
 62
             200
100
AcDbLine
 10
19.0
 20
-9.1666641235351562
 30
0.0
 11
19.0
 21
9.0000076293945312
 31
0.0
  0
LINE
  5
4B
100
AcDbEntity
  8
0
  6
CONTINUOUS
 62
               4
100
AcDbLine
 10
31.999984741210937
 20
-9.1654205322265625
 30
0.0
 11
31.999984741210937
 21
9.1654281616210937
 31
0.0
  0
LINE
  5
4C
100
AcDbEntity
  8
0
  6
DASHED
 62
             200
100
AcDbLine
 10
0.0
 20
-28.5
 30
0.0
 11
5.0
 21
-28.5
 31
0.0
  0
LINE
  5
4D
100
AcDbEntity
  8
0
  6
DASHED
 62
             200
100
AcDbLine
 10
0.0
 20
-19.5
 30
0.0
 11
5.0
 21
-19.5
 31
0.0
  0
LINE
  5
4E
100
AcDbEntity
  8
0
  6
CENTER
 62
             200
100
AcDbLine
 10
-1.66668701171875
 20
-24.0
 30
0.0
 11
6.83331298828125
 21
-24.0
 31
0.0
  0
LINE
  5
4F
100
AcDbEntity
  8
0
  6
CENTER
 62
             200
100
AcDbLine
 10
-4.66668701171875
 20
0.0
 30
0.0
 11
31.166641235351563
 21
0.0
 31
0.0
  0
LINE
  5
50
100
AcDbEntity
  8
0
  6
CONTINUOUS
 62
               4
100
AcDbLine
 10
7.0
 20
-13.499992370605469
 30
0.0
 11
7.0
 21
13.499992370605469
 31
0.0
  0
LINE
  5
51
100
AcDbEntity
  8
0
  6
CONTINUOUS
 62
               4
100
AcDbLine
 10
6.0
 20
-30.5
 30
0.0
 11
6.0
 21
-14.0
 31
0.0
  0
LINE
  5
52
100
AcDbEntity
  8
0
  6
CONTINUOUS
 62
               4
100
AcDbLine
 10
0.0
 20
31.500015258789063
 30
0.0
 11
5.0
 21
31.500015258789063
 31
0.0
  0
LINE
  5
53
100
AcDbEntity
  8
0
  6
CONTINUOUS
 62
               4
100
AcDbLine
 10
5.0
 20
-31.5
 30
0.0
 11
5.0
 21
-14.0
 31
0.0
  0
LINE
  5
54
100
AcDbEntity
  8
0
  6
CONTINUOUS
 62
               4
100
AcDbLine
 10
0.0
 20
-31.5
 30
0.0
 11
5.0
 21
-31.5
 31
0.0
  0
LINE
  5
55
100
AcDbEntity
  8
0
  6
CONTINUOUS
 62
               4
100
AcDbLine
 10
0.0
 20
-31.5
 30
0.0
 11
0.0
 21
31.500015258789063
 31
0.0
  0
ENDBLK
  5
56
100
AcDbEntity
  8
0
100
AcDbBlockEnd
  0
BLOCK
  5
57
100
AcDbEntity
  8
0
100
AcDbBlockBegin
  2
JIG-C_CLEVIS2-2
 70
               0
 10
0.0
 20
0.0
 30
0.0
  3
JIG-C_CLEVIS2-2
  1

  0
ARC
  5
58
100
AcDbEntity
  8
0
  6
CONTINUOUS
 62
               4
100
AcDbCircle
 10
-23.5
 20
23.500007629394531
 30
0.0
 40
9.5
100
AcDbArc
 50
269.99996334457597
 51
359.99994535848663
  0
ARC
  5
59
100
AcDbEntity
  8
0
  6
CONTINUOUS
 62
               4
100
AcDbCircle
 10
-30.5
 20
13.000007629394531
 30
0.0
 40
1.0
100
AcDbArc
 50
89.999927372397295
 51
179.99996402782131
  0
ARC
  5
5A
100
AcDbEntity
  8
0
  6
CONTINUOUS
 62
               4
100
AcDbCircle
 10
-13.0
 20
30.500015258789063
 30
0.0
 40
1.0
100
AcDbArc
 50
89.999927372397295
 51
179.99996402782131
  0
ARC
  5
5B
100
AcDbEntity
  8
0
  6
CONTINUOUS
 62
               4
100
AcDbCircle
 10
0.0
 20
0.0
 30
0.0
 40
41.5
100
AcDbArc
 50
130.62067429110726
 51
139.37927175062472
  0
CIRCLE
  5
5C
100
AcDbEntity
  8
0
  6
CONTINUOUS
 62
               4
100
AcDbCircle
 10
-24.0
 20
24.000007629394531
 30
0.0
 40
4.5
  0
ARC
  5
5D
100
AcDbEntity
  8
0
  6
CONTINUOUS
 62
               4
100
AcDbCircle
 10
-24.0
 20
24.000007629394531
 30
0.0
 40
9.5
100
AcDbArc
 50
217.86357212673789
 51
52.136281934811372
  0
ARC
  5
5E
100
AcDbEntity
  8
0
  6
CONTINUOUS
 62
               4
100
AcDbCircle
 10
24.0
 20
24.000007629394531
 30
0.0
 40
9.5
100
AcDbArc
 50
127.86357280998322
 51
322.13628261805673
  0
ARC
  5
5F
100
AcDbEntity
  8
0
  6
CONTINUOUS
 62
               4
100
AcDbCircle
 10
0.0
 20
0.0
 30
0.0
 40
41.5
100
AcDbArc
 50
40.620582994169872
 51
49.379180453687347
  0
ARC
  5
60
100
AcDbEntity
  8
0
  6
CONTINUOUS
 62
               4
100
AcDbCircle
 10
13.0
 20
30.500015258789063
 30
0.0
 40
1.0
100
AcDbArc
 50
359.99989071697325
 51
89.999927372397295
  0
CIRCLE
  5
61
100
AcDbEntity
  8
0
  6
CONTINUOUS
 62
               4
100
AcDbCircle
 10
24.0
 20
24.000007629394531
 30
0.0
 40
4.5
  0
ARC
  5
62
100
AcDbEntity
  8
0
  6
CONTINUOUS
 62
               4
100
AcDbCircle
 10
13.0
 20
-30.5
 30
0.0
 40
1.0
100
AcDbArc
 50
270.00001798608935
 51
0.0000546415133601
  0
ARC
  5
63
100
AcDbEntity
  8
0
  6
CONTINUOUS
 62
               4
100
AcDbCircle
 10
0.0
 20
0.0
 30
0.0
 40
41.5
100
AcDbArc
 50
310.62076490479927
 51
319.37936236431676
  0
CIRCLE
  5
64
100
AcDbEntity
  8
0
  6
CONTINUOUS
 62
               4
100
AcDbCircle
 10
24.0
 20
-24.0
 30
0.0
 40
4.5
  0
ARC
  5
65
100
AcDbEntity
  8
0
  6
CONTINUOUS
 62
               4
100
AcDbCircle
 10
24.0
 20
-24.0
 30
0.0
 40
9.5
100
AcDbArc
 50
37.863645437585923
 51
232.13635524565942
  0
ARC
  5
66
100
AcDbEntity
  8
0
  6
CONTINUOUS
 62
               4
100
AcDbCircle
 10
23.5
 20
-23.5
 30
0.0
 40
9.5
100
AcDbArc
 50
90.000036655424012
 51
180.00001866933468
  0
ARC
  5
67
100
AcDbEntity
  8
0
  6
CONTINUOUS
 62
               4
100
AcDbCircle
 10
30.5
 20
-13.0
 30
0.0
 40
1.0
100
AcDbArc
 50
270.00001798608935
 51
0.0000546415133601
  0
ARC
  5
68
100
AcDbEntity
  8
0
  6
CONTINUOUS
 62
               4
100
AcDbCircle
 10
-23.5
 20
-23.5
 30
0.0
 40
9.5
100
AcDbArc
 50
0.0
 51
89.999982013910653
  0
ARC
  5
69
100
AcDbEntity
  8
0
  6
CONTINUOUS
 62
               4
100
AcDbCircle
 10
-30.5
 20
-13.0
 30
0.0
 40
1.0
100
AcDbArc
 50
179.99998133066532
 51
270.00001798608935
  0
ARC
  5
6A
100
AcDbEntity
  8
0
  6
CONTINUOUS
 62
               4
100
AcDbCircle
 10
-13.0
 20
-30.5
 30
0.0
 40
1.0
100
AcDbArc
 50
179.99998133066532
 51
270.00001798608935
  0
ARC
  5
6B
100
AcDbEntity
  8
0
  6
CONTINUOUS
 62
               4
100
AcDbCircle
 10
0.0
 20
0.0
 30
0.0
 40
41.5
100
AcDbArc
 50
220.62067360786193
 51
229.37927106737939
  0
CIRCLE
  5
6C
100
AcDbEntity
  8
0
  6
CONTINUOUS
 62
               4
100
AcDbCircle
 10
-24.0
 20
-24.0
 30
0.0
 40
4.5
  0
ARC
  5
6D
100
AcDbEntity
  8
0
  6
CONTINUOUS
 62
               4
100
AcDbCircle
 10
-24.0
 20
-24.0
 30
0.0
 40
9.5
100
AcDbArc
 50
307.86366342367529
 51
142.13637323174873
  0
ARC
  5
6E
100
AcDbEntity
  8
0
  6
CONTINUOUS
 62
               4
100
AcDbCircle
 10
30.5
 20
13.000007629394531
 30
0.0
 40
1.0
100
AcDbArc
 50
359.99989071697325
 51
89.999927372397295
  0
ARC
  5
6F
100
AcDbEntity
  8
0
  6
CONTINUOUS
 62
               4
100
AcDbCircle
 10
23.5
 20
23.500007629394531
 30
0.0
 40
9.5
100
AcDbArc
 50
179.99990938630796
 51
269.99989140021859
  0
LINE
  5
70
100
AcDbEntity
  8
0
  6
CONTINUOUS
 62
               4
100
AcDbLine
 10
24.5
 20
-7.0
 30
0.0
 11
27.5
 21
-7.0
 31
0.0
  0
LINE
  5
71
100
AcDbEntity
  8
0
  6
CONTINUOUS
 62
               4
100
AcDbLine
 10
24.5
 20
7.0000076293945313
 30
0.0
 11
27.5
 21
7.0000076293945313
 31
0.0
  0
LINE
  5
72
100
AcDbEntity
  8
0
  6
CONTINUOUS
 62
               4
100
AcDbLine
 10
22.5
 20
7.0000076293945313
 30
0.0
 11
23.5
 21
7.0000076293945313
 31
0.0
  0
LINE
  5
73
100
AcDbEntity
  8
0
  6
CONTINUOUS
 62
               4
100
AcDbLine
 10
24.5
 20
-8.5
 30
0.0
 11
24.5
 21
8.5000076293945313
 31
0.0
  0
LINE
  5
74
100
AcDbEntity
  8
0
  6
CONTINUOUS
 62
               4
100
AcDbLine
 10
23.5
 20
-8.5
 30
0.0
 11
23.5
 21
8.5000076293945313
 31
0.0
  0
LINE
  5
75
100
AcDbEntity
  8
0
  6
CONTINUOUS
 62
               4
100
AcDbLine
 10
23.5
 20
-8.5
 30
0.0
 11
24.5
 21
-8.5
 31
0.0
  0
LINE
  5
76
100
AcDbEntity
  8
0
  6
CONTINUOUS
 62
               4
100
AcDbLine
 10
23.5
 20
8.5000076293945313
 30
0.0
 11
24.5
 21
8.5000076293945313
 31
0.0
  0
LINE
  5
77
100
AcDbEntity
  8
0
  6
CONTINUOUS
 62
               4
100
AcDbLine
 10
27.5
 20
-7.0
 30
0.0
 11
27.5
 21
7.0000076293945313
 31
0.0
  0
LINE
  5
78
100
AcDbEntity
  8
0
  6
CONTINUOUS
 62
               4
100
AcDbLine
 10
22.5
 20
-7.0
 30
0.0
 11
23.5
 21
-7.0
 31
0.0
  0
LINE
  5
79
100
AcDbEntity
  8
0
  6
CONTINUOUS
 62
               4
100
AcDbLine
 10
-22.5
 20
-7.0
 30
0.0
 11
-23.5
 21
-7.0
 31
0.0
  0
LINE
  5
7A
100
AcDbEntity
  8
0
  6
CONTINUOUS
 62
               4
100
AcDbLine
 10
-24.5
 20
-7.0
 30
0.0
 11
-27.5
 21
-7.0
 31
0.0
  0
LINE
  5
7B
100
AcDbEntity
  8
0
  6
CONTINUOUS
 62
               4
100
AcDbLine
 10
-24.5
 20
7.0000076293945313
 30
0.0
 11
-27.5
 21
7.0000076293945313
 31
0.0
  0
LINE
  5
7C
100
AcDbEntity
  8
0
  6
CONTINUOUS
 62
               4
100
AcDbLine
 10
-22.5
 20
7.0000076293945313
 30
0.0
 11
-23.5
 21
7.0000076293945313
 31
0.0
  0
LINE
  5
7D
100
AcDbEntity
  8
0
  6
CONTINUOUS
 62
               4
100
AcDbLine
 10
-24.5
 20
-8.5
 30
0.0
 11
-24.5
 21
8.5000076293945313
 31
0.0
  0
LINE
  5
7E
100
AcDbEntity
  8
0
  6
CONTINUOUS
 62
               4
100
AcDbLine
 10
-23.5
 20
-8.5
 30
0.0
 11
-23.5
 21
8.5000076293945313
 31
0.0
  0
LINE
  5
7F
100
AcDbEntity
  8
0
  6
CONTINUOUS
 62
               4
100
AcDbLine
 10
-23.5
 20
-8.5
 30
0.0
 11
-24.5
 21
-8.5
 31
0.0
  0
LINE
  5
80
100
AcDbEntity
  8
0
  6
CONTINUOUS
 62
               4
100
AcDbLine
 10
-23.5
 20
8.5000076293945313
 30
0.0
 11
-24.5
 21
8.5000076293945313
 31
0.0
  0
LINE
  5
81
100
AcDbEntity
  8
0
  6
CONTINUOUS
 62
               4
100
AcDbLine
 10
10.0
 20
-7.0
 30
0.0
 11
-10.0
 21
-7.0
 31
0.0
  0
LINE
  5
82
100
AcDbEntity
  8
0
  6
CONTINUOUS
 62
               4
100
AcDbLine
 10
10.0
 20
7.0000076293945313
 30
0.0
 11
-10.0
 21
7.0000076293945313
 31
0.0
  0
LINE
  5
83
100
AcDbEntity
  8
0
  6
CONTINUOUS
 62
               4
100
AcDbLine
 10
-27.5
 20
-7.0
 30
0.0
 11
-27.5
 21
7.0000076293945313
 31
0.0
  0
LINE
  5
84
100
AcDbEntity
  8
0
  6
CONTINUOUS
 62
               4
100
AcDbLine
 10
22.5
 20
-14.0
 30
0.0
 11
10.0
 21
-14.0
 31
0.0
  0
LINE
  5
85
100
AcDbEntity
  8
0
  6
CONTINUOUS
 62
               4
100
AcDbLine
 10
22.5
 20
10.000007629394531
 30
0.0
 11
10.0
 21
10.000007629394531
 31
0.0
  0
LINE
  5
86
100
AcDbEntity
  8
0
  6
CONTINUOUS
 62
               4
100
AcDbLine
 10
22.5
 20
-10.0
 30
0.0
 11
10.0
 21
-10.0
 31
0.0
  0
LINE
  5
87
100
AcDbEntity
  8
0
  6
CONTINUOUS
 62
               4
100
AcDbLine
 10
-10.0
 20
-17.5
 30
0.0
 11
10.0
 21
-17.5
 31
0.0
  0
LINE
  5
88
100
AcDbEntity
  8
0
  6
CONTINUOUS
 62
               4
100
AcDbLine
 10
-22.5
 20
-14.0
 30
0.0
 11
-10.0
 21
-14.0
 31
0.0
  0
LINE
  5
89
100
AcDbEntity
  8
0
  6
CONTINUOUS
 62
               4
100
AcDbLine
 10
-22.5
 20
-10.0
 30
0.0
 11
-10.0
 21
-10.0
 31
0.0
  0
LINE
  5
8A
100
AcDbEntity
  8
0
  6
CONTINUOUS
 62
               4
100
AcDbLine
 10
-22.5
 20
10.000007629394531
 30
0.0
 11
-10.0
 21
10.000007629394531
 31
0.0
  0
LINE
  5
8B
100
AcDbEntity
  8
0
  6
CONTINUOUS
 62
               4
100
AcDbLine
 10
-10.0
 20
17.500007629394531
 30
0.0
 11
10.0
 21
17.500007629394531
 31
0.0
  0
LINE
  5
8C
100
AcDbEntity
  8
0
  6
CONTINUOUS
 62
               4
100
AcDbLine
 10
10.0
 20
14.000007629394531
 30
0.0
 11
22.5
 21
14.000007629394531
 31
0.0
  0
LINE
  5
8D
100
AcDbEntity
  8
0
  6
CONTINUOUS
 62
               4
100
AcDbLine
 10
-22.5
 20
-14.0
 30
0.0
 11
-22.5
 21
14.000007629394531
 31
0.0
  0
LINE
  5
8E
100
AcDbEntity
  8
0
  6
CONTINUOUS
 62
               4
100
AcDbLine
 10
22.5
 20
-14.0
 30
0.0
 11
22.5
 21
14.000007629394531
 31
0.0
  0
LINE
  5
8F
100
AcDbEntity
  8
0
  6
CONTINUOUS
 62
               4
100
AcDbLine
 10
-10.0
 20
-17.5
 30
0.0
 11
-10.0
 21
17.500007629394531
 31
0.0
  0
LINE
  5
90
100
AcDbEntity
  8
0
  6
CONTINUOUS
 62
               4
100
AcDbLine
 10
10.0
 20
-17.5
 30
0.0
 11
10.0
 21
17.500007629394531
 31
0.0
  0
LINE
  5
91
100
AcDbEntity
  8
0
  6
CONTINUOUS
 62
               4
100
AcDbLine
 10
-22.5
 20
14.000007629394531
 30
0.0
 11
-10.0
 21
14.000007629394531
 31
0.0
  0
LINE
  5
92
100
AcDbEntity
  8
0
  6
CONTINUOUS
 62
               4
100
AcDbLine
 10
14.0
 20
30.500015258789063
 30
0.0
 11
14.0
 21
23.500007629394531
 31
0.0
  0
LINE
  5
93
100
AcDbEntity
  8
0
  6
CONTINUOUS
 62
               4
100
AcDbLine
 10
30.5
 20
14.000007629394531
 30
0.0
 11
23.5
 21
14.000007629394531
 31
0.0
  0
LINE
  5
94
100
AcDbEntity
  8
0
  6
CENTER
 62
             200
100
AcDbLine
 10
24.0
 20
33.078903198242188
 30
0.0
 11
24.0
 21
13.477394104003906
 31
0.0
  0
LINE
  5
95
100
AcDbEntity
  8
0
  6
CENTER
 62
             200
100
AcDbLine
 10
33.436904907226563
 20
24.000007629394531
 30
0.0
 11
13.24090576171875
 21
24.000007629394531
 31
0.0
  0
LINE
  5
96
100
AcDbEntity
  8
0
  6
CONTINUOUS
 62
               4
100
AcDbLine
 10
-14.0
 20
30.500015258789063
 30
0.0
 11
-14.0
 21
23.500007629394531
 31
0.0
  0
LINE
  5
97
100
AcDbEntity
  8
0
  6
CONTINUOUS
 62
               4
100
AcDbLine
 10
-30.5
 20
14.000007629394531
 30
0.0
 11
-23.5
 21
14.000007629394531
 31
0.0
  0
LINE
  5
98
100
AcDbEntity
  8
0
  6
CENTER
 62
             200
100
AcDbLine
 10
-24.0
 20
33.078903198242188
 30
0.0
 11
-24.0
 21
13.477394104003906
 31
0.0
  0
LINE
  5
99
100
AcDbEntity
  8
0
  6
CENTER
 62
             200
100
AcDbLine
 10
-33.039108276367188
 20
24.000007629394531
 30
0.0
 11
-13.24090576171875
 21
24.000007629394531
 31
0.0
  0
LINE
  5
9A
100
AcDbEntity
  8
0
  6
CONTINUOUS
 62
               4
100
AcDbLine
 10
14.0
 20
-30.5
 30
0.0
 11
14.0
 21
-23.5
 31
0.0
  0
LINE
  5
9B
100
AcDbEntity
  8
0
  6
CONTINUOUS
 62
               4
100
AcDbLine
 10
30.5
 20
-14.0
 30
0.0
 11
23.5
 21
-14.0
 31
0.0
  0
LINE
  5
9C
100
AcDbEntity
  8
0
  6
CENTER
 62
             200
100
AcDbLine
 10
24.0
 20
-33.25860595703125
 30
0.0
 11
24.0
 21
-13.477386474609375
 31
0.0
  0
LINE
  5
9D
100
AcDbEntity
  8
0
  6
CENTER
 62
             200
100
AcDbLine
 10
33.298416137695312
 20
-24.0
 30
0.0
 11
13.24090576171875
 21
-24.0
 31
0.0
  0
LINE
  5
9E
100
AcDbEntity
  8
0
  6
CONTINUOUS
 62
               4
100
AcDbLine
 10
-14.0
 20
-30.5
 30
0.0
 11
-14.0
 21
-23.5
 31
0.0
  0
LINE
  5
9F
100
AcDbEntity
  8
0
  6
CONTINUOUS
 62
               4
100
AcDbLine
 10
-30.5
 20
-14.0
 30
0.0
 11
-23.5
 21
-14.0
 31
0.0
  0
LINE
  5
A0
100
AcDbEntity
  8
0
  6
CENTER
 62
             200
100
AcDbLine
 10
-24.0
 20
-33.25860595703125
 30
0.0
 11
-24.0
 21
-13.477386474609375
 31
0.0
  0
LINE
  5
A1
100
AcDbEntity
  8
0
  6
CENTER
 62
             200
100
AcDbLine
 10
-33.177597045898438
 20
-24.0
 30
0.0
 11
-13.24090576171875
 21
-24.0
 31
0.0
  0
LINE
  5
A2
100
AcDbEntity
  8
0
  6
CENTER
 62
             200
100
AcDbLine
 10
0.0
 20
-38.833328247070313
 30
0.0
 11
0.0
 21
38.166671752929687
 31
0.0
  0
LINE
  5
A3
100
AcDbEntity
  8
0
  6
CENTER
 62
             200
100
AcDbLine
 10
-37.5
 20
0.0
 30
0.0
 11
39.83331298828125
 21
0.0
 31
0.0
  0
LINE
  5
A4
100
AcDbEntity
  8
0
  6
CONTINUOUS
 62
               4
100
AcDbLine
 10
-27.018524169921875
 20
31.500015258789063
 30
0.0
 11
27.018508911132812
 21
31.500015258789063
 31
0.0
  0
LINE
  5
A5
100
AcDbEntity
  8
0
  6
CONTINUOUS
 62
               4
100
AcDbLine
 10
31.5
 20
-27.018508911132812
 30
0.0
 11
31.5
 21
27.018508911132812
 31
0.0
  0
LINE
  5
A6
100
AcDbEntity
  8
0
  6
CONTINUOUS
 62
               4
100
AcDbLine
 10
-31.5
 20
-27.018508911132812
 30
0.0
 11
-31.5
 21
27.018508911132812
 31
0.0
  0
LINE
  5
A7
100
AcDbEntity
  8
0
  6
CONTINUOUS
 62
               4
100
AcDbLine
 10
-27.018524169921875
 20
-31.5
 30
0.0
 11
27.018508911132812
 21
-31.5
 31
0.0
  0
ENDBLK
  5
A8
100
AcDbEntity
  8
0
100
AcDbBlockEnd
  0
BLOCK
  5
A9
100
AcDbEntity
  8
0
100
AcDbBlockBegin
  2
JIG-C_CLEVIS2-3
 70
               0
 10
0.0
 20
0.0
 30
0.0
  3
JIG-C_CLEVIS2-3
  1

  0
ARC
  5
AA
100
AcDbEntity
  8
0
  6
CONTINUOUS
 62
               4
100
AcDbCircle
 10
30.999984741210938
 20
21.5
 30
0.0
 40
1.0
100
AcDbArc
 50
0.0
 51
89.999982013910653
  0
ARC
  5
AB
100
AcDbEntity
  8
0
  6
CONTINUOUS
 62
               4
100
AcDbCircle
 10
8.84661865234375
 20
24.5
 30
0.0
 40
2.0
100
AcDbArc
 50
187.85334649872433
 51
270.00001798608935
  0
ARC
  5
AC
100
AcDbEntity
  8
0
  6
CONTINUOUS
 62
               4
100
AcDbCircle
 10
5.0
 20
30.5
 30
0.0
 40
1.0
100
AcDbArc
 50
359.99994535848663
 51
89.999927372397295
  0
ARC
  5
AD
100
AcDbEntity
  8
0
  6
CONTINUOUS
 62
               4
100
AcDbCircle
 10
5.0
 20
-30.499969482421875
 30
0.0
 40
1.0
100
AcDbArc
 50
270.00001798608935
 51
0.0
  0
ARC
  5
AE
100
AcDbEntity
  8
0
  6
CONTINUOUS
 62
               4
100
AcDbCircle
 10
8.84661865234375
 20
-24.499969482421875
 30
0.0
 40
2.0
100
AcDbArc
 50
89.999927372397295
 51
172.14659885976232
  0
ARC
  5
AF
100
AcDbEntity
  8
0
  6
CONTINUOUS
 62
               4
100
AcDbCircle
 10
30.999984741210938
 20
-21.499969482421875
 30
0.0
 40
1.0
100
AcDbArc
 50
269.99996334457597
 51
359.99994535848663
  0
LINE
  5
B0
100
AcDbEntity
  8
0
  6
CONTINUOUS
 62
               4
100
AcDbLine
 10
0.0
 20
27.018508911132812
 30
0.0
 11
5.0
 21
27.018508911132812
 31
0.0
  0
LINE
  5
B1
100
AcDbEntity
  8
0
  6
CONTINUOUS
 62
               4
100
AcDbLine
 10
0.0
 20
-27.01849365234375
 30
0.0
 11
5.0
 21
-27.01849365234375
 31
0.0
  0
LINE
  5
B2
100
AcDbEntity
  8
0
  6
CONTINUOUS
 62
               4
100
AcDbLine
 10
27.499984741210938
 20
-23.499969482421875
 30
0.0
 11
27.499984741210938
 21
-24.5
 31
0.0
  0
LINE
  5
B3
100
AcDbEntity
  8
0
  6
CONTINUOUS
 62
               4
100
AcDbLine
 10
12.0
 20
-27.499969482421875
 30
0.0
 11
25.999984741210937
 21
-27.499969482421875
 31
0.0
  0
LINE
  5
B4
100
AcDbEntity
  8
0
  6
CONTINUOUS
 62
               4
100
AcDbLine
 10
12.0
 20
-22.499969482421875
 30
0.0
 11
12.0
 21
-23.499969482421875
 31
0.0
  0
LINE
  5
B5
100
AcDbEntity
  8
0
  6
CONTINUOUS
 62
               4
100
AcDbLine
 10
12.0
 20
22.5
 30
0.0
 11
12.0
 21
23.5
 31
0.0
  0
LINE
  5
B6
100
AcDbEntity
  8
0
  6
CONTINUOUS
 62
               4
100
AcDbLine
 10
12.0
 20
24.5
 30
0.0
 11
12.0
 21
27.5
 31
0.0
  0
LINE
  5
B7
100
AcDbEntity
  8
0
  6
CONTINUOUS
 62
               4
100
AcDbLine
 10
25.999984741210937
 20
24.5
 30
0.0
 11
25.999984741210937
 21
27.5
 31
0.0
  0
LINE
  5
B8
100
AcDbEntity
  8
0
  6
CONTINUOUS
 62
               4
100
AcDbLine
 10
25.999984741210937
 20
22.5
 30
0.0
 11
25.999984741210937
 21
23.6153564453125
 31
0.0
  0
LINE
  5
B9
100
AcDbEntity
  8
0
  6
CONTINUOUS
 62
               4
100
AcDbLine
 10
10.5
 20
24.5
 30
0.0
 11
27.499984741210938
 21
24.5
 31
0.0
  0
LINE
  5
BA
100
AcDbEntity
  8
0
  6
CONTINUOUS
 62
               4
100
AcDbLine
 10
10.5
 20
23.5
 30
0.0
 11
27.499984741210938
 21
23.5
 31
0.0
  0
LINE
  5
BB
100
AcDbEntity
  8
0
  6
CONTINUOUS
 62
               4
100
AcDbLine
 10
10.5
 20
23.5
 30
0.0
 11
10.5
 21
24.5
 31
0.0
  0
LINE
  5
BC
100
AcDbEntity
  8
0
  6
CONTINUOUS
 62
               4
100
AcDbLine
 10
27.499984741210938
 20
23.5
 30
0.0
 11
27.499984741210938
 21
24.5
 31
0.0
  0
LINE
  5
BD
100
AcDbEntity
  8
0
  6
CONTINUOUS
 62
               4
100
AcDbLine
 10
12.0
 20
-10.0
 30
0.0
 11
12.0
 21
10.0
 31
0.0
  0
LINE
  5
BE
100
AcDbEntity
  8
0
  6
CONTINUOUS
 62
               4
100
AcDbLine
 10
25.999984741210937
 20
-10.0
 30
0.0
 11
25.999984741210937
 21
10.0
 31
0.0
  0
LINE
  5
BF
100
AcDbEntity
  8
0
  6
CONTINUOUS
 62
               4
100
AcDbLine
 10
12.0
 20
27.5
 30
0.0
 11
25.999984741210937
 21
27.5
 31
0.0
  0
LINE
  5
C0
100
AcDbEntity
  8
0
  6
CONTINUOUS
 62
               4
100
AcDbLine
 10
10.5
 20
-24.5
 30
0.0
 11
27.499984741210938
 21
-24.5
 31
0.0
  0
LINE
  5
C1
100
AcDbEntity
  8
0
  6
CONTINUOUS
 62
               4
100
AcDbLine
 10
25.999984741210937
 20
-22.499969482421875
 30
0.0
 11
25.999984741210937
 21
-23.615325927734375
 31
0.0
  0
LINE
  5
C2
100
AcDbEntity
  8
0
  6
CONTINUOUS
 62
               4
100
AcDbLine
 10
10.5
 20
-23.499969482421875
 30
0.0
 11
10.5
 21
-24.5
 31
0.0
  0
LINE
  5
C3
100
AcDbEntity
  8
0
  6
CONTINUOUS
 62
               4
100
AcDbLine
 10
10.5
 20
-23.499969482421875
 30
0.0
 11
27.499984741210938
 21
-23.499969482421875
 31
0.0
  0
LINE
  5
C4
100
AcDbEntity
  8
0
  6
CONTINUOUS
 62
               4
100
AcDbLine
 10
12.0
 20
-24.5
 30
0.0
 11
12.0
 21
-27.499969482421875
 31
0.0
  0
LINE
  5
C5
100
AcDbEntity
  8
0
  6
CONTINUOUS
 62
               4
100
AcDbLine
 10
25.999984741210937
 20
-24.5
 30
0.0
 11
25.999984741210937
 21
-27.499969482421875
 31
0.0
  0
LINE
  5
C6
100
AcDbEntity
  8
0
  6
CONTINUOUS
 62
               4
100
AcDbLine
 10
6.8654000932435792
 20
-24.226703342328847
 30
0.0
 11
6.0001218151389821
 21
-30.499982276651508
 31
0.0
  0
LINE
  5
C7
100
AcDbEntity
  8
0
  6
CONTINUOUS
 62
               4
100
AcDbLine
 10
31.999984741210937
 20
-10.0
 30
0.0
 11
31.999984741210937
 21
-21.499969482421875
 31
0.0
  0
LINE
  5
C8
100
AcDbEntity
  8
0
  6
CONTINUOUS
 62
               4
100
AcDbLine
 10
8.84661865234375
 20
-22.499969482421875
 30
0.0
 11
30.999984741210938
 21
-22.499969482421875
 31
0.0
  0
LINE
  5
C9
100
AcDbEntity
  8
0
  6
CONTINUOUS
 62
               4
100
AcDbLine
 10
7.0
 20
-10.0
 30
0.0
 11
31.999984741210937
 21
-10.0
 31
0.0
  0
LINE
  5
CA
100
AcDbEntity
  8
0
  6
CONTINUOUS
 62
               4
100
AcDbLine
 10
8.84661865234375
 20
22.5
 30
0.0
 11
30.999984741210938
 21
22.5
 31
0.0
  0
LINE
  5
CB
100
AcDbEntity
  8
0
  6
CONTINUOUS
 62
               4
100
AcDbLine
 10
7.0
 20
10.0
 30
0.0
 11
31.999984741210937
 21
10.0
 31
0.0
  0
LINE
  5
CC
100
AcDbEntity
  8
0
  6
CONTINUOUS
 62
               4
100
AcDbLine
 10
5.0
 20
14.0
 30
0.0
 11
5.0
 21
31.5
 31
0.0
  0
LINE
  5
CD
100
AcDbEntity
  8
0
  6
CONTINUOUS
 62
               4
100
AcDbLine
 10
5.0
 20
-13.999969482421875
 30
0.0
 11
5.0
 21
-31.499969482421875
 31
0.0
  0
LINE
  5
CE
100
AcDbEntity
  8
0
  6
CONTINUOUS
 62
               4
100
AcDbLine
 10
5.0
 20
-17.999969482421875
 30
0.0
 11
6.0
 21
-17.999969482421875
 31
0.0
  0
LINE
  5
CF
100
AcDbEntity
  8
0
  6
CONTINUOUS
 62
               4
100
AcDbLine
 10
5.0
 20
18.0
 30
0.0
 11
6.0
 21
18.0
 31
0.0
  0
LINE
  5
D0
100
AcDbEntity
  8
0
  6
CONTINUOUS
 62
               4
100
AcDbLine
 10
5.0
 20
14.0
 30
0.0
 11
6.5
 21
14.0
 31
0.0
  0
LINE
  5
D1
100
AcDbEntity
  8
0
  6
CONTINUOUS
 62
               4
100
AcDbLine
 10
6.4999192560097754
 20
13.999989174265693
 30
0.0
 11
6.99990710064219
 21
13.49999749434869
 31
0.0
  0
LINE
  5
D2
100
AcDbEntity
  8
0
  6
CONTINUOUS
 62
               4
100
AcDbLine
 10
6.4998336131174597
 20
-13.999860373821889
 30
0.0
 11
6.9998322473019812
 21
-13.499857904270016
 31
0.0
  0
LINE
  5
D3
100
AcDbEntity
  8
0
  6
CONTINUOUS
 62
               4
100
AcDbLine
 10
5.0
 20
-13.999984741210938
 30
0.0
 11
6.5
 21
-13.999984741210938
 31
0.0
  0
LINE
  5
D4
100
AcDbEntity
  8
0
  6
CONTINUOUS
 62
               4
100
AcDbLine
 10
6.8655455090239457
 20
24.226772580467326
 30
0.0
 11
6.000265815456828
 21
30.500051514789988
 31
0.0
  0
LINE
  5
D5
100
AcDbEntity
  8
0
  6
CONTINUOUS
 62
               4
100
AcDbLine
 10
6.0
 20
30.5
 30
0.0
 11
6.0
 21
14.0
 31
0.0
  0
LINE
  5
D6
100
AcDbEntity
  8
0
  6
CENTER
 62
             200
100
AcDbLine
 10
-1.66668701171875
 20
24.0
 30
0.0
 11
6.83331298828125
 21
24.0
 31
0.0
  0
LINE
  5
D7
100
AcDbEntity
  8
0
  6
DASHED
 62
             200
100
AcDbLine
 10
0.0
 20
19.5
 30
0.0
 11
5.0
 21
19.5
 31
0.0
  0
LINE
  5
D8
100
AcDbEntity
  8
0
  6
DASHED
 62
             200
100
AcDbLine
 10
0.0
 20
28.5
 30
0.0
 11
5.0
 21
28.5
 31
0.0
  0
LINE
  5
D9
100
AcDbEntity
  8
0
  6
CONTINUOUS
 62
               4
100
AcDbLine
 10
5.0
 20
31.5
 30
0.0
 11
5.0
 21
14.0
 31
0.0
  0
LINE
  5
DA
100
AcDbEntity
  8
0
  6
CENTER
 62
             200
100
AcDbLine
 10
19.0
 20
-31.210113525390625
 30
0.0
 11
19.0
 21
36.200897216796875
 31
0.0
  0
LINE
  5
DB
100
AcDbEntity
  8
0
  6
CONTINUOUS
 62
               4
100
AcDbLine
 10
31.999984741210937
 20
10.0
 30
0.0
 11
31.999984741210937
 21
21.5
 31
0.0
  0
LINE
  5
DC
100
AcDbEntity
  8
0
  6
DASHED
 62
             200
100
AcDbLine
 10
0.0
 20
-28.499969482421875
 30
0.0
 11
5.0
 21
-28.499969482421875
 31
0.0
  0
LINE
  5
DD
100
AcDbEntity
  8
0
  6
DASHED
 62
             200
100
AcDbLine
 10
0.0
 20
-19.499969482421875
 30
0.0
 11
5.0
 21
-19.499969482421875
 31
0.0
  0
LINE
  5
DE
100
AcDbEntity
  8
0
  6
CENTER
 62
             200
100
AcDbLine
 10
-1.66668701171875
 20
-23.999969482421875
 30
0.0
 11
6.83331298828125
 21
-23.999969482421875
 31
0.0
  0
LINE
  5
DF
100
AcDbEntity
  8
0
  6
CENTER
 62
             200
100
AcDbLine
 10
-4.66668701171875
 20
0.0
 30
0.0
 11
31.166641235351563
 21
0.0
 31
0.0
  0
LINE
  5
E0
100
AcDbEntity
  8
0
  6
CONTINUOUS
 62
               4
100
AcDbLine
 10
7.0
 20
-13.499969482421875
 30
0.0
 11
7.0
 21
13.5
 31
0.0
  0
LINE
  5
E1
100
AcDbEntity
  8
0
  6
CONTINUOUS
 62
               4
100
AcDbLine
 10
6.0
 20
-30.499969482421875
 30
0.0
 11
6.0
 21
-13.999969482421875
 31
0.0
  0
LINE
  5
E2
100
AcDbEntity
  8
0
  6
CONTINUOUS
 62
               4
100
AcDbLine
 10
0.0
 20
31.5
 30
0.0
 11
5.0
 21
31.5
 31
0.0
  0
LINE
  5
E3
100
AcDbEntity
  8
0
  6
CONTINUOUS
 62
               4
100
AcDbLine
 10
5.0
 20
-31.499969482421875
 30
0.0
 11
5.0
 21
-13.999969482421875
 31
0.0
  0
LINE
  5
E4
100
AcDbEntity
  8
0
  6
CONTINUOUS
 62
               4
100
AcDbLine
 10
0.0
 20
-31.499969482421875
 30
0.0
 11
5.0
 21
-31.499969482421875
 31
0.0
  0
LINE
  5
E5
100
AcDbEntity
  8
0
  6
CONTINUOUS
 62
               4
100
AcDbLine
 10
0.0
 20
-31.499969482421875
 30
0.0
 11
0.0
 21
31.5
 31
0.0
  0
ENDBLK
  5
E6
100
AcDbEntity
  8
0
100
AcDbBlockEnd
  0
BLOCK
  5
E7
100
AcDbEntity
  8
0
100
AcDbBlockBegin
  2
JIG-C_CLEVIS2-4
 70
               0
 10
0.0
 20
0.0
 30
0.0
  3
JIG-C_CLEVIS2-4
  1

  0
ARC
  5
E8
100
AcDbEntity
  8
0
  6
CONTINUOUS
 62
               4
100
AcDbCircle
 10
11.728607177734375
 20
19.5
 30
0.0
 40
2.0
100
AcDbArc
 50
188.32557211756065
 51
269.99996334457597
  0
ARC
  5
E9
100
AcDbEntity
  8
0
  6
CONTINUOUS
 62
               4
100
AcDbCircle
 10
11.728607177734375
 20
-19.5
 30
0.0
 40
2.0
100
AcDbArc
 50
89.999982013910653
 51
171.67437324092597
  0
ARC
  5
EA
100
AcDbEntity
  8
0
  6
CONTINUOUS
 62
               4
100
AcDbCircle
 10
8.0
 20
-18.0
 30
0.0
 40
1.0
100
AcDbArc
 50
89.999982013910653
 51
179.99996402782131
  0
ARC
  5
EB
100
AcDbEntity
  8
0
  6
CONTINUOUS
 62
               4
100
AcDbCircle
 10
31.0
 20
9.3037261962890625
 30
0.0
 40
1.0
100
AcDbArc
 50
359.99994535848663
 51
69.696848555075888
  0
CIRCLE
  5
EC
100
AcDbEntity
  8
0
  6
CONTINUOUS
 62
               4
100
AcDbCircle
 10
19.0
 20
0.0
 30
0.0
 40
7.0
  0
ARC
  5
ED
100
AcDbEntity
  8
0
  6
CONTINUOUS
 62
               4
100
AcDbCircle
 10
31.0
 20
-9.303741455078125
 30
0.0
 40
1.0
100
AcDbArc
 50
290.30309680341077
 51
0.0
  0
ARC
  5
EE
100
AcDbEntity
  8
0
  6
CONTINUOUS
 62
               4
100
AcDbCircle
 10
8.0
 20
18.0
 30
0.0
 40
1.0
100
AcDbArc
 50
179.99998133066532
 51
269.99996334457597
  0
ARC
  5
EF
100
AcDbEntity
  8
0
  6
CONTINUOUS
 62
               4
100
AcDbCircle
 10
19.0
 20
0.0
 30
0.0
 40
8.5
100
AcDbArc
 50
292.94758895568879
 51
247.05236824194338
  0
LINE
  5
F0
100
AcDbEntity
  8
0
  6
CONTINUOUS
 62
               4
100
AcDbLine
 10
0.0
 20
-33.260345458984375
 30
0.0
 11
6.0
 21
-33.260345458984375
 31
0.0
  0
LINE
  5
F1
100
AcDbEntity
  8
0
  6
CONTINUOUS
 62
               4
100
AcDbLine
 10
0.0
 20
33.260330200195313
 30
0.0
 11
6.0
 21
33.260330200195313
 31
0.0
  0
LINE
  5
F2
100
AcDbEntity
  8
0
  6
CONTINUOUS
 62
               4
100
AcDbLine
 10
21.905453986762041
 20
-6.3685647992220993
 30
0.0
 11
22.314188963411539
 21
-7.8272868048674127
 31
0.0
  0
LINE
  5
F3
100
AcDbEntity
  8
0
  6
CONTINUOUS
 62
               4
100
AcDbLine
 10
16.094733602392353
 20
-6.3686242170524565
 30
0.0
 11
15.685994571601896
 21
-7.8273490832625612
 31
0.0
  0
LINE
  5
F4
100
AcDbEntity
  8
0
  6
CENTER
 62
             200
100
AcDbLine
 10
19.0
 20
-10.598831176757812
 30
0.0
 11
19.0
 21
12.427230834960938
 31
0.0
  0
LINE
  5
F5
100
AcDbEntity
  8
0
  6
CONTINUOUS
 62
               4
100
AcDbLine
 10
32.0
 20
-9.303741455078125
 30
0.0
 11
32.0
 21
10.0
 31
0.0
  0
LINE
  5
F6
100
AcDbEntity
  8
0
  6
CONTINUOUS
 62
               4
100
AcDbLine
 10
7.0
 20
38.0
 30
0.0
 11
7.0
 21
17.5
 31
0.0
  0
LINE
  5
F7
100
AcDbEntity
  8
0
  6
CONTINUOUS
 62
               4
100
AcDbLine
 10
6.0
 20
24.0
 30
0.0
 11
7.0
 21
24.0
 31
0.0
  0
LINE
  5
F8
100
AcDbEntity
  8
0
  6
CENTER
 62
             200
100
AcDbLine
 10
-2.04205322265625
 20
30.0
 30
0.0
 11
9.86798095703125
 21
30.0
 31
0.0
  0
LINE
  5
F9
100
AcDbEntity
  8
0
  6
DASHED
 62
             200
100
AcDbLine
 10
0.0
 20
25.5
 30
0.0
 11
6.0
 21
25.5
 31
0.0
  0
LINE
  5
FA
100
AcDbEntity
  8
0
  6
DASHED
 62
             200
100
AcDbLine
 10
0.0
 20
34.5
 30
0.0
 11
6.0
 21
34.5
 31
0.0
  0
LINE
  5
FB
100
AcDbEntity
  8
0
  6
CONTINUOUS
 62
               4
100
AcDbLine
 10
0.0
 20
38.0
 30
0.0
 11
7.0
 21
38.0
 31
0.0
  0
LINE
  5
FC
100
AcDbEntity
  8
0
  6
CONTINUOUS
 62
               4
100
AcDbLine
 10
7.0000716906075695
 20
38.000012248491885
 30
0.0
 11
9.7497670279075237
 21
19.210412965026308
 31
0.0
  0
LINE
  5
FD
100
AcDbEntity
  8
0
  6
CONTINUOUS
 62
               4
100
AcDbLine
 10
7.0000037079926187
 20
-38.000004154697535
 30
0.0
 11
9.7496988166158189
 21
-19.210419969209624
 31
0.0
  0
LINE
  5
FE
100
AcDbEntity
  8
0
  6
CONTINUOUS
 62
               4
100
AcDbLine
 10
6.0
 20
-24.000007629394531
 30
0.0
 11
7.0
 21
-24.000007629394531
 31
0.0
  0
LINE
  5
FF
100
AcDbEntity
  8
0
  6
DASHED
 62
             200
100
AcDbLine
 10
0.0
 20
-25.5
 30
0.0
 11
6.0
 21
-25.5
 31
0.0
  0
LINE
  5
100
100
AcDbEntity
  8
0
  6
DASHED
 62
             200
100
AcDbLine
 10
0.0
 20
-34.5
 30
0.0
 11
6.0
 21
-34.5
 31
0.0
  0
LINE
  5
101
100
AcDbEntity
  8
0
  6
CONTINUOUS
 62
               4
100
AcDbLine
 10
8.0
 20
-17.0
 30
0.0
 11
8.0
 21
17.0
 31
0.0
  0
LINE
  5
102
100
AcDbEntity
  8
0
  6
CONTINUOUS
 62
               4
100
AcDbLine
 10
7.0
 20
-38.000003814697266
 30
0.0
 11
7.0
 21
-17.5
 31
0.0
  0
LINE
  5
103
100
AcDbEntity
  8
0
  6
CONTINUOUS
 62
               4
100
AcDbLine
 10
0.0
 20
-38.000003814697266
 30
0.0
 11
7.0
 21
-38.000003814697266
 31
0.0
  0
LINE
  5
104
100
AcDbEntity
  8
0
  6
CONTINUOUS
 62
               4
100
AcDbLine
 10
6.0
 20
-38.000003814697266
 30
0.0
 11
6.0
 21
38.0
 31
0.0
  0
LINE
  5
105
100
AcDbEntity
  8
0
  6
CONTINUOUS
 62
               4
100
AcDbLine
 10
0.0
 20
-38.000003814697266
 30
0.0
 11
0.0
 21
38.0
 31
0.0
  0
LINE
  5
106
100
AcDbEntity
  8
0
  6
CENTER
 62
             200
100
AcDbLine
 10
-2.359649658203125
 20
-30.0
 30
0.0
 11
10.185577392578125
 21
-30.0
 31
0.0
  0
LINE
  5
107
100
AcDbEntity
  8
0
  6
CENTER
 62
             200
100
AcDbLine
 10
-3.47125244140625
 20
0.0
 30
0.0
 11
35.276046752929687
 21
0.0
 31
0.0
  0
LINE
  5
108
100
AcDbEntity
  8
0
  6
CONTINUOUS
 62
               4
100
AcDbLine
 10
11.728639637235347
 20
17.50012302389473
 30
0.0
 11
31.347020244743135
 21
10.241722488608275
 31
0.0
  0
LINE
  5
109
100
AcDbEntity
  8
0
  6
CONTINUOUS
 62
               4
100
AcDbLine
 10
11.728631467657408
 20
-17.499995027063051
 30
0.0
 11
31.34701332197875
 21
-10.241595738590149
 31
0.0
  0
ENDBLK
  5
10A
100
AcDbEntity
  8
0
100
AcDbBlockEnd
  0
BLOCK
  5
10B
100
AcDbEntity
  8
0
100
AcDbBlockBegin
  2
JIG-C_CLEVIS2-5
 70
               0
 10
0.0
 20
0.0
 30
0.0
  3
JIG-C_CLEVIS2-5
  1

  0
ARC
  5
10C
100
AcDbEntity
  8
0
  6
CONTINUOUS
 62
               4
100
AcDbCircle
 10
30.0
 20
30.0
 30
0.0
 40
10.0
100
AcDbArc
 50
126.86978028574637
 51
323.13002050078018
  0
CIRCLE
  5
10D
100
AcDbEntity
  8
0
  6
CONTINUOUS
 62
               4
100
AcDbCircle
 10
-30.0
 20
30.0
 30
0.0
 40
4.5
  0
ARC
  5
10E
100
AcDbEntity
  8
0
  6
CONTINUOUS
 62
               4
100
AcDbCircle
 10
-30.0
 20
30.0
 30
0.0
 40
10.0
100
AcDbArc
 50
216.86982058363606
 51
53.130047138291545
  0
ARC
  5
10F
100
AcDbEntity
  8
0
  6
CONTINUOUS
 62
               4
100
AcDbCircle
 10
-28.0
 20
28.0
 30
0.0
 40
11.0
100
AcDbArc
 50
269.99996334457597
 51
359.99994535848663
  0
ARC
  5
110
100
AcDbEntity
  8
0
  6
CONTINUOUS
 62
               4
100
AcDbCircle
 10
30.0
 20
-30.0
 30
0.0
 40
10.0
100
AcDbArc
 50
36.869907554862429
 51
233.13014776989627
  0
CIRCLE
  5
111
100
AcDbEntity
  8
0
  6
CONTINUOUS
 62
               4
100
AcDbCircle
 10
30.0
 20
-30.0
 30
0.0
 40
4.5
  0
ARC
  5
112
100
AcDbEntity
  8
0
  6
CONTINUOUS
 62
               4
100
AcDbCircle
 10
28.0
 20
-28.0
 30
0.0
 40
11.0
100
AcDbArc
 50
90.000036655424012
 51
180.00001866933468
  0
ARC
  5
113
100
AcDbEntity
  8
0
  6
CONTINUOUS
 62
               4
100
AcDbCircle
 10
-28.0
 20
-28.0
 30
0.0
 40
11.0
100
AcDbArc
 50
0.0
 51
89.999982013910653
  0
CIRCLE
  5
114
100
AcDbEntity
  8
0
  6
CONTINUOUS
 62
               4
100
AcDbCircle
 10
-30.0
 20
-30.0
 30
0.0
 40
4.5
  0
ARC
  5
115
100
AcDbEntity
  8
0
  6
CONTINUOUS
 62
               4
100
AcDbCircle
 10
-30.0
 20
-30.0
 30
0.0
 40
10.0
100
AcDbArc
 50
306.86989822019507
 51
143.13012477485057
  0
ARC
  5
116
100
AcDbEntity
  8
0
  6
CONTINUOUS
 62
               4
100
AcDbCircle
 10
0.0
 20
0.0
 30
0.0
 40
50.5
100
AcDbArc
 50
311.19470570075549
 51
318.80518934192884
  0
ARC
  5
117
100
AcDbEntity
  8
0
  6
CONTINUOUS
 62
               4
100
AcDbCircle
 10
0.0
 20
0.0
 30
0.0
 40
50.5
100
AcDbArc
 50
221.19468270570979
 51
228.80516634688314
  0
ARC
  5
118
100
AcDbEntity
  8
0
  6
CONTINUOUS
 62
               4
100
AcDbCircle
 10
0.0
 20
0.0
 30
0.0
 40
50.5
100
AcDbArc
 50
41.194756016557825
 51
48.805239657731171
  0
ARC
  5
119
100
AcDbEntity
  8
0
  6
CONTINUOUS
 62
               4
100
AcDbCircle
 10
0.0
 20
0.0
 30
0.0
 40
50.5
100
AcDbArc
 50
131.19477901160352
 51
138.80526265277686
  0
ARC
  5
11A
100
AcDbEntity
  8
0
  6
CONTINUOUS
 62
               4
100
AcDbCircle
 10
28.0
 20
28.0
 30
0.0
 40
11.0
100
AcDbArc
 50
179.99990938630796
 51
269.99989140021859
  0
CIRCLE
  5
11B
100
AcDbEntity
  8
0
  6
CONTINUOUS
 62
               4
100
AcDbCircle
 10
30.0
 20
30.0
 30
0.0
 40
4.5
  0
LINE
  5
11C
100
AcDbEntity
  8
0
  6
CONTINUOUS
 62
               4
100
AcDbLine
 10
-10.0
 20
7.0
 30
0.0
 11
10.0
 21
7.0
 31
0.0
  0
LINE
  5
11D
100
AcDbEntity
  8
0
  6
CONTINUOUS
 62
               4
100
AcDbLine
 10
27.0
 20
-7.0
 30
0.0
 11
30.0
 21
-7.0
 31
0.0
  0
LINE
  5
11E
100
AcDbEntity
  8
0
  6
CONTINUOUS
 62
               4
100
AcDbLine
 10
27.0
 20
7.0
 30
0.0
 11
30.0
 21
7.0
 31
0.0
  0
LINE
  5
11F
100
AcDbEntity
  8
0
  6
CONTINUOUS
 62
               4
100
AcDbLine
 10
26.0
 20
-8.5
 30
0.0
 11
27.0
 21
-8.5
 31
0.0
  0
LINE
  5
120
100
AcDbEntity
  8
0
  6
CONTINUOUS
 62
               4
100
AcDbLine
 10
26.0
 20
8.5
 30
0.0
 11
27.0
 21
8.5
 31
0.0
  0
LINE
  5
121
100
AcDbEntity
  8
0
  6
CONTINUOUS
 62
               4
100
AcDbLine
 10
27.0
 20
-8.5
 30
0.0
 11
27.0
 21
8.5
 31
0.0
  0
LINE
  5
122
100
AcDbEntity
  8
0
  6
CONTINUOUS
 62
               4
100
AcDbLine
 10
26.0
 20
-8.5
 30
0.0
 11
26.0
 21
8.5
 31
0.0
  0
LINE
  5
123
100
AcDbEntity
  8
0
  6
CONTINUOUS
 62
               4
100
AcDbLine
 10
25.0
 20
-7.0
 30
0.0
 11
26.0
 21
-7.0
 31
0.0
  0
LINE
  5
124
100
AcDbEntity
  8
0
  6
CONTINUOUS
 62
               4
100
AcDbLine
 10
25.0
 20
7.0
 30
0.0
 11
26.0
 21
7.0
 31
0.0
  0
LINE
  5
125
100
AcDbEntity
  8
0
  6
CONTINUOUS
 62
               4
100
AcDbLine
 10
30.0
 20
-7.0
 30
0.0
 11
30.0
 21
7.0
 31
0.0
  0
LINE
  5
126
100
AcDbEntity
  8
0
  6
CONTINUOUS
 62
               4
100
AcDbLine
 10
-27.0
 20
7.0
 30
0.0
 11
-30.0
 21
7.0
 31
0.0
  0
LINE
  5
127
100
AcDbEntity
  8
0
  6
CONTINUOUS
 62
               4
100
AcDbLine
 10
-30.0
 20
-7.0
 30
0.0
 11
-30.0
 21
7.0
 31
0.0
  0
LINE
  5
128
100
AcDbEntity
  8
0
  6
CONTINUOUS
 62
               4
100
AcDbLine
 10
-27.0
 20
-7.0
 30
0.0
 11
-30.0
 21
-7.0
 31
0.0
  0
LINE
  5
129
100
AcDbEntity
  8
0
  6
CONTINUOUS
 62
               4
100
AcDbLine
 10
-25.0
 20
-7.0
 30
0.0
 11
-26.0
 21
-7.0
 31
0.0
  0
LINE
  5
12A
100
AcDbEntity
  8
0
  6
CONTINUOUS
 62
               4
100
AcDbLine
 10
-26.0
 20
-8.5
 30
0.0
 11
-27.0
 21
-8.5
 31
0.0
  0
LINE
  5
12B
100
AcDbEntity
  8
0
  6
CONTINUOUS
 62
               4
100
AcDbLine
 10
-27.0
 20
-8.5
 30
0.0
 11
-27.0
 21
8.5
 31
0.0
  0
LINE
  5
12C
100
AcDbEntity
  8
0
  6
CONTINUOUS
 62
               4
100
AcDbLine
 10
-25.0
 20
7.0
 30
0.0
 11
-26.0
 21
7.0
 31
0.0
  0
LINE
  5
12D
100
AcDbEntity
  8
0
  6
CONTINUOUS
 62
               4
100
AcDbLine
 10
-26.0
 20
8.5
 30
0.0
 11
-27.0
 21
8.5
 31
0.0
  0
LINE
  5
12E
100
AcDbEntity
  8
0
  6
CONTINUOUS
 62
               4
100
AcDbLine
 10
-26.0
 20
-8.5
 30
0.0
 11
-26.0
 21
8.5
 31
0.0
  0
LINE
  5
12F
100
AcDbEntity
  8
0
  6
CONTINUOUS
 62
               4
100
AcDbLine
 10
-10.0
 20
-7.0
 30
0.0
 11
10.0
 21
-7.0
 31
0.0
  0
LINE
  5
130
100
AcDbEntity
  8
0
  6
CENTER
 62
             200
100
AcDbLine
 10
-41.333328247070313
 20
-30.0
 30
0.0
 11
-18.0
 21
-30.0
 31
0.0
  0
LINE
  5
131
100
AcDbEntity
  8
0
  6
CENTER
 62
             200
100
AcDbLine
 10
-43.333328247070313
 20
0.0
 30
0.0
 11
44.333343505859375
 21
0.0
 31
0.0
  0
LINE
  5
132
100
AcDbEntity
  8
0
  6
CONTINUOUS
 62
               4
100
AcDbLine
 10
25.0
 20
-10.0
 30
0.0
 11
10.0
 21
-10.0
 31
0.0
  0
LINE
  5
133
100
AcDbEntity
  8
0
  6
CONTINUOUS
 62
               4
100
AcDbLine
 10
25.0
 20
10.0
 30
0.0
 11
10.0
 21
10.0
 31
0.0
  0
LINE
  5
134
100
AcDbEntity
  8
0
  6
CONTINUOUS
 62
               4
100
AcDbLine
 10
-25.0
 20
-10.0
 30
0.0
 11
-10.0
 21
-10.0
 31
0.0
  0
LINE
  5
135
100
AcDbEntity
  8
0
  6
CONTINUOUS
 62
               4
100
AcDbLine
 10
-25.0
 20
10.0
 30
0.0
 11
-10.0
 21
10.0
 31
0.0
  0
LINE
  5
136
100
AcDbEntity
  8
0
  6
CONTINUOUS
 62
               4
100
AcDbLine
 10
-12.5
 20
-21.0
 30
0.0
 11
-12.5
 21
-17.5
 31
0.0
  0
LINE
  5
137
100
AcDbEntity
  8
0
  6
CONTINUOUS
 62
               4
100
AcDbLine
 10
-10.0
 20
-17.5
 30
0.0
 11
-25.0
 21
-17.5
 31
0.0
  0
LINE
  5
138
100
AcDbEntity
  8
0
  6
CONTINUOUS
 62
               4
100
AcDbLine
 10
-25.0
 20
-17.5
 30
0.0
 11
-25.0
 21
17.5
 31
0.0
  0
LINE
  5
139
100
AcDbEntity
  8
0
  6
CONTINUOUS
 62
               4
100
AcDbLine
 10
-10.0
 20
-17.5
 30
0.0
 11
-10.0
 21
17.5
 31
0.0
  0
LINE
  5
13A
100
AcDbEntity
  8
0
  6
CONTINUOUS
 62
               4
100
AcDbLine
 10
-10.0
 20
17.5
 30
0.0
 11
-25.0
 21
17.5
 31
0.0
  0
LINE
  5
13B
100
AcDbEntity
  8
0
  6
CONTINUOUS
 62
               4
100
AcDbLine
 10
-12.5
 20
17.5
 30
0.0
 11
-12.5
 21
21.0
 31
0.0
  0
LINE
  5
13C
100
AcDbEntity
  8
0
  6
CONTINUOUS
 62
               4
100
AcDbLine
 10
10.0
 20
-17.5
 30
0.0
 11
25.0
 21
-17.5
 31
0.0
  0
LINE
  5
13D
100
AcDbEntity
  8
0
  6
CONTINUOUS
 62
               4
100
AcDbLine
 10
12.5
 20
17.5
 30
0.0
 11
12.5
 21
21.0
 31
0.0
  0
LINE
  5
13E
100
AcDbEntity
  8
0
  6
CONTINUOUS
 62
               4
100
AcDbLine
 10
10.0
 20
17.5
 30
0.0
 11
25.0
 21
17.5
 31
0.0
  0
LINE
  5
13F
100
AcDbEntity
  8
0
  6
CONTINUOUS
 62
               4
100
AcDbLine
 10
25.0
 20
-17.5
 30
0.0
 11
25.0
 21
17.5
 31
0.0
  0
LINE
  5
140
100
AcDbEntity
  8
0
  6
CONTINUOUS
 62
               4
100
AcDbLine
 10
10.0
 20
-17.5
 30
0.0
 11
10.0
 21
17.5
 31
0.0
  0
LINE
  5
141
100
AcDbEntity
  8
0
  6
CONTINUOUS
 62
               4
100
AcDbLine
 10
-12.5
 20
-21.0
 30
0.0
 11
12.5
 21
-21.0
 31
0.0
  0
LINE
  5
142
100
AcDbEntity
  8
0
  6
CONTINUOUS
 62
               4
100
AcDbLine
 10
-12.5
 20
21.0
 30
0.0
 11
12.5
 21
21.0
 31
0.0
  0
LINE
  5
143
100
AcDbEntity
  8
0
  6
CONTINUOUS
 62
               4
100
AcDbLine
 10
12.5
 20
-21.0
 30
0.0
 11
12.5
 21
-17.5
 31
0.0
  0
LINE
  5
144
100
AcDbEntity
  8
0
  6
CENTER
 62
             200
100
AcDbLine
 10
30.0
 20
42.0
 30
0.0
 11
30.0
 21
18.333335876464844
 31
0.0
  0
LINE
  5
145
100
AcDbEntity
  8
0
  6
CENTER
 62
             200
100
AcDbLine
 10
40.66668701171875
 20
30.0
 30
0.0
 11
18.0
 21
30.0
 31
0.0
  0
LINE
  5
146
100
AcDbEntity
  8
0
  6
CONTINUOUS
 62
               4
100
AcDbLine
 10
17.0
 20
38.0
 30
0.0
 11
17.0
 21
28.0
 31
0.0
  0
LINE
  5
147
100
AcDbEntity
  8
0
  6
CONTINUOUS
 62
               4
100
AcDbLine
 10
38.0
 20
17.0
 30
0.0
 11
28.0
 21
17.0
 31
0.0
  0
LINE
  5
148
100
AcDbEntity
  8
0
  6
CONTINUOUS
 62
               4
100
AcDbLine
 10
-38.0
 20
17.0
 30
0.0
 11
-28.0
 21
17.0
 31
0.0
  0
LINE
  5
149
100
AcDbEntity
  8
0
  6
CONTINUOUS
 62
               4
100
AcDbLine
 10
-17.0
 20
38.0
 30
0.0
 11
-17.0
 21
28.0
 31
0.0
  0
LINE
  5
14A
100
AcDbEntity
  8
0
  6
CENTER
 62
             200
100
AcDbLine
 10
-40.666671752929688
 20
30.0
 30
0.0
 11
-18.0
 21
30.0
 31
0.0
  0
LINE
  5
14B
100
AcDbEntity
  8
0
  6
CENTER
 62
             200
100
AcDbLine
 10
-30.0
 20
42.0
 30
0.0
 11
-30.0
 21
18.333335876464844
 31
0.0
  0
LINE
  5
14C
100
AcDbEntity
  8
0
  6
CENTER
 62
             200
100
AcDbLine
 10
30.0
 20
-42.000003814697266
 30
0.0
 11
30.0
 21
-18.333343505859375
 31
0.0
  0
LINE
  5
14D
100
AcDbEntity
  8
0
  6
CENTER
 62
             200
100
AcDbLine
 10
40.66668701171875
 20
-30.0
 30
0.0
 11
18.0
 21
-30.0
 31
0.0
  0
LINE
  5
14E
100
AcDbEntity
  8
0
  6
CONTINUOUS
 62
               4
100
AcDbLine
 10
17.0
 20
-38.000003814697266
 30
0.0
 11
17.0
 21
-28.0
 31
0.0
  0
LINE
  5
14F
100
AcDbEntity
  8
0
  6
CONTINUOUS
 62
               4
100
AcDbLine
 10
38.0
 20
-17.0
 30
0.0
 11
28.0
 21
-17.0
 31
0.0
  0
LINE
  5
150
100
AcDbEntity
  8
0
  6
CENTER
 62
             200
100
AcDbLine
 10
-30.0
 20
-42.000003814697266
 30
0.0
 11
-30.0
 21
-18.333343505859375
 31
0.0
  0
LINE
  5
151
100
AcDbEntity
  8
0
  6
CONTINUOUS
 62
               4
100
AcDbLine
 10
-17.0
 20
-38.000003814697266
 30
0.0
 11
-17.0
 21
-28.0
 31
0.0
  0
LINE
  5
152
100
AcDbEntity
  8
0
  6
CONTINUOUS
 62
               4
100
AcDbLine
 10
-38.0
 20
-17.0
 30
0.0
 11
-28.0
 21
-17.0
 31
0.0
  0
LINE
  5
153
100
AcDbEntity
  8
0
  6
CENTER
 62
             200
100
AcDbLine
 10
0.0
 20
-46.000011444091797
 30
0.0
 11
0.0
 21
45.666656494140625
 31
0.0
  0
LINE
  5
154
100
AcDbEntity
  8
0
  6
CONTINUOUS
 62
               4
100
AcDbLine
 10
38.0
 20
-33.260345458984375
 30
0.0
 11
38.0
 21
33.260330200195313
 31
0.0
  0
LINE
  5
155
100
AcDbEntity
  8
0
  6
CONTINUOUS
 62
               4
100
AcDbLine
 10
-33.260345458984375
 20
38.0
 30
0.0
 11
33.260345458984375
 21
38.0
 31
0.0
  0
LINE
  5
156
100
AcDbEntity
  8
0
  6
CONTINUOUS
 62
               4
100
AcDbLine
 10
-38.0
 20
-33.260345458984375
 30
0.0
 11
-38.0
 21
33.260330200195313
 31
0.0
  0
LINE
  5
157
100
AcDbEntity
  8
0
  6
CONTINUOUS
 62
               4
100
AcDbLine
 10
-33.260345458984375
 20
-38.000003814697266
 30
0.0
 11
33.260345458984375
 21
-38.000003814697266
 31
0.0
  0
ENDBLK
  5
158
100
AcDbEntity
  8
0
100
AcDbBlockEnd
  0
BLOCK
  5
159
100
AcDbEntity
  8
0
100
AcDbBlockBegin
  2
JIG-C_CLEVIS2-6
 70
               0
 10
0.0
 20
0.0
 30
0.0
  3
JIG-C_CLEVIS2-6
  1

  0
ARC
  5
15A
100
AcDbEntity
  8
0
  6
CONTINUOUS
 62
               4
100
AcDbCircle
 10
31.0
 20
-24.0
 30
0.0
 40
1.0
100
AcDbArc
 50
270.00001798608935
 51
0.0
  0
ARC
  5
15B
100
AcDbEntity
  8
0
  6
CONTINUOUS
 62
               4
100
AcDbCircle
 10
31.0
 20
24.0
 30
0.0
 40
1.0
100
AcDbArc
 50
0.0
 51
89.999982013910653
  0
ARC
  5
15C
100
AcDbEntity
  8
0
  6
CONTINUOUS
 62
               4
100
AcDbCircle
 10
8.0
 20
18.0
 30
0.0
 40
1.0
100
AcDbArc
 50
179.99998133066532
 51
269.99996334457597
  0
ARC
  5
15D
100
AcDbEntity
  8
0
  6
CONTINUOUS
 62
               4
100
AcDbCircle
 10
8.0
 20
-18.0
 30
0.0
 40
1.0
100
AcDbArc
 50
89.999982013910653
 51
179.99996402782131
  0
ARC
  5
15E
100
AcDbEntity
  8
0
  6
CONTINUOUS
 62
               4
100
AcDbCircle
 10
10.996826171875
 20
27.0
 30
0.0
 40
2.0
100
AcDbArc
 50
200.23843289806007
 51
270.00001798608935
  0
ARC
  5
15F
100
AcDbEntity
  8
0
  6
CONTINUOUS
 62
               4
100
AcDbCircle
 10
10.631072998046875
 20
-27.0
 30
0.0
 40
2.0
100
AcDbArc
 50
89.999982013910653
 51
171.67441422206099
  0
LINE
  5
160
100
AcDbEntity
  8
0
  6
CONTINUOUS
 62
               4
100
AcDbLine
 10
0.0
 20
33.260299682617187
 30
0.0
 11
6.0
 21
33.260299682617187
 31
0.0
  0
LINE
  5
161
100
AcDbEntity
  8
0
  6
CONTINUOUS
 62
               4
100
AcDbLine
 10
0.0
 20
-33.260299682617187
 30
0.0
 11
6.0
 21
-33.260299682617187
 31
0.0
  0
LINE
  5
162
100
AcDbEntity
  8
0
  6
CONTINUOUS
 62
               4
100
AcDbLine
 10
12.000015258789063
 20
-27.000015258789063
 30
0.0
 11
12.000015258789063
 21
-30.000015258789063
 31
0.0
  0
LINE
  5
163
100
AcDbEntity
  8
0
  6
CONTINUOUS
 62
               4
100
AcDbLine
 10
26.0
 20
-30.000015258789063
 30
0.0
 11
12.0
 21
-30.000015258789063
 31
0.0
  0
LINE
  5
164
100
AcDbEntity
  8
0
  6
CONTINUOUS
 62
               4
100
AcDbLine
 10
26.000015258789063
 20
-27.000015258789063
 30
0.0
 11
26.000015258789063
 21
-30.000015258789063
 31
0.0
  0
LINE
  5
165
100
AcDbEntity
  8
0
  6
CONTINUOUS
 62
               4
100
AcDbLine
 10
26.000015258789063
 20
-25.0
 30
0.0
 11
26.000015258789063
 21
-26.000015258789063
 31
0.0
  0
LINE
  5
166
100
AcDbEntity
  8
0
  6
CONTINUOUS
 62
               4
100
AcDbLine
 10
27.500015258789062
 20
-26.000015258789063
 30
0.0
 11
27.500015258789062
 21
-27.000015258789063
 31
0.0
  0
LINE
  5
167
100
AcDbEntity
  8
0
  6
CONTINUOUS
 62
               4
100
AcDbLine
 10
27.5
 20
-27.000015258789063
 30
0.0
 11
10.5
 21
-27.000015258789063
 31
0.0
  0
LINE
  5
168
100
AcDbEntity
  8
0
  6
CONTINUOUS
 62
               4
100
AcDbLine
 10
12.000015258789063
 20
-25.0
 30
0.0
 11
12.000015258789063
 21
-26.000015258789063
 31
0.0
  0
LINE
  5
169
100
AcDbEntity
  8
0
  6
CONTINUOUS
 62
               4
100
AcDbLine
 10
10.500015258789062
 20
-26.000015258789063
 30
0.0
 11
10.500015258789062
 21
-27.000015258789063
 31
0.0
  0
LINE
  5
16A
100
AcDbEntity
  8
0
  6
CONTINUOUS
 62
               4
100
AcDbLine
 10
27.5
 20
-26.000015258789063
 30
0.0
 11
10.5
 21
-26.000015258789063
 31
0.0
  0
LINE
  5
16B
100
AcDbEntity
  8
0
  6
CONTINUOUS
 62
               4
100
AcDbLine
 10
26.000015258789063
 20
26.999984741210938
 30
0.0
 11
26.000015258789063
 21
29.999984741210937
 31
0.0
  0
LINE
  5
16C
100
AcDbEntity
  8
0
  6
CONTINUOUS
 62
               4
100
AcDbLine
 10
12.000015258789063
 20
26.999984741210938
 30
0.0
 11
12.000015258789063
 21
29.999984741210937
 31
0.0
  0
LINE
  5
16D
100
AcDbEntity
  8
0
  6
CONTINUOUS
 62
               4
100
AcDbLine
 10
27.500015258789062
 20
25.999984741210937
 30
0.0
 11
27.500015258789062
 21
26.999984741210938
 31
0.0
  0
LINE
  5
16E
100
AcDbEntity
  8
0
  6
CONTINUOUS
 62
               4
100
AcDbLine
 10
10.500015258789062
 20
25.999984741210937
 30
0.0
 11
10.500015258789062
 21
26.999984741210938
 31
0.0
  0
LINE
  5
16F
100
AcDbEntity
  8
0
  6
CONTINUOUS
 62
               4
100
AcDbLine
 10
27.5
 20
26.999984741210938
 30
0.0
 11
10.5
 21
26.999984741210938
 31
0.0
  0
LINE
  5
170
100
AcDbEntity
  8
0
  6
CONTINUOUS
 62
               4
100
AcDbLine
 10
27.5
 20
25.999984741210937
 30
0.0
 11
10.5
 21
25.999984741210937
 31
0.0
  0
LINE
  5
171
100
AcDbEntity
  8
0
  6
CONTINUOUS
 62
               4
100
AcDbLine
 10
26.000015258789063
 20
25.0
 30
0.0
 11
26.000015258789063
 21
25.999984741210937
 31
0.0
  0
LINE
  5
172
100
AcDbEntity
  8
0
  6
CONTINUOUS
 62
               4
100
AcDbLine
 10
12.000015258789063
 20
25.0
 30
0.0
 11
12.000015258789063
 21
25.999984741210937
 31
0.0
  0
LINE
  5
173
100
AcDbEntity
  8
0
  6
CONTINUOUS
 62
               4
100
AcDbLine
 10
26.000015258789063
 20
-10.000015258789062
 30
0.0
 11
26.000015258789063
 21
10.000015258789062
 31
0.0
  0
LINE
  5
174
100
AcDbEntity
  8
0
  6
CONTINUOUS
 62
               4
100
AcDbLine
 10
12.000015258789063
 20
-10.000015258789062
 30
0.0
 11
12.000015258789063
 21
10.000015258789062
 31
0.0
  0
LINE
  5
175
100
AcDbEntity
  8
0
  6
CONTINUOUS
 62
               4
100
AcDbLine
 10
26.0
 20
30.0
 30
0.0
 11
12.0
 21
30.0
 31
0.0
  0
LINE
  5
176
100
AcDbEntity
  8
0
  6
CONTINUOUS
 62
               4
100
AcDbLine
 10
32.0
 20
-10.0
 30
0.0
 11
32.0
 21
-23.822998046875
 31
0.0
  0
LINE
  5
177
100
AcDbEntity
  8
0
  6
CONTINUOUS
 62
               4
100
AcDbLine
 10
10.631072998046875
 20
-25.0
 30
0.0
 11
31.0
 21
-25.0
 31
0.0
  0
LINE
  5
178
100
AcDbEntity
  8
0
  6
CONTINUOUS
 62
               4
100
AcDbLine
 10
8.0
 20
-10.0
 30
0.0
 11
32.0
 21
-10.0
 31
0.0
  0
LINE
  5
179
100
AcDbEntity
  8
0
  6
CONTINUOUS
 62
               4
100
AcDbLine
 10
10.996826171875
 20
25.0
 30
0.0
 11
31.0
 21
25.0
 31
0.0
  0
LINE
  5
17A
100
AcDbEntity
  8
0
  6
CONTINUOUS
 62
               4
100
AcDbLine
 10
8.0
 20
10.000015258789062
 30
0.0
 11
32.0
 21
10.000015258789062
 31
0.0
  0
LINE
  5
17B
100
AcDbEntity
  8
0
  6
CONTINUOUS
 62
               4
100
AcDbLine
 10
7.0
 20
38.0
 30
0.0
 11
7.0
 21
17.5
 31
0.0
  0
LINE
  5
17C
100
AcDbEntity
  8
0
  6
CONTINUOUS
 62
               4
100
AcDbLine
 10
6.0
 20
24.0
 30
0.0
 11
7.0
 21
24.0
 31
0.0
  0
LINE
  5
17D
100
AcDbEntity
  8
0
  6
CENTER
 62
             200
100
AcDbLine
 10
-2.04205322265625
 20
30.0
 30
0.0
 11
9.86798095703125
 21
30.0
 31
0.0
  0
LINE
  5
17E
100
AcDbEntity
  8
0
  6
DASHED
 62
             200
100
AcDbLine
 10
0.0
 20
25.5
 30
0.0
 11
6.0
 21
25.5
 31
0.0
  0
LINE
  5
17F
100
AcDbEntity
  8
0
  6
DASHED
 62
             200
100
AcDbLine
 10
0.0
 20
34.5
 30
0.0
 11
6.0
 21
34.5
 31
0.0
  0
LINE
  5
180
100
AcDbEntity
  8
0
  6
CONTINUOUS
 62
               4
100
AcDbLine
 10
0.0
 20
38.0
 30
0.0
 11
7.0
 21
38.0
 31
0.0
  0
LINE
  5
181
100
AcDbEntity
  8
0
  6
CONTINUOUS
 62
               4
100
AcDbLine
 10
6.9997938437985567
 20
38.000010093751854
 30
0.0
 11
8.719992812491796
 21
26.245297697823418
 31
0.0
  0
LINE
  5
182
100
AcDbEntity
  8
0
  6
CENTER
 62
             200
100
AcDbLine
 10
19.0
 20
-30.519775390625
 30
0.0
 11
19.0
 21
30.44384765625
 31
0.0
  0
LINE
  5
183
100
AcDbEntity
  8
0
  6
CONTINUOUS
 62
               4
100
AcDbLine
 10
32.0
 20
10.000015258789062
 30
0.0
 11
32.0
 21
24.0
 31
0.0
  0
LINE
  5
184
100
AcDbEntity
  8
0
  6
CONTINUOUS
 62
               4
100
AcDbLine
 10
7.0000120394986425
 20
-38.000013084598891
 30
0.0
 11
8.6521490377097052
 21
-26.710409696756528
 31
0.0
  0
LINE
  5
185
100
AcDbEntity
  8
0
  6
CONTINUOUS
 62
               4
100
AcDbLine
 10
6.0
 20
-24.0
 30
0.0
 11
7.0
 21
-24.0
 31
0.0
  0
LINE
  5
186
100
AcDbEntity
  8
0
  6
DASHED
 62
             200
100
AcDbLine
 10
0.0
 20
-25.5
 30
0.0
 11
6.0
 21
-25.5
 31
0.0
  0
LINE
  5
187
100
AcDbEntity
  8
0
  6
DASHED
 62
             200
100
AcDbLine
 10
0.0
 20
-34.5
 30
0.0
 11
6.0
 21
-34.5
 31
0.0
  0
LINE
  5
188
100
AcDbEntity
  8
0
  6
CONTINUOUS
 62
               4
100
AcDbLine
 10
8.0
 20
-17.0
 30
0.0
 11
8.0
 21
17.0
 31
0.0
  0
LINE
  5
189
100
AcDbEntity
  8
0
  6
CONTINUOUS
 62
               4
100
AcDbLine
 10
7.0
 20
-38.0
 30
0.0
 11
7.0
 21
-17.5
 31
0.0
  0
LINE
  5
18A
100
AcDbEntity
  8
0
  6
CONTINUOUS
 62
               4
100
AcDbLine
 10
0.0
 20
-38.0
 30
0.0
 11
7.0
 21
-38.0
 31
0.0
  0
LINE
  5
18B
100
AcDbEntity
  8
0
  6
CONTINUOUS
 62
               4
100
AcDbLine
 10
6.0
 20
-38.0
 30
0.0
 11
6.0
 21
38.0
 31
0.0
  0
LINE
  5
18C
100
AcDbEntity
  8
0
  6
CONTINUOUS
 62
               4
100
AcDbLine
 10
0.0
 20
-38.0
 30
0.0
 11
0.0
 21
38.0
 31
0.0
  0
LINE
  5
18D
100
AcDbEntity
  8
0
  6
CENTER
 62
             200
100
AcDbLine
 10
-2.359649658203125
 20
-30.0
 30
0.0
 11
10.185577392578125
 21
-30.0
 31
0.0
  0
LINE
  5
18E
100
AcDbEntity
  8
0
  6
CENTER
 62
             200
100
AcDbLine
 10
-3.47125244140625
 20
0.0
 30
0.0
 11
35.276046752929687
 21
0.0
 31
0.0
  0
ENDBLK
  5
18F
100
AcDbEntity
  8
0
100
AcDbBlockEnd
  0
BLOCK
  5
190
100
AcDbEntity
  8
0
100
AcDbBlockBegin
  2
JIG-C_CLEVIS2-7
 70
               0
 10
0.0
 20
0.0
 30
0.0
  3
JIG-C_CLEVIS2-7
  1

  0
ARC
  5
191
100
AcDbEntity
  8
0
  6
CONTINUOUS
 62
               4
100
AcDbCircle
 10
14.0
 20
-26.0
 30
0.0
 40
2.0
100
AcDbArc
 50
89.999982013910653
 51
179.99996402782131
  0
ARC
  5
192
100
AcDbEntity
  8
0
  6
CONTINUOUS
 62
               4
100
AcDbCircle
 10
10.0
 20
-26.0
 30
0.0
 40
2.0
100
AcDbArc
 50
89.999982013910653
 51
179.99996402782131
  0
ARC
  5
193
100
AcDbEntity
  8
0
  6
CONTINUOUS
 62
               4
100
AcDbCircle
 10
10.0
 20
26.0
 30
0.0
 40
2.0
100
AcDbArc
 50
180.00003597217869
 51
270.00001798608935
  0
CIRCLE
  5
194
100
AcDbEntity
  8
0
  6
CONTINUOUS
 62
               4
100
AcDbCircle
 10
32.0
 20
0.0
 30
0.0
 40
10.0
  0
ARC
  5
195
100
AcDbEntity
  8
0
  6
CONTINUOUS
 62
               4
100
AcDbCircle
 10
50.0
 20
11.01568603515625
 30
0.0
 40
2.0
100
AcDbArc
 50
0.0
 51
73.162541181453719
  0
ARC
  5
196
100
AcDbEntity
  8
0
  6
CONTINUOUS
 62
               4
100
AcDbCircle
 10
50.0
 20
-11.01568603515625
 30
0.0
 40
2.0
100
AcDbArc
 50
286.83745881854628
 51
0.0
  0
ARC
  5
197
100
AcDbEntity
  8
0
  6
CONTINUOUS
 62
               4
100
AcDbCircle
 10
14.0
 20
26.0
 30
0.0
 40
2.0
100
AcDbArc
 50
180.00003597217869
 51
270.00001798608935
  0
ARC
  5
198
100
AcDbEntity
  8
0
  6
CONTINUOUS
 62
               4
100
AcDbCircle
 10
32.0
 20
0.0
 30
0.0
 40
12.0
100
AcDbArc
 50
290.00002764955894
 51
249.99997735939741
  0
LINE
  5
199
100
AcDbEntity
  8
0
  6
CONTINUOUS
 62
               4
100
AcDbLine
 10
0.0
 20
-40.620193481445313
 30
0.0
 11
7.0
 21
-40.620193481445313
 31
0.0
  0
LINE
  5
19A
100
AcDbEntity
  8
0
  6
CONTINUOUS
 62
               4
100
AcDbLine
 10
0.0
 20
40.620208740234375
 30
0.0
 11
7.0
 21
40.620208740234375
 31
0.0
  0
LINE
  5
19B
100
AcDbEntity
  8
0
  6
CONTINUOUS
 62
               4
100
AcDbLine
 10
36.104124904968444
 20
-11.276342307762434
 30
0.0
 11
35.420087457992736
 21
-9.3969560019534129
 31
0.0
  0
LINE
  5
19C
100
AcDbEntity
  8
0
  6
CONTINUOUS
 62
               4
100
AcDbLine
 10
27.895758613266253
 20
-11.276315634547018
 30
0.0
 11
28.57979892126491
 21
-9.3969304016216029
 31
0.0
  0
LINE
  5
19D
100
AcDbEntity
  8
0
  6
DASHED
 62
             200
100
AcDbLine
 10
0.0
 20
-30.0
 30
0.0
 11
7.0
 21
-30.0
 31
0.0
  0
LINE
  5
19E
100
AcDbEntity
  8
0
  6
CENTER
 62
             200
100
AcDbLine
 10
-2.166656494140625
 20
-37.0
 30
0.0
 11
11.0333251953125
 21
-37.0
 31
0.0
  0
LINE
  5
19F
100
AcDbEntity
  8
0
  6
DASHED
 62
             200
100
AcDbLine
 10
0.0
 20
-44.0
 30
0.0
 11
7.0
 21
-44.0
 31
0.0
  0
LINE
  5
1A0
100
AcDbEntity
  8
0
  6
DASHED
 62
             200
100
AcDbLine
 10
0.0
 20
30.0
 30
0.0
 11
7.0
 21
30.0
 31
0.0
  0
LINE
  5
1A1
100
AcDbEntity
  8
0
  6
DASHED
 62
             200
100
AcDbLine
 10
0.0
 20
44.0
 30
0.0
 11
7.0
 21
44.0
 31
0.0
  0
LINE
  5
1A2
100
AcDbEntity
  8
0
  6
CENTER
 62
             200
100
AcDbLine
 10
-2.166656494140625
 20
37.0
 30
0.0
 11
11.0333251953125
 21
37.0
 31
0.0
  0
LINE
  5
1A3
100
AcDbEntity
  8
0
  6
CONTINUOUS
 62
               4
100
AcDbLine
 10
7.0
 20
47.5
 30
0.0
 11
7.0
 21
33.721282958984375
 31
0.0
  0
LINE
  5
1A4
100
AcDbEntity
  8
0
  6
CONTINUOUS
 62
               4
100
AcDbLine
 10
7.0
 20
33.721282958984375
 30
0.0
 11
8.0
 21
33.721282958984375
 31
0.0
  0
LINE
  5
1A5
100
AcDbEntity
  8
0
  6
DASHED
 62
             200
100
AcDbLine
 10
7.0
 20
26.0
 30
0.0
 11
8.0
 21
26.0
 31
0.0
  0
LINE
  5
1A6
100
AcDbEntity
  8
0
  6
DASHED
 62
             200
100
AcDbLine
 10
7.0
 20
33.721282958984375
 30
0.0
 11
7.0
 21
26.0
 31
0.0
  0
LINE
  5
1A7
100
AcDbEntity
  8
0
  6
CONTINUOUS
 62
               4
100
AcDbLine
 10
8.0
 20
47.5
 30
0.0
 11
8.0
 21
26.0
 31
0.0
  0
LINE
  5
1A8
100
AcDbEntity
  8
0
  6
CONTINUOUS
 62
               4
100
AcDbLine
 10
11.999763823487456
 20
25.999970487951146
 30
0.0
 11
7.9997613191460459
 21
47.499984519063332
 31
0.0
  0
LINE
  5
1A9
100
AcDbEntity
  8
0
  6
CENTER
 62
             200
100
AcDbLine
 10
32.0
 20
-15.933319091796875
 30
0.0
 11
32.0
 21
16.066680908203125
 31
0.0
  0
LINE
  5
1AA
100
AcDbEntity
  8
0
  6
CONTINUOUS
 62
               4
100
AcDbLine
 10
11.999768489612393
 20
-25.999955835446428
 30
0.0
 11
7.9997687762241867
 21
-47.499954865184748
 31
0.0
  0
LINE
  5
1AB
100
AcDbEntity
  8
0
  6
CONTINUOUS
 62
               4
100
AcDbLine
 10
10.0
 20
-24.0
 30
0.0
 11
10.0
 21
24.0
 31
0.0
  0
LINE
  5
1AC
100
AcDbEntity
  8
0
  6
DASHED
 62
             200
100
AcDbLine
 10
7.0
 20
-33.721267700195312
 30
0.0
 11
7.0
 21
-26.0
 31
0.0
  0
LINE
  5
1AD
100
AcDbEntity
  8
0
  6
CONTINUOUS
 62
               4
100
AcDbLine
 10
7.0
 20
-33.721267700195312
 30
0.0
 11
8.0
 21
-33.721267700195312
 31
0.0
  0
LINE
  5
1AE
100
AcDbEntity
  8
0
  6
DASHED
 62
             200
100
AcDbLine
 10
7.0
 20
-26.0
 30
0.0
 11
8.0
 21
-26.0
 31
0.0
  0
LINE
  5
1AF
100
AcDbEntity
  8
0
  6
CONTINUOUS
 62
               4
100
AcDbLine
 10
8.0
 20
-47.5
 30
0.0
 11
8.0
 21
-26.0
 31
0.0
  0
LINE
  5
1B0
100
AcDbEntity
  8
0
  6
CONTINUOUS
 62
               4
100
AcDbLine
 10
8.0
 20
47.5
 30
0.0
 11
0.0
 21
47.5
 31
0.0
  0
LINE
  5
1B1
100
AcDbEntity
  8
0
  6
CONTINUOUS
 62
               4
100
AcDbLine
 10
8.0
 20
-47.5
 30
0.0
 11
0.0
 21
-47.5
 31
0.0
  0
LINE
  5
1B2
100
AcDbEntity
  8
0
  6
CENTER
 62
             200
100
AcDbLine
 10
55.08111572265625
 20
0.0
 30
0.0
 11
-9.333343505859375
 21
0.0
 31
0.0
  0
LINE
  5
1B3
100
AcDbEntity
  8
0
  6
CONTINUOUS
 62
               4
100
AcDbLine
 10
7.0
 20
-47.5
 30
0.0
 11
7.0
 21
-33.721267700195312
 31
0.0
  0
LINE
  5
1B4
100
AcDbEntity
  8
0
  6
CONTINUOUS
 62
               4
100
AcDbLine
 10
0.0
 20
-47.5
 30
0.0
 11
0.0
 21
47.5
 31
0.0
  0
LINE
  5
1B5
100
AcDbEntity
  8
0
  6
CONTINUOUS
 62
               4
100
AcDbLine
 10
13.999964174705099
 20
23.999915227529755
 30
0.0
 11
50.579295205432288
 21
12.929858956876387
 31
0.0
  0
LINE
  5
1B6
100
AcDbEntity
  8
0
  6
CONTINUOUS
 62
               4
100
AcDbLine
 10
13.999983333539603
 20
-23.999969633154933
 30
0.0
 11
50.579312086313621
 21
-12.929909945571808
 31
0.0
  0
LINE
  5
1B7
100
AcDbEntity
  8
0
  6
CONTINUOUS
 62
               4
100
AcDbLine
 10
52.0
 20
-11.01568603515625
 30
0.0
 11
52.0
 21
11.01568603515625
 31
0.0
  0
ENDBLK
  5
1B8
100
AcDbEntity
  8
0
100
AcDbBlockEnd
  0
BLOCK
  5
1B9
100
AcDbEntity
  8
0
100
AcDbBlockBegin
  2
JIG-C_CLEVIS2-8
 70
               0
 10
0.0
 20
0.0
 30
0.0
  3
JIG-C_CLEVIS2-8
  1

  0
ARC
  5
1BA
100
AcDbEntity
  8
0
  6
CONTINUOUS
 62
               4
100
AcDbCircle
 10
0.0
 20
0.0
 30
0.0
 40
62.5
100
AcDbArc
 50
40.535806686191677
 51
49.464202648475663
  0
ARC
  5
1BB
100
AcDbEntity
  8
0
  6
CONTINUOUS
 62
               4
100
AcDbCircle
 10
36.000007629394531
 20
-36.0
 30
0.0
 40
12.0
100
AcDbArc
 50
89.999982013910653
 51
179.99996402782131
  0
CIRCLE
  5
1BC
100
AcDbEntity
  8
0
  6
CONTINUOUS
 62
               4
100
AcDbCircle
 10
37.000007629394531
 20
-37.0
 30
0.0
 40
7.0
  0
ARC
  5
1BD
100
AcDbEntity
  8
0
  6
CONTINUOUS
 62
               4
100
AcDbCircle
 10
37.000007629394531
 20
-37.0
 30
0.0
 40
11.0
100
AcDbArc
 50
17.341440491312174
 51
252.65853287117648
  0
ARC
  5
1BE
100
AcDbEntity
  8
0
  6
CONTINUOUS
 62
               4
100
AcDbCircle
 10
-35.999992370605469
 20
-36.0
 30
0.0
 40
12.0
100
AcDbArc
 50
0.0
 51
89.999982013910653
  0
CIRCLE
  5
1BF
100
AcDbEntity
  8
0
  6
CONTINUOUS
 62
               4
100
AcDbCircle
 10
-36.999992370605469
 20
-37.0
 30
0.0
 40
7.0
  0
ARC
  5
1C0
100
AcDbEntity
  8
0
  6
CONTINUOUS
 62
               4
100
AcDbCircle
 10
-36.999992370605469
 20
-37.0
 30
0.0
 40
11.0
100
AcDbArc
 50
287.34143798683402
 51
162.65852353650914
  0
CIRCLE
  5
1C1
100
AcDbEntity
  8
0
  6
CONTINUOUS
 62
               4
100
AcDbCircle
 10
37.000007629394531
 20
37.0
 30
0.0
 40
7.0
  0
ARC
  5
1C2
100
AcDbEntity
  8
0
  6
CONTINUOUS
 62
               4
100
AcDbCircle
 10
37.000007629394531
 20
37.0
 30
0.0
 40
11.0
100
AcDbArc
 50
107.34144982597951
 51
342.65854220584379
  0
ARC
  5
1C3
100
AcDbEntity
  8
0
  6
CONTINUOUS
 62
               4
100
AcDbCircle
 10
36.000007629394531
 20
36.0
 30
0.0
 40
12.0
100
AcDbArc
 50
180.00003597217869
 51
270.00001798608935
  0
ARC
  5
1C4
100
AcDbEntity
  8
0
  6
CONTINUOUS
 62
               4
100
AcDbCircle
 10
-36.999992370605469
 20
37.0
 30
0.0
 40
11.0
100
AcDbArc
 50
197.34147646349086
 51
72.658562013165991
  0
CIRCLE
  5
1C5
100
AcDbEntity
  8
0
  6
CONTINUOUS
 62
               4
100
AcDbCircle
 10
-36.999992370605469
 20
37.0
 30
0.0
 40
7.0
  0
ARC
  5
1C6
100
AcDbEntity
  8
0
  6
CONTINUOUS
 62
               4
100
AcDbCircle
 10
-35.999992370605469
 20
36.0
 30
0.0
 40
12.0
100
AcDbArc
 50
270.00001798608935
 51
0.0
  0
ARC
  5
1C7
100
AcDbEntity
  8
0
  6
CONTINUOUS
 62
               4
100
AcDbCircle
 10
0.0
 20
0.0
 30
0.0
 40
62.5
100
AcDbArc
 50
130.53581602085902
 51
139.464211983143
  0
ARC
  5
1C8
100
AcDbEntity
  8
0
  6
CONTINUOUS
 62
               4
100
AcDbCircle
 10
0.0
 20
0.0
 30
0.0
 40
62.5
100
AcDbArc
 50
220.535788016857
 51
229.46418397914098
  0
ARC
  5
1C9
100
AcDbEntity
  8
0
  6
CONTINUOUS
 62
               4
100
AcDbCircle
 10
0.0
 20
0.0
 30
0.0
 40
62.5
100
AcDbArc
 50
310.53579735152431
 51
319.46419331380832
  0
LINE
  5
1CA
100
AcDbEntity
  8
0
  6
CONTINUOUS
 62
               4
100
AcDbLine
 10
-34.349998474121094
 20
-12.0
 30
0.0
 11
-33.149986267089844
 21
-12.0
 31
0.0
  0
LINE
  5
1CB
100
AcDbEntity
  8
0
  6
CONTINUOUS
 62
               4
100
AcDbLine
 10
37.0
 20
-10.0
 30
0.0
 11
34.349990844726563
 21
-10.0
 31
0.0
  0
LINE
  5
1CC
100
AcDbEntity
  8
0
  6
CONTINUOUS
 62
               4
100
AcDbLine
 10
34.349990844726563
 20
-12.0
 30
0.0
 11
34.349990844726563
 21
12.0
 31
0.0
  0
LINE
  5
1CD
100
AcDbEntity
  8
0
  6
CONTINUOUS
 62
               4
100
AcDbLine
 10
33.150009155273437
 20
-12.0
 30
0.0
 11
33.150009155273437
 21
12.0
 31
0.0
  0
LINE
  5
1CE
100
AcDbEntity
  8
0
  6
CONTINUOUS
 62
               4
100
AcDbLine
 10
37.0
 20
10.0
 30
0.0
 11
34.349990844726563
 21
10.0
 31
0.0
  0
LINE
  5
1CF
100
AcDbEntity
  8
0
  6
CONTINUOUS
 62
               4
100
AcDbLine
 10
33.150009155273437
 20
10.0
 30
0.0
 11
32.0
 21
10.0
 31
0.0
  0
LINE
  5
1D0
100
AcDbEntity
  8
0
  6
CONTINUOUS
 62
               4
100
AcDbLine
 10
34.349990844726563
 20
12.0
 30
0.0
 11
33.150009155273437
 21
12.0
 31
0.0
  0
LINE
  5
1D1
100
AcDbEntity
  8
0
  6
CONTINUOUS
 62
               4
100
AcDbLine
 10
33.150009155273437
 20
-10.0
 30
0.0
 11
32.0
 21
-10.0
 31
0.0
  0
LINE
  5
1D2
100
AcDbEntity
  8
0
  6
CONTINUOUS
 62
               4
100
AcDbLine
 10
34.349990844726563
 20
-12.0
 30
0.0
 11
33.150009155273437
 21
-12.0
 31
0.0
  0
LINE
  5
1D3
100
AcDbEntity
  8
0
  6
CONTINUOUS
 62
               4
100
AcDbLine
 10
37.0
 20
-10.0
 30
0.0
 11
37.0
 21
10.0
 31
0.0
  0
LINE
  5
1D4
100
AcDbEntity
  8
0
  6
CONTINUOUS
 62
               4
100
AcDbLine
 10
-33.149986267089844
 20
-10.0
 30
0.0
 11
-31.999992370605469
 21
-10.0
 31
0.0
  0
LINE
  5
1D5
100
AcDbEntity
  8
0
  6
CONTINUOUS
 62
               4
100
AcDbLine
 10
-36.999992370605469
 20
-10.0
 30
0.0
 11
-34.349998474121094
 21
-10.0
 31
0.0
  0
LINE
  5
1D6
100
AcDbEntity
  8
0
  6
CONTINUOUS
 62
               4
100
AcDbLine
 10
-36.999992370605469
 20
10.0
 30
0.0
 11
-34.349998474121094
 21
10.0
 31
0.0
  0
LINE
  5
1D7
100
AcDbEntity
  8
0
  6
CONTINUOUS
 62
               4
100
AcDbLine
 10
-33.149986267089844
 20
-12.0
 30
0.0
 11
-33.149986267089844
 21
12.0
 31
0.0
  0
LINE
  5
1D8
100
AcDbEntity
  8
0
  6
CONTINUOUS
 62
               4
100
AcDbLine
 10
-36.999992370605469
 20
-10.0
 30
0.0
 11
-36.999992370605469
 21
10.0
 31
0.0
  0
LINE
  5
1D9
100
AcDbEntity
  8
0
  6
CONTINUOUS
 62
               4
100
AcDbLine
 10
-15.999992370605469
 20
-10.0
 30
0.0
 11
16.0
 21
-10.0
 31
0.0
  0
LINE
  5
1DA
100
AcDbEntity
  8
0
  6
CONTINUOUS
 62
               4
100
AcDbLine
 10
-15.999992370605469
 20
10.0
 30
0.0
 11
16.0
 21
10.0
 31
0.0
  0
LINE
  5
1DB
100
AcDbEntity
  8
0
  6
CONTINUOUS
 62
               4
100
AcDbLine
 10
-34.349998474121094
 20
12.0
 30
0.0
 11
-33.149986267089844
 21
12.0
 31
0.0
  0
LINE
  5
1DC
100
AcDbEntity
  8
0
  6
CONTINUOUS
 62
               4
100
AcDbLine
 10
-33.149986267089844
 20
10.0
 30
0.0
 11
-31.999992370605469
 21
10.0
 31
0.0
  0
LINE
  5
1DD
100
AcDbEntity
  8
0
  6
CONTINUOUS
 62
               4
100
AcDbLine
 10
-34.349998474121094
 20
-12.0
 30
0.0
 11
-34.349998474121094
 21
12.0
 31
0.0
  0
LINE
  5
1DE
100
AcDbEntity
  8
0
  6
CONTINUOUS
 62
               4
100
AcDbLine
 10
16.000007629394531
 20
-24.0
 30
0.0
 11
32.000007629394531
 21
-24.0
 31
0.0
  0
LINE
  5
1DF
100
AcDbEntity
  8
0
  6
CONTINUOUS
 62
               4
100
AcDbLine
 10
16.000007629394531
 20
-12.5
 30
0.0
 11
32.000007629394531
 21
-12.5
 31
0.0
  0
LINE
  5
1E0
100
AcDbEntity
  8
0
  6
CONTINUOUS
 62
               4
100
AcDbLine
 10
32.000007629394531
 20
-24.0
 30
0.0
 11
32.000007629394531
 21
24.0
 31
0.0
  0
LINE
  5
1E1
100
AcDbEntity
  8
0
  6
CONTINUOUS
 62
               4
100
AcDbLine
 10
16.000007629394531
 20
24.0
 30
0.0
 11
32.000007629394531
 21
24.0
 31
0.0
  0
LINE
  5
1E2
100
AcDbEntity
  8
0
  6
CONTINUOUS
 62
               4
100
AcDbLine
 10
16.000007629394531
 20
12.5
 30
0.0
 11
32.000007629394531
 21
12.5
 31
0.0
  0
LINE
  5
1E3
100
AcDbEntity
  8
0
  6
CONTINUOUS
 62
               4
100
AcDbLine
 10
16.000007629394531
 20
-24.0
 30
0.0
 11
16.000007629394531
 21
24.0
 31
0.0
  0
LINE
  5
1E4
100
AcDbEntity
  8
0
  6
CONTINUOUS
 62
               4
100
AcDbLine
 10
-15.999992370605469
 20
12.5
 30
0.0
 11
-31.999992370605469
 21
12.5
 31
0.0
  0
LINE
  5
1E5
100
AcDbEntity
  8
0
  6
CONTINUOUS
 62
               4
100
AcDbLine
 10
-15.999992370605469
 20
-12.5
 30
0.0
 11
-31.999992370605469
 21
-12.5
 31
0.0
  0
LINE
  5
1E6
100
AcDbEntity
  8
0
  6
CONTINUOUS
 62
               4
100
AcDbLine
 10
-31.999992370605469
 20
-24.0
 30
0.0
 11
-31.999992370605469
 21
24.0
 31
0.0
  0
LINE
  5
1E7
100
AcDbEntity
  8
0
  6
CONTINUOUS
 62
               4
100
AcDbLine
 10
-15.999992370605469
 20
-24.0
 30
0.0
 11
-31.999992370605469
 21
-24.0
 31
0.0
  0
LINE
  5
1E8
100
AcDbEntity
  8
0
  6
CONTINUOUS
 62
               4
100
AcDbLine
 10
-15.999992370605469
 20
24.0
 30
0.0
 11
-31.999992370605469
 21
24.0
 31
0.0
  0
LINE
  5
1E9
100
AcDbEntity
  8
0
  6
CONTINUOUS
 62
               4
100
AcDbLine
 10
-15.999992370605469
 20
-24.0
 30
0.0
 11
-15.999992370605469
 21
24.0
 31
0.0
  0
LINE
  5
1EA
100
AcDbEntity
  8
0
  6
CONTINUOUS
 62
               4
100
AcDbLine
 10
16.000007629394531
 20
23.0
 30
0.0
 11
-15.999992370605469
 21
23.0
 31
0.0
  0
LINE
  5
1EB
100
AcDbEntity
  8
0
  6
CONTINUOUS
 62
               4
100
AcDbLine
 10
16.000007629394531
 20
-23.0
 30
0.0
 11
-15.999992370605469
 21
-23.0
 31
0.0
  0
LINE
  5
1EC
100
AcDbEntity
  8
0
  6
CONTINUOUS
 62
               4
100
AcDbLine
 10
36.000007629394531
 20
-24.0
 30
0.0
 11
47.5
 21
-24.0
 31
0.0
  0
LINE
  5
1ED
100
AcDbEntity
  8
0
  6
CONTINUOUS
 62
               4
100
AcDbLine
 10
24.000007629394531
 20
-36.0
 30
0.0
 11
24.000007629394531
 21
-47.5
 31
0.0
  0
LINE
  5
1EE
100
AcDbEntity
  8
0
  6
CENTER
 62
             200
100
AcDbLine
 10
37.000007629394531
 20
-23.532440185546875
 30
0.0
 11
37.000007629394531
 21
-50.01031494140625
 31
0.0
  0
LINE
  5
1EF
100
AcDbEntity
  8
0
  6
CENTER
 62
             200
100
AcDbLine
 10
23.497055053710938
 20
-37.0
 30
0.0
 11
49.001480102539063
 21
-37.0
 31
0.0
  0
LINE
  5
1F0
100
AcDbEntity
  8
0
  6
CONTINUOUS
 62
               4
100
AcDbLine
 10
-23.999992370605469
 20
-36.0
 30
0.0
 11
-23.999992370605469
 21
-47.5
 31
0.0
  0
LINE
  5
1F1
100
AcDbEntity
  8
0
  6
CONTINUOUS
 62
               4
100
AcDbLine
 10
-35.999992370605469
 20
-24.0
 30
0.0
 11
-47.499992370605469
 21
-24.0
 31
0.0
  0
LINE
  5
1F2
100
AcDbEntity
  8
0
  6
CENTER
 62
             200
100
AcDbLine
 10
-36.999992370605469
 20
-23.532440185546875
 30
0.0
 11
-36.999992370605469
 21
-50.01031494140625
 31
0.0
  0
LINE
  5
1F3
100
AcDbEntity
  8
0
  6
CENTER
 62
             200
100
AcDbLine
 10
-23.497032165527344
 20
-37.0
 30
0.0
 11
-49.001457214355469
 21
-37.0
 31
0.0
  0
LINE
  5
1F4
100
AcDbEntity
  8
0
  6
CONTINUOUS
 62
               4
100
AcDbLine
 10
36.000007629394531
 20
24.0
 30
0.0
 11
47.5
 21
24.0
 31
0.0
  0
LINE
  5
1F5
100
AcDbEntity
  8
0
  6
CENTER
 62
             200
100
AcDbLine
 10
23.497055053710938
 20
37.0
 30
0.0
 11
49.001480102539063
 21
37.0
 31
0.0
  0
LINE
  5
1F6
100
AcDbEntity
  8
0
  6
CENTER
 62
             200
100
AcDbLine
 10
37.000007629394531
 20
23.532455444335938
 30
0.0
 11
37.000007629394531
 21
50.010345458984375
 31
0.0
  0
LINE
  5
1F7
100
AcDbEntity
  8
0
  6
CONTINUOUS
 62
               4
100
AcDbLine
 10
24.000007629394531
 20
36.0
 30
0.0
 11
24.000007629394531
 21
47.5
 31
0.0
  0
LINE
  5
1F8
100
AcDbEntity
  8
0
  6
CONTINUOUS
 62
               4
100
AcDbLine
 10
-35.999992370605469
 20
24.0
 30
0.0
 11
-47.499992370605469
 21
24.0
 31
0.0
  0
LINE
  5
1F9
100
AcDbEntity
  8
0
  6
CONTINUOUS
 62
               4
100
AcDbLine
 10
-23.999992370605469
 20
36.0
 30
0.0
 11
-23.999992370605469
 21
47.5
 31
0.0
  0
LINE
  5
1FA
100
AcDbEntity
  8
0
  6
CENTER
 62
             200
100
AcDbLine
 10
-23.497032165527344
 20
37.0
 30
0.0
 11
-49.001457214355469
 21
37.0
 31
0.0
  0
LINE
  5
1FB
100
AcDbEntity
  8
0
  6
CENTER
 62
             200
100
AcDbLine
 10
-36.999992370605469
 20
23.532455444335938
 30
0.0
 11
-36.999992370605469
 21
50.010345458984375
 31
0.0
  0
LINE
  5
1FC
100
AcDbEntity
  8
0
  6
CENTER
 62
             200
100
AcDbLine
 10
57.166679382324219
 20
0.0
 30
0.0
 11
-55.166648864746094
 21
0.0
 31
0.0
  0
LINE
  5
1FD
100
AcDbEntity
  8
0
  6
CENTER
 62
             200
100
AcDbLine
 10
0.0
 20
-56.833328247070313
 30
0.0
 11
0.0
 21
58.5
 31
0.0
  0
LINE
  5
1FE
100
AcDbEntity
  8
0
  6
CONTINUOUS
 62
               4
100
AcDbLine
 10
40.620201110839844
 20
47.5
 30
0.0
 11
-40.620170593261719
 21
47.5
 31
0.0
  0
LINE
  5
1FF
100
AcDbEntity
  8
0
  6
CONTINUOUS
 62
               4
100
AcDbLine
 10
47.500007629394531
 20
-40.62017822265625
 30
0.0
 11
47.500007629394531
 21
40.620208740234375
 31
0.0
  0
LINE
  5
200
100
AcDbEntity
  8
0
  6
CONTINUOUS
 62
               4
100
AcDbLine
 10
-47.499992370605469
 20
-40.620193481445313
 30
0.0
 11
-47.499992370605469
 21
40.620208740234375
 31
0.0
  0
LINE
  5
201
100
AcDbEntity
  8
0
  6
CONTINUOUS
 62
               4
100
AcDbLine
 10
40.620201110839844
 20
-47.5
 30
0.0
 11
-40.620170593261719
 21
-47.5
 31
0.0
  0
ENDBLK
  5
202
100
AcDbEntity
  8
0
100
AcDbBlockEnd
  0
BLOCK
  5
203
100
AcDbEntity
  8
0
100
AcDbBlockBegin
  2
JIG-C_CLEVIS2-9
 70
               0
 10
0.0
 20
0.0
 30
0.0
  3
JIG-C_CLEVIS2-9
  1

  0
ARC
  5
204
100
AcDbEntity
  8
0
  6
CONTINUOUS
 62
               4
100
AcDbCircle
 10
10.0
 20
26.0
 30
0.0
 40
2.0
100
AcDbArc
 50
180.00003597217869
 51
270.00001798608935
  0
ARC
  5
205
100
AcDbEntity
  8
0
  6
CONTINUOUS
 62
               4
100
AcDbCircle
 10
10.0
 20
-26.0
 30
0.0
 40
2.0
100
AcDbArc
 50
89.999982013910653
 51
179.99996402782131
  0
ARC
  5
206
100
AcDbEntity
  8
0
  6
CONTINUOUS
 62
               4
100
AcDbCircle
 10
12.545928955078125
 20
34.0
 30
0.0
 40
2.0
100
AcDbArc
 50
190.5390998237784
 51
270.00001798608935
  0
ARC
  5
207
100
AcDbEntity
  8
0
  6
CONTINUOUS
 62
               4
100
AcDbCircle
 10
12.545928955078125
 20
-34.0
 30
0.0
 40
2.0
100
AcDbArc
 50
89.999982013910653
 51
169.4609001762216
  0
LINE
  5
208
100
AcDbEntity
  8
0
  6
CONTINUOUS
 62
               4
100
AcDbLine
 10
7.0
 20
40.620193481445313
 30
0.0
 11
0.0
 21
40.620193481445313
 31
0.0
  0
LINE
  5
209
100
AcDbEntity
  8
0
  6
CONTINUOUS
 62
               4
100
AcDbLine
 10
7.0
 20
-40.620201110839844
 30
0.0
 11
0.0
 21
-40.620201110839844
 31
0.0
  0
LINE
  5
20A
100
AcDbEntity
  8
0
  6
CONTINUOUS
 62
               4
100
AcDbLine
 10
20.0
 20
-34.350006103515625
 30
0.0
 11
20.0
 21
-33.149993896484375
 31
0.0
  0
LINE
  5
20B
100
AcDbEntity
  8
0
  6
CONTINUOUS
 62
               4
100
AcDbLine
 10
42.0
 20
-16.0
 30
0.0
 11
42.0
 21
16.0
 31
0.0
  0
LINE
  5
20C
100
AcDbEntity
  8
0
  6
CONTINUOUS
 62
               4
100
AcDbLine
 10
22.0
 20
-16.0
 30
0.0
 11
22.0
 21
16.0
 31
0.0
  0
LINE
  5
20D
100
AcDbEntity
  8
0
  6
CONTINUOUS
 62
               4
100
AcDbLine
 10
42.0
 20
-33.149993896484375
 30
0.0
 11
42.0
 21
-32.0
 31
0.0
  0
LINE
  5
20E
100
AcDbEntity
  8
0
  6
CONTINUOUS
 62
               4
100
AcDbLine
 10
22.0
 20
-33.149993896484375
 30
0.0
 11
22.0
 21
-32.0
 31
0.0
  0
LINE
  5
20F
100
AcDbEntity
  8
0
  6
CONTINUOUS
 62
               4
100
AcDbLine
 10
44.0
 20
-34.350006103515625
 30
0.0
 11
20.0
 21
-34.350006103515625
 31
0.0
  0
LINE
  5
210
100
AcDbEntity
  8
0
  6
CONTINUOUS
 62
               4
100
AcDbLine
 10
44.0
 20
-33.149993896484375
 30
0.0
 11
20.0
 21
-33.149993896484375
 31
0.0
  0
LINE
  5
211
100
AcDbEntity
  8
0
  6
CONTINUOUS
 62
               4
100
AcDbLine
 10
22.0
 20
-37.0
 30
0.0
 11
22.0
 21
-34.350006103515625
 31
0.0
  0
LINE
  5
212
100
AcDbEntity
  8
0
  6
CONTINUOUS
 62
               4
100
AcDbLine
 10
42.0
 20
-37.0
 30
0.0
 11
42.0
 21
-34.350006103515625
 31
0.0
  0
LINE
  5
213
100
AcDbEntity
  8
0
  6
CONTINUOUS
 62
               4
100
AcDbLine
 10
42.0
 20
-37.0
 30
0.0
 11
22.0
 21
-37.0
 31
0.0
  0
LINE
  5
214
100
AcDbEntity
  8
0
  6
CONTINUOUS
 62
               4
100
AcDbLine
 10
44.0
 20
-34.350006103515625
 30
0.0
 11
44.0
 21
-33.149993896484375
 31
0.0
  0
LINE
  5
215
100
AcDbEntity
  8
0
  6
CONTINUOUS
 62
               4
100
AcDbLine
 10
42.0
 20
37.0
 30
0.0
 11
42.0
 21
34.349990844726563
 31
0.0
  0
LINE
  5
216
100
AcDbEntity
  8
0
  6
CONTINUOUS
 62
               4
100
AcDbLine
 10
44.0
 20
34.349990844726563
 30
0.0
 11
20.0
 21
34.349990844726563
 31
0.0
  0
LINE
  5
217
100
AcDbEntity
  8
0
  6
CONTINUOUS
 62
               4
100
AcDbLine
 10
44.0
 20
33.150009155273437
 30
0.0
 11
20.0
 21
33.150009155273437
 31
0.0
  0
LINE
  5
218
100
AcDbEntity
  8
0
  6
CONTINUOUS
 62
               4
100
AcDbLine
 10
22.0
 20
37.0
 30
0.0
 11
22.0
 21
34.349990844726563
 31
0.0
  0
LINE
  5
219
100
AcDbEntity
  8
0
  6
CONTINUOUS
 62
               4
100
AcDbLine
 10
22.0
 20
33.150009155273437
 30
0.0
 11
22.0
 21
32.0
 31
0.0
  0
LINE
  5
21A
100
AcDbEntity
  8
0
  6
CONTINUOUS
 62
               4
100
AcDbLine
 10
20.0
 20
34.349990844726563
 30
0.0
 11
20.0
 21
33.150009155273437
 31
0.0
  0
LINE
  5
21B
100
AcDbEntity
  8
0
  6
CONTINUOUS
 62
               4
100
AcDbLine
 10
42.0
 20
33.150009155273437
 30
0.0
 11
42.0
 21
32.0
 31
0.0
  0
LINE
  5
21C
100
AcDbEntity
  8
0
  6
CONTINUOUS
 62
               4
100
AcDbLine
 10
44.0
 20
34.349990844726563
 30
0.0
 11
44.0
 21
33.150009155273437
 31
0.0
  0
LINE
  5
21D
100
AcDbEntity
  8
0
  6
CONTINUOUS
 62
               4
100
AcDbLine
 10
42.0
 20
37.0
 30
0.0
 11
22.0
 21
37.0
 31
0.0
  0
LINE
  5
21E
100
AcDbEntity
  8
0
  6
CONTINUOUS
 62
               4
100
AcDbLine
 10
52.0
 20
-16.0
 30
0.0
 11
52.0
 21
-32.0
 31
0.0
  0
LINE
  5
21F
100
AcDbEntity
  8
0
  6
CONTINUOUS
 62
               4
100
AcDbLine
 10
52.0
 20
-32.0
 30
0.0
 11
12.545928955078125
 21
-32.0
 31
0.0
  0
LINE
  5
220
100
AcDbEntity
  8
0
  6
CONTINUOUS
 62
               4
100
AcDbLine
 10
52.0
 20
-16.0
 30
0.0
 11
10.0
 21
-16.0
 31
0.0
  0
LINE
  5
221
100
AcDbEntity
  8
0
  6
CONTINUOUS
 62
               4
100
AcDbLine
 10
52.0
 20
16.0
 30
0.0
 11
52.0
 21
32.0
 31
0.0
  0
LINE
  5
222
100
AcDbEntity
  8
0
  6
CONTINUOUS
 62
               4
100
AcDbLine
 10
52.0
 20
32.0
 30
0.0
 11
12.545928955078125
 21
32.0
 31
0.0
  0
LINE
  5
223
100
AcDbEntity
  8
0
  6
CONTINUOUS
 62
               4
100
AcDbLine
 10
52.0
 20
16.0
 30
0.0
 11
10.0
 21
16.0
 31
0.0
  0
LINE
  5
224
100
AcDbEntity
  8
0
  6
DASHED
 62
             200
100
AcDbLine
 10
0.0
 20
-30.0
 30
0.0
 11
7.0
 21
-30.0
 31
0.0
  0
LINE
  5
225
100
AcDbEntity
  8
0
  6
CENTER
 62
             200
100
AcDbLine
 10
-2.166656494140625
 20
-37.0
 30
0.0
 11
11.0333251953125
 21
-37.0
 31
0.0
  0
LINE
  5
226
100
AcDbEntity
  8
0
  6
DASHED
 62
             200
100
AcDbLine
 10
0.0
 20
-44.0
 30
0.0
 11
7.0
 21
-44.0
 31
0.0
  0
LINE
  5
227
100
AcDbEntity
  8
0
  6
DASHED
 62
             200
100
AcDbLine
 10
0.0
 20
30.0
 30
0.0
 11
7.0
 21
30.0
 31
0.0
  0
LINE
  5
228
100
AcDbEntity
  8
0
  6
DASHED
 62
             200
100
AcDbLine
 10
0.0
 20
44.0
 30
0.0
 11
7.0
 21
44.0
 31
0.0
  0
LINE
  5
229
100
AcDbEntity
  8
0
  6
CENTER
 62
             200
100
AcDbLine
 10
-2.166656494140625
 20
37.0
 30
0.0
 11
11.0333251953125
 21
37.0
 31
0.0
  0
LINE
  5
22A
100
AcDbEntity
  8
0
  6
CENTER
 62
             200
100
AcDbLine
 10
32.0
 20
-42.477882385253906
 30
0.0
 11
32.0
 21
42.389389038085938
 31
0.0
  0
LINE
  5
22B
100
AcDbEntity
  8
0
  6
CONTINUOUS
 62
               4
100
AcDbLine
 10
7.0
 20
47.5
 30
0.0
 11
7.0
 21
33.721282958984375
 31
0.0
  0
LINE
  5
22C
100
AcDbEntity
  8
0
  6
CONTINUOUS
 62
               4
100
AcDbLine
 10
7.0
 20
33.721282958984375
 30
0.0
 11
8.0
 21
33.721282958984375
 31
0.0
  0
LINE
  5
22D
100
AcDbEntity
  8
0
  6
DASHED
 62
             200
100
AcDbLine
 10
7.0
 20
26.0
 30
0.0
 11
8.0
 21
26.0
 31
0.0
  0
LINE
  5
22E
100
AcDbEntity
  8
0
  6
DASHED
 62
             200
100
AcDbLine
 10
7.0
 20
33.721282958984375
 30
0.0
 11
7.0
 21
26.0
 31
0.0
  0
LINE
  5
22F
100
AcDbEntity
  8
0
  6
CONTINUOUS
 62
               4
100
AcDbLine
 10
8.0
 20
47.5
 30
0.0
 11
8.0
 21
26.0
 31
0.0
  0
LINE
  5
230
100
AcDbEntity
  8
0
  6
CONTINUOUS
 62
               4
100
AcDbLine
 10
10.579422837609741
 20
33.634126214943478
 30
0.0
 11
7.9997392095627902
 21
47.499926083479238
 31
0.0
  0
LINE
  5
231
100
AcDbEntity
  8
0
  6
CONTINUOUS
 62
               4
100
AcDbLine
 10
10.579455195224341
 20
-33.63413999527512
 30
0.0
 11
7.9997715671773904
 21
-47.49993986381088
 31
0.0
  0
LINE
  5
232
100
AcDbEntity
  8
0
  6
CONTINUOUS
 62
               4
100
AcDbLine
 10
10.0
 20
-24.0
 30
0.0
 11
10.0
 21
24.0
 31
0.0
  0
LINE
  5
233
100
AcDbEntity
  8
0
  6
DASHED
 62
             200
100
AcDbLine
 10
7.0
 20
-33.721282958984375
 30
0.0
 11
7.0
 21
-26.0
 31
0.0
  0
LINE
  5
234
100
AcDbEntity
  8
0
  6
CONTINUOUS
 62
               4
100
AcDbLine
 10
7.0
 20
-33.721282958984375
 30
0.0
 11
8.0
 21
-33.721282958984375
 31
0.0
  0
LINE
  5
235
100
AcDbEntity
  8
0
  6
DASHED
 62
             200
100
AcDbLine
 10
7.0
 20
-26.0
 30
0.0
 11
8.0
 21
-26.0
 31
0.0
  0
LINE
  5
236
100
AcDbEntity
  8
0
  6
CONTINUOUS
 62
               4
100
AcDbLine
 10
8.0
 20
-47.5
 30
0.0
 11
8.0
 21
-26.0
 31
0.0
  0
LINE
  5
237
100
AcDbEntity
  8
0
  6
CONTINUOUS
 62
               4
100
AcDbLine
 10
8.0
 20
47.5
 30
0.0
 11
0.0
 21
47.5
 31
0.0
  0
LINE
  5
238
100
AcDbEntity
  8
0
  6
CONTINUOUS
 62
               4
100
AcDbLine
 10
8.0
 20
-47.5
 30
0.0
 11
0.0
 21
-47.5
 31
0.0
  0
LINE
  5
239
100
AcDbEntity
  8
0
  6
CENTER
 62
             200
100
AcDbLine
 10
54.666671752929688
 20
0.0
 30
0.0
 11
-9.333343505859375
 21
0.0
 31
0.0
  0
LINE
  5
23A
100
AcDbEntity
  8
0
  6
CONTINUOUS
 62
               4
100
AcDbLine
 10
7.0
 20
-47.5
 30
0.0
 11
7.0
 21
-33.721282958984375
 31
0.0
  0
LINE
  5
23B
100
AcDbEntity
  8
0
  6
CONTINUOUS
 62
               4
100
AcDbLine
 10
0.0
 20
-47.5
 30
0.0
 11
0.0
 21
47.5
 31
0.0
  0
ENDBLK
  5
23C
100
AcDbEntity
  8
0
100
AcDbBlockEnd
  0
BLOCK
  5
23D
100
AcDbEntity
  8
0
100
AcDbBlockBegin
  2
JIG-C_CLEVIS2-10
 70
               0
 10
0.0
 20
0.0
 30
0.0
  3
JIG-C_CLEVIS2-10
  1

  0
ARC
  5
23E
100
AcDbEntity
  8
0
  6
CONTINUOUS
 62
               4
100
AcDbCircle
 10
14.0
 20
29.5
 30
0.0
 40
2.0
100
AcDbArc
 50
179.99998133066532
 51
269.99996334457597
  0
ARC
  5
23F
100
AcDbEntity
  8
0
  6
CONTINUOUS
 62
               4
100
AcDbCircle
 10
14.0
 20
-29.5
 30
0.0
 40
2.0
100
AcDbArc
 50
89.999982013910653
 51
179.99996402782131
  0
ARC
  5
240
100
AcDbEntity
  8
0
  6
CONTINUOUS
 62
               4
100
AcDbCircle
 10
10.0
 20
-29.5
 30
0.0
 40
2.0
100
AcDbArc
 50
89.999982013910653
 51
179.99996402782131
  0
ARC
  5
241
100
AcDbEntity
  8
0
  6
CONTINUOUS
 62
               4
100
AcDbCircle
 10
50.0
 20
11.139297485351563
 30
0.0
 40
2.0
100
AcDbArc
 50
359.99994535848663
 51
68.458999711416141
  0
CIRCLE
  5
242
100
AcDbEntity
  8
0
  6
CONTINUOUS
 62
               4
100
AcDbCircle
 10
32.0
 20
0.0
 30
0.0
 40
10.0
  0
ARC
  5
243
100
AcDbEntity
  8
0
  6
CONTINUOUS
 62
               4
100
AcDbCircle
 10
50.0
 20
-11.1392822265625
 30
0.0
 40
2.0
100
AcDbArc
 50
291.54094564707049
 51
0.0
  0
ARC
  5
244
100
AcDbEntity
  8
0
  6
CONTINUOUS
 62
               4
100
AcDbCircle
 10
10.0
 20
29.5
 30
0.0
 40
2.0
100
AcDbArc
 50
179.99998133066532
 51
269.99996334457597
  0
ARC
  5
245
100
AcDbEntity
  8
0
  6
CONTINUOUS
 62
               4
100
AcDbCircle
 10
32.0
 20
0.0
 30
0.0
 40
12.0
100
AcDbArc
 50
290.00002764955894
 51
249.99997735939741
  0
LINE
  5
246
100
AcDbEntity
  8
0
  6
CONTINUOUS
 62
               4
100
AcDbLine
 10
36.104237162385289
 20
-11.276277092513737
 30
0.0
 11
35.420199715409581
 21
-9.3968907867047164
 31
0.0
  0
LINE
  5
247
100
AcDbEntity
  8
0
  6
CONTINUOUS
 62
               4
100
AcDbLine
 10
27.895774586008201
 20
-11.276305210085638
 30
0.0
 11
28.579814894006859
 21
-9.3969199771602234
 31
0.0
  0
LINE
  5
248
100
AcDbEntity
  8
0
  6
DASHED
 62
             200
100
AcDbLine
 10
0.0
 20
53.000007629394531
 30
0.0
 11
7.0
 21
53.000007629394531
 31
0.0
  0
LINE
  5
249
100
AcDbEntity
  8
0
  6
CENTER
 62
             200
100
AcDbLine
 10
-3.2701568603515625
 20
45.0
 30
0.0
 11
11.663955688476563
 21
45.0
 31
0.0
  0
LINE
  5
24A
100
AcDbEntity
  8
0
  6
CONTINUOUS
 62
               4
100
AcDbLine
 10
7.0
 20
41.429290771484375
 30
0.0
 11
8.0
 21
41.429290771484375
 31
0.0
  0
LINE
  5
24B
100
AcDbEntity
  8
0
  6
DASHED
 62
             200
100
AcDbLine
 10
7.0
 20
32.0
 30
0.0
 11
8.0
 21
32.0
 31
0.0
  0
LINE
  5
24C
100
AcDbEntity
  8
0
  6
DASHED
 62
             200
100
AcDbLine
 10
7.0
 20
41.429290771484375
 30
0.0
 11
7.0
 21
32.0
 31
0.0
  0
LINE
  5
24D
100
AcDbEntity
  8
0
  6
DASHED
 62
             200
100
AcDbLine
 10
0.0
 20
37.0
 30
0.0
 11
7.0
 21
37.0
 31
0.0
  0
LINE
  5
24E
100
AcDbEntity
  8
0
  6
CONTINUOUS
 62
               4
100
AcDbLine
 10
7.0
 20
57.500007629394531
 30
0.0
 11
7.0
 21
41.429290771484375
 31
0.0
  0
LINE
  5
24F
100
AcDbEntity
  8
0
  6
CONTINUOUS
 62
               4
100
AcDbLine
 10
8.0
 20
57.500007629394531
 30
0.0
 11
8.0
 21
29.5
 31
0.0
  0
LINE
  5
250
100
AcDbEntity
  8
0
  6
CONTINUOUS
 62
               4
100
AcDbLine
 10
7.9999932366107487
 20
57.500006032384078
 30
0.0
 11
11.999992341053257
 21
29.500014408628374
 31
0.0
  0
LINE
  5
251
100
AcDbEntity
  8
0
  6
CONTINUOUS
 62
               4
100
AcDbLine
 10
14.000003390720735
 20
27.500001649838055
 30
0.0
 11
50.734350213598077
 21
12.999599791741389
 31
0.0
  0
LINE
  5
252
100
AcDbEntity
  8
0
  6
CONTINUOUS
 62
               4
100
AcDbLine
 10
14.000016126233163
 20
-27.499991973095689
 30
0.0
 11
50.734346981937961
 21
-12.999598771778778
 31
0.0
  0
LINE
  5
253
100
AcDbEntity
  8
0
  6
CONTINUOUS
 62
               4
100
AcDbLine
 10
7.999975703522523
 20
-57.499980407100708
 30
0.0
 11
11.999975886924403
 21
-29.49998123062997
 31
0.0
  0
LINE
  5
254
100
AcDbEntity
  8
0
  6
CONTINUOUS
 62
               4
100
AcDbLine
 10
10.0
 20
-27.5
 30
0.0
 11
10.0
 21
27.5
 31
0.0
  0
LINE
  5
255
100
AcDbEntity
  8
0
  6
DASHED
 62
             200
100
AcDbLine
 10
7.0
 20
-41.429275512695313
 30
0.0
 11
7.0
 21
-32.0
 31
0.0
  0
LINE
  5
256
100
AcDbEntity
  8
0
  6
CONTINUOUS
 62
               4
100
AcDbLine
 10
7.0
 20
-41.429275512695313
 30
0.0
 11
8.0
 21
-41.429275512695313
 31
0.0
  0
LINE
  5
257
100
AcDbEntity
  8
0
  6
DASHED
 62
             200
100
AcDbLine
 10
7.0
 20
-32.0
 30
0.0
 11
8.0
 21
-32.0
 31
0.0
  0
LINE
  5
258
100
AcDbEntity
  8
0
  6
CENTER
 62
             200
100
AcDbLine
 10
-3.2701568603515625
 20
-45.0
 30
0.0
 11
11.663955688476563
 21
-45.0
 31
0.0
  0
LINE
  5
259
100
AcDbEntity
  8
0
  6
DASHED
 62
             200
100
AcDbLine
 10
0.0
 20
-53.0
 30
0.0
 11
7.0
 21
-53.0
 31
0.0
  0
LINE
  5
25A
100
AcDbEntity
  8
0
  6
DASHED
 62
             200
100
AcDbLine
 10
0.0
 20
-37.0
 30
0.0
 11
7.0
 21
-37.0
 31
0.0
  0
LINE
  5
25B
100
AcDbEntity
  8
0
  6
CONTINUOUS
 62
               4
100
AcDbLine
 10
8.0
 20
-57.5
 30
0.0
 11
8.0
 21
-29.5
 31
0.0
  0
LINE
  5
25C
100
AcDbEntity
  8
0
  6
CONTINUOUS
 62
               4
100
AcDbLine
 10
0.0
 20
-57.5
 30
0.0
 11
8.0
 21
-57.5
 31
0.0
  0
LINE
  5
25D
100
AcDbEntity
  8
0
  6
CONTINUOUS
 62
               4
100
AcDbLine
 10
0.0
 20
57.500007629394531
 30
0.0
 11
8.0
 21
57.500007629394531
 31
0.0
  0
LINE
  5
25E
100
AcDbEntity
  8
0
  6
CONTINUOUS
 62
               4
100
AcDbLine
 10
7.0
 20
-57.5
 30
0.0
 11
7.0
 21
-41.429275512695313
 31
0.0
  0
LINE
  5
25F
100
AcDbEntity
  8
0
  6
CONTINUOUS
 62
               4
100
AcDbLine
 10
0.0
 20
-57.5
 30
0.0
 11
0.0
 21
57.500007629394531
 31
0.0
  0
LINE
  5
260
100
AcDbEntity
  8
0
  6
CENTER
 62
             200
100
AcDbLine
 10
-2.571533203125
 20
0.0
 30
0.0
 11
55.221786499023438
 21
0.0
 31
0.0
  0
LINE
  5
261
100
AcDbEntity
  8
0
  6
CENTER
 62
             200
100
AcDbLine
 10
32.0
 20
-14.925384521484375
 30
0.0
 11
32.0
 21
17.240402221679688
 31
0.0
  0
LINE
  5
262
100
AcDbEntity
  8
0
  6
CONTINUOUS
 62
               4
100
AcDbLine
 10
52.0
 20
-11.1392822265625
 30
0.0
 11
52.0
 21
11.139297485351563
 31
0.0
  0
ENDBLK
  5
263
100
AcDbEntity
  8
0
100
AcDbBlockEnd
  0
BLOCK
  5
264
100
AcDbEntity
  8
0
100
AcDbBlockBegin
  2
JIG-C_CLEVIS2-11
 70
               0
 10
0.0
 20
0.0
 30
0.0
  3
JIG-C_CLEVIS2-11
  1

  0
ARC
  5
265
100
AcDbEntity
  8
0
  6
CONTINUOUS
 62
               4
100
AcDbCircle
 10
45.0
 20
45.0
 30
0.0
 40
13.0
100
AcDbArc
 50
105.94246315942083
 51
344.05772011769926
  0
CIRCLE
  5
266
100
AcDbEntity
  8
0
  6
CONTINUOUS
 62
               4
100
AcDbCircle
 10
45.0
 20
45.0
 30
0.0
 40
8.0
  0
ARC
  5
267
100
AcDbEntity
  8
0
  6
CONTINUOUS
 62
               4
100
AcDbCircle
 10
0.0
 20
0.0
 30
0.0
 40
75.5
100
AcDbArc
 50
310.39553258672896
 51
319.60456736163042
  0
CIRCLE
  5
268
100
AcDbEntity
  8
0
  6
CONTINUOUS
 62
               4
100
AcDbCircle
 10
45.0
 20
-45.0
 30
0.0
 40
8.0
  0
ARC
  5
269
100
AcDbEntity
  8
0
  6
CONTINUOUS
 62
               4
100
AcDbCircle
 10
45.0
 20
-45.0
 30
0.0
 40
13.0
100
AcDbArc
 50
15.942371862483443
 51
254.05762882076189
  0
ARC
  5
26A
100
AcDbEntity
  8
0
  6
CONTINUOUS
 62
               4
100
AcDbCircle
 10
41.5
 20
-41.5
 30
0.0
 40
14.0
100
AcDbArc
 50
90.000036655424012
 51
180.00001866933468
  0
ARC
  5
26B
100
AcDbEntity
  8
0
  6
CONTINUOUS
 62
               4
100
AcDbCircle
 10
0.0
 20
0.0
 30
0.0
 40
75.5
100
AcDbArc
 50
130.3954419730369
 51
139.60447674793838
  0
CIRCLE
  5
26C
100
AcDbEntity
  8
0
  6
CONTINUOUS
 62
               4
100
AcDbCircle
 10
-45.0
 20
45.0
 30
0.0
 40
8.0
  0
ARC
  5
26D
100
AcDbEntity
  8
0
  6
CONTINUOUS
 62
               4
100
AcDbCircle
 10
-45.0
 20
45.0
 30
0.0
 40
13.0
100
AcDbArc
 50
195.94231221201375
 51
74.057569170292197
  0
ARC
  5
26E
100
AcDbEntity
  8
0
  6
CONTINUOUS
 62
               4
100
AcDbCircle
 10
-41.5
 20
41.5
 30
0.0
 40
14.0
100
AcDbArc
 50
269.99996334457597
 51
359.99994535848663
  0
ARC
  5
26F
100
AcDbEntity
  8
0
  6
CONTINUOUS
 62
               4
100
AcDbCircle
 10
-41.5
 20
-41.5
 30
0.0
 40
14.0
100
AcDbArc
 50
0.0
 51
89.999982013910653
  0
ARC
  5
270
100
AcDbEntity
  8
0
  6
CONTINUOUS
 62
               4
100
AcDbCircle
 10
-45.0
 20
-45.0
 30
0.0
 40
13.0
100
AcDbArc
 50
285.9423625278161
 51
164.05763314647288
  0
CIRCLE
  5
271
100
AcDbEntity
  8
0
  6
CONTINUOUS
 62
               4
100
AcDbCircle
 10
-45.0
 20
-45.0
 30
0.0
 40
8.0
  0
ARC
  5
272
100
AcDbEntity
  8
0
  6
CONTINUOUS
 62
               4
100
AcDbCircle
 10
0.0
 20
0.0
 30
0.0
 40
75.5
100
AcDbArc
 50
220.39546861054825
 51
229.60450338544973
  0
ARC
  5
273
100
AcDbEntity
  8
0
  6
CONTINUOUS
 62
               4
100
AcDbCircle
 10
0.0
 20
0.0
 30
0.0
 40
75.5
100
AcDbArc
 50
40.395541921396294
 51
49.604576696297762
  0
ARC
  5
274
100
AcDbEntity
  8
0
  6
CONTINUOUS
 62
               4
100
AcDbCircle
 10
41.5
 20
41.5
 30
0.0
 40
14.0
100
AcDbArc
 50
180.00009061369204
 51
270.00007262760272
  0
LINE
  5
275
100
AcDbEntity
  8
0
  6
CONTINUOUS
 62
               4
100
AcDbLine
 10
-34.350006103515625
 20
12.0
 30
0.0
 11
-33.149993896484375
 21
12.0
 31
0.0
  0
LINE
  5
276
100
AcDbEntity
  8
0
  6
CONTINUOUS
 62
               4
100
AcDbLine
 10
-16.0
 20
-10.0
 30
0.0
 11
16.0
 21
-10.0
 31
0.0
  0
LINE
  5
277
100
AcDbEntity
  8
0
  6
CONTINUOUS
 62
               4
100
AcDbLine
 10
-16.0
 20
10.0
 30
0.0
 11
16.0
 21
10.0
 31
0.0
  0
LINE
  5
278
100
AcDbEntity
  8
0
  6
CONTINUOUS
 62
               4
100
AcDbLine
 10
-33.149993896484375
 20
-10.0
 30
0.0
 11
-32.0
 21
-10.0
 31
0.0
  0
LINE
  5
279
100
AcDbEntity
  8
0
  6
CONTINUOUS
 62
               4
100
AcDbLine
 10
-33.149993896484375
 20
10.0
 30
0.0
 11
-32.0
 21
10.0
 31
0.0
  0
LINE
  5
27A
100
AcDbEntity
  8
0
  6
CONTINUOUS
 62
               4
100
AcDbLine
 10
-34.350006103515625
 20
-12.0
 30
0.0
 11
-34.350006103515625
 21
12.0
 31
0.0
  0
LINE
  5
27B
100
AcDbEntity
  8
0
  6
CONTINUOUS
 62
               4
100
AcDbLine
 10
-33.149993896484375
 20
-12.0
 30
0.0
 11
-33.149993896484375
 21
12.0
 31
0.0
  0
LINE
  5
27C
100
AcDbEntity
  8
0
  6
CONTINUOUS
 62
               4
100
AcDbLine
 10
-37.0
 20
10.0
 30
0.0
 11
-34.350006103515625
 21
10.0
 31
0.0
  0
LINE
  5
27D
100
AcDbEntity
  8
0
  6
CONTINUOUS
 62
               4
100
AcDbLine
 10
-37.0
 20
-10.0
 30
0.0
 11
-34.350006103515625
 21
-10.0
 31
0.0
  0
LINE
  5
27E
100
AcDbEntity
  8
0
  6
CONTINUOUS
 62
               4
100
AcDbLine
 10
-37.0
 20
-10.0
 30
0.0
 11
-37.0
 21
10.0
 31
0.0
  0
LINE
  5
27F
100
AcDbEntity
  8
0
  6
CONTINUOUS
 62
               4
100
AcDbLine
 10
-34.350006103515625
 20
-12.0
 30
0.0
 11
-33.149993896484375
 21
-12.0
 31
0.0
  0
LINE
  5
280
100
AcDbEntity
  8
0
  6
CONTINUOUS
 62
               4
100
AcDbLine
 10
37.0
 20
-10.0
 30
0.0
 11
34.350006103515625
 21
-10.0
 31
0.0
  0
LINE
  5
281
100
AcDbEntity
  8
0
  6
CONTINUOUS
 62
               4
100
AcDbLine
 10
34.350006103515625
 20
-12.0
 30
0.0
 11
34.350006103515625
 21
12.0
 31
0.0
  0
LINE
  5
282
100
AcDbEntity
  8
0
  6
CONTINUOUS
 62
               4
100
AcDbLine
 10
33.149993896484375
 20
-12.0
 30
0.0
 11
33.149993896484375
 21
12.0
 31
0.0
  0
LINE
  5
283
100
AcDbEntity
  8
0
  6
CONTINUOUS
 62
               4
100
AcDbLine
 10
37.0
 20
10.0
 30
0.0
 11
34.350006103515625
 21
10.0
 31
0.0
  0
LINE
  5
284
100
AcDbEntity
  8
0
  6
CONTINUOUS
 62
               4
100
AcDbLine
 10
33.149993896484375
 20
10.0
 30
0.0
 11
32.0
 21
10.0
 31
0.0
  0
LINE
  5
285
100
AcDbEntity
  8
0
  6
CONTINUOUS
 62
               4
100
AcDbLine
 10
34.350006103515625
 20
12.0
 30
0.0
 11
33.149993896484375
 21
12.0
 31
0.0
  0
LINE
  5
286
100
AcDbEntity
  8
0
  6
CONTINUOUS
 62
               4
100
AcDbLine
 10
33.149993896484375
 20
-10.0
 30
0.0
 11
32.0
 21
-10.0
 31
0.0
  0
LINE
  5
287
100
AcDbEntity
  8
0
  6
CONTINUOUS
 62
               4
100
AcDbLine
 10
34.350006103515625
 20
-12.0
 30
0.0
 11
33.149993896484375
 21
-12.0
 31
0.0
  0
LINE
  5
288
100
AcDbEntity
  8
0
  6
CONTINUOUS
 62
               4
100
AcDbLine
 10
37.0
 20
-10.0
 30
0.0
 11
37.0
 21
10.0
 31
0.0
  0
LINE
  5
289
100
AcDbEntity
  8
0
  6
CENTER
 62
             200
100
AcDbLine
 10
-66.125091552734375
 20
0.0
 30
0.0
 11
65.81195068359375
 21
0.0
 31
0.0
  0
LINE
  5
28A
100
AcDbEntity
  8
0
  6
CONTINUOUS
 62
               4
100
AcDbLine
 10
27.5
 20
57.500007629394531
 30
0.0
 11
27.5
 21
41.5
 31
0.0
  0
LINE
  5
28B
100
AcDbEntity
  8
0
  6
CONTINUOUS
 62
               4
100
AcDbLine
 10
57.5
 20
27.5
 30
0.0
 11
41.5
 21
27.5
 31
0.0
  0
LINE
  5
28C
100
AcDbEntity
  8
0
  6
CENTER
 62
             200
100
AcDbLine
 10
45.0
 20
59.019668579101562
 30
0.0
 11
45.0
 21
29.619674682617188
 31
0.0
  0
LINE
  5
28D
100
AcDbEntity
  8
0
  6
CENTER
 62
             200
100
AcDbLine
 10
58.788055419921875
 20
45.0
 30
0.0
 11
29.621368408203125
 21
45.0
 31
0.0
  0
LINE
  5
28E
100
AcDbEntity
  8
0
  6
CENTER
 62
             200
100
AcDbLine
 10
45.0
 20
-59.0196533203125
 30
0.0
 11
45.0
 21
-29.619659423828125
 31
0.0
  0
LINE
  5
28F
100
AcDbEntity
  8
0
  6
CENTER
 62
             200
100
AcDbLine
 10
58.788055419921875
 20
-45.0
 30
0.0
 11
29.621368408203125
 21
-45.0
 31
0.0
  0
LINE
  5
290
100
AcDbEntity
  8
0
  6
CONTINUOUS
 62
               4
100
AcDbLine
 10
27.5
 20
-57.5
 30
0.0
 11
27.5
 21
-41.5
 31
0.0
  0
LINE
  5
291
100
AcDbEntity
  8
0
  6
CONTINUOUS
 62
               4
100
AcDbLine
 10
57.5
 20
-27.5
 30
0.0
 11
41.5
 21
-27.5
 31
0.0
  0
LINE
  5
292
100
AcDbEntity
  8
0
  6
CENTER
 62
             200
100
AcDbLine
 10
-58.788055419921875
 20
45.0
 30
0.0
 11
-29.621368408203125
 21
45.0
 31
0.0
  0
LINE
  5
293
100
AcDbEntity
  8
0
  6
CENTER
 62
             200
100
AcDbLine
 10
-45.0
 20
59.019668579101562
 30
0.0
 11
-45.0
 21
29.619674682617188
 31
0.0
  0
LINE
  5
294
100
AcDbEntity
  8
0
  6
CONTINUOUS
 62
               4
100
AcDbLine
 10
-27.5
 20
57.500007629394531
 30
0.0
 11
-27.5
 21
41.5
 31
0.0
  0
LINE
  5
295
100
AcDbEntity
  8
0
  6
CONTINUOUS
 62
               4
100
AcDbLine
 10
-57.5
 20
27.5
 30
0.0
 11
-41.5
 21
27.5
 31
0.0
  0
LINE
  5
296
100
AcDbEntity
  8
0
  6
CONTINUOUS
 62
               4
100
AcDbLine
 10
32.0
 20
27.5
 30
0.0
 11
16.0
 21
27.5
 31
0.0
  0
LINE
  5
297
100
AcDbEntity
  8
0
  6
CONTINUOUS
 62
               4
100
AcDbLine
 10
32.0
 20
12.5
 30
0.0
 11
16.0
 21
12.5
 31
0.0
  0
LINE
  5
298
100
AcDbEntity
  8
0
  6
CONTINUOUS
 62
               4
100
AcDbLine
 10
32.0
 20
-27.5
 30
0.0
 11
32.0
 21
27.5
 31
0.0
  0
LINE
  5
299
100
AcDbEntity
  8
0
  6
CONTINUOUS
 62
               4
100
AcDbLine
 10
32.0
 20
-27.5
 30
0.0
 11
16.0
 21
-27.5
 31
0.0
  0
LINE
  5
29A
100
AcDbEntity
  8
0
  6
CONTINUOUS
 62
               4
100
AcDbLine
 10
16.0
 20
-27.5
 30
0.0
 11
16.0
 21
27.5
 31
0.0
  0
LINE
  5
29B
100
AcDbEntity
  8
0
  6
CONTINUOUS
 62
               4
100
AcDbLine
 10
32.0
 20
-12.5
 30
0.0
 11
16.0
 21
-12.5
 31
0.0
  0
LINE
  5
29C
100
AcDbEntity
  8
0
  6
CONTINUOUS
 62
               4
100
AcDbLine
 10
-32.0
 20
12.5
 30
0.0
 11
-16.0
 21
12.5
 31
0.0
  0
LINE
  5
29D
100
AcDbEntity
  8
0
  6
CONTINUOUS
 62
               4
100
AcDbLine
 10
-32.0
 20
-12.5
 30
0.0
 11
-16.0
 21
-12.5
 31
0.0
  0
LINE
  5
29E
100
AcDbEntity
  8
0
  6
CONTINUOUS
 62
               4
100
AcDbLine
 10
-32.0
 20
27.5
 30
0.0
 11
-16.0
 21
27.5
 31
0.0
  0
LINE
  5
29F
100
AcDbEntity
  8
0
  6
CONTINUOUS
 62
               4
100
AcDbLine
 10
-32.0
 20
-27.5
 30
0.0
 11
-16.0
 21
-27.5
 31
0.0
  0
LINE
  5
2A0
100
AcDbEntity
  8
0
  6
CONTINUOUS
 62
               4
100
AcDbLine
 10
-16.0
 20
-25.0
 30
0.0
 11
16.0
 21
-25.0
 31
0.0
  0
LINE
  5
2A1
100
AcDbEntity
  8
0
  6
CONTINUOUS
 62
               4
100
AcDbLine
 10
-16.0
 20
25.0
 30
0.0
 11
16.0
 21
25.0
 31
0.0
  0
LINE
  5
2A2
100
AcDbEntity
  8
0
  6
CONTINUOUS
 62
               4
100
AcDbLine
 10
-32.0
 20
-27.5
 30
0.0
 11
-32.0
 21
27.5
 31
0.0
  0
LINE
  5
2A3
100
AcDbEntity
  8
0
  6
CONTINUOUS
 62
               4
100
AcDbLine
 10
-16.0
 20
-27.5
 30
0.0
 11
-16.0
 21
27.5
 31
0.0
  0
LINE
  5
2A4
100
AcDbEntity
  8
0
  6
CONTINUOUS
 62
               4
100
AcDbLine
 10
-27.5
 20
-57.5
 30
0.0
 11
-27.5
 21
-41.5
 31
0.0
  0
LINE
  5
2A5
100
AcDbEntity
  8
0
  6
CONTINUOUS
 62
               4
100
AcDbLine
 10
-57.5
 20
-27.5
 30
0.0
 11
-41.5
 21
-27.5
 31
0.0
  0
LINE
  5
2A6
100
AcDbEntity
  8
0
  6
CENTER
 62
             200
100
AcDbLine
 10
-58.788055419921875
 20
-45.0
 30
0.0
 11
-29.621368408203125
 21
-45.0
 31
0.0
  0
LINE
  5
2A7
100
AcDbEntity
  8
0
  6
CENTER
 62
             200
100
AcDbLine
 10
-45.0
 20
-59.0196533203125
 30
0.0
 11
-45.0
 21
-29.619659423828125
 31
0.0
  0
LINE
  5
2A8
100
AcDbEntity
  8
0
  6
CENTER
 62
             200
100
AcDbLine
 10
0.0
 20
-65.086334228515625
 30
0.0
 11
0.0
 21
62.780349731445313
 31
0.0
  0
LINE
  5
2A9
100
AcDbEntity
  8
0
  6
CONTINUOUS
 62
               4
100
AcDbLine
 10
-48.92852783203125
 20
57.500007629394531
 30
0.0
 11
48.928497314453125
 21
57.500007629394531
 31
0.0
  0
LINE
  5
2AA
100
AcDbEntity
  8
0
  6
CONTINUOUS
 62
               4
100
AcDbLine
 10
57.5
 20
-48.928512573242187
 30
0.0
 11
57.5
 21
48.92852783203125
 31
0.0
  0
LINE
  5
2AB
100
AcDbEntity
  8
0
  6
CONTINUOUS
 62
               4
100
AcDbLine
 10
-48.92852783203125
 20
-57.5
 30
0.0
 11
48.928497314453125
 21
-57.5
 31
0.0
  0
LINE
  5
2AC
100
AcDbEntity
  8
0
  6
CONTINUOUS
 62
               4
100
AcDbLine
 10
-57.5
 20
-48.928512573242187
 30
0.0
 11
-57.5
 21
48.92852783203125
 31
0.0
  0
ENDBLK
  5
2AD
100
AcDbEntity
  8
0
100
AcDbBlockEnd
  0
BLOCK
  5
2AE
100
AcDbEntity
  8
0
100
AcDbBlockBegin
  2
JIG-C_CLEVIS2-12
 70
               0
 10
0.0
 20
0.0
 30
0.0
  3
JIG-C_CLEVIS2-12
  1

  0
ARC
  5
2AF
100
AcDbEntity
  8
0
  6
CONTINUOUS
 62
               4
100
AcDbCircle
 10
10.0
 20
29.5
 30
0.0
 40
2.0
100
AcDbArc
 50
179.99998133066532
 51
269.99996334457597
  0
ARC
  5
2B0
100
AcDbEntity
  8
0
  6
CONTINUOUS
 62
               4
100
AcDbCircle
 10
10.0
 20
-29.5
 30
0.0
 40
2.0
100
AcDbArc
 50
89.999982013910653
 51
179.99996402782131
  0
ARC
  5
2B1
100
AcDbEntity
  8
0
  6
CONTINUOUS
 62
               4
100
AcDbCircle
 10
13.377471923828125
 20
34.0
 30
0.0
 40
2.0
100
AcDbArc
 50
188.12990085821815
 51
270.00001798608935
  0
ARC
  5
2B2
100
AcDbEntity
  8
0
  6
CONTINUOUS
 62
               4
100
AcDbCircle
 10
13.377471923828125
 20
-34.0
 30
0.0
 40
2.0
100
AcDbArc
 50
89.999927372397295
 51
171.87004450026851
  0
LINE
  5
2B3
100
AcDbEntity
  8
0
  6
CONTINUOUS
 62
               4
100
AcDbLine
 10
42.0
 20
33.150009155273437
 30
0.0
 11
42.0
 21
32.0
 31
0.0
  0
LINE
  5
2B4
100
AcDbEntity
  8
0
  6
CONTINUOUS
 62
               4
100
AcDbLine
 10
22.0
 20
33.150009155273437
 30
0.0
 11
22.0
 21
32.0
 31
0.0
  0
LINE
  5
2B5
100
AcDbEntity
  8
0
  6
CONTINUOUS
 62
               4
100
AcDbLine
 10
20.0
 20
34.349990844726563
 30
0.0
 11
20.0
 21
33.150009155273437
 31
0.0
  0
LINE
  5
2B6
100
AcDbEntity
  8
0
  6
CONTINUOUS
 62
               4
100
AcDbLine
 10
44.0
 20
34.349990844726563
 30
0.0
 11
44.0
 21
33.150009155273437
 31
0.0
  0
LINE
  5
2B7
100
AcDbEntity
  8
0
  6
CONTINUOUS
 62
               4
100
AcDbLine
 10
44.0
 20
33.149993896484375
 30
0.0
 11
20.0
 21
33.149993896484375
 31
0.0
  0
LINE
  5
2B8
100
AcDbEntity
  8
0
  6
CONTINUOUS
 62
               4
100
AcDbLine
 10
44.0
 20
34.3499755859375
 30
0.0
 11
20.0
 21
34.3499755859375
 31
0.0
  0
LINE
  5
2B9
100
AcDbEntity
  8
0
  6
CONTINUOUS
 62
               4
100
AcDbLine
 10
42.0
 20
37.0
 30
0.0
 11
42.0
 21
34.349990844726563
 31
0.0
  0
LINE
  5
2BA
100
AcDbEntity
  8
0
  6
CONTINUOUS
 62
               4
100
AcDbLine
 10
22.0
 20
37.0
 30
0.0
 11
22.0
 21
34.349990844726563
 31
0.0
  0
LINE
  5
2BB
100
AcDbEntity
  8
0
  6
CONTINUOUS
 62
               4
100
AcDbLine
 10
42.0
 20
36.999984741210938
 30
0.0
 11
22.0
 21
36.999984741210938
 31
0.0
  0
LINE
  5
2BC
100
AcDbEntity
  8
0
  6
CONTINUOUS
 62
               4
100
AcDbLine
 10
44.0
 20
-34.349998474121094
 30
0.0
 11
44.0
 21
-33.150001525878906
 31
0.0
  0
LINE
  5
2BD
100
AcDbEntity
  8
0
  6
CONTINUOUS
 62
               4
100
AcDbLine
 10
20.0
 20
-34.349998474121094
 30
0.0
 11
20.0
 21
-33.150001525878906
 31
0.0
  0
LINE
  5
2BE
100
AcDbEntity
  8
0
  6
CONTINUOUS
 62
               4
100
AcDbLine
 10
42.0
 20
-16.0
 30
0.0
 11
42.0
 21
16.0
 31
0.0
  0
LINE
  5
2BF
100
AcDbEntity
  8
0
  6
CONTINUOUS
 62
               4
100
AcDbLine
 10
22.0
 20
-16.0
 30
0.0
 11
22.0
 21
16.0
 31
0.0
  0
LINE
  5
2C0
100
AcDbEntity
  8
0
  6
CONTINUOUS
 62
               4
100
AcDbLine
 10
42.0
 20
-33.150001525878906
 30
0.0
 11
42.0
 21
-32.0
 31
0.0
  0
LINE
  5
2C1
100
AcDbEntity
  8
0
  6
CONTINUOUS
 62
               4
100
AcDbLine
 10
22.0
 20
-33.150001525878906
 30
0.0
 11
22.0
 21
-32.0
 31
0.0
  0
LINE
  5
2C2
100
AcDbEntity
  8
0
  6
CONTINUOUS
 62
               4
100
AcDbLine
 10
44.0
 20
-34.350006103515625
 30
0.0
 11
20.0
 21
-34.350006103515625
 31
0.0
  0
LINE
  5
2C3
100
AcDbEntity
  8
0
  6
CONTINUOUS
 62
               4
100
AcDbLine
 10
44.0
 20
-33.150009155273437
 30
0.0
 11
20.0
 21
-33.150009155273437
 31
0.0
  0
LINE
  5
2C4
100
AcDbEntity
  8
0
  6
CONTINUOUS
 62
               4
100
AcDbLine
 10
22.0
 20
-37.0
 30
0.0
 11
22.0
 21
-34.349998474121094
 31
0.0
  0
LINE
  5
2C5
100
AcDbEntity
  8
0
  6
CONTINUOUS
 62
               4
100
AcDbLine
 10
42.0
 20
-37.0
 30
0.0
 11
42.0
 21
-34.349998474121094
 31
0.0
  0
LINE
  5
2C6
100
AcDbEntity
  8
0
  6
CONTINUOUS
 62
               4
100
AcDbLine
 10
42.0
 20
-37.000015258789063
 30
0.0
 11
22.0
 21
-37.000015258789063
 31
0.0
  0
LINE
  5
2C7
100
AcDbEntity
  8
0
  6
CONTINUOUS
 62
               4
100
AcDbLine
 10
52.0
 20
-16.0
 30
0.0
 11
52.0
 21
-32.0
 31
0.0
  0
LINE
  5
2C8
100
AcDbEntity
  8
0
  6
CENTER
 62
             200
100
AcDbLine
 10
32.0
 20
40.779632568359375
 30
0.0
 11
32.0
 21
-40.42083740234375
 31
0.0
  0
LINE
  5
2C9
100
AcDbEntity
  8
0
  6
CONTINUOUS
 62
               4
100
AcDbLine
 10
13.377471923828125
 20
-32.0
 30
0.0
 11
52.0
 21
-32.0
 31
0.0
  0
LINE
  5
2CA
100
AcDbEntity
  8
0
  6
CONTINUOUS
 62
               4
100
AcDbLine
 10
10.0
 20
-16.0
 30
0.0
 11
52.0
 21
-16.0
 31
0.0
  0
LINE
  5
2CB
100
AcDbEntity
  8
0
  6
CONTINUOUS
 62
               4
100
AcDbLine
 10
52.0
 20
16.0
 30
0.0
 11
52.0
 21
32.0
 31
0.0
  0
LINE
  5
2CC
100
AcDbEntity
  8
0
  6
CONTINUOUS
 62
               4
100
AcDbLine
 10
10.0
 20
16.0
 30
0.0
 11
52.0
 21
16.0
 31
0.0
  0
LINE
  5
2CD
100
AcDbEntity
  8
0
  6
CONTINUOUS
 62
               4
100
AcDbLine
 10
13.377471923828125
 20
32.0
 30
0.0
 11
52.0
 21
32.0
 31
0.0
  0
LINE
  5
2CE
100
AcDbEntity
  8
0
  6
DASHED
 62
             200
100
AcDbLine
 10
0.0
 20
53.0
 30
0.0
 11
7.0
 21
53.0
 31
0.0
  0
LINE
  5
2CF
100
AcDbEntity
  8
0
  6
CENTER
 62
             200
100
AcDbLine
 10
-3.2701568603515625
 20
45.0
 30
0.0
 11
11.663955688476563
 21
45.0
 31
0.0
  0
LINE
  5
2D0
100
AcDbEntity
  8
0
  6
CONTINUOUS
 62
               4
100
AcDbLine
 10
7.0
 20
41.429290771484375
 30
0.0
 11
8.0
 21
41.429290771484375
 31
0.0
  0
LINE
  5
2D1
100
AcDbEntity
  8
0
  6
DASHED
 62
             200
100
AcDbLine
 10
7.0
 20
32.0
 30
0.0
 11
8.0
 21
32.0
 31
0.0
  0
LINE
  5
2D2
100
AcDbEntity
  8
0
  6
DASHED
 62
             200
100
AcDbLine
 10
7.0
 20
41.429290771484375
 30
0.0
 11
7.0
 21
32.0
 31
0.0
  0
LINE
  5
2D3
100
AcDbEntity
  8
0
  6
DASHED
 62
             200
100
AcDbLine
 10
0.0
 20
37.0
 30
0.0
 11
7.0
 21
37.0
 31
0.0
  0
LINE
  5
2D4
100
AcDbEntity
  8
0
  6
CONTINUOUS
 62
               4
100
AcDbLine
 10
7.0
 20
57.5
 30
0.0
 11
7.0
 21
41.429290771484375
 31
0.0
  0
LINE
  5
2D5
100
AcDbEntity
  8
0
  6
CONTINUOUS
 62
               4
100
AcDbLine
 10
8.0
 20
57.5
 30
0.0
 11
8.0
 21
29.5
 31
0.0
  0
LINE
  5
2D6
100
AcDbEntity
  8
0
  6
CONTINUOUS
 62
               4
100
AcDbLine
 10
8.0000010590657666
 20
57.499991736173541
 30
0.0
 11
11.397549441629252
 21
33.717154848178524
 31
0.0
  0
LINE
  5
2D7
100
AcDbEntity
  8
0
  6
CONTINUOUS
 62
               4
100
AcDbLine
 10
8.00000024984638
 20
-57.499983913718665
 30
0.0
 11
11.39754809293018
 21
-33.717150802081164
 31
0.0
  0
LINE
  5
2D8
100
AcDbEntity
  8
0
  6
CONTINUOUS
 62
               4
100
AcDbLine
 10
10.0
 20
-27.5
 30
0.0
 11
10.0
 21
27.5
 31
0.0
  0
LINE
  5
2D9
100
AcDbEntity
  8
0
  6
DASHED
 62
             200
100
AcDbLine
 10
7.0
 20
-41.429275512695313
 30
0.0
 11
7.0
 21
-32.0
 31
0.0
  0
LINE
  5
2DA
100
AcDbEntity
  8
0
  6
CONTINUOUS
 62
               4
100
AcDbLine
 10
7.0
 20
-41.429275512695313
 30
0.0
 11
8.0
 21
-41.429275512695313
 31
0.0
  0
LINE
  5
2DB
100
AcDbEntity
  8
0
  6
DASHED
 62
             200
100
AcDbLine
 10
7.0
 20
-32.0
 30
0.0
 11
8.0
 21
-32.0
 31
0.0
  0
LINE
  5
2DC
100
AcDbEntity
  8
0
  6
CENTER
 62
             200
100
AcDbLine
 10
-3.2701568603515625
 20
-44.999992370605469
 30
0.0
 11
11.663955688476563
 21
-44.999992370605469
 31
0.0
  0
LINE
  5
2DD
100
AcDbEntity
  8
0
  6
DASHED
 62
             200
100
AcDbLine
 10
0.0
 20
-52.999992370605469
 30
0.0
 11
7.0
 21
-52.999992370605469
 31
0.0
  0
LINE
  5
2DE
100
AcDbEntity
  8
0
  6
DASHED
 62
             200
100
AcDbLine
 10
0.0
 20
-36.999992370605469
 30
0.0
 11
7.0
 21
-36.999992370605469
 31
0.0
  0
LINE
  5
2DF
100
AcDbEntity
  8
0
  6
CONTINUOUS
 62
               4
100
AcDbLine
 10
8.0
 20
-57.499992370605469
 30
0.0
 11
8.0
 21
-29.5
 31
0.0
  0
LINE
  5
2E0
100
AcDbEntity
  8
0
  6
CONTINUOUS
 62
               4
100
AcDbLine
 10
0.0
 20
-57.499992370605469
 30
0.0
 11
8.0
 21
-57.499992370605469
 31
0.0
  0
LINE
  5
2E1
100
AcDbEntity
  8
0
  6
CONTINUOUS
 62
               4
100
AcDbLine
 10
0.0
 20
57.5
 30
0.0
 11
8.0
 21
57.5
 31
0.0
  0
LINE
  5
2E2
100
AcDbEntity
  8
0
  6
CONTINUOUS
 62
               4
100
AcDbLine
 10
7.0
 20
-57.499992370605469
 30
0.0
 11
7.0
 21
-41.429275512695313
 31
0.0
  0
LINE
  5
2E3
100
AcDbEntity
  8
0
  6
CONTINUOUS
 62
               4
100
AcDbLine
 10
0.0
 20
-57.499992370605469
 30
0.0
 11
0.0
 21
57.5
 31
0.0
  0
LINE
  5
2E4
100
AcDbEntity
  8
0
  6
CENTER
 62
             200
100
AcDbLine
 10
-7.8046875
 20
0.0
 30
0.0
 11
55.221786499023438
 21
0.0
 31
0.0
  0
ENDBLK
  5
2E5
100
AcDbEntity
  8
0
100
AcDbBlockEnd
  0
ENDSEC
  0
SECTION
  2
ENTITIES
  0
INSERT
  5
2E6
100
AcDbEntity
  8
0
  6
ByBlock
100
AcDbBlockReference
  2
JIG-C_CLEVIS2-12
 10
83.341590881347656
 20
-35.916671752929687
 30
0.0
  0
INSERT
  5
2E7
100
AcDbEntity
  8
0
  6
ByBlock
100
AcDbBlockReference
  2
JIG-C_CLEVIS2-11
 10
276.84176635742187
 20
-168.91667175292969
 30
0.0
  0
INSERT
  5
2E8
100
AcDbEntity
  8
0
  6
ByBlock
100
AcDbBlockReference
  2
JIG-C_CLEVIS2-10
 10
83.341606140136719
 20
-168.91668701171875
 30
0.0
  0
INSERT
  5
2E9
100
AcDbEntity
  8
0
  6
ByBlock
100
AcDbBlockReference
  2
JIG-C_CLEVIS2-9
 10
-307.99179077148437
 20
-77.249977111816406
 30
0.0
  0
INSERT
  5
2EA
100
AcDbEntity
  8
0
  6
ByBlock
100
AcDbBlockReference
  2
JIG-C_CLEVIS2-8
 10
-127.49171447753906
 20
-197.24996948242187
 30
0.0
  0
INSERT
  5
2EB
100
AcDbEntity
  8
0
  6
ByBlock
100
AcDbBlockReference
  2
JIG-C_CLEVIS2-7
 10
-307.99172973632812
 20
-197.25
 30
0.0
  0
INSERT
  5
2EC
100
AcDbEntity
  8
0
  6
ByBlock
100
AcDbBlockReference
  2
JIG-C_CLEVIS2-6
 10
121.25619506835937
 20
205.91767883300781
 30
0.0
  0
INSERT
  5
2ED
100
AcDbEntity
  8
0
  6
ByBlock
100
AcDbBlockReference
  2
JIG-C_CLEVIS2-5
 10
274.25616455078125
 20
101.91767883300781
 30
0.0
  0
INSERT
  5
2EE
100
AcDbEntity
  8
0
  6
ByBlock
100
AcDbBlockReference
  2
JIG-C_CLEVIS2-4
 10
121.25615692138672
 20
101.91766357421875
 30
0.0
  0
INSERT
  5
2EF
100
AcDbEntity
  8
0
  6
ByBlock
100
AcDbBlockReference
  2
JIG-C_CLEVIS2-3
 10
-280.6583251953125
 20
181.08331298828125
 30
0.0
  0
INSERT
  5
2F0
100
AcDbEntity
  8
0
  6
ByBlock
100
AcDbBlockReference
  2
JIG-C_CLEVIS2-2
 10
-129.15840148925781
 20
101.08335876464844
 30
0.0
  0
INSERT
  5
2F1
100
AcDbEntity
  8
0
  6
ByBlock
100
AcDbBlockReference
  2
JIG-C_CLEVIS2-1
 10
-280.65841674804687
 20
101.08333587646484
 30
0.0
  0
MTEXT
  5
2F2
100
AcDbEntity
  8
0
  6
CONTINUOUS
 62
               7
100
AcDbMText
 10
-344.75
 20
258.75
 30
0.0
 40
9.0
 41
0.0
 71
               4
 72
               1
  1
\A1;CLEVIS
  0
MTEXT
  5
2F3
100
AcDbEntity
  8
0
  6
CONTINUOUS
 62
               7
100
AcDbMText
 10
-389.85954434379977
 20
237.74998474121094
 30
0.0
 40
9.0
 41
0.0
 71
               4
 72
               1
  1
\W1.088;\A1;BORE 50
  0
MTEXT
  5
2F4
100
AcDbEntity
  8
0
  6
CONTINUOUS
 62
               7
100
AcDbMText
 10
5.0992403897372158
 20
237.74998474121094
 30
0.0
 40
9.0
 41
0.0
 71
               4
 72
               1
  1
\W1.061;\A1;BORE 63
  0
MTEXT
  5
2F5
100
AcDbEntity
  8
0
  6
CONTINUOUS
 62
               7
100
AcDbMText
 10
-389.85957486137789
 20
26.749984741210938
 30
0.0
 40
9.0
 41
0.0
 71
               4
 72
               1
  1
\W1.088;\A1;BORE 80
  0
MTEXT
  5
2F6
100
AcDbEntity
  8
0
  6
CONTINUOUS
 62
               7
100
AcDbMText
 10
254.07164133211842
 20
263.75
 30
0.0
 40
9.0
 41
0.0
 71
               4
 72
               1
  1
\W1.181;\A1;DATE: JUL ,1994
  0
MTEXT
  5
2F7
100
AcDbEntity
  8
0
  6
CONTINUOUS
 62
               7
100
AcDbMText
 10
245.88474586040439
 20
-264.25
 30
0.0
 40
12.5
 41
0.0
 71
               4
 72
               1
  1
\W1.121;\A1;KOGANEI CORP.
  0
MTEXT
  5
2F8
100
AcDbEntity
  8
0
  6
CONTINUOUS
 62
               7
100
AcDbMText
 10
-371.60365854256889
 20
268.75
 30
0.0
 40
9.0
 41
0.0
 71
               4
 72
               1
  1
\W1.098;\A1;JIG CYLINDER
  0
MTEXT
  5
2F9
100
AcDbEntity
  8
0
  6
CONTINUOUS
 62
               7
100
AcDbMText
 10
5.7391005345570623
 20
26.749984741210938
 30
0.0
 40
9.0
 41
0.0
 71
               4
 72
               1
  1
\W1.154;\A1;BORE 100
  0
LINE
  5
2FA
100
AcDbEntity
  8
0
  6
CONTINUOUS
 62
               7
100
AcDbLine
 10
-399.25
 20
37.75
 30
0.0
 11
399.79998779296875
 21
37.75
 31
0.0
  0
LINE
  5
2FB
100
AcDbEntity
  8
0
  6
CONTINUOUS
 62
               7
100
AcDbLine
 10
0.274993896484375
 20
276.25
 30
0.0
 11
0.274993896484375
 21
-276.75
 31
0.0
  0
LINE
  5
2FC
100
AcDbEntity
  8
0
  6
CONTINUOUS
 62
               7
100
AcDbLine
 10
-239.25
 20
276.25
 30
0.0
 11
-239.25
 21
251.25
 31
0.0
  0
LINE
  5
2FD
100
AcDbEntity
  8
0
  6
CONTINUOUS
 62
               7
100
AcDbLine
 10
239.79998779296875
 20
251.25
 30
0.0
 11
239.79998779296875
 21
276.25
 31
0.0
  0
LINE
  5
2FE
100
AcDbEntity
  8
0
  6
CONTINUOUS
 62
               7
100
AcDbLine
 10
239.79998779296875
 20
-251.75
 30
0.0
 11
239.79998779296875
 21
-276.75
 31
0.0
  0
LINE
  5
2FF
100
AcDbEntity
  8
0
  6
CONTINUOUS
 62
               7
100
AcDbLine
 10
-399.25
 20
251.25
 30
0.0
 11
-239.25
 21
251.25
 31
0.0
  0
LINE
  5
300
100
AcDbEntity
  8
0
  6
CONTINUOUS
 62
               7
100
AcDbLine
 10
239.79998779296875
 20
251.25
 30
0.0
 11
399.79998779296875
 21
251.25
 31
0.0
  0
LINE
  5
301
100
AcDbEntity
  8
0
  6
CONTINUOUS
 62
               7
100
AcDbLine
 10
239.79998779296875
 20
-251.75
 30
0.0
 11
399.79998779296875
 21
-251.75
 31
0.0
  0
LINE
  5
302
100
AcDbEntity
  8
0
  6
CONTINUOUS
 62
               7
100
AcDbLine
 10
-399.25
 20
-276.75
 30
0.0
 11
399.79998779296875
 21
-276.75
 31
0.0
  0
LINE
  5
303
100
AcDbEntity
  8
0
  6
CONTINUOUS
 62
               7
100
AcDbLine
 10
-399.25
 20
276.25
 30
0.0
 11
399.79998779296875
 21
276.25
 31
0.0
  0
LINE
  5
304
100
AcDbEntity
  8
0
  6
CONTINUOUS
 62
               7
100
AcDbLine
 10
-399.25
 20
276.25
 30
0.0
 11
-399.25
 21
-276.75
 31
0.0
  0
LINE
  5
305
100
AcDbEntity
  8
0
  6
CONTINUOUS
 62
               7
100
AcDbLine
 10
399.79998779296875
 20
276.25
 30
0.0
 11
399.79998779296875
 21
-276.75
 31
0.0
  0
ENDSEC
  0
SECTION
  2
OBJECTS
  0
DICTIONARY
  5
19
100
AcDbDictionary
  3
ACAD_GROUP
350
1A
  3
ACAD_MLINESTYLE
350
1B
  0
DICTIONARY
  5
1A
102
{ACAD_REACTORS
330
19
102
}
100
AcDbDictionary
  0
DICTIONARY
  5
1B
102
{ACAD_REACTORS
330
19
102
}
100
AcDbDictionary
  3
STANDARD
350
1C
  0
MLINESTYLE
  5
1C
102
{ACAD_REACTORS
330
1B
102
}
100
AcDbMlineStyle
  2
Standard
 70
               0
  3

 62
               0
 51
90.0
 52
90.0
 71
               2
 49
0.5
 62
             256
  6
ByLayer
 49
-0.5
 62
             256
  6
ByLayer
  0
ENDSEC
  0
EOF
