  0
SECTION
  2
HEADER
  9
$ACADVER
  1
AC1002
  9
$INSBASE
 10
0.0
 20
0.0
  9
$EXTMIN
 10
-524.4944
 20
-360.0001
  9
$EXTMAX
 10
524.4944
 20
360.0001
  9
$LIMMIN
 10
0.0
 20
0.0
  9
$LIMMAX
 10
12.0
 20
9.0
  9
$VIEWCTR
 10
40.45979145
 20
0.0
  9
$VIEWSIZE
 40
720.0002
  9
$SNAPMODE
 70
     0
  9
$SNAPUNIT
 10
1.0
 20
1.0
  9
$SNAPBASE
 10
0.0
 20
0.0
  9
$SNAPANG
 50
0.0
  9
$SNAPSTYLE
 70
     0
  9
$SNAPISOPAIR
 70
     0
  9
$GRIDMODE
 70
     0
  9
$GRIDUNIT
 10
0.0
 20
0.0
  9
$ORTHOMODE
 70
     0
  9
$REGENMODE
 70
     1
  9
$FILLMODE
 70
     1
  9
$QTEXTMODE
 70
     0
  9
$DRAGMODE
 70
     2
  9
$LTSCALE
 40
1.0
  9
$OSMODE
 70
     0
  9
$ATTMODE
 70
     1
  9
$TEXTSIZE
 40
0.2
  9
$TRACEWID
 40
0.05
  9
$TEXTSTYLE
  7
AAA
  9
$CLAYER
  8
0
  9
$CELTYPE
  6
BYLAYER
  9
$CECOLOR
 62
   256
  9
$DIMSCALE
 40
1.0
  9
$DIMASZ
 40
0.18
  9
$DIMEXO
 40
0.0625
  9
$DIMDLI
 40
0.38
  9
$DIMRND
 40
0.0
  9
$DIMDLE
 40
0.0
  9
$DIMEXE
 40
0.18
  9
$DIMTP
 40
0.0
  9
$DIMTM
 40
0.0
  9
$DIMTXT
 40
0.18
  9
$DIMCEN
 40
0.09
  9
$DIMTSZ
 40
0.0
  9
$DIMTOL
 70
     0
  9
$DIMLIM
 70
     0
  9
$DIMTIH
 70
     1
  9
$DIMTOH
 70
     1
  9
$DIMSE1
 70
     0
  9
$DIMSE2
 70
     0
  9
$DIMTAD
 70
     0
  9
$DIMZIN
 70
     0
  9
$DIMBLK
  1

  9
$LUNITS
 70
     2
  9
$LUPREC
 70
     4
  9
$AXISMODE
 70
     0
  9
$AXISUNIT
 10
0.0
 20
0.0
  9
$SKETCHINC
 40
0.1
  9
$FILLETRAD
 40
0.0
  9
$AUNITS
 70
     0
  9
$AUPREC
 70
     0
  9
$MENU
  1
ACAD
  9
$ELEVATION
 40
0.0
  9
$THICKNESS
 40
0.0
  9
$VIEWDIR
 10
0.0
 20
0.0
 30
1.0
  9
$LIMCHECK
 70
     0
  9
$BLIPMODE
 70
     1
  9
$CHAMFERA
 40
0.0
  9
$CHAMFERB
 40
0.0
  9
$FASTZOOM
 70
     1
  9
$SKPOLY
 70
     0
  9
$TDCREATE
 40
2447819.4483333828
  9
$TDUPDATE
 40
2447819.4483333828
  9
$TDINDWG
 40
0.0018171296
  9
$TDUSRTIMER
 40
0.0018171296
  9
$USRTIMER
 70
     1
  9
$ANGBASE
 50
0.0
  9
$ANGDIR
 70
     0
  9
$PDMODE
 70
     0
  9
$PDSIZE
 40
0.0
  9
$PLINEWID
 40
0.0
  9
$COORDS
 70
     0
  9
$USERI1
 70
     0
  9
$USERI2
 70
     0
  9
$USERI3
 70
     0
  9
$USERI4
 70
     0
  9
$USERI5
 70
     0
  9
$USERR1
 40
0.0
  9
$USERR2
 40
0.0
  9
$USERR3
 40
0.0
  9
$USERR4
 40
0.0
  9
$USERR5
 40
0.0
  0
ENDSEC
  0
SECTION
  2
TABLES
  0
TABLE
  2
LTYPE
 70
     3
  0
LTYPE
  2
CONTINUOUS
 70
    64
  3
SOLID
 72
    65
 73
     0
 40
0.0
  0
LTYPE
  2
DASHED
 70
    64
  3
DASHED
 72
    65
 73
     2
 40
0.75
 49
0.5
 49
-0.25
  0
LTYPE
  2
CENTER
 70
    64
  3
CENTER
 72
    65
 73
     4
 40
2.0
 49
1.25
 49
-0.25
 49
0.25
 49
-0.25
  0
ENDTAB
  0
TABLE
  2
LAYER
 70
     1
  0
LAYER
  2
0
 70
    64
 62
     7
  6
CONTINUOUS
  0
ENDTAB
  0
TABLE
  2
STYLE
 70
     2
  0
STYLE
  2
AAA
 70
     0
 40
0.0
 41
1.0
 50
0.0
 71
     0
 42
0.2
  3
TXT
  4

  0
STYLE
  2
STANDARD
 70
    64
 40
0.0
 41
1.0
 50
0.0
 71
     0
 42
0.2
  3
TXT
  4
BIGFONT
  0
ENDTAB
  0
TABLE
  2
VIEW
 70
     0
  0
ENDTAB
  0
ENDSEC
  0
SECTION
  2
BLOCKS
  0
ENDSEC
  0
SECTION
  2
ENTITIES
  0
POINT
  8
0
  6
CONTINUOUS
 62
     7
 10
-89.95
 20
-3.0
  0
POINT
  8
0
  6
CONTINUOUS
 62
     7
 10
-89.95
 20
-3.0
  0
POINT
  8
0
  6
CONTINUOUS
 62
     7
 10
-89.95
 20
-3.0
  0
POINT
  8
0
  6
CONTINUOUS
 62
     7
 10
-89.95
 20
-3.0
  0
POINT
  8
0
  6
CONTINUOUS
 62
     7
 10
-89.95
 20
-3.0
  0
POINT
  8
0
  6
CONTINUOUS
 62
     7
 10
-89.95
 20
-3.0
  0
POINT
  8
0
  6
CONTINUOUS
 62
     7
 10
-89.95
 20
-3.0
  0
POINT
  8
0
  6
CONTINUOUS
 62
     7
 10
-89.95
 20
-3.0
  0
POINT
  8
0
  6
CONTINUOUS
 62
     7
 10
-419.5955
 20
211.5504
  0
POINT
  8
0
  6
CONTINUOUS
 62
     7
 10
-419.5955
 20
211.5504
  0
POINT
  8
0
  6
CONTINUOUS
 62
     7
 10
-258.472
 20
211.5505
  0
POINT
  8
0
  6
CONTINUOUS
 62
     7
 10
-104.8989
 20
211.5504
  0
POINT
  8
0
  6
CONTINUOUS
 62
     7
 10
-419.5955
 20
57.55036
  0
POINT
  8
0
  6
CONTINUOUS
 62
     7
 10
-419.5955
 20
57.55036
  0
POINT
  8
0
  6
CONTINUOUS
 62
     7
 10
-258.472
 20
57.55039
  0
POINT
  8
0
  6
CONTINUOUS
 62
     7
 10
-104.8989
 20
57.55035
  0
POINT
  8
0
  6
CONTINUOUS
 62
     7
 10
104.899
 20
211.5504
  0
POINT
  8
0
  6
CONTINUOUS
 62
     7
 10
266.0225
 20
211.5504
  0
POINT
  8
0
  6
CONTINUOUS
 62
     7
 10
419.5956
 20
211.5504
  0
POINT
  8
0
  6
CONTINUOUS
 62
     7
 10
104.899
 20
57.55033
  0
POINT
  8
0
  6
CONTINUOUS
 62
     7
 10
266.0225
 20
57.55037
  0
POINT
  8
0
  6
CONTINUOUS
 62
     7
 10
419.5956
 20
57.55033
  0
POINT
  8
0
  6
CONTINUOUS
 62
     7
 10
-419.5955
 20
-108.0002
  0
POINT
  8
0
  6
CONTINUOUS
 62
     7
 10
-258.472
 20
-108.0002
  0
POINT
  8
0
  6
CONTINUOUS
 62
     7
 10
-104.8988
 20
-108.0002
  0
POINT
  8
0
  6
CONTINUOUS
 62
     7
 10
-419.5955
 20
-262.0002
  0
POINT
  8
0
  6
CONTINUOUS
 62
     7
 10
-258.472
 20
-262.0002
  0
POINT
  8
0
  6
CONTINUOUS
 62
     7
 10
-104.8989
 20
-262.0002
  0
POINT
  8
0
  6
CONTINUOUS
 62
     7
 10
104.899
 20
-108.0002
  0
POINT
  8
0
  6
CONTINUOUS
 62
     7
 10
256.0226
 20
-108.0002
  0
POINT
  8
0
  6
CONTINUOUS
 62
     7
 10
419.5957
 20
-108.0002
  0
POINT
  8
0
  6
CONTINUOUS
 62
     7
 10
104.899
 20
-262.0002
  0
POINT
  8
0
  6
CONTINUOUS
 62
     7
 10
256.0225
 20
-262.0002
  0
POINT
  8
0
  6
CONTINUOUS
 62
     7
 10
419.5957
 20
-262.0002
  0
LINE
  8
0
  6
CONTINUOUS
 62
     7
 10
308.7641
 20
-319.5507
 11
524.4944
 21
-319.5507
  0
LINE
  8
0
  6
CONTINUOUS
 62
     7
 10
-238.7641
 20
319.5506
 11
-238.7641
 21
360.0001
  0
LINE
  8
0
  6
CONTINUOUS
 62
     7
 10
-524.4944
 20
319.5506
 11
-238.7641
 21
319.5506
  0
LINE
  8
0
  6
CONTINUOUS
 62
     7
 10
-524.4944
 20
360.0001
 11
524.4944
 21
360.0001
  0
LINE
  8
0
  6
CONTINUOUS
 62
     7
 10
-524.4944
 20
-360.0001
 11
524.4944
 21
-360.0001
  0
LINE
  8
0
  6
CONTINUOUS
 62
     7
 10
524.4944
 20
360.0001
 11
524.4944
 21
-360.0001
  0
LINE
  8
0
  6
CONTINUOUS
 62
     7
 10
-524.4944
 20
-360.0001
 11
-524.4944
 21
360.0001
  0
LINE
  8
0
  6
CONTINUOUS
 62
     7
 10
308.7641
 20
-319.5507
 11
308.7641
 21
-360.0001
  0
LINE
  8
0
  6
CONTINUOUS
 62
     7
 10
308.7641
 20
360.0001
 11
308.7641
 21
319.5506
  0
LINE
  8
0
  6
CONTINUOUS
 62
     7
 10
308.7641
 20
319.5506
 11
524.4944
 21
319.5506
  0
LINE
  8
0
  6
CONTINUOUS
 62
     7
 10
365.4068
 20
-329.2766
 11
365.4068
 21
-333.9688
  0
LINE
  8
0
  6
CONTINUOUS
 62
     7
 10
365.4068
 20
-333.9688
 11
383.0023
 21
-333.9688
  0
LINE
  8
0
  6
CONTINUOUS
 62
     7
 10
365.4068
 20
-352.3463
 11
389.2585
 21
-352.3463
  0
LINE
  8
0
  6
CONTINUOUS
 62
     7
 10
365.4068
 20
-347.6542
 11
383.0023
 21
-347.6542
  0
LINE
  8
0
  6
CONTINUOUS
 62
     7
 10
365.4068
 20
-329.2766
 11
386.1304
 21
-329.2766
  0
LINE
  8
0
  6
CONTINUOUS
 62
     7
 10
383.0023
 20
-333.9688
 11
383.0023
 21
-347.6542
  0
LINE
  8
0
  6
CONTINUOUS
 62
     7
 10
389.2585
 20
-332.4048
 11
389.2585
 21
-352.3463
  0
LINE
  8
0
  6
CONTINUOUS
 62
     7
 10
365.4068
 20
-347.6542
 11
365.4068
 21
-352.3463
  0
LINE
  8
0
  6
CONTINUOUS
 62
     7
 10
415.0652
 20
-333.9688
 11
415.0652
 21
-349.2184
  0
LINE
  8
0
  6
CONTINUOUS
 62
     7
 10
392.7776
 20
-329.2766
 11
392.7776
 21
-333.9688
  0
LINE
  8
0
  6
CONTINUOUS
 62
     7
 10
415.6909
 20
-328.9248
 11
417.9197
 21
-328.9248
  0
LINE
  8
0
  6
CONTINUOUS
 62
     7
 10
415.6909
 20
-325.7967
 11
417.9197
 21
-325.7967
  0
LINE
  8
0
  6
CONTINUOUS
 62
     7
 10
417.9197
 20
-325.7967
 11
417.9197
 21
-328.9248
  0
LINE
  8
0
  6
CONTINUOUS
 62
     7
 10
415.6909
 20
-325.7967
 11
415.6909
 21
-328.9248
  0
LINE
  8
0
  6
CONTINUOUS
 62
     7
 10
414.5177
 20
-325.7967
 11
414.5177
 21
-328.9248
  0
LINE
  8
0
  6
CONTINUOUS
 62
     7
 10
399.8916
 20
-325.7967
 11
404.7492
 21
-325.7967
  0
LINE
  8
0
  6
CONTINUOUS
 62
     7
 10
403.8163
 20
-329.2762
 11
404.7487
 21
-325.7962
  0
LINE
  8
0
  6
CONTINUOUS
 62
     7
 10
398.9591
 20
-329.2766
 11
399.8916
 21
-325.7966
  0
LINE
  8
0
  6
CONTINUOUS
 62
     7
 10
403.8168
 20
-329.2766
 11
410.373
 21
-329.2766
  0
LINE
  8
0
  6
CONTINUOUS
 62
     7
 10
402.5595
 20
-333.9688
 11
408.8091
 21
-333.9688
  0
LINE
  8
0
  6
CONTINUOUS
 62
     7
 10
405.3742
 20
-352.3463
 11
411.9372
 21
-352.3463
  0
LINE
  8
0
  6
CONTINUOUS
 62
     7
 10
404.1168
 20
-347.6541
 11
405.3741
 21
-352.3462
  0
LINE
  8
0
  6
CONTINUOUS
 62
     7
 10
404.1169
 20
-347.6542
 11
408.8091
 21
-347.6542
  0
LINE
  8
0
  6
CONTINUOUS
 62
     7
 10
397.6355
 20
-352.3466
 11
402.5597
 21
-333.969
  0
LINE
  8
0
  6
CONTINUOUS
 62
     7
 10
392.7776
 20
-333.9688
 11
397.7019
 21
-333.9688
  0
LINE
  8
0
  6
CONTINUOUS
 62
     7
 10
392.7773
 20
-352.3461
 11
397.7018
 21
-333.9685
  0
LINE
  8
0
  6
CONTINUOUS
 62
     7
 10
392.7776
 20
-352.3463
 11
397.6353
 21
-352.3463
  0
LINE
  8
0
  6
CONTINUOUS
 62
     7
 10
392.7776
 20
-329.2766
 11
398.9591
 21
-329.2766
  0
LINE
  8
0
  6
CONTINUOUS
 62
     7
 10
408.8091
 20
-333.9688
 11
408.8091
 21
-347.6542
  0
LINE
  8
0
  6
CONTINUOUS
 62
     7
 10
412.2889
 20
-325.7967
 11
414.5177
 21
-325.7967
  0
LINE
  8
0
  6
CONTINUOUS
 62
     7
 10
412.2889
 20
-328.9248
 11
414.5177
 21
-328.9248
  0
LINE
  8
0
  6
CONTINUOUS
 62
     7
 10
412.2889
 20
-325.7967
 11
412.2889
 21
-328.9248
  0
LINE
  8
0
  6
CONTINUOUS
 62
     7
 10
426.4046
 20
-325.7967
 11
432.6607
 21
-325.7967
  0
LINE
  8
0
  6
CONTINUOUS
 62
     7
 10
436.0619
 20
-339.6871
 11
440.2394
 21
-337.7391
  0
LINE
  8
0
  6
CONTINUOUS
 62
     7
 10
432.6607
 20
-343.2783
 11
432.6607
 21
-352.3463
  0
LINE
  8
0
  6
CONTINUOUS
 62
     7
 10
426.4046
 20
-344.19
 11
426.4046
 21
-352.3463
  0
LINE
  8
0
  6
CONTINUOUS
 62
     7
 10
432.6607
 20
-329.2766
 11
438.9169
 21
-329.2766
  0
LINE
  8
0
  6
CONTINUOUS
 62
     7
 10
432.6607
 20
-325.7967
 11
432.6607
 21
-329.2766
  0
LINE
  8
0
  6
CONTINUOUS
 62
     7
 10
426.4046
 20
-325.7967
 11
426.4046
 21
-329.2766
  0
LINE
  8
0
  6
CONTINUOUS
 62
     7
 10
442.045
 20
-332.4048
 11
442.045
 21
-334.9039
  0
LINE
  8
0
  6
CONTINUOUS
 62
     7
 10
436.062
 20
-339.687
 11
442.0455
 21
-342.4773
  0
LINE
  8
0
  6
CONTINUOUS
 62
     7
 10
432.6606
 20
-343.2782
 11
442.0451
 21
-347.6542
  0
LINE
  8
0
  6
CONTINUOUS
 62
     7
 10
418.9753
 20
-342.477
 11
418.9753
 21
-347.6542
  0
LINE
  8
0
  6
CONTINUOUS
 62
     7
 10
418.976
 20
-342.4775
 11
437.2219
 21
-333.9693
  0
LINE
  8
0
  6
CONTINUOUS
 62
     7
 10
418.9754
 20
-347.6543
 11
426.4048
 21
-344.1899
  0
LINE
  8
0
  6
CONTINUOUS
 62
     7
 10
442.045
 20
-342.477
 11
442.045
 21
-347.6542
  0
LINE
  8
0
  6
CONTINUOUS
 62
     7
 10
418.9753
 20
-329.2766
 11
418.9753
 21
-333.9688
  0
LINE
  8
0
  6
CONTINUOUS
 62
     7
 10
426.4046
 20
-352.3463
 11
432.6607
 21
-352.3463
  0
LINE
  8
0
  6
CONTINUOUS
 62
     7
 10
418.9753
 20
-333.9688
 11
437.2212
 21
-333.9688
  0
LINE
  8
0
  6
CONTINUOUS
 62
     7
 10
418.9753
 20
-329.2766
 11
426.4046
 21
-329.2766
  0
LINE
  8
0
  6
CONTINUOUS
 62
     7
 10
463.1606
 20
-334.3268
 11
464.8945
 21
-333.6371
  0
LINE
  8
0
  6
CONTINUOUS
 62
     7
 10
463.1597
 20
-334.3263
 11
463.1597
 21
-352.3463
  0
LINE
  8
0
  6
CONTINUOUS
 62
     7
 10
456.9034
 20
-352.3463
 11
463.1597
 21
-352.3463
  0
LINE
  8
0
  6
CONTINUOUS
 62
     7
 10
443.9998
 20
-341.9462
 11
456.9032
 21
-336.8144
  0
LINE
  8
0
  6
CONTINUOUS
 62
     7
 10
444.0001
 20
-336.8967
 11
462.1736
 21
-329.6688
  0
LINE
  8
0
  6
CONTINUOUS
 62
     7
 10
456.9034
 20
-336.8145
 11
456.9034
 21
-352.3463
  0
LINE
  8
0
  6
CONTINUOUS
 62
     7
 10
463.1597
 20
-327.2044
 11
463.1597
 21
-328.2155
  0
LINE
  8
0
  6
CONTINUOUS
 62
     7
 10
467.8517
 20
-327.2044
 11
467.8517
 21
-329.2767
  0
LINE
  8
0
  6
CONTINUOUS
 62
     7
 10
444.0001
 20
-336.8967
 11
444.0001
 21
-341.9463
  0
LINE
  8
0
  6
CONTINUOUS
 62
     7
 10
463.1597
 20
-327.2044
 11
467.8517
 21
-327.2044
  0
LINE
  8
0
  6
CONTINUOUS
 62
     7
 10
0.00006
 20
360.0001
 11
0.00006
 21
-360.0001
  0
LINE
  8
0
  6
CONTINUOUS
 62
     7
 10
-524.4944
 20
0.0
 11
524.4944
 21
0.0
  0
LINE
  8
0
  6
CONTINUOUS
 62
     7
 10
-429.0955
 20
217.0352
 11
-429.0955
 21
206.0656
  0
LINE
  8
0
  6
CONTINUOUS
 62
     7
 10
-410.0955
 20
217.0352
 11
-410.0955
 21
206.0656
  0
LINE
  8
0
  6
CONTINUOUS
 62
     7
 10
-429.0956
 20
217.0353
 11
-419.5955
 21
222.5201
  0
LINE
  8
0
  6
CONTINUOUS
 62
     7
 10
-419.5955
 20
200.5808
 11
-410.0955
 21
206.0656
  0
LINE
  8
0
  6
CONTINUOUS
 62
     7
 10
-429.0955
 20
206.0656
 11
-419.5954
 21
200.5807
  0
LINE
  8
0
  6
CONTINUOUS
 62
     7
 10
-419.5955
 20
222.5201
 11
-410.0954
 21
217.0353
  0
LINE
  8
0
  6
CONTINUOUS
 62
     7
 10
-404.5955
 20
217.1183
 11
-404.5955
 21
205.9825
  0
LINE
  8
0
  6
CENTER
 62
     2
 10
-437.7534
 20
211.5504
 11
-401.4376
 21
211.5504
  0
LINE
  8
0
  6
CENTER
 62
     2
 10
-419.5955
 20
192.5504
 11
-419.5955
 21
230.5504
  0
LINE
  8
0
  6
CONTINUOUS
 62
     7
 10
-416.9174
 20
227.3247
 11
-407.2735
 21
221.7568
  0
LINE
  8
0
  6
CONTINUOUS
 62
     7
 10
-431.9174
 20
221.7568
 11
-422.2735
 21
227.3247
  0
LINE
  8
0
  6
CONTINUOUS
 62
     7
 10
-434.5954
 20
205.9825
 11
-434.5954
 21
217.1183
  0
LINE
  8
0
  6
CONTINUOUS
 62
     7
 10
-422.2735
 20
195.7761
 11
-431.9174
 21
201.3441
  0
LINE
  8
0
  6
CONTINUOUS
 62
     7
 10
-407.2736
 20
201.344
 11
-416.9174
 21
195.7761
  0
LINE
  8
0
  6
CONTINUOUS
 62
     7
 10
-218.972
 20
224.6536
 11
-218.972
 21
198.4473
  0
LINE
  8
0
  6
CONTINUOUS
 62
     7
 10
-227.972
 20
224.6536
 11
-227.972
 21
198.4473
  0
LINE
  8
0
  6
CONTINUOUS
 62
     7
 10
-263.472
 20
221.294
 11
-263.472
 21
201.8069
  0
LINE
  8
0
  6
CONTINUOUS
 62
     7
 10
-270.5765
 20
217.0353
 11
-264.3675
 21
217.0353
  0
LINE
  8
0
  6
CONTINUOUS
 62
     7
 10
-281.66
 20
218.5505
 11
-271.472
 21
218.5505
  0
LINE
  8
0
  6
CONTINUOUS
 62
     7
 10
-282.472
 20
217.7385
 11
-271.472
 21
217.7385
  0
LINE
  8
0
  6
CONTINUOUS
 62
     7
 10
-258.472
 20
225.5505
 11
-258.472
 21
197.5505
  0
LINE
  8
0
  6
CONTINUOUS
 62
     7
 10
-257.472
 20
226.5505
 11
-228.972
 21
226.5505
  0
LINE
  8
0
  6
CONTINUOUS
 62
     7
 10
-257.472
 20
196.5505
 11
-228.972
 21
196.5505
  0
LINE
  8
0
  6
CONTINUOUS
 62
     7
 10
-228.972
 20
196.5505
 11
-228.972
 21
226.5505
  0
LINE
  8
0
  6
CENTER
 62
     2
 10
-285.472
 20
211.5505
 11
-215.972
 21
211.5505
  0
LINE
  8
0
  6
CONTINUOUS
 62
     7
 10
-227.4896
 20
227.5505
 11
-219.4544
 21
227.5505
  0
LINE
  8
0
  6
CONTINUOUS
 62
     7
 10
-227.4896
 20
221.7568
 11
-227.4896
 21
217.1183
  0
LINE
  8
0
  6
CONTINUOUS
 62
     7
 10
-227.4896
 20
205.9826
 11
-227.4896
 21
201.3441
  0
LINE
  8
0
  6
CONTINUOUS
 62
     7
 10
-219.4544
 20
201.3441
 11
-219.4544
 21
205.9826
  0
LINE
  8
0
  6
CONTINUOUS
 62
     7
 10
-219.4544
 20
217.1183
 11
-219.4544
 21
221.7568
  0
LINE
  8
0
  6
CONTINUOUS
 62
     7
 10
-282.472
 20
217.7385
 11
-282.472
 21
205.3625
  0
LINE
  8
0
  6
DASHED
 62
     7
 10
-234.972
 20
218.5505
 11
-218.972
 21
218.5505
  0
LINE
  8
0
  6
DASHED
 62
     7
 10
-234.972
 20
217.7385
 11
-218.972
 21
217.7385
  0
LINE
  8
0
  6
CONTINUOUS
 62
     7
 10
-261.801
 20
219.9057
 11
-261.801
 21
203.1952
  0
LINE
  8
0
  6
CONTINUOUS
 62
     7
 10
-263.472
 20
219.9057
 11
-261.801
 21
219.9057
  0
LINE
  8
0
  6
CONTINUOUS
 62
     7
 10
-263.472
 20
203.1952
 11
-261.801
 21
203.1952
  0
LINE
  8
0
  6
CONTINUOUS
 62
     7
 10
-261.0879
 20
218.9479
 11
-258.472
 21
221.5638
  0
LINE
  8
0
  6
CONTINUOUS
 62
     7
 10
-261.0877
 20
204.1531
 11
-258.472
 21
201.5373
  0
LINE
  8
0
  6
CONTINUOUS
 62
     7
 10
-257.472
 20
226.5504
 11
-258.472
 21
225.5504
  0
LINE
  8
0
  6
CONTINUOUS
 62
     7
 10
-228.972
 20
226.5505
 11
-227.972
 21
225.5504
  0
LINE
  8
0
  6
CONTINUOUS
 62
     7
 10
-258.472
 20
197.5504
 11
-257.472
 21
196.5504
  0
LINE
  8
0
  6
CONTINUOUS
 62
     7
 10
-228.972
 20
196.5505
 11
-227.972
 21
197.5505
  0
LINE
  8
0
  6
CONTINUOUS
 62
     7
 10
-257.472
 20
196.5505
 11
-257.472
 21
226.5505
  0
LINE
  8
0
  6
CONTINUOUS
 62
     7
 10
-281.66
 20
204.5505
 11
-271.472
 21
204.5505
  0
LINE
  8
0
  6
CONTINUOUS
 62
     7
 10
-270.5765
 20
222.5201
 11
-264.3675
 21
222.5201
  0
LINE
  8
0
  6
CONTINUOUS
 62
     7
 10
-270.5765
 20
206.0656
 11
-264.3675
 21
206.0656
  0
LINE
  8
0
  6
CONTINUOUS
 62
     7
 10
-270.5765
 20
200.5808
 11
-264.3675
 21
200.5808
  0
LINE
  8
0
  6
CONTINUOUS
 62
     7
 10
-271.472
 20
221.294
 11
-271.472
 21
201.8069
  0
LINE
  8
0
  6
CONTINUOUS
 62
     7
 10
-270.5765
 20
222.5201
 11
-271.472
 21
221.294
  0
LINE
  8
0
  6
CONTINUOUS
 62
     7
 10
-264.3675
 20
222.5201
 11
-263.472
 21
221.294
  0
LINE
  8
0
  6
CONTINUOUS
 62
     7
 10
-270.5765
 20
200.5808
 11
-271.472
 21
201.8069
  0
LINE
  8
0
  6
CONTINUOUS
 62
     7
 10
-264.3675
 20
200.5808
 11
-263.472
 21
201.8069
  0
LINE
  8
0
  6
CONTINUOUS
 62
     7
 10
-227.4896
 20
217.1183
 11
-219.4544
 21
217.1183
  0
LINE
  8
0
  6
CONTINUOUS
 62
     7
 10
-227.4896
 20
221.7568
 11
-219.4544
 21
221.7568
  0
LINE
  8
0
  6
CONTINUOUS
 62
     7
 10
-227.4896
 20
205.9826
 11
-219.4544
 21
205.9826
  0
LINE
  8
0
  6
CONTINUOUS
 62
     7
 10
-227.4896
 20
201.3441
 11
-219.4544
 21
201.3441
  0
LINE
  8
0
  6
CONTINUOUS
 62
     7
 10
-227.4896
 20
195.5505
 11
-219.4544
 21
195.5505
  0
LINE
  8
0
  6
DASHED
 62
     7
 10
-234.972
 20
204.5505
 11
-218.972
 21
204.5505
  0
LINE
  8
0
  6
CONTINUOUS
 62
     7
 10
-282.472
 20
217.7385
 11
-281.66
 21
218.5505
  0
LINE
  8
0
  6
CONTINUOUS
 62
     7
 10
-282.472
 20
205.3625
 11
-271.472
 21
205.3625
  0
LINE
  8
0
  6
CONTINUOUS
 62
     7
 10
-282.472
 20
205.3625
 11
-281.66
 21
204.5505
  0
LINE
  8
0
  6
CONTINUOUS
 62
     7
 10
-281.66
 20
218.5505
 11
-281.66
 21
204.5505
  0
LINE
  8
0
  6
DASHED
 62
     7
 10
-234.972
 20
205.3625
 11
-218.972
 21
205.3625
  0
LINE
  8
0
  6
CONTINUOUS
 62
     7
 10
-89.89891
 20
217.1183
 11
-89.89893
 21
205.9825
  0
LINE
  8
0
  6
CENTER
 62
     2
 10
-123.0568
 20
211.5504
 11
-86.74097
 21
211.5504
  0
LINE
  8
0
  6
CENTER
 62
     2
 10
-104.8989
 20
192.5504
 11
-104.8989
 21
230.5504
  0
LINE
  8
0
  6
CONTINUOUS
 62
     7
 10
-102.2208
 20
227.3247
 11
-92.57691
 21
221.7568
  0
LINE
  8
0
  6
CONTINUOUS
 62
     7
 10
-117.2208
 20
221.7568
 11
-107.5769
 21
227.3247
  0
LINE
  8
0
  6
CONTINUOUS
 62
     7
 10
-119.8988
 20
205.9825
 11
-119.8988
 21
217.1183
  0
LINE
  8
0
  6
CONTINUOUS
 62
     7
 10
-107.5769
 20
195.7761
 11
-117.2208
 21
201.3441
  0
LINE
  8
0
  6
CONTINUOUS
 62
     7
 10
-92.57695
 20
201.344
 11
-102.2209
 21
195.7761
  0
LINE
  8
0
  6
CONTINUOUS
 62
     7
 10
-429.0955
 20
63.03519
 11
-429.0955
 21
52.06553
  0
LINE
  8
0
  6
CONTINUOUS
 62
     7
 10
-410.0955
 20
63.03519
 11
-410.0955
 21
52.06553
  0
LINE
  8
0
  6
CONTINUOUS
 62
     7
 10
-429.0955
 20
63.03519
 11
-419.5955
 21
68.52002
  0
LINE
  8
0
  6
CONTINUOUS
 62
     7
 10
-419.5956
 20
46.58072
 11
-410.0956
 21
52.06553
  0
LINE
  8
0
  6
CONTINUOUS
 62
     7
 10
-429.0955
 20
52.06553
 11
-419.5954
 21
46.58068
  0
LINE
  8
0
  6
CONTINUOUS
 62
     7
 10
-419.5955
 20
68.52002
 11
-410.0954
 21
63.03518
  0
LINE
  8
0
  6
CONTINUOUS
 62
     7
 10
-404.5956
 20
63.11826
 11
-404.5956
 21
51.98243
  0
LINE
  8
0
  6
CENTER
 62
     2
 10
-437.7534
 20
57.55036
 11
-401.4376
 21
57.55036
  0
LINE
  8
0
  6
CENTER
 62
     2
 10
-419.5955
 20
38.55036
 11
-419.5955
 21
76.55036
  0
LINE
  8
0
  6
CONTINUOUS
 62
     7
 10
-416.9174
 20
73.32465
 11
-407.2736
 21
67.75673
  0
LINE
  8
0
  6
CONTINUOUS
 62
     7
 10
-431.9174
 20
67.75676
 11
-422.2735
 21
73.32466
  0
LINE
  8
0
  6
CONTINUOUS
 62
     7
 10
-434.5954
 20
51.98247
 11
-434.5954
 21
63.11829
  0
LINE
  8
0
  6
CONTINUOUS
 62
     7
 10
-422.2735
 20
41.77608
 11
-431.9174
 21
47.344
  0
LINE
  8
0
  6
CONTINUOUS
 62
     7
 10
-407.2736
 20
47.34397
 11
-416.9175
 21
41.77607
  0
LINE
  8
0
  6
CONTINUOUS
 62
     7
 10
-218.972
 20
70.65357
 11
-218.972
 21
44.44721
  0
LINE
  8
0
  6
CONTINUOUS
 62
     7
 10
-227.972
 20
70.65357
 11
-227.972
 21
44.44721
  0
LINE
  8
0
  6
CONTINUOUS
 62
     7
 10
-277.472
 20
67.29398
 11
-277.472
 21
47.80681
  0
LINE
  8
0
  6
CONTINUOUS
 62
     7
 10
-284.5765
 20
63.03522
 11
-278.3676
 21
63.03522
  0
LINE
  8
0
  6
CONTINUOUS
 62
     7
 10
-290.66
 20
64.55039
 11
-285.472
 21
64.55039
  0
LINE
  8
0
  6
CONTINUOUS
 62
     7
 10
-291.472
 20
63.73839
 11
-285.472
 21
63.73839
  0
LINE
  8
0
  6
CONTINUOUS
 62
     7
 10
-258.472
 20
71.55039
 11
-258.472
 21
43.55039
  0
LINE
  8
0
  6
CONTINUOUS
 62
     7
 10
-257.472
 20
72.55039
 11
-228.972
 21
72.55039
  0
LINE
  8
0
  6
CONTINUOUS
 62
     7
 10
-257.472
 20
42.55039
 11
-228.972
 21
42.55039
  0
LINE
  8
0
  6
CONTINUOUS
 62
     7
 10
-228.972
 20
42.55039
 11
-228.972
 21
72.55039
  0
LINE
  8
0
  6
CENTER
 62
     2
 10
-294.472
 20
57.55039
 11
-215.972
 21
57.55039
  0
LINE
  8
0
  6
CONTINUOUS
 62
     7
 10
-227.4897
 20
73.55039
 11
-219.4544
 21
73.55039
  0
LINE
  8
0
  6
CONTINUOUS
 62
     7
 10
-227.4897
 20
67.75676
 11
-227.4897
 21
63.11829
  0
LINE
  8
0
  6
CONTINUOUS
 62
     7
 10
-227.4897
 20
51.9825
 11
-227.4897
 21
47.34403
  0
LINE
  8
0
  6
CONTINUOUS
 62
     7
 10
-219.4544
 20
47.34403
 11
-219.4544
 21
51.9825
  0
LINE
  8
0
  6
CONTINUOUS
 62
     7
 10
-219.4544
 20
63.11829
 11
-219.4544
 21
67.75676
  0
LINE
  8
0
  6
CONTINUOUS
 62
     7
 10
-291.472
 20
63.73839
 11
-291.472
 21
51.36239
  0
LINE
  8
0
  6
DASHED
 62
     7
 10
-234.972
 20
64.55039
 11
-218.972
 21
64.55039
  0
LINE
  8
0
  6
DASHED
 62
     7
 10
-234.972
 20
63.73839
 11
-218.972
 21
63.73839
  0
LINE
  8
0
  6
CONTINUOUS
 62
     7
 10
-261.801
 20
65.90565
 11
-261.801
 21
49.19513
  0
LINE
  8
0
  6
CONTINUOUS
 62
     7
 10
-263.472
 20
65.90565
 11
-261.801
 21
65.90565
  0
LINE
  8
0
  6
CONTINUOUS
 62
     7
 10
-263.472
 20
49.19513
 11
-261.801
 21
49.19513
  0
LINE
  8
0
  6
CONTINUOUS
 62
     7
 10
-261.088
 20
64.94782
 11
-258.472
 21
67.56371
  0
LINE
  8
0
  6
CONTINUOUS
 62
     7
 10
-261.0877
 20
50.15298
 11
-258.472
 21
47.53726
  0
LINE
  8
0
  6
CONTINUOUS
 62
     7
 10
-257.472
 20
72.55039
 11
-258.472
 21
71.55038
  0
LINE
  8
0
  6
CONTINUOUS
 62
     7
 10
-228.972
 20
72.55038
 11
-227.972
 21
71.55038
  0
LINE
  8
0
  6
CONTINUOUS
 62
     7
 10
-258.472
 20
43.55039
 11
-257.472
 21
42.5504
  0
LINE
  8
0
  6
CONTINUOUS
 62
     7
 10
-228.972
 20
42.55039
 11
-227.972
 21
43.55039
  0
LINE
  8
0
  6
CONTINUOUS
 62
     7
 10
-257.472
 20
42.55039
 11
-257.472
 21
72.55039
  0
LINE
  8
0
  6
CONTINUOUS
 62
     7
 10
-290.66
 20
50.55039
 11
-285.472
 21
50.55039
  0
LINE
  8
0
  6
CONTINUOUS
 62
     7
 10
-284.5765
 20
68.52004
 11
-278.3676
 21
68.52004
  0
LINE
  8
0
  6
CONTINUOUS
 62
     7
 10
-284.5765
 20
52.06556
 11
-278.3676
 21
52.06556
  0
LINE
  8
0
  6
CONTINUOUS
 62
     7
 10
-284.5765
 20
46.58074
 11
-278.3676
 21
46.58074
  0
LINE
  8
0
  6
CONTINUOUS
 62
     7
 10
-285.472
 20
67.29398
 11
-285.472
 21
47.80681
  0
LINE
  8
0
  6
CONTINUOUS
 62
     7
 10
-284.5766
 20
68.52004
 11
-285.4721
 21
67.29398
  0
LINE
  8
0
  6
CONTINUOUS
 62
     7
 10
-278.3676
 20
68.52003
 11
-277.472
 21
67.29396
  0
LINE
  8
0
  6
CONTINUOUS
 62
     7
 10
-284.5765
 20
46.58075
 11
-285.472
 21
47.80682
  0
LINE
  8
0
  6
CONTINUOUS
 62
     7
 10
-278.3676
 20
46.58075
 11
-277.472
 21
47.80682
  0
LINE
  8
0
  6
CONTINUOUS
 62
     7
 10
-227.4897
 20
63.11829
 11
-219.4544
 21
63.11829
  0
LINE
  8
0
  6
CONTINUOUS
 62
     7
 10
-227.4897
 20
67.75676
 11
-219.4544
 21
67.75676
  0
LINE
  8
0
  6
CONTINUOUS
 62
     7
 10
-227.4897
 20
51.9825
 11
-219.4544
 21
51.9825
  0
LINE
  8
0
  6
CONTINUOUS
 62
     7
 10
-227.4897
 20
47.34403
 11
-219.4544
 21
47.34403
  0
LINE
  8
0
  6
CONTINUOUS
 62
     7
 10
-227.4897
 20
41.55039
 11
-219.4544
 21
41.55039
  0
LINE
  8
0
  6
DASHED
 62
     7
 10
-234.972
 20
50.55039
 11
-218.972
 21
50.55039
  0
LINE
  8
0
  6
CONTINUOUS
 62
     7
 10
-291.472
 20
63.73839
 11
-290.66
 21
64.55039
  0
LINE
  8
0
  6
CONTINUOUS
 62
     7
 10
-291.472
 20
51.36239
 11
-285.472
 21
51.36239
  0
LINE
  8
0
  6
CONTINUOUS
 62
     7
 10
-291.4721
 20
51.36239
 11
-290.6601
 21
50.55039
  0
LINE
  8
0
  6
CONTINUOUS
 62
     7
 10
-290.66
 20
64.55039
 11
-290.66
 21
50.55039
  0
LINE
  8
0
  6
DASHED
 62
     7
 10
-234.972
 20
51.36239
 11
-218.972
 21
51.36239
  0
LINE
  8
0
  6
CONTINUOUS
 62
     7
 10
-263.472
 20
67.29398
 11
-263.472
 21
47.80681
  0
LINE
  8
0
  6
CONTINUOUS
 62
     7
 10
-270.5765
 20
63.03522
 11
-264.3676
 21
63.03522
  0
LINE
  8
0
  6
CONTINUOUS
 62
     7
 10
-270.5765
 20
68.52004
 11
-264.3676
 21
68.52004
  0
LINE
  8
0
  6
CONTINUOUS
 62
     7
 10
-270.5765
 20
52.06556
 11
-264.3676
 21
52.06556
  0
LINE
  8
0
  6
CONTINUOUS
 62
     7
 10
-270.5765
 20
46.58074
 11
-264.3676
 21
46.58074
  0
LINE
  8
0
  6
CONTINUOUS
 62
     7
 10
-271.472
 20
67.29398
 11
-271.472
 21
47.80681
  0
LINE
  8
0
  6
CONTINUOUS
 62
     7
 10
-270.5765
 20
68.52003
 11
-271.472
 21
67.29397
  0
LINE
  8
0
  6
CONTINUOUS
 62
     7
 10
-264.3675
 20
68.52003
 11
-263.472
 21
67.29397
  0
LINE
  8
0
  6
CONTINUOUS
 62
     7
 10
-270.5765
 20
46.58074
 11
-271.472
 21
47.80681
  0
LINE
  8
0
  6
CONTINUOUS
 62
     7
 10
-264.3675
 20
46.58075
 11
-263.472
 21
47.80681
  0
LINE
  8
0
  6
CONTINUOUS
 62
     7
 10
-277.472
 20
64.55039
 11
-271.472
 21
64.55039
  0
LINE
  8
0
  6
CONTINUOUS
 62
     7
 10
-277.472
 20
63.73839
 11
-271.472
 21
63.73839
  0
LINE
  8
0
  6
CONTINUOUS
 62
     7
 10
-277.472
 20
51.36239
 11
-271.472
 21
51.36239
  0
LINE
  8
0
  6
CONTINUOUS
 62
     7
 10
-277.472
 20
50.55039
 11
-271.472
 21
50.55039
  0
LINE
  8
0
  6
CONTINUOUS
 62
     7
 10
-89.89893
 20
63.11825
 11
-89.89896
 21
51.98242
  0
LINE
  8
0
  6
CENTER
 62
     2
 10
-123.0568
 20
57.55035
 11
-86.74099
 21
57.55035
  0
LINE
  8
0
  6
CENTER
 62
     2
 10
-104.8989
 20
38.55035
 11
-104.8989
 21
76.55035
  0
LINE
  8
0
  6
CONTINUOUS
 62
     7
 10
-102.2208
 20
73.32463
 11
-92.57694
 21
67.75671
  0
LINE
  8
0
  6
CONTINUOUS
 62
     7
 10
-117.2208
 20
67.75674
 11
-107.5769
 21
73.32464
  0
LINE
  8
0
  6
CONTINUOUS
 62
     7
 10
-119.8988
 20
51.98246
 11
-119.8988
 21
63.11829
  0
LINE
  8
0
  6
CONTINUOUS
 62
     7
 10
-107.5769
 20
41.77606
 11
-117.2208
 21
47.34399
  0
LINE
  8
0
  6
CONTINUOUS
 62
     7
 10
-92.57698
 20
47.34397
 11
-102.2209
 21
41.77606
  0
LINE
  8
0
  6
CENTER
 62
     2
 10
81.39902
 20
211.5504
 11
128.399
 21
211.5504
  0
LINE
  8
0
  6
CENTER
 62
     2
 10
104.899
 20
188.0504
 11
104.899
 21
235.0504
  0
LINE
  8
0
  6
CONTINUOUS
 62
     7
 10
118.399
 20
203.7561
 11
104.899
 21
195.9619
  0
LINE
  8
0
  6
CONTINUOUS
 62
     7
 10
118.3991
 20
219.3446
 11
104.899
 21
227.1389
  0
LINE
  8
0
  6
CONTINUOUS
 62
     7
 10
118.399
 20
203.7562
 11
118.399
 21
219.3446
  0
LINE
  8
0
  6
CONTINUOUS
 62
     7
 10
91.39906
 20
219.3446
 11
104.899
 21
227.1389
  0
LINE
  8
0
  6
CONTINUOUS
 62
     7
 10
91.39897
 20
203.7562
 11
104.899
 21
195.9619
  0
LINE
  8
0
  6
CONTINUOUS
 62
     7
 10
91.39902
 20
219.3446
 11
91.39902
 21
203.7562
  0
LINE
  8
0
  6
CENTER
 62
     2
 10
232.0225
 20
211.5504
 11
315.0225
 21
211.5504
  0
LINE
  8
0
  6
CONTINUOUS
 62
     7
 10
267.0225
 20
230.5504
 11
298.0225
 21
230.5504
  0
LINE
  8
0
  6
CONTINUOUS
 62
     7
 10
250.0225
 20
227.1389
 11
259.0225
 21
227.1389
  0
LINE
  8
0
  6
CONTINUOUS
 62
     7
 10
250.0225
 20
219.3446
 11
259.0225
 21
219.3446
  0
LINE
  8
0
  6
CONTINUOUS
 62
     7
 10
250.0225
 20
203.7562
 11
259.0225
 21
203.7562
  0
LINE
  8
0
  6
CONTINUOUS
 62
     7
 10
266.0225
 20
229.5504
 11
266.0225
 21
193.5504
  0
LINE
  8
0
  6
CONTINUOUS
 62
     7
 10
312.0225
 20
225.0504
 11
312.0225
 21
198.0504
  0
LINE
  8
0
  6
CONTINUOUS
 62
     7
 10
235.0225
 20
219.7384
 11
235.0225
 21
203.3624
  0
LINE
  8
0
  6
CONTINUOUS
 62
     7
 10
298.0225
 20
230.5504
 11
298.0225
 21
192.5504
  0
LINE
  8
0
  6
CONTINUOUS
 62
     7
 10
298.0225
 20
226.0504
 11
311.0225
 21
226.0504
  0
LINE
  8
0
  6
CONTINUOUS
 62
     7
 10
311.0225
 20
226.0504
 11
312.0225
 21
225.0504
  0
LINE
  8
0
  6
CONTINUOUS
 62
     7
 10
267.0225
 20
230.5504
 11
266.0225
 21
229.5504
  0
LINE
  8
0
  6
CONTINUOUS
 62
     7
 10
267.0225
 20
192.5504
 11
298.0225
 21
192.5504
  0
LINE
  8
0
  6
CONTINUOUS
 62
     7
 10
267.0225
 20
192.5504
 11
266.0225
 21
193.5504
  0
LINE
  8
0
  6
CONTINUOUS
 62
     7
 10
298.0225
 20
197.0504
 11
311.0225
 21
197.0504
  0
LINE
  8
0
  6
CONTINUOUS
 62
     7
 10
311.0225
 20
197.0504
 11
312.0225
 21
198.0504
  0
LINE
  8
0
  6
CONTINUOUS
 62
     7
 10
311.0225
 20
226.0504
 11
311.0225
 21
216.8419
  0
LINE
  8
0
  6
CONTINUOUS
 62
     7
 10
267.0225
 20
230.5504
 11
267.0225
 21
192.5504
  0
LINE
  8
0
  6
CONTINUOUS
 62
     7
 10
235.8345
 20
220.5504
 11
249.0225
 21
220.5504
  0
LINE
  8
0
  6
CONTINUOUS
 62
     7
 10
235.0225
 20
219.7384
 11
249.0225
 21
219.7384
  0
LINE
  8
0
  6
CONTINUOUS
 62
     7
 10
249.0225
 20
223.2417
 11
249.0225
 21
199.8591
  0
LINE
  8
0
  6
CONTINUOUS
 62
     7
 10
260.0225
 20
223.2417
 11
260.0225
 21
199.8591
  0
LINE
  8
0
  6
CONTINUOUS
 62
     7
 10
250.0225
 20
195.962
 11
259.0225
 21
195.962
  0
LINE
  8
0
  6
CONTINUOUS
 62
     7
 10
235.8345
 20
202.5504
 11
249.0225
 21
202.5504
  0
LINE
  8
0
  6
CONTINUOUS
 62
     7
 10
260.0225
 20
222.0504
 11
261.5225
 21
222.0504
  0
LINE
  8
0
  6
CONTINUOUS
 62
     7
 10
261.5225
 20
222.0504
 11
261.5225
 21
201.0504
  0
LINE
  8
0
  6
CONTINUOUS
 62
     7
 10
261.5225
 20
201.0504
 11
260.0225
 21
201.0504
  0
LINE
  8
0
  6
CONTINUOUS
 62
     7
 10
265.7225
 20
227.0504
 11
265.4583
 21
224.4534
  0
LINE
  8
0
  6
CONTINUOUS
 62
     7
 10
264.1157
 20
222.2461
 11
262.2961
 21
221.0563
  0
LINE
  8
0
  6
CONTINUOUS
 62
     7
 10
264.1157
 20
200.8547
 11
262.2962
 21
202.0445
  0
LINE
  8
0
  6
CONTINUOUS
 62
     7
 10
265.7225
 20
196.0504
 11
265.4583
 21
198.6474
  0
LINE
  8
0
  6
CONTINUOUS
 62
     7
 10
298.0225
 20
216.8419
 11
311.0225
 21
216.8419
  0
LINE
  8
0
  6
CONTINUOUS
 62
     7
 10
298.0225
 20
206.2589
 11
311.0225
 21
206.2589
  0
LINE
  8
0
  6
CONTINUOUS
 62
     7
 10
311.0225
 20
206.2589
 11
311.0225
 21
197.0504
  0
LINE
  8
0
  6
CONTINUOUS
 62
     7
 10
298.0225
 20
216.8419
 11
311.0225
 21
206.2589
  0
LINE
  8
0
  6
CONTINUOUS
 62
     7
 10
298.0225
 20
206.2589
 11
311.0225
 21
216.8419
  0
LINE
  8
0
  6
DASHED
 62
     7
 10
291.0225
 20
220.5504
 11
312.0225
 21
220.5504
  0
LINE
  8
0
  6
DASHED
 62
     7
 10
291.0225
 20
219.7384
 11
312.0225
 21
219.7384
  0
LINE
  8
0
  6
DASHED
 62
     7
 10
291.0225
 20
202.5504
 11
312.0225
 21
202.5504
  0
LINE
  8
0
  6
CONTINUOUS
 62
     7
 10
235.0225
 20
219.7384
 11
235.8345
 21
220.5504
  0
LINE
  8
0
  6
CONTINUOUS
 62
     7
 10
235.0225
 20
203.3624
 11
235.8345
 21
202.5504
  0
LINE
  8
0
  6
CONTINUOUS
 62
     7
 10
235.0225
 20
203.3624
 11
249.0225
 21
203.3624
  0
LINE
  8
0
  6
CONTINUOUS
 62
     7
 10
235.8345
 20
220.5504
 11
235.8345
 21
202.5504
  0
LINE
  8
0
  6
DASHED
 62
     7
 10
291.0225
 20
203.3624
 11
312.0225
 21
203.3624
  0
LINE
  8
0
  6
CENTER
 62
     2
 10
443.0956
 20
211.5504
 11
396.0956
 21
211.5504
  0
LINE
  8
0
  6
CONTINUOUS
 62
     7
 10
406.0956
 20
206.2589
 11
406.0956
 21
216.8419
  0
LINE
  8
0
  6
CONTINUOUS
 62
     7
 10
433.0956
 20
206.2589
 11
433.0956
 21
216.8419
  0
LINE
  8
0
  6
CENTER
 62
     2
 10
419.5956
 20
188.0504
 11
419.5956
 21
235.0504
  0
LINE
  8
0
  6
CENTER
 62
     2
 10
81.39899
 20
57.55033
 11
128.399
 21
57.55033
  0
LINE
  8
0
  6
CENTER
 62
     2
 10
104.899
 20
34.05033
 11
104.899
 21
81.05034
  0
LINE
  8
0
  6
CONTINUOUS
 62
     7
 10
118.399
 20
49.75608
 11
104.899
 21
41.96187
  0
LINE
  8
0
  6
CONTINUOUS
 62
     7
 10
118.399
 20
65.34454
 11
104.899
 21
73.13877
  0
LINE
  8
0
  6
CONTINUOUS
 62
     7
 10
118.399
 20
49.75611
 11
118.399
 21
65.34456
  0
LINE
  8
0
  6
CONTINUOUS
 62
     7
 10
91.39902
 20
65.34457
 11
104.899
 21
73.13882
  0
LINE
  8
0
  6
CONTINUOUS
 62
     7
 10
91.39894
 20
49.7561
 11
104.899
 21
41.96187
  0
LINE
  8
0
  6
CONTINUOUS
 62
     7
 10
91.39899
 20
65.34456
 11
91.39899
 21
49.75611
  0
LINE
  8
0
  6
CENTER
 62
     2
 10
221.0225
 20
57.55037
 11
315.0225
 21
57.55037
  0
LINE
  8
0
  6
CONTINUOUS
 62
     7
 10
267.0225
 20
76.55037
 11
298.0225
 21
76.55037
  0
LINE
  8
0
  6
CONTINUOUS
 62
     7
 10
250.0225
 20
73.13881
 11
259.0225
 21
73.13881
  0
LINE
  8
0
  6
CONTINUOUS
 62
     7
 10
250.0225
 20
65.3446
 11
259.0225
 21
65.3446
  0
LINE
  8
0
  6
CONTINUOUS
 62
     7
 10
250.0225
 20
49.75614
 11
259.0225
 21
49.75614
  0
LINE
  8
0
  6
CONTINUOUS
 62
     7
 10
266.0225
 20
75.55037
 11
266.0225
 21
39.55037
  0
LINE
  8
0
  6
CONTINUOUS
 62
     7
 10
312.0225
 20
71.05037
 11
312.0225
 21
44.05037
  0
LINE
  8
0
  6
CONTINUOUS
 62
     7
 10
224.0225
 20
65.73837
 11
224.0225
 21
49.36237
  0
LINE
  8
0
  6
CONTINUOUS
 62
     7
 10
298.0225
 20
76.55037
 11
298.0225
 21
38.55037
  0
LINE
  8
0
  6
CONTINUOUS
 62
     7
 10
298.0225
 20
72.05037
 11
311.0225
 21
72.05037
  0
LINE
  8
0
  6
CONTINUOUS
 62
     7
 10
311.0225
 20
72.05035
 11
312.0224
 21
71.05037
  0
LINE
  8
0
  6
CONTINUOUS
 62
     7
 10
267.0225
 20
76.55036
 11
266.0225
 21
75.55036
  0
LINE
  8
0
  6
CONTINUOUS
 62
     7
 10
267.0225
 20
38.55037
 11
298.0225
 21
38.55037
  0
LINE
  8
0
  6
CONTINUOUS
 62
     7
 10
267.0225
 20
38.55036
 11
266.0225
 21
39.55037
  0
LINE
  8
0
  6
CONTINUOUS
 62
     7
 10
298.0225
 20
43.05037
 11
311.0225
 21
43.05037
  0
LINE
  8
0
  6
CONTINUOUS
 62
     7
 10
311.0225
 20
43.05037
 11
312.0225
 21
44.05037
  0
LINE
  8
0
  6
CONTINUOUS
 62
     7
 10
311.0225
 20
72.05037
 11
311.0225
 21
62.84187
  0
LINE
  8
0
  6
CONTINUOUS
 62
     7
 10
267.0225
 20
76.55037
 11
267.0225
 21
38.55037
  0
LINE
  8
0
  6
CONTINUOUS
 62
     7
 10
224.8345
 20
66.55037
 11
249.0225
 21
66.55037
  0
LINE
  8
0
  6
CONTINUOUS
 62
     7
 10
224.0225
 20
65.73837
 11
249.0225
 21
65.73837
  0
LINE
  8
0
  6
CONTINUOUS
 62
     7
 10
249.0225
 20
69.2417
 11
249.0225
 21
45.85904
  0
LINE
  8
0
  6
CONTINUOUS
 62
     7
 10
260.0225
 20
69.2417
 11
260.0225
 21
45.85904
  0
LINE
  8
0
  6
CONTINUOUS
 62
     7
 10
250.0225
 20
41.96195
 11
259.0225
 21
41.96195
  0
LINE
  8
0
  6
CONTINUOUS
 62
     7
 10
224.8345
 20
48.55037
 11
249.0225
 21
48.55037
  0
LINE
  8
0
  6
CONTINUOUS
 62
     7
 10
260.0225
 20
68.05037
 11
261.5225
 21
68.05037
  0
LINE
  8
0
  6
CONTINUOUS
 62
     7
 10
261.5225
 20
68.05037
 11
261.5225
 21
47.05037
  0
LINE
  8
0
  6
CONTINUOUS
 62
     7
 10
261.5225
 20
47.05037
 11
260.0225
 21
47.05037
  0
LINE
  8
0
  6
CONTINUOUS
 62
     7
 10
265.7224
 20
73.05036
 11
265.4583
 21
70.45332
  0
LINE
  8
0
  6
CONTINUOUS
 62
     7
 10
264.1156
 20
68.24609
 11
262.2961
 21
67.05627
  0
LINE
  8
0
  6
CONTINUOUS
 62
     7
 10
264.1156
 20
46.85464
 11
262.2961
 21
48.04446
  0
LINE
  8
0
  6
CONTINUOUS
 62
     7
 10
265.7225
 20
42.05037
 11
265.4583
 21
44.64741
  0
LINE
  8
0
  6
CONTINUOUS
 62
     7
 10
298.0225
 20
62.84187
 11
311.0225
 21
62.84187
  0
LINE
  8
0
  6
CONTINUOUS
 62
     7
 10
298.0225
 20
52.25887
 11
311.0225
 21
52.25887
  0
LINE
  8
0
  6
CONTINUOUS
 62
     7
 10
311.0225
 20
52.25887
 11
311.0225
 21
43.05037
  0
LINE
  8
0
  6
CONTINUOUS
 62
     7
 10
298.0225
 20
62.84187
 11
311.0225
 21
52.25886
  0
LINE
  8
0
  6
CONTINUOUS
 62
     7
 10
298.0225
 20
52.25886
 11
311.0225
 21
62.84187
  0
LINE
  8
0
  6
DASHED
 62
     7
 10
291.0225
 20
66.55037
 11
312.0225
 21
66.55037
  0
LINE
  8
0
  6
DASHED
 62
     7
 10
291.0225
 20
65.73837
 11
312.0225
 21
65.73837
  0
LINE
  8
0
  6
DASHED
 62
     7
 10
291.0225
 20
48.55037
 11
312.0225
 21
48.55037
  0
LINE
  8
0
  6
CONTINUOUS
 62
     7
 10
224.0225
 20
65.73837
 11
224.8344
 21
66.55036
  0
LINE
  8
0
  6
CONTINUOUS
 62
     7
 10
224.0225
 20
49.36238
 11
224.8345
 21
48.55037
  0
LINE
  8
0
  6
CONTINUOUS
 62
     7
 10
224.0225
 20
49.36237
 11
249.0225
 21
49.36237
  0
LINE
  8
0
  6
CONTINUOUS
 62
     7
 10
224.8345
 20
66.55037
 11
224.8345
 21
48.55037
  0
LINE
  8
0
  6
DASHED
 62
     7
 10
291.0225
 20
49.36237
 11
312.0225
 21
49.36237
  0
LINE
  8
0
  6
CENTER
 62
     2
 10
443.0956
 20
57.55033
 11
396.0956
 21
57.55033
  0
LINE
  8
0
  6
CONTINUOUS
 62
     7
 10
406.0956
 20
52.25883
 11
406.0956
 21
62.84184
  0
LINE
  8
0
  6
CONTINUOUS
 62
     7
 10
433.0956
 20
52.25883
 11
433.0956
 21
62.84184
  0
LINE
  8
0
  6
CENTER
 62
     2
 10
419.5956
 20
34.05033
 11
419.5956
 21
81.05033
  0
LINE
  8
0
  6
CENTER
 62
     2
 10
-447.4473
 20
-108.0002
 11
-391.7436
 21
-108.0002
  0
LINE
  8
0
  6
CENTER
 62
     2
 10
-419.5955
 20
-135.852
 11
-419.5955
 21
-80.14832
  0
LINE
  8
0
  6
CONTINUOUS
 62
     7
 10
-403.5955
 20
-117.2378
 11
-419.5954
 21
-126.4754
  0
LINE
  8
0
  6
CONTINUOUS
 62
     7
 10
-403.5953
 20
-98.76257
 11
-419.5954
 21
-89.52497
  0
LINE
  8
0
  6
CONTINUOUS
 62
     7
 10
-403.5955
 20
-117.2378
 11
-403.5955
 21
-98.76257
  0
LINE
  8
0
  6
CONTINUOUS
 62
     7
 10
-435.5954
 20
-98.76257
 11
-419.5955
 21
-89.52495
  0
LINE
  8
0
  6
CONTINUOUS
 62
     7
 10
-435.5955
 20
-98.76257
 11
-435.5955
 21
-117.2378
  0
LINE
  8
0
  6
CONTINUOUS
 62
     7
 10
-435.5955
 20
-117.2378
 11
-419.5954
 21
-126.4754
  0
LINE
  8
0
  6
CENTER
 62
     2
 10
-299.472
 20
-108.0002
 11
-200.472
 21
-108.0002
  0
LINE
  8
0
  6
CONTINUOUS
 62
     7
 10
-258.472
 20
-84.50017
 11
-258.472
 21
-131.5002
  0
LINE
  8
0
  6
CONTINUOUS
 62
     7
 10
-257.472
 20
-83.50017
 11
-257.472
 21
-132.5002
  0
LINE
  8
0
  6
CONTINUOUS
 62
     7
 10
-203.472
 20
-92.00017
 11
-203.472
 21
-124.0002
  0
LINE
  8
0
  6
CONTINUOUS
 62
     7
 10
-219.472
 20
-83.50017
 11
-219.472
 21
-132.5002
  0
LINE
  8
0
  6
CONTINUOUS
 62
     7
 10
-257.472
 20
-83.50017
 11
-219.472
 21
-83.50017
  0
LINE
  8
0
  6
CONTINUOUS
 62
     7
 10
-219.472
 20
-102.2556
 11
-204.472
 21
-102.2556
  0
LINE
  8
0
  6
CONTINUOUS
 62
     7
 10
-219.472
 20
-113.7447
 11
-204.472
 21
-113.7447
  0
LINE
  8
0
  6
CONTINUOUS
 62
     7
 10
-257.472
 20
-132.5002
 11
-219.472
 21
-132.5002
  0
LINE
  8
0
  6
CONTINUOUS
 62
     7
 10
-219.472
 20
-91.00017
 11
-204.472
 21
-91.00017
  0
LINE
  8
0
  6
CONTINUOUS
 62
     7
 10
-219.472
 20
-125.0002
 11
-204.472
 21
-125.0002
  0
LINE
  8
0
  6
CONTINUOUS
 62
     7
 10
-204.472
 20
-91.00017
 11
-203.472
 21
-92.00017
  0
LINE
  8
0
  6
CONTINUOUS
 62
     7
 10
-203.472
 20
-124.0002
 11
-204.472
 21
-125.0002
  0
LINE
  8
0
  6
CONTINUOUS
 62
     7
 10
-257.472
 20
-83.50017
 11
-258.472
 21
-84.50017
  0
LINE
  8
0
  6
CONTINUOUS
 62
     7
 10
-257.472
 20
-132.5002
 11
-258.472
 21
-131.5002
  0
LINE
  8
0
  6
CONTINUOUS
 62
     7
 10
-204.472
 20
-91.00017
 11
-204.472
 21
-102.2556
  0
LINE
  8
0
  6
CONTINUOUS
 62
     7
 10
-204.472
 20
-113.7447
 11
-204.472
 21
-125.0002
  0
LINE
  8
0
  6
CONTINUOUS
 62
     7
 10
-219.4719
 20
-102.2556
 11
-204.4719
 21
-113.7447
  0
LINE
  8
0
  6
CONTINUOUS
 62
     7
 10
-204.4719
 20
-102.2556
 11
-219.4719
 21
-113.7447
  0
LINE
  8
0
  6
CONTINUOUS
 62
     7
 10
-266.472
 20
-94.14378
 11
-266.472
 21
-121.8566
  0
LINE
  8
0
  6
CONTINUOUS
 62
     7
 10
-279.472
 20
-94.14378
 11
-279.472
 21
-121.8566
  0
LINE
  8
0
  6
CONTINUOUS
 62
     7
 10
-296.472
 20
-97.81216
 11
-296.472
 21
-118.1882
  0
LINE
  8
0
  6
CONTINUOUS
 62
     7
 10
-295.66
 20
-97.00017
 11
-279.472
 21
-97.00017
  0
LINE
  8
0
  6
CONTINUOUS
 62
     7
 10
-296.472
 20
-97.81216
 11
-279.472
 21
-97.81216
  0
LINE
  8
0
  6
CONTINUOUS
 62
     7
 10
-278.472
 20
-89.52499
 11
-267.472
 21
-89.52499
  0
LINE
  8
0
  6
CONTINUOUS
 62
     7
 10
-278.472
 20
-98.76257
 11
-267.472
 21
-98.76257
  0
LINE
  8
0
  6
CONTINUOUS
 62
     7
 10
-278.472
 20
-117.2378
 11
-267.472
 21
-117.2378
  0
LINE
  8
0
  6
CONTINUOUS
 62
     7
 10
-278.4719
 20
-126.4754
 11
-267.472
 21
-126.4754
  0
LINE
  8
0
  6
CONTINUOUS
 62
     7
 10
-295.66
 20
-119.0002
 11
-279.472
 21
-119.0002
  0
LINE
  8
0
  6
CONTINUOUS
 62
     7
 10
-266.472
 20
-95.00017
 11
-264.472
 21
-95.00017
  0
LINE
  8
0
  6
CONTINUOUS
 62
     7
 10
-264.472
 20
-95.00017
 11
-264.472
 21
-121.0002
  0
LINE
  8
0
  6
CONTINUOUS
 62
     7
 10
-264.472
 20
-121.0002
 11
-266.472
 21
-121.0002
  0
LINE
  8
0
  6
CONTINUOUS
 62
     7
 10
-262.472
 20
-119.0002
 11
-258.472
 21
-129.5002
  0
LINE
  8
0
  6
CONTINUOUS
 62
     7
 10
-262.472
 20
-97.00018
 11
-258.472
 21
-86.50018
  0
LINE
  8
0
  6
CONTINUOUS
 62
     7
 10
-296.472
 20
-97.81217
 11
-295.66
 21
-97.00018
  0
LINE
  8
0
  6
CONTINUOUS
 62
     7
 10
-296.472
 20
-118.1882
 11
-295.6599
 21
-119.0002
  0
LINE
  8
0
  6
CONTINUOUS
 62
     7
 10
-296.472
 20
-118.1882
 11
-279.472
 21
-118.1882
  0
LINE
  8
0
  6
CONTINUOUS
 62
     7
 10
-295.6599
 20
-97.00017
 11
-295.6599
 21
-119.0002
  0
LINE
  8
0
  6
DASHED
 62
     7
 10
-228.472
 20
-97.00017
 11
-203.472
 21
-97.00017
  0
LINE
  8
0
  6
DASHED
 62
     7
 10
-228.472
 20
-97.81216
 11
-203.472
 21
-97.81216
  0
LINE
  8
0
  6
DASHED
 62
     7
 10
-228.472
 20
-118.1882
 11
-203.472
 21
-118.1882
  0
LINE
  8
0
  6
DASHED
 62
     7
 10
-228.472
 20
-119.0002
 11
-203.472
 21
-119.0002
  0
LINE
  8
0
  6
CENTER
 62
     2
 10
-77.04698
 20
-108.0002
 11
-132.7507
 21
-108.0002
  0
LINE
  8
0
  6
CENTER
 62
     2
 10
-104.8988
 20
-135.852
 11
-104.8988
 21
-80.14832
  0
LINE
  8
0
  6
CONTINUOUS
 62
     7
 10
-88.89883
 20
-102.2556
 11
-88.89883
 21
-113.7447
  0
LINE
  8
0
  6
CONTINUOUS
 62
     7
 10
-120.8988
 20
-113.7447
 11
-120.8988
 21
-102.2556
  0
LINE
  8
0
  6
CENTER
 62
     2
 10
-447.4473
 20
-262.0002
 11
-391.7437
 21
-262.0002
  0
LINE
  8
0
  6
CENTER
 62
     2
 10
-419.5955
 20
-289.8521
 11
-419.5955
 21
-234.1484
  0
LINE
  8
0
  6
CONTINUOUS
 62
     7
 10
-403.5955
 20
-271.2379
 11
-419.5955
 21
-280.4754
  0
LINE
  8
0
  6
CONTINUOUS
 62
     7
 10
-403.5955
 20
-252.7627
 11
-419.5955
 21
-243.5251
  0
LINE
  8
0
  6
CONTINUOUS
 62
     7
 10
-403.5955
 20
-271.2378
 11
-403.5955
 21
-252.7626
  0
LINE
  8
0
  6
CONTINUOUS
 62
     7
 10
-435.5955
 20
-252.7626
 11
-419.5955
 21
-243.525
  0
LINE
  8
0
  6
CONTINUOUS
 62
     7
 10
-435.5955
 20
-252.7626
 11
-435.5955
 21
-271.2378
  0
LINE
  8
0
  6
CONTINUOUS
 62
     7
 10
-435.5956
 20
-271.2378
 11
-419.5955
 21
-280.4754
  0
LINE
  8
0
  6
CENTER
 62
     2
 10
-311.472
 20
-262.0002
 11
-200.472
 21
-262.0002
  0
LINE
  8
0
  6
CONTINUOUS
 62
     7
 10
-258.472
 20
-238.5002
 11
-258.472
 21
-285.5002
  0
LINE
  8
0
  6
CONTINUOUS
 62
     7
 10
-257.472
 20
-237.5002
 11
-257.472
 21
-286.5002
  0
LINE
  8
0
  6
CONTINUOUS
 62
     7
 10
-203.472
 20
-246.0002
 11
-203.472
 21
-278.0002
  0
LINE
  8
0
  6
CONTINUOUS
 62
     7
 10
-219.472
 20
-237.5002
 11
-219.472
 21
-286.5002
  0
LINE
  8
0
  6
CONTINUOUS
 62
     7
 10
-257.472
 20
-237.5002
 11
-219.472
 21
-237.5002
  0
LINE
  8
0
  6
CONTINUOUS
 62
     7
 10
-219.472
 20
-256.2556
 11
-204.472
 21
-256.2556
  0
LINE
  8
0
  6
CONTINUOUS
 62
     7
 10
-219.472
 20
-267.7448
 11
-204.472
 21
-267.7448
  0
LINE
  8
0
  6
CONTINUOUS
 62
     7
 10
-257.472
 20
-286.5002
 11
-219.472
 21
-286.5002
  0
LINE
  8
0
  6
CONTINUOUS
 62
     7
 10
-219.472
 20
-245.0002
 11
-204.472
 21
-245.0002
  0
LINE
  8
0
  6
CONTINUOUS
 62
     7
 10
-219.472
 20
-279.0002
 11
-204.472
 21
-279.0002
  0
LINE
  8
0
  6
CONTINUOUS
 62
     7
 10
-204.472
 20
-245.0002
 11
-203.472
 21
-246.0002
  0
LINE
  8
0
  6
CONTINUOUS
 62
     7
 10
-203.472
 20
-278.0002
 11
-204.472
 21
-279.0002
  0
LINE
  8
0
  6
CONTINUOUS
 62
     7
 10
-257.472
 20
-237.5002
 11
-258.472
 21
-238.5002
  0
LINE
  8
0
  6
CONTINUOUS
 62
     7
 10
-257.472
 20
-286.5002
 11
-258.472
 21
-285.5002
  0
LINE
  8
0
  6
CONTINUOUS
 62
     7
 10
-204.472
 20
-245.0002
 11
-204.472
 21
-256.2556
  0
LINE
  8
0
  6
CONTINUOUS
 62
     7
 10
-204.472
 20
-267.7448
 11
-204.472
 21
-279.0002
  0
LINE
  8
0
  6
CONTINUOUS
 62
     7
 10
-219.472
 20
-256.2557
 11
-204.472
 21
-267.7448
  0
LINE
  8
0
  6
CONTINUOUS
 62
     7
 10
-204.472
 20
-256.2557
 11
-219.472
 21
-267.7448
  0
LINE
  8
0
  6
CONTINUOUS
 62
     7
 10
-266.472
 20
-248.1438
 11
-266.472
 21
-275.8566
  0
LINE
  8
0
  6
CONTINUOUS
 62
     7
 10
-279.472
 20
-248.1438
 11
-279.472
 21
-275.8566
  0
LINE
  8
0
  6
CONTINUOUS
 62
     7
 10
-308.472
 20
-251.8122
 11
-308.472
 21
-272.1882
  0
LINE
  8
0
  6
CONTINUOUS
 62
     7
 10
-307.66
 20
-251.0002
 11
-279.472
 21
-251.0002
  0
LINE
  8
0
  6
CONTINUOUS
 62
     7
 10
-308.472
 20
-251.8122
 11
-279.472
 21
-251.8122
  0
LINE
  8
0
  6
CONTINUOUS
 62
     7
 10
-278.472
 20
-243.525
 11
-267.472
 21
-243.525
  0
LINE
  8
0
  6
CONTINUOUS
 62
     7
 10
-278.472
 20
-252.7626
 11
-267.472
 21
-252.7626
  0
LINE
  8
0
  6
CONTINUOUS
 62
     7
 10
-278.472
 20
-271.2378
 11
-267.472
 21
-271.2378
  0
LINE
  8
0
  6
CONTINUOUS
 62
     7
 10
-278.472
 20
-280.4754
 11
-267.472
 21
-280.4754
  0
LINE
  8
0
  6
CONTINUOUS
 62
     7
 10
-307.66
 20
-273.0002
 11
-279.472
 21
-273.0002
  0
LINE
  8
0
  6
CONTINUOUS
 62
     7
 10
-266.472
 20
-249.0002
 11
-264.472
 21
-249.0002
  0
LINE
  8
0
  6
CONTINUOUS
 62
     7
 10
-264.472
 20
-249.0002
 11
-264.472
 21
-275.0002
  0
LINE
  8
0
  6
CONTINUOUS
 62
     7
 10
-264.472
 20
-275.0002
 11
-266.472
 21
-275.0002
  0
LINE
  8
0
  6
CONTINUOUS
 62
     7
 10
-262.472
 20
-273.0002
 11
-258.472
 21
-283.5002
  0
LINE
  8
0
  6
CONTINUOUS
 62
     7
 10
-262.472
 20
-251.0002
 11
-258.472
 21
-240.5002
  0
LINE
  8
0
  6
CONTINUOUS
 62
     7
 10
-308.472
 20
-251.8122
 11
-307.66
 21
-251.0002
  0
LINE
  8
0
  6
CONTINUOUS
 62
     7
 10
-308.472
 20
-272.1882
 11
-307.66
 21
-273.0002
  0
LINE
  8
0
  6
CONTINUOUS
 62
     7
 10
-308.472
 20
-272.1882
 11
-279.472
 21
-272.1882
  0
LINE
  8
0
  6
CONTINUOUS
 62
     7
 10
-307.66
 20
-251.0002
 11
-307.66
 21
-273.0002
  0
LINE
  8
0
  6
DASHED
 62
     7
 10
-228.472
 20
-251.0002
 11
-203.472
 21
-251.0002
  0
LINE
  8
0
  6
DASHED
 62
     7
 10
-228.472
 20
-251.8122
 11
-203.472
 21
-251.8122
  0
LINE
  8
0
  6
DASHED
 62
     7
 10
-228.472
 20
-272.1882
 11
-203.472
 21
-272.1882
  0
LINE
  8
0
  6
DASHED
 62
     7
 10
-228.472
 20
-273.0002
 11
-203.472
 21
-273.0002
  0
LINE
  8
0
  6
CENTER
 62
     2
 10
-77.047
 20
-262.0002
 11
-132.7507
 21
-262.0002
  0
LINE
  8
0
  6
CENTER
 62
     2
 10
-104.8989
 20
-289.8521
 11
-104.8989
 21
-234.1484
  0
LINE
  8
0
  6
CONTINUOUS
 62
     7
 10
-88.89886
 20
-256.2556
 11
-88.89886
 21
-267.7448
  0
LINE
  8
0
  6
CONTINUOUS
 62
     7
 10
-120.8989
 20
-267.7448
 11
-120.8989
 21
-256.2556
  0
LINE
  8
0
  6
CENTER
 62
     2
 10
73.56566
 20
-108.0002
 11
136.2323
 21
-108.0002
  0
LINE
  8
0
  6
CENTER
 62
     2
 10
104.899
 20
-139.3335
 11
104.899
 21
-76.66683
  0
LINE
  8
0
  6
CONTINUOUS
 62
     7
 10
122.899
 20
-118.3925
 11
104.899
 21
-128.7848
  0
LINE
  8
0
  6
CONTINUOUS
 62
     7
 10
122.899
 20
-97.60789
 11
104.899
 21
-87.21558
  0
LINE
  8
0
  6
CONTINUOUS
 62
     7
 10
122.899
 20
-118.3925
 11
122.899
 21
-97.60786
  0
LINE
  8
0
  6
CONTINUOUS
 62
     7
 10
86.89904
 20
-97.60784
 11
104.899
 21
-87.21552
  0
LINE
  8
0
  6
CONTINUOUS
 62
     7
 10
86.89899
 20
-97.60786
 11
86.89899
 21
-118.3925
  0
LINE
  8
0
  6
CONTINUOUS
 62
     7
 10
86.89895
 20
-118.3925
 11
104.899
 21
-128.7848
  0
LINE
  8
0
  6
CENTER
 62
     2
 10
209.0226
 20
-108.0002
 11
324.0226
 21
-108.0002
  0
LINE
  8
0
  6
CONTINUOUS
 62
     7
 10
212.0226
 20
-95.81216
 11
212.0226
 21
-120.1882
  0
LINE
  8
0
  6
CONTINUOUS
 62
     7
 10
232.0226
 20
-92.41174
 11
232.0226
 21
-123.5886
  0
LINE
  8
0
  6
CONTINUOUS
 62
     7
 10
246.0226
 20
-92.41174
 11
246.0226
 21
-123.5886
  0
LINE
  8
0
  6
CONTINUOUS
 62
     7
 10
256.0226
 20
-80.50017
 11
256.0226
 21
-135.5002
  0
LINE
  8
0
  6
CONTINUOUS
 62
     7
 10
321.0226
 20
-87.00017
 11
321.0226
 21
-129.0002
  0
LINE
  8
0
  6
CONTINUOUS
 62
     7
 10
300.0226
 20
-79.50017
 11
300.0226
 21
-136.5002
  0
LINE
  8
0
  6
CONTINUOUS
 62
     7
 10
257.0226
 20
-79.50017
 11
300.0226
 21
-79.50017
  0
LINE
  8
0
  6
CONTINUOUS
 62
     7
 10
300.0226
 20
-86.00017
 11
320.0226
 21
-86.00017
  0
LINE
  8
0
  6
CONTINUOUS
 62
     7
 10
233.5226
 20
-87.21558
 11
244.5226
 21
-87.21558
  0
LINE
  8
0
  6
CONTINUOUS
 62
     7
 10
233.5226
 20
-97.60789
 11
244.5226
 21
-97.60789
  0
LINE
  8
0
  6
CONTINUOUS
 62
     7
 10
233.5226
 20
-118.3925
 11
244.5226
 21
-118.3925
  0
LINE
  8
0
  6
CONTINUOUS
 62
     7
 10
320.0225
 20
-86.00017
 11
321.0225
 21
-87.00017
  0
LINE
  8
0
  6
CONTINUOUS
 62
     7
 10
257.0226
 20
-79.50017
 11
256.0226
 21
-80.50016
  0
LINE
  8
0
  6
CONTINUOUS
 62
     7
 10
233.5226
 20
-128.7847
 11
244.5226
 21
-128.7847
  0
LINE
  8
0
  6
CONTINUOUS
 62
     7
 10
257.0226
 20
-136.5002
 11
300.0226
 21
-136.5002
  0
LINE
  8
0
  6
CONTINUOUS
 62
     7
 10
300.0226
 20
-130.0002
 11
320.0226
 21
-130.0002
  0
LINE
  8
0
  6
CONTINUOUS
 62
     7
 10
320.0226
 20
-130.0002
 11
321.0226
 21
-129.0002
  0
LINE
  8
0
  6
CONTINUOUS
 62
     7
 10
320.0226
 20
-86.00017
 11
320.0226
 21
-95.35106
  0
LINE
  8
0
  6
CONTINUOUS
 62
     7
 10
212.8345
 20
-95.00017
 11
232.0226
 21
-95.00017
  0
LINE
  8
0
  6
CONTINUOUS
 62
     7
 10
212.0226
 20
-95.81216
 11
232.0226
 21
-95.81216
  0
LINE
  8
0
  6
CONTINUOUS
 62
     7
 10
212.8345
 20
-121.0002
 11
232.0226
 21
-121.0002
  0
LINE
  8
0
  6
DASHED
 62
     7
 10
291.0226
 20
-95.81216
 11
321.0226
 21
-95.81216
  0
LINE
  8
0
  6
DASHED
 62
     7
 10
291.0226
 20
-95.00017
 11
321.0226
 21
-95.00017
  0
LINE
  8
0
  6
DASHED
 62
     7
 10
291.0226
 20
-120.1882
 11
321.0226
 21
-120.1882
  0
LINE
  8
0
  6
DASHED
 62
     7
 10
291.0226
 20
-121.0002
 11
321.0226
 21
-121.0002
  0
LINE
  8
0
  6
CONTINUOUS
 62
     7
 10
257.0225
 20
-136.5002
 11
256.0225
 21
-135.5002
  0
LINE
  8
0
  6
CONTINUOUS
 62
     7
 10
257.0226
 20
-79.50017
 11
257.0226
 21
-136.5002
  0
LINE
  8
0
  6
CONTINUOUS
 62
     7
 10
246.0226
 20
-92.00017
 11
248.0226
 21
-92.00017
  0
LINE
  8
0
  6
CONTINUOUS
 62
     7
 10
246.0226
 20
-124.0002
 11
248.0226
 21
-124.0002
  0
LINE
  8
0
  6
CONTINUOUS
 62
     7
 10
248.0226
 20
-92.00017
 11
248.0226
 21
-124.0002
  0
LINE
  8
0
  6
CONTINUOUS
 62
     7
 10
252.7382
 20
-92.91718
 11
256.0226
 21
-83.35789
  0
LINE
  8
0
  6
CONTINUOUS
 62
     7
 10
249.5025
 20
-95.87748
 11
250.875
 21
-95.12669
  0
LINE
  8
0
  6
CONTINUOUS
 62
     7
 10
249.5025
 20
-120.1229
 11
250.875
 21
-120.8737
  0
LINE
  8
0
  6
CONTINUOUS
 62
     7
 10
252.7382
 20
-123.0832
 11
256.0226
 21
-132.6425
  0
LINE
  8
0
  6
CONTINUOUS
 62
     7
 10
320.0226
 20
-95.35106
 11
300.0226
 21
-95.35106
  0
LINE
  8
0
  6
CONTINUOUS
 62
     7
 10
320.0226
 20
-120.6493
 11
300.0226
 21
-120.6493
  0
LINE
  8
0
  6
CONTINUOUS
 62
     7
 10
320.0226
 20
-120.6493
 11
320.0226
 21
-130.0002
  0
LINE
  8
0
  6
CONTINUOUS
 62
     7
 10
300.0226
 20
-95.35107
 11
320.0226
 21
-120.6493
  0
LINE
  8
0
  6
CONTINUOUS
 62
     7
 10
300.0226
 20
-120.6493
 11
320.0226
 21
-95.35107
  0
LINE
  8
0
  6
CONTINUOUS
 62
     7
 10
212.0226
 20
-95.81217
 11
212.8346
 21
-95.00018
  0
LINE
  8
0
  6
CONTINUOUS
 62
     7
 10
212.0226
 20
-120.1882
 11
232.0226
 21
-120.1882
  0
LINE
  8
0
  6
CONTINUOUS
 62
     7
 10
212.0226
 20
-120.1882
 11
212.8346
 21
-121.0002
  0
LINE
  8
0
  6
CONTINUOUS
 62
     7
 10
212.8345
 20
-95.00017
 11
212.8345
 21
-121.0002
  0
LINE
  8
0
  6
CONTINUOUS
 62
     7
 10
401.5957
 20
-120.6493
 11
401.5957
 21
-95.35107
  0
LINE
  8
0
  6
CONTINUOUS
 62
     7
 10
437.5957
 20
-95.35107
 11
437.5957
 21
-120.6493
  0
LINE
  8
0
  6
CENTER
 62
     2
 10
450.929
 20
-108.0002
 11
388.2624
 21
-108.0002
  0
LINE
  8
0
  6
CENTER
 62
     2
 10
419.5957
 20
-139.3335
 11
419.5957
 21
-76.66684
  0
LINE
  8
0
  6
CENTER
 62
     2
 10
73.56563
 20
-262.0002
 11
136.2323
 21
-262.0002
  0
LINE
  8
0
  6
CENTER
 62
     2
 10
104.899
 20
-293.3336
 11
104.899
 21
-230.6669
  0
LINE
  8
0
  6
CONTINUOUS
 62
     7
 10
122.8989
 20
-272.3926
 11
104.899
 21
-282.7849
  0
LINE
  8
0
  6
CONTINUOUS
 62
     7
 10
122.899
 20
-251.6079
 11
104.899
 21
-241.2156
  0
LINE
  8
0
  6
CONTINUOUS
 62
     7
 10
122.899
 20
-272.3925
 11
122.899
 21
-251.6079
  0
LINE
  8
0
  6
CONTINUOUS
 62
     7
 10
86.89902
 20
-251.6079
 11
104.899
 21
-241.2156
  0
LINE
  8
0
  6
CONTINUOUS
 62
     7
 10
86.89896
 20
-251.6079
 11
86.89896
 21
-272.3925
  0
LINE
  8
0
  6
CONTINUOUS
 62
     7
 10
86.89892
 20
-272.3925
 11
104.8989
 21
-282.7849
  0
LINE
  8
0
  6
CENTER
 62
     2
 10
196.0225
 20
-262.0002
 11
324.0225
 21
-262.0002
  0
LINE
  8
0
  6
CONTINUOUS
 62
     7
 10
199.0225
 20
-249.8122
 11
199.0225
 21
-274.1882
  0
LINE
  8
0
  6
CONTINUOUS
 62
     7
 10
232.0225
 20
-246.4117
 11
232.0225
 21
-277.5886
  0
LINE
  8
0
  6
CONTINUOUS
 62
     7
 10
246.0225
 20
-246.4117
 11
246.0225
 21
-277.5886
  0
LINE
  8
0
  6
CONTINUOUS
 62
     7
 10
256.0225
 20
-234.5002
 11
256.0225
 21
-289.5002
  0
LINE
  8
0
  6
CONTINUOUS
 62
     7
 10
321.0225
 20
-241.0002
 11
321.0225
 21
-283.0002
  0
LINE
  8
0
  6
CONTINUOUS
 62
     7
 10
300.0225
 20
-233.5002
 11
300.0225
 21
-290.5002
  0
LINE
  8
0
  6
CONTINUOUS
 62
     7
 10
257.0225
 20
-233.5002
 11
300.0225
 21
-233.5002
  0
LINE
  8
0
  6
CONTINUOUS
 62
     7
 10
300.0225
 20
-240.0002
 11
320.0225
 21
-240.0002
  0
LINE
  8
0
  6
CONTINUOUS
 62
     7
 10
233.5225
 20
-241.2156
 11
244.5225
 21
-241.2156
  0
LINE
  8
0
  6
CONTINUOUS
 62
     7
 10
233.5225
 20
-251.6079
 11
244.5225
 21
-251.6079
  0
LINE
  8
0
  6
CONTINUOUS
 62
     7
 10
233.5225
 20
-272.3925
 11
244.5225
 21
-272.3925
  0
LINE
  8
0
  6
CONTINUOUS
 62
     7
 10
320.0225
 20
-240.0002
 11
321.0225
 21
-241.0002
  0
LINE
  8
0
  6
CONTINUOUS
 62
     7
 10
257.0225
 20
-233.5002
 11
256.0225
 21
-234.5002
  0
LINE
  8
0
  6
CONTINUOUS
 62
     7
 10
233.5225
 20
-282.7848
 11
244.5225
 21
-282.7848
  0
LINE
  8
0
  6
CONTINUOUS
 62
     7
 10
257.0225
 20
-290.5002
 11
300.0225
 21
-290.5002
  0
LINE
  8
0
  6
CONTINUOUS
 62
     7
 10
300.0225
 20
-284.0002
 11
320.0225
 21
-284.0002
  0
LINE
  8
0
  6
CONTINUOUS
 62
     7
 10
320.0225
 20
-284.0002
 11
321.0225
 21
-283.0002
  0
LINE
  8
0
  6
CONTINUOUS
 62
     7
 10
320.0225
 20
-240.0002
 11
320.0225
 21
-249.3511
  0
LINE
  8
0
  6
CONTINUOUS
 62
     7
 10
199.8345
 20
-249.0002
 11
232.0225
 21
-249.0002
  0
LINE
  8
0
  6
CONTINUOUS
 62
     7
 10
199.0225
 20
-249.8122
 11
232.0225
 21
-249.8122
  0
LINE
  8
0
  6
CONTINUOUS
 62
     7
 10
199.8345
 20
-275.0002
 11
232.0225
 21
-275.0002
  0
LINE
  8
0
  6
DASHED
 62
     7
 10
291.0225
 20
-249.8122
 11
321.0225
 21
-249.8122
  0
LINE
  8
0
  6
DASHED
 62
     7
 10
291.0225
 20
-249.0002
 11
321.0225
 21
-249.0002
  0
LINE
  8
0
  6
DASHED
 62
     7
 10
291.0225
 20
-274.1882
 11
321.0225
 21
-274.1882
  0
LINE
  8
0
  6
DASHED
 62
     7
 10
291.0225
 20
-275.0002
 11
321.0225
 21
-275.0002
  0
LINE
  8
0
  6
CONTINUOUS
 62
     7
 10
257.0225
 20
-290.5002
 11
256.0225
 21
-289.5002
  0
LINE
  8
0
  6
CONTINUOUS
 62
     7
 10
257.0225
 20
-233.5002
 11
257.0225
 21
-290.5002
  0
LINE
  8
0
  6
CONTINUOUS
 62
     7
 10
246.0225
 20
-246.0002
 11
248.0225
 21
-246.0002
  0
LINE
  8
0
  6
CONTINUOUS
 62
     7
 10
246.0225
 20
-278.0002
 11
248.0225
 21
-278.0002
  0
LINE
  8
0
  6
CONTINUOUS
 62
     7
 10
248.0225
 20
-246.0002
 11
248.0225
 21
-278.0002
  0
LINE
  8
0
  6
CONTINUOUS
 62
     7
 10
252.7382
 20
-246.9172
 11
256.0225
 21
-237.3579
  0
LINE
  8
0
  6
CONTINUOUS
 62
     7
 10
249.5025
 20
-249.8775
 11
250.8749
 21
-249.1267
  0
LINE
  8
0
  6
CONTINUOUS
 62
     7
 10
249.5024
 20
-274.1229
 11
250.8749
 21
-274.8737
  0
LINE
  8
0
  6
CONTINUOUS
 62
     7
 10
252.7382
 20
-277.0832
 11
256.0226
 21
-286.6425
  0
LINE
  8
0
  6
CONTINUOUS
 62
     7
 10
320.0225
 20
-249.3511
 11
300.0225
 21
-249.3511
  0
LINE
  8
0
  6
CONTINUOUS
 62
     7
 10
320.0225
 20
-274.6493
 11
300.0225
 21
-274.6493
  0
LINE
  8
0
  6
CONTINUOUS
 62
     7
 10
320.0225
 20
-274.6493
 11
320.0225
 21
-284.0002
  0
LINE
  8
0
  6
CONTINUOUS
 62
     7
 10
300.0226
 20
-249.3511
 11
320.0226
 21
-274.6493
  0
LINE
  8
0
  6
CONTINUOUS
 62
     7
 10
300.0226
 20
-274.6493
 11
320.0226
 21
-249.3511
  0
LINE
  8
0
  6
CONTINUOUS
 62
     7
 10
199.0225
 20
-249.8122
 11
199.8345
 21
-249.0002
  0
LINE
  8
0
  6
CONTINUOUS
 62
     7
 10
199.0225
 20
-274.1882
 11
232.0225
 21
-274.1882
  0
LINE
  8
0
  6
CONTINUOUS
 62
     7
 10
199.0225
 20
-274.1881
 11
199.8345
 21
-275.0002
  0
LINE
  8
0
  6
CONTINUOUS
 62
     7
 10
199.8345
 20
-249.0002
 11
199.8345
 21
-275.0002
  0
LINE
  8
0
  6
CONTINUOUS
 62
     7
 10
401.5957
 20
-274.6494
 11
401.5957
 21
-249.3511
  0
LINE
  8
0
  6
CONTINUOUS
 62
     7
 10
437.5957
 20
-249.3511
 11
437.5957
 21
-274.6494
  0
LINE
  8
0
  6
CENTER
 62
     2
 10
450.929
 20
-262.0002
 11
388.2623
 21
-262.0002
  0
LINE
  8
0
  6
CENTER
 62
     2
 10
419.5957
 20
-293.3336
 11
419.5957
 21
-230.6669
  0
ARC
  8
0
  6
CONTINUOUS
 62
     7
 10
386.1304
 20
-332.4048
 40
3.12808
 50
0.0
 51
89.99999
  0
ARC
  8
0
  6
CONTINUOUS
 62
     7
 10
411.9372
 20
-349.2184
 40
3.12808
 50
270.0
 51
0.0
  0
ARC
  8
0
  6
CONTINUOUS
 62
     7
 10
410.373
 20
-333.9688
 40
4.69214
 50
0.0
 51
89.99999
  0
ARC
  8
0
  6
CONTINUOUS
 62
     7
 10
438.9169
 20
-334.9039
 40
3.1281
 50
295.0
 51
0.0
  0
ARC
  8
0
  6
CONTINUOUS
 62
     7
 10
438.9169
 20
-332.4048
 40
3.12808
 50
0.0
 51
89.99999
  0
ARC
  8
0
  6
CONTINUOUS
 62
     7
 10
463.1597
 20
-329.2767
 40
4.69215
 50
291.6882
 51
0.0
  0
ARC
  8
0
  6
CONTINUOUS
 62
     7
 10
461.5955
 20
-328.2155
 40
1.56406
 50
291.688
 51
0.0
  0
CIRCLE
  8
0
  6
CONTINUOUS
 62
     7
 10
-419.5955
 20
211.5504
 40
9.5
  0
CIRCLE
  8
0
  6
CONTINUOUS
 62
     7
 10
-419.5955
 20
211.5504
 40
6.188
  0
ARC
  8
0
  6
CONTINUOUS
 62
     7
 10
-419.5955
 20
211.5504
 40
16.0
 50
320.364
 51
339.6352
  0
CIRCLE
  8
0
  6
CONTINUOUS
 62
     7
 10
-419.5955
 20
211.5504
 40
7.0
  0
CIRCLE
  8
0
  6
CONTINUOUS
 62
     7
 10
-419.5955
 20
211.5504
 40
15.0
  0
ARC
  8
0
  6
CONTINUOUS
 62
     7
 10
-419.5955
 20
211.5504
 40
16.0
 50
20.36414
 51
39.63524
  0
ARC
  8
0
  6
CONTINUOUS
 62
     7
 10
-419.5955
 20
211.5504
 40
16.0
 50
80.36407
 51
99.63526
  0
ARC
  8
0
  6
CONTINUOUS
 62
     7
 10
-419.5955
 20
211.5504
 40
16.0
 50
140.364
 51
159.6352
  0
ARC
  8
0
  6
CONTINUOUS
 62
     7
 10
-419.5955
 20
211.5504
 40
16.0
 50
200.3641
 51
219.6352
  0
ARC
  8
0
  6
CONTINUOUS
 62
     7
 10
-419.5955
 20
211.5504
 40
16.0
 50
260.3641
 51
279.6353
  0
ARC
  8
0
  6
CONTINUOUS
 62
     7
 10
-261.3832
 20
203.8577
 40
0.41777
 50
45.0
 51
180.0
  0
ARC
  8
0
  6
CONTINUOUS
 62
     7
 10
-261.3832
 20
219.2432
 40
0.41776
 50
180.0
 51
315.0
  0
ARC
  8
0
  6
CONTINUOUS
 62
     7
 10
-266.825
 20
219.7777
 40
4.64699
 50
143.8326
 51
216.1674
  0
ARC
  8
0
  6
CONTINUOUS
 62
     7
 10
-268.119
 20
219.7777
 40
4.64699
 50
323.8326
 51
36.16738
  0
ARC
  8
0
  6
CONTINUOUS
 62
     7
 10
-266.825
 20
203.3232
 40
4.647
 50
143.8325
 51
216.1674
  0
ARC
  8
0
  6
CONTINUOUS
 62
     7
 10
-268.119
 20
203.3232
 40
4.64699
 50
323.8326
 51
36.16738
  0
ARC
  8
0
  6
CONTINUOUS
 62
     7
 10
-254.2273
 20
211.5505
 40
17.24474
 50
161.4545
 51
198.5455
  0
ARC
  8
0
  6
CONTINUOUS
 62
     7
 10
-280.7168
 20
211.5505
 40
17.24474
 50
341.4545
 51
18.54549
  0
ARC
  8
0
  6
CONTINUOUS
 62
     7
 10
-219.0327
 20
224.6536
 40
8.93933
 50
161.0918
 51
198.9081
  0
ARC
  8
0
  6
CONTINUOUS
 62
     7
 10
-227.9113
 20
224.6536
 40
8.93933
 50
341.0917
 51
18.90814
  0
ARC
  8
0
  6
CONTINUOUS
 62
     7
 10
-219.0327
 20
198.4473
 40
8.93933
 50
161.0918
 51
198.9081
  0
ARC
  8
0
  6
CONTINUOUS
 62
     7
 10
-227.9113
 20
198.4473
 40
8.93933
 50
341.0917
 51
18.90814
  0
ARC
  8
0
  6
CONTINUOUS
 62
     7
 10
-195.5967
 20
211.5505
 40
32.37527
 50
170.0971
 51
189.9029
  0
ARC
  8
0
  6
CONTINUOUS
 62
     7
 10
-251.3473
 20
211.5505
 40
32.37527
 50
350.097
 51
9.90291
  0
CIRCLE
  8
0
  6
CONTINUOUS
 62
     7
 10
-104.8989
 20
211.5504
 40
6.188
  0
ARC
  8
0
  6
CONTINUOUS
 62
     7
 10
-104.8989
 20
211.5504
 40
16.00001
 50
320.3641
 51
339.6352
  0
CIRCLE
  8
0
  6
CONTINUOUS
 62
     7
 10
-104.8989
 20
211.5504
 40
7.0
  0
CIRCLE
  8
0
  6
CONTINUOUS
 62
     7
 10
-104.8989
 20
211.5504
 40
15.0
  0
ARC
  8
0
  6
CONTINUOUS
 62
     7
 10
-104.8989
 20
211.5504
 40
16.0
 50
20.36414
 51
39.63523
  0
ARC
  8
0
  6
CONTINUOUS
 62
     7
 10
-104.8989
 20
211.5504
 40
16.0
 50
80.36413
 51
99.63523
  0
ARC
  8
0
  6
CONTINUOUS
 62
     7
 10
-104.8989
 20
211.5504
 40
16.00001
 50
140.3641
 51
159.6352
  0
ARC
  8
0
  6
CONTINUOUS
 62
     7
 10
-104.8989
 20
211.5504
 40
16.0
 50
200.3641
 51
219.6352
  0
ARC
  8
0
  6
CONTINUOUS
 62
     7
 10
-104.8989
 20
211.5504
 40
16.0
 50
260.3641
 51
279.6352
  0
CIRCLE
  8
0
  6
CONTINUOUS
 62
     7
 10
-419.5955
 20
57.55036
 40
9.5
  0
CIRCLE
  8
0
  6
CONTINUOUS
 62
     7
 10
-419.5955
 20
57.55036
 40
6.188
  0
ARC
  8
0
  6
CONTINUOUS
 62
     7
 10
-419.5955
 20
57.55036
 40
15.99999
 50
320.3641
 51
339.6352
  0
CIRCLE
  8
0
  6
CONTINUOUS
 62
     7
 10
-419.5955
 20
57.55036
 40
7.0
  0
CIRCLE
  8
0
  6
CONTINUOUS
 62
     7
 10
-419.5955
 20
57.55036
 40
15.0
  0
ARC
  8
0
  6
CONTINUOUS
 62
     7
 10
-419.5955
 20
57.55036
 40
16.0
 50
20.36412
 51
39.63524
  0
ARC
  8
0
  6
CONTINUOUS
 62
     7
 10
-419.5955
 20
57.55036
 40
16.0
 50
80.36407
 51
99.63526
  0
ARC
  8
0
  6
CONTINUOUS
 62
     7
 10
-419.5955
 20
57.55036
 40
15.99999
 50
140.3641
 51
159.6352
  0
ARC
  8
0
  6
CONTINUOUS
 62
     7
 10
-419.5955
 20
57.55036
 40
16.0
 50
200.3641
 51
219.6353
  0
ARC
  8
0
  6
CONTINUOUS
 62
     7
 10
-419.5955
 20
57.55036
 40
16.0
 50
260.3641
 51
279.6353
  0
ARC
  8
0
  6
CONTINUOUS
 62
     7
 10
-261.3832
 20
49.85761
 40
0.41777
 50
44.99926
 51
180.0
  0
ARC
  8
0
  6
CONTINUOUS
 62
     7
 10
-261.3832
 20
65.24317
 40
0.41776
 50
180.0
 51
315.0007
  0
ARC
  8
0
  6
CONTINUOUS
 62
     7
 10
-280.8251
 20
65.77763
 40
4.64699
 50
143.8325
 51
216.1674
  0
ARC
  8
0
  6
CONTINUOUS
 62
     7
 10
-282.119
 20
65.77763
 40
4.64699
 50
323.8326
 51
36.16746
  0
ARC
  8
0
  6
CONTINUOUS
 62
     7
 10
-280.8251
 20
49.32315
 40
4.64699
 50
143.8325
 51
216.1674
  0
ARC
  8
0
  6
CONTINUOUS
 62
     7
 10
-282.119
 20
49.32315
 40
4.64699
 50
323.8326
 51
36.16742
  0
ARC
  8
0
  6
CONTINUOUS
 62
     7
 10
-268.2273
 20
57.55039
 40
17.24474
 50
161.4545
 51
198.5455
  0
ARC
  8
0
  6
CONTINUOUS
 62
     7
 10
-294.7168
 20
57.55039
 40
17.24474
 50
341.4545
 51
18.54548
  0
ARC
  8
0
  6
CONTINUOUS
 62
     7
 10
-219.0327
 20
70.65357
 40
8.93933
 50
161.0918
 51
198.9082
  0
ARC
  8
0
  6
CONTINUOUS
 62
     7
 10
-227.9114
 20
70.65357
 40
8.93933
 50
341.0917
 51
18.90818
  0
ARC
  8
0
  6
CONTINUOUS
 62
     7
 10
-219.0327
 20
44.44721
 40
8.93933
 50
161.0918
 51
198.9081
  0
ARC
  8
0
  6
CONTINUOUS
 62
     7
 10
-227.9114
 20
44.44721
 40
8.93933
 50
341.0918
 51
18.90816
  0
ARC
  8
0
  6
CONTINUOUS
 62
     7
 10
-195.5968
 20
57.55039
 40
32.37527
 50
170.0971
 51
189.9029
  0
ARC
  8
0
  6
CONTINUOUS
 62
     7
 10
-251.3473
 20
57.55039
 40
32.37527
 50
350.097
 51
9.9029
  0
ARC
  8
0
  6
CONTINUOUS
 62
     7
 10
-280.7168
 20
57.55039
 40
17.24474
 50
341.4545
 51
18.54548
  0
ARC
  8
0
  6
CONTINUOUS
 62
     7
 10
-254.2273
 20
57.55039
 40
17.24474
 50
161.4545
 51
198.5455
  0
ARC
  8
0
  6
CONTINUOUS
 62
     7
 10
-268.119
 20
49.32315
 40
4.64699
 50
323.8326
 51
36.16742
  0
ARC
  8
0
  6
CONTINUOUS
 62
     7
 10
-266.8251
 20
65.77763
 40
4.64699
 50
143.8325
 51
216.1674
  0
ARC
  8
0
  6
CONTINUOUS
 62
     7
 10
-268.119
 20
65.77763
 40
4.64699
 50
323.8326
 51
36.16746
  0
ARC
  8
0
  6
CONTINUOUS
 62
     7
 10
-266.8251
 20
49.32315
 40
4.64699
 50
143.8325
 51
216.1674
  0
CIRCLE
  8
0
  6
CONTINUOUS
 62
     7
 10
-104.8989
 20
57.55035
 40
6.188
  0
ARC
  8
0
  6
CONTINUOUS
 62
     7
 10
-104.8989
 20
57.55035
 40
16.0
 50
320.3641
 51
339.6352
  0
CIRCLE
  8
0
  6
CONTINUOUS
 62
     7
 10
-104.8989
 20
57.55035
 40
7.0
  0
CIRCLE
  8
0
  6
CONTINUOUS
 62
     7
 10
-104.8989
 20
57.55035
 40
15.0
  0
ARC
  8
0
  6
CONTINUOUS
 62
     7
 10
-104.8989
 20
57.55035
 40
16.0
 50
20.36412
 51
39.63523
  0
ARC
  8
0
  6
CONTINUOUS
 62
     7
 10
-104.8989
 20
57.55035
 40
16.0
 50
80.36413
 51
99.63523
  0
ARC
  8
0
  6
CONTINUOUS
 62
     7
 10
-104.8989
 20
57.55035
 40
16.0
 50
140.3641
 51
159.6352
  0
ARC
  8
0
  6
CONTINUOUS
 62
     7
 10
-104.8989
 20
57.55035
 40
16.0
 50
200.3641
 51
219.6352
  0
ARC
  8
0
  6
CONTINUOUS
 62
     7
 10
-104.8989
 20
57.55035
 40
16.0
 50
260.3641
 51
279.6352
  0
CIRCLE
  8
0
  6
CONTINUOUS
 62
     7
 10
104.899
 20
211.5504
 40
19.0
  0
CIRCLE
  8
0
  6
CONTINUOUS
 62
     7
 10
104.899
 20
211.5504
 40
18.5
  0
CIRCLE
  8
0
  6
CONTINUOUS
 62
     7
 10
104.899
 20
211.5504
 40
13.5
  0
CIRCLE
  8
0
  6
CONTINUOUS
 62
     7
 10
104.899
 20
211.5504
 40
9.0
  0
CIRCLE
  8
0
  6
CONTINUOUS
 62
     7
 10
104.899
 20
211.5504
 40
8.188
  0
ARC
  8
0
  6
CONTINUOUS
 62
     7
 10
257.1162
 20
223.2417
 40
8.09371
 50
151.2168
 51
208.7832
  0
ARC
  8
0
  6
CONTINUOUS
 62
     7
 10
257.1162
 20
199.8591
 40
8.09371
 50
151.2167
 51
208.7832
  0
ARC
  8
0
  6
CONTINUOUS
 62
     7
 10
279.8975
 20
211.5504
 40
30.87498
 50
165.3777
 51
194.6221
  0
ARC
  8
0
  6
CONTINUOUS
 62
     7
 10
251.9288
 20
223.2417
 40
8.09372
 50
331.2167
 51
28.78319
  0
ARC
  8
0
  6
CONTINUOUS
 62
     7
 10
251.9288
 20
199.8591
 40
8.09371
 50
331.2168
 51
28.78328
  0
ARC
  8
0
  6
CONTINUOUS
 62
     7
 10
229.1475
 20
211.5504
 40
30.87498
 50
345.3778
 51
14.62224
  0
ARC
  8
0
  6
CONTINUOUS
 62
     7
 10
265.8725
 20
227.0504
 40
0.14999
 50
0.0
 51
180.0
  0
ARC
  8
0
  6
CONTINUOUS
 62
     7
 10
262.4738
 20
224.757
 40
3.0
 50
303.1822
 51
354.1919
  0
ARC
  8
0
  6
CONTINUOUS
 62
     7
 10
262.0225
 20
221.4748
 40
0.5
 50
180.0
 51
303.1818
  0
ARC
  8
0
  6
CONTINUOUS
 62
     7
 10
262.0225
 20
201.626
 40
0.5
 50
56.81817
 51
180.0
  0
ARC
  8
0
  6
CONTINUOUS
 62
     7
 10
262.4738
 20
198.3439
 40
2.99999
 50
5.80808
 51
56.81785
  0
ARC
  8
0
  6
CONTINUOUS
 62
     7
 10
265.8725
 20
196.0504
 40
0.14999
 50
180.0
 51
0.0
  0
ARC
  8
0
  6
CONTINUOUS
 62
     7
 10
297.5225
 20
211.5504
 40
14.5
 50
338.5966
 51
21.40335
  0
CIRCLE
  8
0
  6
CONTINUOUS
 62
     7
 10
419.5956
 20
211.5504
 40
19.0
  0
ARC
  8
0
  6
CONTINUOUS
 62
     7
 10
419.5956
 20
211.5504
 40
14.5
 50
21.40335
 51
158.5966
  0
CIRCLE
  8
0
  6
CONTINUOUS
 62
     7
 10
419.5956
 20
211.5504
 40
9.0
  0
CIRCLE
  8
0
  6
CONTINUOUS
 62
     7
 10
419.5956
 20
211.5504
 40
8.188
  0
CIRCLE
  8
0
  6
CONTINUOUS
 62
     7
 10
419.5956
 20
211.5504
 40
13.5
  0
ARC
  8
0
  6
CONTINUOUS
 62
     7
 10
419.5956
 20
211.5504
 40
14.5
 50
201.4034
 51
338.5966
  0
CIRCLE
  8
0
  6
CONTINUOUS
 62
     7
 10
104.899
 20
57.55033
 40
19.0
  0
CIRCLE
  8
0
  6
CONTINUOUS
 62
     7
 10
104.899
 20
57.55033
 40
18.5
  0
CIRCLE
  8
0
  6
CONTINUOUS
 62
     7
 10
104.899
 20
57.55033
 40
13.5
  0
CIRCLE
  8
0
  6
CONTINUOUS
 62
     7
 10
104.899
 20
57.55033
 40
9.0
  0
CIRCLE
  8
0
  6
CONTINUOUS
 62
     7
 10
104.899
 20
57.55033
 40
8.188
  0
ARC
  8
0
  6
CONTINUOUS
 62
     7
 10
257.1162
 20
69.2417
 40
8.09372
 50
151.2168
 51
208.7832
  0
ARC
  8
0
  6
CONTINUOUS
 62
     7
 10
257.1162
 20
45.85904
 40
8.09371
 50
151.2166
 51
208.7832
  0
ARC
  8
0
  6
CONTINUOUS
 62
     7
 10
279.8974
 20
57.55037
 40
30.87498
 50
165.3777
 51
194.6221
  0
ARC
  8
0
  6
CONTINUOUS
 62
     7
 10
251.9287
 20
69.2417
 40
8.09372
 50
331.2168
 51
28.78319
  0
ARC
  8
0
  6
CONTINUOUS
 62
     7
 10
251.9287
 20
45.85904
 40
8.09371
 50
331.2168
 51
28.78326
  0
ARC
  8
0
  6
CONTINUOUS
 62
     7
 10
229.1475
 20
57.55037
 40
30.87498
 50
345.3778
 51
14.62223
  0
ARC
  8
0
  6
CONTINUOUS
 62
     7
 10
265.8725
 20
73.05037
 40
0.14999
 50
0.0
 51
180.0
  0
ARC
  8
0
  6
CONTINUOUS
 62
     7
 10
262.4737
 20
70.75691
 40
3.0
 50
303.1821
 51
354.1919
  0
ARC
  8
0
  6
CONTINUOUS
 62
     7
 10
262.0225
 20
67.47475
 40
0.5
 50
180.0
 51
303.1823
  0
ARC
  8
0
  6
CONTINUOUS
 62
     7
 10
262.0225
 20
47.62599
 40
0.5
 50
56.81792
 51
180.0
  0
ARC
  8
0
  6
CONTINUOUS
 62
     7
 10
262.4737
 20
44.34383
 40
2.99999
 50
5.80801
 51
56.81792
  0
ARC
  8
0
  6
CONTINUOUS
 62
     7
 10
265.8725
 20
42.05037
 40
0.14999
 50
180.0
 51
0.0
  0
ARC
  8
0
  6
CONTINUOUS
 62
     7
 10
297.5225
 20
57.55037
 40
14.5
 50
338.5966
 51
21.40335
  0
CIRCLE
  8
0
  6
CONTINUOUS
 62
     7
 10
419.5956
 20
57.55033
 40
19.0
  0
ARC
  8
0
  6
CONTINUOUS
 62
     7
 10
419.5956
 20
57.55033
 40
14.5
 50
21.40335
 51
158.5966
  0
CIRCLE
  8
0
  6
CONTINUOUS
 62
     7
 10
419.5956
 20
57.55033
 40
9.0
  0
CIRCLE
  8
0
  6
CONTINUOUS
 62
     7
 10
419.5956
 20
57.55033
 40
8.188
  0
CIRCLE
  8
0
  6
CONTINUOUS
 62
     7
 10
419.5956
 20
57.55033
 40
13.5
  0
ARC
  8
0
  6
CONTINUOUS
 62
     7
 10
419.5956
 20
57.55033
 40
14.5
 50
201.4033
 51
338.5966
  0
CIRCLE
  8
0
  6
CONTINUOUS
 62
     7
 10
-419.5955
 20
-108.0002
 40
10.188
  0
CIRCLE
  8
0
  6
CONTINUOUS
 62
     7
 10
-419.5955
 20
-108.0002
 40
24.5
  0
CIRCLE
  8
0
  6
CONTINUOUS
 62
     7
 10
-419.5955
 20
-108.0002
 40
23.5
  0
CIRCLE
  8
0
  6
CONTINUOUS
 62
     7
 10
-419.5955
 20
-108.0002
 40
16.0
  0
CIRCLE
  8
0
  6
CONTINUOUS
 62
     7
 10
-419.5955
 20
-108.0002
 40
11.0
  0
ARC
  8
0
  6
CONTINUOUS
 62
     7
 10
-220.472
 20
-108.0002
 40
17.0
 50
340.2501
 51
19.74994
  0
ARC
  8
0
  6
CONTINUOUS
 62
     7
 10
-268.3053
 20
-94.14378
 40
11.16662
 50
155.5673
 51
204.4327
  0
ARC
  8
0
  6
CONTINUOUS
 62
     7
 10
-236.3053
 20
-108.0002
 40
43.16665
 50
167.6432
 51
192.3567
  0
ARC
  8
0
  6
CONTINUOUS
 62
     7
 10
-268.3053
 20
-121.8566
 40
11.16662
 50
155.5673
 51
204.4327
  0
ARC
  8
0
  6
CONTINUOUS
 62
     7
 10
-277.6385
 20
-94.14378
 40
11.16662
 50
335.5673
 51
24.43269
  0
ARC
  8
0
  6
CONTINUOUS
 62
     7
 10
-309.6386
 20
-108.0002
 40
43.16665
 50
347.6433
 51
12.3568
  0
ARC
  8
0
  6
CONTINUOUS
 62
     7
 10
-277.6385
 20
-121.8566
 40
11.16662
 50
335.5673
 51
24.43269
  0
ARC
  8
0
  6
CONTINUOUS
 62
     7
 10
-263.472
 20
-119.0002
 40
1.0
 50
0.0
 51
180.0
  0
ARC
  8
0
  6
CONTINUOUS
 62
     7
 10
-263.472
 20
-97.00017
 40
1.0
 50
180.0
 51
0.0
  0
CIRCLE
  8
0
  6
CONTINUOUS
 62
     7
 10
-104.8988
 20
-108.0002
 40
24.5
  0
ARC
  8
0
  6
CONTINUOUS
 62
     7
 10
-104.8988
 20
-108.0002
 40
17.0
 50
19.74992
 51
160.2501
  0
ARC
  8
0
  6
CONTINUOUS
 62
     7
 10
-104.8988
 20
-108.0002
 40
17.0
 50
199.7499
 51
340.2501
  0
CIRCLE
  8
0
  6
CONTINUOUS
 62
     7
 10
-104.8988
 20
-108.0002
 40
10.188
  0
CIRCLE
  8
0
  6
CONTINUOUS
 62
     7
 10
-104.8988
 20
-108.0002
 40
11.0
  0
CIRCLE
  8
0
  6
CONTINUOUS
 62
     7
 10
-104.8988
 20
-108.0002
 40
16.0
  0
CIRCLE
  8
0
  6
CONTINUOUS
 62
     7
 10
-419.5955
 20
-262.0002
 40
10.188
  0
CIRCLE
  8
0
  6
CONTINUOUS
 62
     7
 10
-419.5955
 20
-262.0002
 40
24.5
  0
CIRCLE
  8
0
  6
CONTINUOUS
 62
     7
 10
-419.5955
 20
-262.0002
 40
23.5
  0
CIRCLE
  8
0
  6
CONTINUOUS
 62
     7
 10
-419.5955
 20
-262.0002
 40
16.0
  0
CIRCLE
  8
0
  6
CONTINUOUS
 62
     7
 10
-419.5955
 20
-262.0002
 40
11.0
  0
ARC
  8
0
  6
CONTINUOUS
 62
     7
 10
-220.472
 20
-262.0002
 40
17.0
 50
340.2501
 51
19.74994
  0
ARC
  8
0
  6
CONTINUOUS
 62
     7
 10
-268.3054
 20
-248.1438
 40
11.16662
 50
155.5673
 51
204.4327
  0
ARC
  8
0
  6
CONTINUOUS
 62
     7
 10
-236.3053
 20
-262.0002
 40
43.16665
 50
167.6432
 51
192.3567
  0
ARC
  8
0
  6
CONTINUOUS
 62
     7
 10
-268.3054
 20
-275.8566
 40
11.16663
 50
155.5672
 51
204.4327
  0
ARC
  8
0
  6
CONTINUOUS
 62
     7
 10
-277.6386
 20
-248.1438
 40
11.16662
 50
335.5673
 51
24.43265
  0
ARC
  8
0
  6
CONTINUOUS
 62
     7
 10
-309.6386
 20
-262.0002
 40
43.16665
 50
347.6433
 51
12.3568
  0
ARC
  8
0
  6
CONTINUOUS
 62
     7
 10
-277.6386
 20
-275.8566
 40
11.16662
 50
335.5673
 51
24.43265
  0
ARC
  8
0
  6
CONTINUOUS
 62
     7
 10
-263.472
 20
-273.0002
 40
1.0
 50
0.0
 51
180.0
  0
ARC
  8
0
  6
CONTINUOUS
 62
     7
 10
-263.472
 20
-251.0002
 40
1.0
 50
180.0
 51
0.0
  0
CIRCLE
  8
0
  6
CONTINUOUS
 62
     7
 10
-104.8989
 20
-262.0002
 40
24.5
  0
ARC
  8
0
  6
CONTINUOUS
 62
     7
 10
-104.8989
 20
-262.0002
 40
17.0
 50
19.74994
 51
160.2501
  0
ARC
  8
0
  6
CONTINUOUS
 62
     7
 10
-104.8989
 20
-262.0002
 40
17.0
 50
199.7499
 51
340.2501
  0
CIRCLE
  8
0
  6
CONTINUOUS
 62
     7
 10
-104.8989
 20
-262.0002
 40
10.188
  0
CIRCLE
  8
0
  6
CONTINUOUS
 62
     7
 10
-104.8989
 20
-262.0002
 40
11.0
  0
CIRCLE
  8
0
  6
CONTINUOUS
 62
     7
 10
-104.8989
 20
-262.0002
 40
16.0
  0
CIRCLE
  8
0
  6
CONTINUOUS
 62
     7
 10
104.899
 20
-108.0002
 40
12.188
  0
CIRCLE
  8
0
  6
CONTINUOUS
 62
     7
 10
104.899
 20
-108.0002
 40
28.5
  0
CIRCLE
  8
0
  6
CONTINUOUS
 62
     7
 10
104.899
 20
-108.0002
 40
27.5
  0
CIRCLE
  8
0
  6
CONTINUOUS
 62
     7
 10
104.899
 20
-108.0002
 40
18.0
  0
CIRCLE
  8
0
  6
CONTINUOUS
 62
     7
 10
104.899
 20
-108.0002
 40
13.0
  0
ARC
  8
0
  6
CONTINUOUS
 62
     7
 10
241.7726
 20
-92.41174
 40
9.75
 50
147.7958
 51
212.2042
  0
ARC
  8
0
  6
CONTINUOUS
 62
     7
 10
268.7725
 20
-108.0002
 40
36.74992
 50
163.5736
 51
196.4264
  0
ARC
  8
0
  6
CONTINUOUS
 62
     7
 10
209.2726
 20
-108.0002
 40
36.74991
 50
343.5735
 51
16.42638
  0
ARC
  8
0
  6
CONTINUOUS
 62
     7
 10
236.2726
 20
-92.41174
 40
9.74999
 50
327.7957
 51
32.20419
  0
ARC
  8
0
  6
CONTINUOUS
 62
     7
 10
241.7726
 20
-123.5886
 40
9.74999
 50
147.7957
 51
212.2042
  0
ARC
  8
0
  6
CONTINUOUS
 62
     7
 10
236.2726
 20
-123.5886
 40
9.75
 50
327.7958
 51
32.20419
  0
ARC
  8
0
  6
CONTINUOUS
 62
     7
 10
249.0226
 20
-95.00017
 40
1.0
 50
180.0
 51
298.6801
  0
ARC
  8
0
  6
CONTINUOUS
 62
     7
 10
248.9553
 20
-91.61744
 40
4.0
 50
298.6801
 51
341.0385
  0
ARC
  8
0
  6
CONTINUOUS
 62
     7
 10
249.0226
 20
-121.0002
 40
1.0
 50
61.31983
 51
180.0
  0
ARC
  8
0
  6
CONTINUOUS
 62
     7
 10
248.9553
 20
-124.3829
 40
3.99999
 50
18.96138
 51
61.31983
  0
ARC
  8
0
  6
CONTINUOUS
 62
     7
 10
240.5226
 20
-108.0002
 40
80.5
 50
350.9595
 51
9.04046
  0
CIRCLE
  8
0
  6
CONTINUOUS
 62
     7
 10
419.5957
 20
-108.0002
 40
28.5
  0
CIRCLE
  8
0
  6
CONTINUOUS
 62
     7
 10
419.5957
 20
-108.0002
 40
13.0
  0
CIRCLE
  8
0
  6
CONTINUOUS
 62
     7
 10
419.5957
 20
-108.0002
 40
12.188
  0
ARC
  8
0
  6
CONTINUOUS
 62
     7
 10
419.5957
 20
-108.0002
 40
22.0
 50
35.0968
 51
144.9032
  0
ARC
  8
0
  6
CONTINUOUS
 62
     7
 10
419.5957
 20
-108.0002
 40
22.0
 50
215.0968
 51
324.9032
  0
CIRCLE
  8
0
  6
CONTINUOUS
 62
     7
 10
104.899
 20
-262.0002
 40
12.188
  0
CIRCLE
  8
0
  6
CONTINUOUS
 62
     7
 10
104.899
 20
-262.0002
 40
28.5
  0
CIRCLE
  8
0
  6
CONTINUOUS
 62
     7
 10
104.899
 20
-262.0002
 40
27.5
  0
CIRCLE
  8
0
  6
CONTINUOUS
 62
     7
 10
104.899
 20
-262.0002
 40
18.0
  0
CIRCLE
  8
0
  6
CONTINUOUS
 62
     7
 10
104.899
 20
-262.0002
 40
13.0
  0
ARC
  8
0
  6
CONTINUOUS
 62
     7
 10
241.7725
 20
-246.4117
 40
9.75
 50
147.7958
 51
212.2042
  0
ARC
  8
0
  6
CONTINUOUS
 62
     7
 10
268.7724
 20
-262.0002
 40
36.74992
 50
163.5736
 51
196.4264
  0
ARC
  8
0
  6
CONTINUOUS
 62
     7
 10
209.2726
 20
-262.0002
 40
36.74991
 50
343.5735
 51
16.42638
  0
ARC
  8
0
  6
CONTINUOUS
 62
     7
 10
236.2725
 20
-246.4117
 40
9.74999
 50
327.7957
 51
32.20415
  0
ARC
  8
0
  6
CONTINUOUS
 62
     7
 10
241.7725
 20
-277.5886
 40
9.75
 50
147.7957
 51
212.2041
  0
ARC
  8
0
  6
CONTINUOUS
 62
     7
 10
236.2725
 20
-277.5886
 40
9.74999
 50
327.7959
 51
32.20415
  0
ARC
  8
0
  6
CONTINUOUS
 62
     7
 10
249.0225
 20
-249.0002
 40
1.0
 50
180.0
 51
298.6799
  0
ARC
  8
0
  6
CONTINUOUS
 62
     7
 10
248.9552
 20
-245.6175
 40
4.0
 50
298.6801
 51
341.0385
  0
ARC
  8
0
  6
CONTINUOUS
 62
     7
 10
249.0225
 20
-275.0002
 40
1.00001
 50
61.32005
 51
180.0
  0
ARC
  8
0
  6
CONTINUOUS
 62
     7
 10
248.9552
 20
-278.3829
 40
3.99999
 50
18.96128
 51
61.31983
  0
ARC
  8
0
  6
CONTINUOUS
 62
     7
 10
240.5225
 20
-262.0002
 40
80.50001
 50
350.9595
 51
9.04046
  0
CIRCLE
  8
0
  6
CONTINUOUS
 62
     7
 10
419.5957
 20
-262.0002
 40
28.5
  0
CIRCLE
  8
0
  6
CONTINUOUS
 62
     7
 10
419.5957
 20
-262.0002
 40
13.0
  0
CIRCLE
  8
0
  6
CONTINUOUS
 62
     7
 10
419.5957
 20
-262.0002
 40
12.188
  0
ARC
  8
0
  6
CONTINUOUS
 62
     7
 10
419.5957
 20
-262.0002
 40
22.0
 50
35.0968
 51
144.9032
  0
ARC
  8
0
  6
CONTINUOUS
 62
     7
 10
419.5957
 20
-262.0002
 40
22.0
 50
215.0968
 51
324.9032
  0
TEXT
  8
0
  6
CONTINUOUS
 62
     7
 10
323.9547
 20
334.1354
 40
12.0
  1
DATE : MAR ,1988
 41
0.8
  7
STANDARD
  0
TEXT
  8
0
  6
CONTINUOUS
 62
     7
 10
-512.2893
 20
333.1953
 40
14.0
  1
DYNA CYLINDER JOINT
 41
0.8
  7
STANDARD
  0
TEXT
  8
0
  6
CONTINUOUS
 62
     7
 10
-505.7538
 20
119.5073
 40
12.0
  1
MODEL:CJL-14*1.5
 41
0.8
  7
STANDARD
  0
TEXT
  8
0
  6
CONTINUOUS
 62
     7
 10
-505.7538
 20
279.5073
 40
12.0
  1
MODEL:CJS-14*1.5
 41
0.8
  7
STANDARD
  0
TEXT
  8
0
  6
CONTINUOUS
 62
     7
 10
-505.7538
 20
-200.0433
 40
12.0
  1
MODEL:CJL-22*1.5
 41
0.8
  7
STANDARD
  0
TEXT
  8
0
  6
CONTINUOUS
 62
     7
 10
-505.7538
 20
-40.04332
 40
12.0
  1
MODEL:CJS-22*1.5
 41
0.8
  7
STANDARD
  0
TEXT
  8
0
  6
CONTINUOUS
 62
     7
 10
18.74077
 20
119.5073
 40
12.0
  1
MODEL:CJL-18*1.5
 41
0.8
  7
STANDARD
  0
TEXT
  8
0
  6
CONTINUOUS
 62
     7
 10
18.74077
 20
279.5073
 40
12.0
  1
MODEL:CJS-18*1.5
 41
0.8
  7
STANDARD
  0
TEXT
  8
0
  6
CONTINUOUS
 62
     7
 10
18.74077
 20
-40.04332
 40
12.0
  1
MODEL:CJS-26*1.5
 41
0.8
  7
STANDARD
  0
TEXT
  8
0
  6
CONTINUOUS
 62
     7
 10
18.74077
 20
-200.0433
 40
12.0
  1
MODEL:CJL-26*1.5
 41
0.8
  7
STANDARD
  0
ENDSEC
  0
EOF
