  0
SECTION
  2
HEADER
  9
$ACADVER
  1
AC1009
  9
$DWGCODEPAGE
  3
dos932
  9
$INSBASE
 10
0.0
 20
0.0
 30
0.0
  9
$EXTMIN
 10
-138.3999939
 20
-94.80000305
 30
0.0
  9
$EXTMAX
 10
138.3500061
 20
94.5
 30
0.0
  9
$LIMMIN
 10
-138.3999939
 20
-94.80000305
  9
$LIMMAX
 10
138.3500061
 20
94.5
  9
$ORTHOMODE
 70
       0
  9
$REGENMODE
 70
       1
  9
$FILLMODE
 70
       1
  9
$QTEXTMODE
 70
       0
  9
$MIRRTEXT
 70
       1
  9
$DRAGMODE
 70
       2
  9
$LTSCALE
 40
1.0
  9
$OSMODE
 70
       0
  9
$ATTMODE
 70
       1
  9
$TEXTSIZE
 40
3.20000005
  9
$TRACEWID
 40
0.05
  9
$TEXTSTYLE
  7
MX_NOTE_STANDARD
  9
$CLAYER
  8
0
  9
$CELTYPE
  6
CONTINUOUS
  9
$CECOLOR
 62
     256
  9
$DIMSCALE
 40
1.0
  9
$DIMASZ
 40
2.5
  9
$DIMEXO
 40
1.5
  9
$DIMDLI
 40
3.75
  9
$DIMRND
 40
0.0
  9
$DIMDLE
 40
0.0
  9
$DIMEXE
 40
1.5
  9
$DIMTP
 40
0.0
  9
$DIMTM
 40
0.0
  9
$DIMTXT
 40
3.20000005
  9
$DIMCEN
 40
2.5
  9
$DIMTSZ
 40
0.0
  9
$DIMTOL
 70
       0
  9
$DIMLIM
 70
       0
  9
$DIMTIH
 70
       0
  9
$DIMTOH
 70
       0
  9
$DIMSE1
 70
       0
  9
$DIMSE2
 70
       0
  9
$DIMTAD
 70
       1
  9
$DIMZIN
 70
       8
  9
$DIMBLK
  1

  9
$DIMASO
 70
       1
  9
$DIMSHO
 70
       1
  9
$DIMPOST
  1

  9
$DIMAPOST
  1

  9
$DIMALT
 70
       0
  9
$DIMALTD
 70
       4
  9
$DIMALTF
 40
0.03937008
  9
$DIMLFAC
 40
1.0
  9
$DIMTOFL
 70
       1
  9
$DIMTVP
 40
0.0
  9
$DIMTIX
 70
       0
  9
$DIMSOXD
 70
       0
  9
$DIMSAH
 70
       0
  9
$DIMBLK1
  1

  9
$DIMBLK2
  1

  9
$DIMSTYLE
  2
MXDIMSTYLE
  9
$DIMCLRD
 70
       0
  9
$DIMCLRE
 70
       0
  9
$DIMCLRT
 70
       0
  9
$DIMTFAC
 40
1.0
  9
$DIMGAP
 40
1.0
  9
$LUNITS
 70
       2
  9
$LUPREC
 70
       4
  9
$AXISMODE
 70
       0
  9
$AXISUNIT
 10
0.0
 20
0.0
  9
$SKETCHINC
 40
0.1
  9
$FILLETRAD
 40
0.0
  9
$AUNITS
 70
       0
  9
$AUPREC
 70
       0
  9
$MENU
  1
acad
  9
$ELEVATION
 40
0.0
  9
$PELEVATION
 40
0.0
  9
$THICKNESS
 40
0.0
  9
$LIMCHECK
 70
       0
  9
$BLIPMODE
 70
       1
  9
$CHAMFERA
 40
0.0
  9
$CHAMFERB
 40
0.0
  9
$SKPOLY
 70
       0
  9
$TDCREATE
 40
2453545.733240741
  9
$TDUPDATE
 40
2453545.733240741
  9
$TDINDWG
 40
0.0000000000
  9
$TDUSRTIMER
 40
0.0000000000
  9
$USRTIMER
 70
       1
  9
$ANGBASE
 50
0.0
  9
$ANGDIR
 70
       0
  9
$PDMODE
 70
       0
  9
$PDSIZE
 40
0.0
  9
$PLINEWID
 40
0.0
  9
$COORDS
 70
       1
  9
$SPLFRAME
 70
       0
  9
$SPLINETYPE
 70
       6
  9
$SPLINESEGS
 70
       8
  9
$ATTDIA
 70
       0
  9
$ATTREQ
 70
       1
  9
$HANDLING
 70
       1
  9
$HANDSEED
  5
235
  9
$SURFTAB1
 70
       6
  9
$SURFTAB2
 70
       6
  9
$SURFTYPE
 70
       6
  9
$SURFU
 70
       6
  9
$SURFV
 70
       6
  9
$UCSNAME
  2

  9
$UCSORG
 10
0.0
 20
0.0
 30
0.0
  9
$UCSXDIR
 10
1.0
 20
0.0
 30
0.0
  9
$UCSYDIR
 10
0.0
 20
1.0
 30
0.0
  9
$PUCSNAME
  2

  9
$PUCSORG
 10
0.0
 20
0.0
 30
0.0
  9
$PUCSXDIR
 10
1.0
 20
0.0
 30
0.0
  9
$PUCSYDIR
 10
0.0
 20
1.0
 30
0.0
  9
$USERI1
 70
       0
  9
$USERI2
 70
       0
  9
$USERI3
 70
       0
  9
$USERI4
 70
       0
  9
$USERI5
 70
       0
  9
$USERR1
 40
0.0
  9
$USERR2
 40
0.0
  9
$USERR3
 40
0.0
  9
$USERR4
 40
0.0
  9
$USERR5
 40
0.0
  9
$WORLDVIEW
 70
       1
  9
$SHADEDGE
 70
       3
  9
$SHADEDIF
 70
      70
  9
$TILEMODE
 70
       1
  9
$MAXACTVP
 70
      16
  9
$PINSBASE
 10
0.0
 20
0.0
 30
0.0
  9
$PLIMCHECK
 70
       0
  9
$PEXTMIN
 10
1.00000000E+20
 20
1.00000000E+20
 30
1.00000000E+20
  9
$PEXTMAX
 10
-1.00000000E+20
 20
-1.00000000E+20
 30
-1.00000000E+20
  9
$PLIMMIN
 10
0.0
 20
0.0
  9
$PLIMMAX
 10
12.0
 20
9.0
  9
$UNITMODE
 70
       0
  9
$VISRETAIN
 70
       0
  9
$PLINEGEN
 70
       1
  9
$PSLTSCALE
 70
       0
  9
$TREEDEPTH
 70
    3020
  9
$DWGCODEPAGE
  3
dos932
  0
ENDSEC
  0
SECTION
  2
TABLES
  0
TABLE
  2
VPORT
 70
       1
  0
VPORT
  2
*ACTIVE
 70
       0
 10
0.0
 20
0.0
 11
1.0
 21
1.0
 12
-0.0249939
 22
-0.15000153
 13
0.0
 23
0.0
 14
1.0
 24
1.0
 15
0.0
 25
0.0
 16
0.0
 26
0.0
 36
1.0
 17
0.0
 27
0.0
 37
0.0
 40
191.19300308
 41
1.73205081
 42
50.0
 43
0.0
 44
0.0
 50
0.0
 51
0.0
 71
       0
 72
     100
 73
       1
 74
       1
 75
       0
 76
       0
 77
       0
 78
       0
  0
ENDTAB
  0
TABLE
  2
LTYPE
 70
       1
  0
LTYPE
  2
CONTINUOUS
 70
      64
  3
Solid line
 72
      65
 73
       0
 40
0.0
  0
ENDTAB
  0
TABLE
  2
LAYER
 70
       2
  0
LAYER
  2
0
 70
       0
 62
       7
  6
CONTINUOUS
  0
LAYER
  2
DEFPOINTS
 70
       0
 62
       7
  6
CONTINUOUS
  0
ENDTAB
  0
TABLE
  2
STYLE
 70
       1
  0
STYLE
  2
MX_NOTE_STANDARD
 70
       0
 40
0.0
 41
1.0
 50
0.0
 71
       0
 42
3.20000005
  3
txt.shx
  4
extfont.shx
  0
ENDTAB
  0
TABLE
  2
VIEW
 70
       0
  0
ENDTAB
  0
TABLE
  2
UCS
 70
       0
  0
ENDTAB
  0
TABLE
  2
APPID
 70
       1
  0
APPID
  2
ACAD
 70
       0
  0
ENDTAB
  0
TABLE
  2
DIMSTYLE
 70
       1
  0
DIMSTYLE
  2
MXDIMSTYLE
 70
       0
  3

  4

  5

  6

  7

 40
1.0
 41
2.5
 42
1.5
 43
3.75
 44
1.5
 45
0.0
 46
0.0
 47
0.0
 48
0.0
 71
       0
 72
       0
 73
       0
 74
       0
 75
       0
 76
       0
 77
       1
 78
       8
140
3.20000005
141
2.5
142
0.0
143
0.03937008
144
1.0
145
0.0
146
1.0
147
1.0
170
       0
171
       4
172
       1
173
       0
174
       0
175
       0
176
       0
177
       0
178
       0
  0
ENDTAB
  0
ENDSEC
  0
SECTION
  2
BLOCKS
  0
ENDSEC
  0
SECTION
  2
ENTITIES
  0
LINE
  8
0
  6
CONTINUOUS
 62
       7
  5
1E
 10
-3.48303457
 20
-18.7516892
 30
0.0
 11
-3.39140927
 21
-18.5190848
 31
0.0
  0
LINE
  8
0
  6
CONTINUOUS
 62
       7
  5
1F
 10
-3.77611607
 20
-18.63624132
 30
0.0
 11
-3.48303457
 21
-18.7516892
 31
0.0
  0
ARC
  8
0
  6
CONTINUOUS
 62
       7
  5
20
 10
-6.34532444
 20
-13.32766615
 30
0.0
 40
0.23932901
 50
23.5
 51
180.0
  0
ARC
  8
0
  6
CONTINUOUS
 62
       7
  5
21
 10
-43.01723079
 20
-32.48591423
 30
0.0
 40
41.61344162
 50
19.43986307
 51
27.56013693
  0
LINE
  8
0
  6
CONTINUOUS
 62
       7
  5
22
 10
-7.88465345
 20
-14.3413463
 30
0.0
 11
-6.58465345
 21
-14.3413463
 31
0.0
  0
ARC
  8
0
  6
CONTINUOUS
 62
       7
  5
23
 10
-43.01723079
 20
20.84912826
 30
0.0
 40
41.61344162
 50
332.43986307
 51
340.56013693
  0
ARC
  8
0
  6
CONTINUOUS
 62
       7
  5
24
 10
-6.34532444
 20
1.69088019
 30
0.0
 40
0.23932901
 50
180.0
 51
336.5
  0
LINE
  8
0
  6
CONTINUOUS
 62
       7
  5
25
 10
-3.77611607
 20
6.99945536
 30
0.0
 11
-3.48303457
 21
7.11490323
 31
0.0
  0
LINE
  8
0
  6
CONTINUOUS
 62
       7
  5
26
 10
-3.48303457
 20
7.11490323
 30
0.0
 11
-3.39140927
 21
6.88229884
 31
0.0
  0
LINE
  8
0
  6
CONTINUOUS
 62
       2
  5
27
 10
-31.88465345
 20
-5.84134598
 30
0.0
 11
41.61534655
 21
-5.84134598
 31
0.0
  0
LINE
  8
0
  6
CONTINUOUS
 62
       7
  5
28
 10
114.36534655
 20
-33.84134619
 30
0.0
 11
114.36534655
 21
22.15865381
 31
0.0
  0
LINE
  8
0
  6
CONTINUOUS
 62
       7
  5
29
 10
82.36534655
 20
-33.84134619
 30
0.0
 11
114.36534655
 21
-33.84134619
 31
0.0
  0
CIRCLE
  8
0
  6
CONTINUOUS
 62
       7
  5
2A
 10
98.36534655
 20
-27.84134619
 30
0.0
 40
3.5
  0
LINE
  8
0
  6
CONTINUOUS
 62
       2
  5
2B
 10
92.36534655
 20
-27.84134619
 30
0.0
 11
104.36534655
 21
-27.84134619
 31
0.0
  0
LINE
  8
0
  6
CONTINUOUS
 62
       2
  5
2C
 10
92.36534655
 20
16.15865381
 30
0.0
 11
104.36534655
 21
16.15865381
 31
0.0
  0
LINE
  8
0
  6
CONTINUOUS
 62
       7
  5
2D
 10
82.36534655
 20
22.15865381
 30
0.0
 11
114.36534655
 21
22.15865381
 31
0.0
  0
LINE
  8
0
  6
CONTINUOUS
 62
       7
  5
2E
 10
82.36534655
 20
-33.84134619
 30
0.0
 11
82.36534655
 21
22.15865381
 31
0.0
  0
CIRCLE
  8
0
  6
CONTINUOUS
 62
       7
  5
2F
 10
98.36534655
 20
16.15865381
 30
0.0
 40
3.5
  0
LINE
  8
0
  6
CONTINUOUS
 62
       2
  5
30
 10
98.36534655
 20
-37.14077674
 30
0.0
 11
98.36534655
 21
25.45808436
 31
0.0
  0
LINE
  8
0
  6
CONTINUOUS
 62
       2
  5
31
 10
117.36534655
 20
-5.84134619
 30
0.0
 11
79.36534655
 21
-5.84134619
 31
0.0
  0
LINE
  8
0
  6
CONTINUOUS
 62
       7
  5
32
 10
113.36534655
 20
-0.28134619
 30
0.0
 11
113.36534655
 21
-11.41134619
 31
0.0
  0
LINE
  8
0
  6
CONTINUOUS
 62
       7
  5
33
 10
110.68534655
 20
4.35865381
 30
0.0
 11
101.03534655
 21
9.92865381
 31
0.0
  0
LINE
  8
0
  6
CONTINUOUS
 62
       7
  5
34
 10
110.68534655
 20
-16.05134619
 30
0.0
 11
101.03534655
 21
-21.62134619
 31
0.0
  0
LINE
  8
0
  6
CONTINUOUS
 62
       7
  5
35
 10
83.36534655
 20
-0.28134619
 30
0.0
 11
83.36534655
 21
-11.41134619
 31
0.0
  0
LINE
  8
0
  6
CONTINUOUS
 62
       7
  5
36
 10
86.03534655
 20
4.35865381
 30
0.0
 11
95.68534655
 21
9.92865381
 31
0.0
  0
LINE
  8
0
  6
CONTINUOUS
 62
       7
  5
37
 10
86.03534655
 20
-16.05134619
 30
0.0
 11
95.68534655
 21
-21.62134619
 31
0.0
  0
LINE
  8
0
  6
CONTINUOUS
 62
       7
  5
38
 10
35.61534655
 20
-20.8413463
 30
0.0
 11
35.61534655
 21
9.1586537
 31
0.0
  0
LINE
  8
0
  6
CONTINUOUS
 62
       7
  5
39
 10
27.18534655
 20
10.1586537
 30
0.0
 11
35.03534655
 21
10.1586537
 31
0.0
  0
LINE
  8
0
  6
CONTINUOUS
 62
       7
  5
3A
 10
26.61534655
 20
9.1586537
 30
0.0
 11
27.18534655
 21
10.1586537
 31
0.0
  0
LINE
  8
0
  6
CONTINUOUS
 62
       7
  5
3B
 10
35.03534655
 20
10.1586537
 30
0.0
 11
35.61534655
 21
9.1586537
 31
0.0
  0
LINE
  8
0
  6
CONTINUOUS
 62
       7
  5
3C
 10
25.61534655
 20
-19.8413463
 30
0.0
 11
25.61534655
 21
8.1586537
 31
0.0
  0
LINE
  8
0
  6
CONTINUOUS
 62
       7
  5
3D
 10
-16.12465345
 20
3.9736537
 30
0.0
 11
-10.63465345
 21
3.9736537
 31
0.0
  0
LINE
  8
0
  6
CONTINUOUS
 62
       7
  5
3E
 10
-2.38465345
 20
9.1586537
 30
0.0
 11
24.61534655
 21
9.1586537
 31
0.0
  0
LINE
  8
0
  6
CONTINUOUS
 62
       7
  5
3F
 10
-3.38465345
 20
8.1586537
 30
0.0
 11
-2.38465345
 21
9.1586537
 31
0.0
  0
LINE
  8
0
  6
CONTINUOUS
 62
       7
  5
40
 10
25.61534655
 20
8.1586537
 30
0.0
 11
24.61534655
 21
9.1586537
 31
0.0
  0
LINE
  8
0
  6
CONTINUOUS
 62
       7
  5
41
 10
-16.88465345
 20
2.6636537
 30
0.0
 11
-16.12465345
 21
3.9736537
 31
0.0
  0
LINE
  8
0
  6
CONTINUOUS
 62
       7
  5
42
 10
-10.63465345
 20
3.9736537
 30
0.0
 11
-9.88465345
 21
2.6636537
 31
0.0
  0
LINE
  8
0
  6
CONTINUOUS
 62
       7
  5
43
 10
-16.12465345
 20
-0.8363463
 30
0.0
 11
-10.63465345
 21
-0.8363463
 31
0.0
  0
LINE
  8
0
  6
CONTINUOUS
 62
       7
  5
44
 10
27.18534655
 20
4.3586537
 30
0.0
 11
35.03534655
 21
4.3586537
 31
0.0
  0
LINE
  8
0
  6
CONTINUOUS
 62
       7
  5
45
 10
27.18534655
 20
-0.2813463
 30
0.0
 11
35.03534655
 21
-0.2813463
 31
0.0
  0
LINE
  8
0
  6
CONTINUOUS
 62
       7
  5
46
 10
27.18534655
 20
4.3586537
 30
0.0
 11
27.18534655
 21
-0.2813463
 31
0.0
  0
LINE
  8
0
  6
CONTINUOUS
 62
       7
  5
47
 10
35.03534655
 20
4.3586537
 30
0.0
 11
35.03534655
 21
-0.2813463
 31
0.0
  0
LINE
  8
0
  6
CONTINUOUS
 62
       7
  5
48
 10
-3.38465345
 20
-19.8413463
 30
0.0
 11
-3.38465345
 21
8.1586537
 31
0.0
  0
LINE
  8
0
  6
CONTINUOUS
 62
       7
  5
49
 10
-7.88465345
 20
-14.3413463
 30
0.0
 11
-7.88465345
 21
2.65865402
 31
0.0
  0
LINE
  8
0
  6
CONTINUOUS
 62
       7
  5
4A
 10
-16.12465345
 20
-10.8363463
 30
0.0
 11
-10.63465345
 21
-10.8363463
 31
0.0
  0
LINE
  8
0
  6
CONTINUOUS
 62
       7
  5
4B
 10
-16.88465345
 20
-14.27205919
 30
0.0
 11
-16.12465345
 21
-15.59205919
 31
0.0
  0
LINE
  8
0
  6
CONTINUOUS
 62
       7
  5
4C
 10
-16.12465345
 20
-15.6563463
 30
0.0
 11
-10.63465345
 21
-15.6563463
 31
0.0
  0
LINE
  8
0
  6
CONTINUOUS
 62
       7
  5
4D
 10
-10.63465345
 20
-15.6563463
 30
0.0
 11
-9.88465345
 21
-14.3363463
 31
0.0
  0
LINE
  8
0
  6
CONTINUOUS
 62
       7
  5
4E
 10
-9.88465345
 20
-14.3363463
 30
0.0
 11
-9.88465345
 21
2.6636537
 31
0.0
  0
LINE
  8
0
  6
CONTINUOUS
 62
       7
  5
4F
 10
-3.38465345
 20
-19.8413463
 30
0.0
 11
-2.38465345
 21
-20.8413463
 31
0.0
  0
LINE
  8
0
  6
CONTINUOUS
 62
       7
  5
50
 10
-2.38465345
 20
-20.8413463
 30
0.0
 11
-2.38465345
 21
9.1586537
 31
0.0
  0
LINE
  8
0
  6
CONTINUOUS
 62
       7
  5
51
 10
-2.38465345
 20
-20.8413463
 30
0.0
 11
24.61534655
 21
-20.8413463
 31
0.0
  0
LINE
  8
0
  6
CONTINUOUS
 62
       7
  5
52
 10
24.61534655
 20
-20.8413463
 30
0.0
 11
24.61534655
 21
9.1586537
 31
0.0
  0
LINE
  8
0
  6
CONTINUOUS
 62
       7
  5
53
 10
25.61534655
 20
-19.8413463
 30
0.0
 11
24.61534655
 21
-20.8413463
 31
0.0
  0
LINE
  8
0
  6
CONTINUOUS
 62
       7
  5
54
 10
26.61534655
 20
-20.8413463
 30
0.0
 11
26.61534655
 21
9.1586537
 31
0.0
  0
LINE
  8
0
  6
CONTINUOUS
 62
       7
  5
55
 10
27.18534655
 20
-16.0513463
 30
0.0
 11
35.03534655
 21
-16.0513463
 31
0.0
  0
LINE
  8
0
  6
CONTINUOUS
 62
       7
  5
56
 10
26.61534655
 20
-20.8413463
 30
0.0
 11
27.18534655
 21
-21.8413463
 31
0.0
  0
LINE
  8
0
  6
CONTINUOUS
 62
       7
  5
57
 10
27.18534655
 20
-21.8413463
 30
0.0
 11
35.03534655
 21
-21.8413463
 31
0.0
  0
LINE
  8
0
  6
CONTINUOUS
 62
       7
  5
58
 10
35.03534655
 20
-21.8413463
 30
0.0
 11
35.61534655
 21
-20.8413463
 31
0.0
  0
LINE
  8
0
  6
CONTINUOUS
 62
       7
  5
59
 10
35.03534655
 20
-16.0513463
 30
0.0
 11
35.03534655
 21
-11.4113463
 31
0.0
  0
LINE
  8
0
  6
CONTINUOUS
 62
       7
  5
5A
 10
27.18534655
 20
-16.0513463
 30
0.0
 11
27.18534655
 21
-11.4113463
 31
0.0
  0
LINE
  8
0
  6
CONTINUOUS
 62
       7
  5
5B
 10
27.18534655
 20
-11.4113463
 30
0.0
 11
35.03534655
 21
-11.4113463
 31
0.0
  0
ARC
  8
0
  6
CONTINUOUS
 62
       7
  5
5C
 10
98.36034655
 20
-5.84134696
 30
0.0
 40
15.99526647
 50
80.37279029
 51
99.62720971
  0
ARC
  8
0
  6
CONTINUOUS
 62
       7
  5
5D
 10
98.36534655
 20
-5.84134619
 30
0.0
 40
15.0
 50
270.0
 51
90.0
  0
CIRCLE
  8
0
  6
CONTINUOUS
 62
       2
  5
5E
 10
98.36534655
 20
-5.84134619
 30
0.0
 40
6.0
  0
CIRCLE
  8
0
  6
CONTINUOUS
 62
       7
  5
5F
 10
98.36534655
 20
-5.84134619
 30
0.0
 40
5.0
  0
ARC
  8
0
  6
CONTINUOUS
 62
       7
  5
60
 10
98.36527188
 20
-5.84147548
 30
0.0
 40
16.0008031
 50
320.35083752
 51
339.6288872
  0
ARC
  8
0
  6
CONTINUOUS
 62
       7
  5
61
 10
98.36960096
 20
-5.84871649
 30
0.0
 40
15.9958744
 50
20.36811444
 51
39.65216084
  0
ARC
  8
0
  6
CONTINUOUS
 62
       7
  5
62
 10
98.36034655
 20
-5.84134542
 30
0.0
 40
16.00512572
 50
260.37877711
 51
279.62122289
  0
ARC
  8
0
  6
CONTINUOUS
 62
       7
  5
63
 10
98.36534655
 20
-5.84134619
 30
0.0
 40
15.0
 50
90.0
 51
270.0
  0
ARC
  8
0
  6
CONTINUOUS
 62
       7
  5
64
 10
98.37691814
 20
-5.86142246
 30
0.0
 40
16.00465354
 50
200.28984259
 51
219.54507426
  0
ARC
  8
0
  6
CONTINUOUS
 62
       7
  5
65
 10
98.37258652
 20
-5.82877738
 30
0.0
 40
15.99972638
 50
140.45193265
 51
159.7131505
  0
POLYLINE
  8
0
  6
CONTINUOUS
 62
       7
  5
66
 66
       1
 10
0.0
 20
0.0
 30
0.0
  0
VERTEX
  8
0
  6
CONTINUOUS
 62
       7
  5
94
 10
-16.12465345
 20
3.9736537
 30
0.0
  0
VERTEX
  8
0
  6
CONTINUOUS
 62
       7
  5
95
 10
-16.20838293
 20
3.83616103
 30
0.0
  0
VERTEX
  8
0
  6
CONTINUOUS
 62
       7
  5
96
 10
-16.28851038
 20
3.6956272
 30
0.0
  0
VERTEX
  8
0
  6
CONTINUOUS
 62
       7
  5
97
 10
-16.36477255
 20
3.55225726
 30
0.0
  0
VERTEX
  8
0
  6
CONTINUOUS
 62
       7
  5
98
 10
-16.43690615
 20
3.40625624
 30
0.0
  0
VERTEX
  8
0
  6
CONTINUOUS
 62
       7
  5
99
 10
-16.50464794
 20
3.25782919
 30
0.0
  0
VERTEX
  8
0
  6
CONTINUOUS
 62
       7
  5
9A
 10
-16.56773464
 20
3.10718113
 30
0.0
  0
VERTEX
  8
0
  6
CONTINUOUS
 62
       7
  5
9B
 10
-16.62590298
 20
2.9545171
 30
0.0
  0
VERTEX
  8
0
  6
CONTINUOUS
 62
       7
  5
9C
 10
-16.67888971
 20
2.80004215
 30
0.0
  0
VERTEX
  8
0
  6
CONTINUOUS
 62
       7
  5
9D
 10
-16.72643155
 20
2.64396131
 30
0.0
  0
VERTEX
  8
0
  6
CONTINUOUS
 62
       7
  5
9E
 10
-16.76826525
 20
2.48647961
 30
0.0
  0
VERTEX
  8
0
  6
CONTINUOUS
 62
       7
  5
9F
 10
-16.80412753
 20
2.32780211
 30
0.0
  0
VERTEX
  8
0
  6
CONTINUOUS
 62
       7
  5
A0
 10
-16.83375513
 20
2.16813383
 30
0.0
  0
VERTEX
  8
0
  6
CONTINUOUS
 62
       7
  5
A1
 10
-16.85688479
 20
2.00767981
 30
0.0
  0
VERTEX
  8
0
  6
CONTINUOUS
 62
       7
  5
A2
 10
-16.87325324
 20
1.84664509
 30
0.0
  0
VERTEX
  8
0
  6
CONTINUOUS
 62
       7
  5
A3
 10
-16.88259721
 20
1.68523471
 30
0.0
  0
VERTEX
  8
0
  6
CONTINUOUS
 62
       7
  5
A4
 10
-16.88465345
 20
1.5236537
 30
0.0
  0
VERTEX
  8
0
  6
CONTINUOUS
 62
       7
  5
A5
 10
-16.87955358
 20
1.36754616
 30
0.0
  0
VERTEX
  8
0
  6
CONTINUOUS
 62
       7
  5
A6
 10
-16.86765614
 20
1.21172961
 30
0.0
  0
VERTEX
  8
0
  6
CONTINUOUS
 62
       7
  5
A7
 10
-16.84920632
 20
1.0563876
 30
0.0
  0
VERTEX
  8
0
  6
CONTINUOUS
 62
       7
  5
A8
 10
-16.82444929
 20
0.90170374
 30
0.0
  0
VERTEX
  8
0
  6
CONTINUOUS
 62
       7
  5
A9
 10
-16.79363026
 20
0.74786158
 30
0.0
  0
VERTEX
  8
0
  6
CONTINUOUS
 62
       7
  5
AA
 10
-16.75699442
 20
0.59504471
 30
0.0
  0
VERTEX
  8
0
  6
CONTINUOUS
 62
       7
  5
AB
 10
-16.71478696
 20
0.44343671
 30
0.0
  0
VERTEX
  8
0
  6
CONTINUOUS
 62
       7
  5
AC
 10
-16.66725307
 20
0.29322115
 30
0.0
  0
VERTEX
  8
0
  6
CONTINUOUS
 62
       7
  5
AD
 10
-16.61463794
 20
0.1445816
 30
0.0
  0
VERTEX
  8
0
  6
CONTINUOUS
 62
       7
  5
AE
 10
-16.55718677
 20
-0.00229835
 30
0.0
  0
VERTEX
  8
0
  6
CONTINUOUS
 62
       7
  5
AF
 10
-16.49514474
 20
-0.14723513
 30
0.0
  0
VERTEX
  8
0
  6
CONTINUOUS
 62
       7
  5
B0
 10
-16.42875704
 20
-0.29004517
 30
0.0
  0
VERTEX
  8
0
  6
CONTINUOUS
 62
       7
  5
B1
 10
-16.35826887
 20
-0.43054488
 30
0.0
  0
VERTEX
  8
0
  6
CONTINUOUS
 62
       7
  5
B2
 10
-16.28392542
 20
-0.56855069
 30
0.0
  0
VERTEX
  8
0
  6
CONTINUOUS
 62
       7
  5
B3
 10
-16.20597188
 20
-0.70387902
 30
0.0
  0
VERTEX
  8
0
  6
CONTINUOUS
 62
       7
  5
B4
 10
-16.12465345
 20
-0.8363463
 30
0.0
  0
SEQEND
  8
0
  6
CONTINUOUS
 62
       7
  5
B5
  0
POLYLINE
  8
0
  6
CONTINUOUS
 62
       7
  5
67
 66
       1
 10
0.0
 20
0.0
 30
0.0
  0
VERTEX
  8
0
  6
CONTINUOUS
 62
       7
  5
B6
 10
-16.12465345
 20
-0.8363463
 30
0.0
  0
VERTEX
  8
0
  6
CONTINUOUS
 62
       7
  5
B7
 10
-16.21462643
 20
-1.13951888
 30
0.0
  0
VERTEX
  8
0
  6
CONTINUOUS
 62
       7
  5
B8
 10
-16.29929394
 20
-1.44452564
 30
0.0
  0
VERTEX
  8
0
  6
CONTINUOUS
 62
       7
  5
B9
 10
-16.37857935
 20
-1.75124004
 30
0.0
  0
VERTEX
  8
0
  6
CONTINUOUS
 62
       7
  5
BA
 10
-16.45240604
 20
-2.05953555
 30
0.0
  0
VERTEX
  8
0
  6
CONTINUOUS
 62
       7
  5
BB
 10
-16.52069738
 20
-2.36928562
 30
0.0
  0
VERTEX
  8
0
  6
CONTINUOUS
 62
       7
  5
BC
 10
-16.58337673
 20
-2.6803637
 30
0.0
  0
VERTEX
  8
0
  6
CONTINUOUS
 62
       7
  5
BD
 10
-16.64036748
 20
-2.99264326
 30
0.0
  0
VERTEX
  8
0
  6
CONTINUOUS
 62
       7
  5
BE
 10
-16.69159299
 20
-3.30599775
 30
0.0
  0
VERTEX
  8
0
  6
CONTINUOUS
 62
       7
  5
BF
 10
-16.73697665
 20
-3.62030064
 30
0.0
  0
VERTEX
  8
0
  6
CONTINUOUS
 62
       7
  5
C0
 10
-16.77644181
 20
-3.93542537
 30
0.0
  0
VERTEX
  8
0
  6
CONTINUOUS
 62
       7
  5
C1
 10
-16.80991186
 20
-4.25124541
 30
0.0
  0
VERTEX
  8
0
  6
CONTINUOUS
 62
       7
  5
C2
 10
-16.83731017
 20
-4.56763422
 30
0.0
  0
VERTEX
  8
0
  6
CONTINUOUS
 62
       7
  5
C3
 10
-16.85856011
 20
-4.88446526
 30
0.0
  0
VERTEX
  8
0
  6
CONTINUOUS
 62
       7
  5
C4
 10
-16.87358506
 20
-5.20161198
 30
0.0
  0
VERTEX
  8
0
  6
CONTINUOUS
 62
       7
  5
C5
 10
-16.88230838
 20
-5.51894784
 30
0.0
  0
VERTEX
  8
0
  6
CONTINUOUS
 62
       7
  5
C6
 10
-16.88465345
 20
-5.8363463
 30
0.0
  0
SEQEND
  8
0
  6
CONTINUOUS
 62
       7
  5
C7
  0
POLYLINE
  8
0
  6
CONTINUOUS
 62
       7
  5
68
 66
       1
 10
0.0
 20
0.0
 30
0.0
  0
VERTEX
  8
0
  6
CONTINUOUS
 62
       7
  5
C8
 10
-10.63465345
 20
3.9736537
 30
0.0
  0
VERTEX
  8
0
  6
CONTINUOUS
 62
       7
  5
C9
 10
-10.55103633
 20
3.83616174
 30
0.0
  0
VERTEX
  8
0
  6
CONTINUOUS
 62
       7
  5
CA
 10
-10.47122629
 20
3.69562997
 30
0.0
  0
VERTEX
  8
0
  6
CONTINUOUS
 62
       7
  5
CB
 10
-10.3954573
 20
3.5522631
 30
0.0
  0
VERTEX
  8
0
  6
CONTINUOUS
 62
       7
  5
CC
 10
-10.32396332
 20
3.40626589
 30
0.0
  0
VERTEX
  8
0
  6
CONTINUOUS
 62
       7
  5
CD
 10
-10.25697834
 20
3.25784304
 30
0.0
  0
VERTEX
  8
0
  6
CONTINUOUS
 62
       7
  5
CE
 10
-10.19473633
 20
3.10719931
 30
0.0
  0
VERTEX
  8
0
  6
CONTINUOUS
 62
       7
  5
CF
 10
-10.13747125
 20
2.95453941
 30
0.0
  0
VERTEX
  8
0
  6
CONTINUOUS
 62
       7
  5
D0
 10
-10.08541709
 20
2.80006809
 30
0.0
  0
VERTEX
  8
0
  6
CONTINUOUS
 62
       7
  5
D1
 10
-10.03880782
 20
2.64399006
 30
0.0
  0
VERTEX
  8
0
  6
CONTINUOUS
 62
       7
  5
D2
 10
-9.9978774
 20
2.48651007
 30
0.0
  0
VERTEX
  8
0
  6
CONTINUOUS
 62
       7
  5
D3
 10
-9.96285982
 20
2.32783283
 30
0.0
  0
VERTEX
  8
0
  6
CONTINUOUS
 62
       7
  5
D4
 10
-9.93398904
 20
2.1681631
 30
0.0
  0
VERTEX
  8
0
  6
CONTINUOUS
 62
       7
  5
D5
 10
-9.91149904
 20
2.00770558
 30
0.0
  0
VERTEX
  8
0
  6
CONTINUOUS
 62
       7
  5
D6
 10
-9.89562379
 20
1.84666502
 30
0.0
  0
VERTEX
  8
0
  6
CONTINUOUS
 62
       7
  5
D7
 10
-9.88659727
 20
1.68524615
 30
0.0
  0
VERTEX
  8
0
  6
CONTINUOUS
 62
       7
  5
D8
 10
-9.88465345
 20
1.5236537
 30
0.0
  0
VERTEX
  8
0
  6
CONTINUOUS
 62
       7
  5
D9
 10
-9.889641
 20
1.36754622
 30
0.0
  0
VERTEX
  8
0
  6
CONTINUOUS
 62
       7
  5
DA
 10
-9.90122106
 20
1.2117297
 30
0.0
  0
VERTEX
  8
0
  6
CONTINUOUS
 62
       7
  5
DB
 10
-9.91917774
 20
1.05638773
 30
0.0
  0
VERTEX
  8
0
  6
CONTINUOUS
 62
       7
  5
DC
 10
-9.94329514
 20
0.90170388
 30
0.0
  0
VERTEX
  8
0
  6
CONTINUOUS
 62
       7
  5
DD
 10
-9.97335736
 20
0.74786173
 30
0.0
  0
VERTEX
  8
0
  6
CONTINUOUS
 62
       7
  5
DE
 10
-10.0091485
 20
0.59504486
 30
0.0
  0
VERTEX
  8
0
  6
CONTINUOUS
 62
       7
  5
DF
 10
-10.05045267
 20
0.44343685
 30
0.0
  0
VERTEX
  8
0
  6
CONTINUOUS
 62
       7
  5
E0
 10
-10.09705397
 20
0.29322128
 30
0.0
  0
VERTEX
  8
0
  6
CONTINUOUS
 62
       7
  5
E1
 10
-10.14873651
 20
0.14458171
 30
0.0
  0
VERTEX
  8
0
  6
CONTINUOUS
 62
       7
  5
E2
 10
-10.20528438
 20
-0.00229826
 30
0.0
  0
VERTEX
  8
0
  6
CONTINUOUS
 62
       7
  5
E3
 10
-10.26648169
 20
-0.14723506
 30
0.0
  0
VERTEX
  8
0
  6
CONTINUOUS
 62
       7
  5
E4
 10
-10.33211254
 20
-0.29004511
 30
0.0
  0
VERTEX
  8
0
  6
CONTINUOUS
 62
       7
  5
E5
 10
-10.40196104
 20
-0.43054484
 30
0.0
  0
VERTEX
  8
0
  6
CONTINUOUS
 62
       7
  5
E6
 10
-10.47581129
 20
-0.56855067
 30
0.0
  0
VERTEX
  8
0
  6
CONTINUOUS
 62
       7
  5
E7
 10
-10.55344739
 20
-0.70387901
 30
0.0
  0
VERTEX
  8
0
  6
CONTINUOUS
 62
       7
  5
E8
 10
-10.63465345
 20
-0.8363463
 30
0.0
  0
SEQEND
  8
0
  6
CONTINUOUS
 62
       7
  5
E9
  0
POLYLINE
  8
0
  6
CONTINUOUS
 62
       7
  5
69
 66
       1
 10
0.0
 20
0.0
 30
0.0
  0
VERTEX
  8
0
  6
CONTINUOUS
 62
       7
  5
EA
 10
-10.63465345
 20
-0.8363463
 30
0.0
  0
VERTEX
  8
0
  6
CONTINUOUS
 62
       7
  5
EB
 10
-10.54479285
 20
-1.13951874
 30
0.0
  0
VERTEX
  8
0
  6
CONTINUOUS
 62
       7
  5
EC
 10
-10.46044278
 20
-1.44452501
 30
0.0
  0
VERTEX
  8
0
  6
CONTINUOUS
 62
       7
  5
ED
 10
-10.38165057
 20
-1.75123865
 30
0.0
  0
VERTEX
  8
0
  6
CONTINUOUS
 62
       7
  5
EE
 10
-10.30846355
 20
-2.05953318
 30
0.0
  0
VERTEX
  8
0
  6
CONTINUOUS
 62
       7
  5
EF
 10
-10.24092906
 20
-2.36928216
 30
0.0
  0
VERTEX
  8
0
  6
CONTINUOUS
 62
       7
  5
F0
 10
-10.17909443
 20
-2.68035911
 30
0.0
  0
VERTEX
  8
0
  6
CONTINUOUS
 62
       7
  5
F1
 10
-10.12300698
 20
-2.99263759
 30
0.0
  0
VERTEX
  8
0
  6
CONTINUOUS
 62
       7
  5
F2
 10
-10.07271406
 20
-3.30599113
 30
0.0
  0
VERTEX
  8
0
  6
CONTINUOUS
 62
       7
  5
F3
 10
-10.02826299
 20
-3.62029326
 30
0.0
  0
VERTEX
  8
0
  6
CONTINUOUS
 62
       7
  5
F4
 10
-9.98970112
 20
-3.93541754
 30
0.0
  0
VERTEX
  8
0
  6
CONTINUOUS
 62
       7
  5
F5
 10
-9.95707576
 20
-4.25123749
 30
0.0
  0
VERTEX
  8
0
  6
CONTINUOUS
 62
       7
  5
F6
 10
-9.93043426
 20
-4.56762666
 30
0.0
  0
VERTEX
  8
0
  6
CONTINUOUS
 62
       7
  5
F7
 10
-9.90982394
 20
-4.88445859
 30
0.0
  0
VERTEX
  8
0
  6
CONTINUOUS
 62
       7
  5
F8
 10
-9.89529215
 20
-5.20160681
 30
0.0
  0
VERTEX
  8
0
  6
CONTINUOUS
 62
       7
  5
F9
 10
-9.88688621
 20
-5.51894487
 30
0.0
  0
VERTEX
  8
0
  6
CONTINUOUS
 62
       7
  5
FA
 10
-9.88465345
 20
-5.8363463
 30
0.0
  0
SEQEND
  8
0
  6
CONTINUOUS
 62
       7
  5
FB
  0
POLYLINE
  8
0
  6
CONTINUOUS
 62
       7
  5
6A
 66
       1
 10
0.0
 20
0.0
 30
0.0
  0
VERTEX
  8
0
  6
CONTINUOUS
 62
       7
  5
FC
 10
27.18534655
 20
10.1586537
 30
0.0
  0
VERTEX
  8
0
  6
CONTINUOUS
 62
       7
  5
FD
 10
27.11653365
 20
9.97971776
 30
0.0
  0
VERTEX
  8
0
  6
CONTINUOUS
 62
       7
  5
FE
 10
27.05179442
 20
9.79891271
 30
0.0
  0
VERTEX
  8
0
  6
CONTINUOUS
 62
       7
  5
FF
 10
26.99120415
 20
9.61637654
 30
0.0
  0
VERTEX
  8
0
  6
CONTINUOUS
 62
       7
  5
100
 10
26.93483814
 20
9.43224722
 30
0.0
  0
VERTEX
  8
0
  6
CONTINUOUS
 62
       7
  5
101
 10
26.8827717
 20
9.24666273
 30
0.0
  0
VERTEX
  8
0
  6
CONTINUOUS
 62
       7
  5
102
 10
26.83508011
 20
9.05976105
 30
0.0
  0
VERTEX
  8
0
  6
CONTINUOUS
 62
       7
  5
103
 10
26.79183867
 20
8.87168015
 30
0.0
  0
VERTEX
  8
0
  6
CONTINUOUS
 62
       7
  5
104
 10
26.75312268
 20
8.68255802
 30
0.0
  0
VERTEX
  8
0
  6
CONTINUOUS
 62
       7
  5
105
 10
26.71900744
 20
8.49253263
 30
0.0
  0
VERTEX
  8
0
  6
CONTINUOUS
 62
       7
  5
106
 10
26.68956824
 20
8.30174195
 30
0.0
  0
VERTEX
  8
0
  6
CONTINUOUS
 62
       7
  5
107
 10
26.66488038
 20
8.11032397
 30
0.0
  0
VERTEX
  8
0
  6
CONTINUOUS
 62
       7
  5
108
 10
26.64501916
 20
7.91841666
 30
0.0
  0
VERTEX
  8
0
  6
CONTINUOUS
 62
       7
  5
109
 10
26.63005987
 20
7.72615801
 30
0.0
  0
VERTEX
  8
0
  6
CONTINUOUS
 62
       7
  5
10A
 10
26.6200778
 20
7.53368597
 30
0.0
  0
VERTEX
  8
0
  6
CONTINUOUS
 62
       7
  5
10B
 10
26.61514827
 20
7.34113855
 30
0.0
  0
VERTEX
  8
0
  6
CONTINUOUS
 62
       7
  5
10C
 10
26.61534655
 20
7.1486537
 30
0.0
  0
VERTEX
  8
0
  6
CONTINUOUS
 62
       7
  5
10D
 10
26.62015509
 20
6.96979432
 30
0.0
  0
VERTEX
  8
0
  6
CONTINUOUS
 62
       7
  5
10E
 10
26.62935812
 20
6.79099303
 30
0.0
  0
VERTEX
  8
0
  6
CONTINUOUS
 62
       7
  5
10F
 10
26.64289443
 20
6.61236552
 30
0.0
  0
VERTEX
  8
0
  6
CONTINUOUS
 62
       7
  5
110
 10
26.66070282
 20
6.43402746
 30
0.0
  0
VERTEX
  8
0
  6
CONTINUOUS
 62
       7
  5
111
 10
26.68272208
 20
6.25609453
 30
0.0
  0
VERTEX
  8
0
  6
CONTINUOUS
 62
       7
  5
112
 10
26.70889101
 20
6.0786824
 30
0.0
  0
VERTEX
  8
0
  6
CONTINUOUS
 62
       7
  5
113
 10
26.73914839
 20
5.90190674
 30
0.0
  0
VERTEX
  8
0
  6
CONTINUOUS
 62
       7
  5
114
 10
26.77343303
 20
5.72588324
 30
0.0
  0
VERTEX
  8
0
  6
CONTINUOUS
 62
       7
  5
115
 10
26.81168371
 20
5.55072757
 30
0.0
  0
VERTEX
  8
0
  6
CONTINUOUS
 62
       7
  5
116
 10
26.85383924
 20
5.37655539
 30
0.0
  0
VERTEX
  8
0
  6
CONTINUOUS
 62
       7
  5
117
 10
26.8998384
 20
5.2034824
 30
0.0
  0
VERTEX
  8
0
  6
CONTINUOUS
 62
       7
  5
118
 10
26.94962
 20
5.03162425
 30
0.0
  0
VERTEX
  8
0
  6
CONTINUOUS
 62
       7
  5
119
 10
27.00312281
 20
4.86109663
 30
0.0
  0
VERTEX
  8
0
  6
CONTINUOUS
 62
       7
  5
11A
 10
27.06028565
 20
4.69201522
 30
0.0
  0
VERTEX
  8
0
  6
CONTINUOUS
 62
       7
  5
11B
 10
27.1210473
 20
4.52449568
 30
0.0
  0
VERTEX
  8
0
  6
CONTINUOUS
 62
       7
  5
11C
 10
27.18534655
 20
4.3586537
 30
0.0
  0
SEQEND
  8
0
  6
CONTINUOUS
 62
       7
  5
11D
  0
POLYLINE
  8
0
  6
CONTINUOUS
 62
       7
  5
6B
 66
       1
 10
0.0
 20
0.0
 30
0.0
  0
VERTEX
  8
0
  6
CONTINUOUS
 62
       7
  5
11E
 10
27.18534655
 20
-0.2813463
 30
0.0
  0
VERTEX
  8
0
  6
CONTINUOUS
 62
       7
  5
11F
 10
27.11650414
 20
-0.62435526
 30
0.0
  0
VERTEX
  8
0
  6
CONTINUOUS
 62
       7
  5
120
 10
27.05206819
 20
-0.96822162
 30
0.0
  0
VERTEX
  8
0
  6
CONTINUOUS
 62
       7
  5
121
 10
26.99204352
 20
-1.31288999
 30
0.0
  0
VERTEX
  8
0
  6
CONTINUOUS
 62
       7
  5
122
 10
26.93643497
 20
-1.65830493
 30
0.0
  0
VERTEX
  8
0
  6
CONTINUOUS
 62
       7
  5
123
 10
26.88524737
 20
-2.00441104
 30
0.0
  0
VERTEX
  8
0
  6
CONTINUOUS
 62
       7
  5
124
 10
26.83848553
 20
-2.35115289
 30
0.0
  0
VERTEX
  8
0
  6
CONTINUOUS
 62
       7
  5
125
 10
26.7961543
 20
-2.69847509
 30
0.0
  0
VERTEX
  8
0
  6
CONTINUOUS
 62
       7
  5
126
 10
26.75825848
 20
-3.04632219
 30
0.0
  0
VERTEX
  8
0
  6
CONTINUOUS
 62
       7
  5
127
 10
26.72480292
 20
-3.39463881
 30
0.0
  0
VERTEX
  8
0
  6
CONTINUOUS
 62
       7
  5
128
 10
26.69579244
 20
-3.74336951
 30
0.0
  0
VERTEX
  8
0
  6
CONTINUOUS
 62
       7
  5
129
 10
26.67123187
 20
-4.09245888
 30
0.0
  0
VERTEX
  8
0
  6
CONTINUOUS
 62
       7
  5
12A
 10
26.65112602
 20
-4.44185151
 30
0.0
  0
VERTEX
  8
0
  6
CONTINUOUS
 62
       7
  5
12B
 10
26.63547975
 20
-4.79149198
 30
0.0
  0
VERTEX
  8
0
  6
CONTINUOUS
 62
       7
  5
12C
 10
26.62429786
 20
-5.14132488
 30
0.0
  0
VERTEX
  8
0
  6
CONTINUOUS
 62
       7
  5
12D
 10
26.61758518
 20
-5.49129479
 30
0.0
  0
VERTEX
  8
0
  6
CONTINUOUS
 62
       7
  5
12E
 10
26.61534655
 20
-5.8413463
 30
0.0
  0
SEQEND
  8
0
  6
CONTINUOUS
 62
       7
  5
12F
  0
POLYLINE
  8
0
  6
CONTINUOUS
 62
       7
  5
6C
 66
       1
 10
0.0
 20
0.0
 30
0.0
  0
VERTEX
  8
0
  6
CONTINUOUS
 62
       7
  5
130
 10
35.03534655
 20
10.1586537
 30
0.0
  0
VERTEX
  8
0
  6
CONTINUOUS
 62
       7
  5
131
 10
35.10427175
 20
9.97971665
 30
0.0
  0
VERTEX
  8
0
  6
CONTINUOUS
 62
       7
  5
132
 10
35.16932833
 20
9.79890864
 30
0.0
  0
VERTEX
  8
0
  6
CONTINUOUS
 62
       7
  5
133
 10
35.23041171
 20
9.61636807
 30
0.0
  0
VERTEX
  8
0
  6
CONTINUOUS
 62
       7
  5
134
 10
35.28741728
 20
9.43223335
 30
0.0
  0
VERTEX
  8
0
  6
CONTINUOUS
 62
       7
  5
135
 10
35.34024048
 20
9.24664289
 30
0.0
  0
VERTEX
  8
0
  6
CONTINUOUS
 62
       7
  5
136
 10
35.38877671
 20
9.05973511
 30
0.0
  0
VERTEX
  8
0
  6
CONTINUOUS
 62
       7
  5
137
 10
35.43292138
 20
8.8716484
 30
0.0
  0
VERTEX
  8
0
  6
CONTINUOUS
 62
       7
  5
138
 10
35.47256991
 20
8.68252117
 30
0.0
  0
VERTEX
  8
0
  6
CONTINUOUS
 62
       7
  5
139
 10
35.50761771
 20
8.49249183
 30
0.0
  0
VERTEX
  8
0
  6
CONTINUOUS
 62
       7
  5
13A
 10
35.53796019
 20
8.30169879
 30
0.0
  0
VERTEX
  8
0
  6
CONTINUOUS
 62
       7
  5
13B
 10
35.56349277
 20
8.11028047
 30
0.0
  0
VERTEX
  8
0
  6
CONTINUOUS
 62
       7
  5
13C
 10
35.58411085
 20
7.91837525
 30
0.0
  0
VERTEX
  8
0
  6
CONTINUOUS
 62
       7
  5
13D
 10
35.59970986
 20
7.72612156
 30
0.0
  0
VERTEX
  8
0
  6
CONTINUOUS
 62
       7
  5
13E
 10
35.61018521
 20
7.5336578
 30
0.0
  0
VERTEX
  8
0
  6
CONTINUOUS
 62
       7
  5
13F
 10
35.6154323
 20
7.34112238
 30
0.0
  0
VERTEX
  8
0
  6
CONTINUOUS
 62
       7
  5
140
 10
35.61534655
 20
7.1486537
 30
0.0
  0
VERTEX
  8
0
  6
CONTINUOUS
 62
       7
  5
141
 10
35.61042571
 20
6.96979421
 30
0.0
  0
VERTEX
  8
0
  6
CONTINUOUS
 62
       7
  5
142
 10
35.6009053
 20
6.79099285
 30
0.0
  0
VERTEX
  8
0
  6
CONTINUOUS
 62
       7
  5
143
 10
35.58687583
 20
6.61236529
 30
0.0
  0
VERTEX
  8
0
  6
CONTINUOUS
 62
       7
  5
144
 10
35.56842779
 20
6.43402721
 30
0.0
  0
VERTEX
  8
0
  6
CONTINUOUS
 62
       7
  5
145
 10
35.5456517
 20
6.25609427
 30
0.0
  0
VERTEX
  8
0
  6
CONTINUOUS
 62
       7
  5
146
 10
35.51863805
 20
6.07868215
 30
0.0
  0
VERTEX
  8
0
  6
CONTINUOUS
 62
       7
  5
147
 10
35.48747735
 20
5.90190652
 30
0.0
  0
VERTEX
  8
0
  6
CONTINUOUS
 62
       7
  5
148
 10
35.4522601
 20
5.72588305
 30
0.0
  0
VERTEX
  8
0
  6
CONTINUOUS
 62
       7
  5
149
 10
35.4130768
 20
5.55072742
 30
0.0
  0
VERTEX
  8
0
  6
CONTINUOUS
 62
       7
  5
14A
 10
35.37001796
 20
5.37655528
 30
0.0
  0
VERTEX
  8
0
  6
CONTINUOUS
 62
       7
  5
14B
 10
35.32317407
 20
5.20348233
 30
0.0
  0
VERTEX
  8
0
  6
CONTINUOUS
 62
       7
  5
14C
 10
35.27263564
 20
5.03162422
 30
0.0
  0
VERTEX
  8
0
  6
CONTINUOUS
 62
       7
  5
14D
 10
35.21849317
 20
4.86109663
 30
0.0
  0
VERTEX
  8
0
  6
CONTINUOUS
 62
       7
  5
14E
 10
35.16083716
 20
4.69201523
 30
0.0
  0
VERTEX
  8
0
  6
CONTINUOUS
 62
       7
  5
14F
 10
35.09975812
 20
4.5244957
 30
0.0
  0
VERTEX
  8
0
  6
CONTINUOUS
 62
       7
  5
150
 10
35.03534655
 20
4.3586537
 30
0.0
  0
SEQEND
  8
0
  6
CONTINUOUS
 62
       7
  5
151
  0
POLYLINE
  8
0
  6
CONTINUOUS
 62
       7
  5
6D
 66
       1
 10
0.0
 20
0.0
 30
0.0
  0
VERTEX
  8
0
  6
CONTINUOUS
 62
       7
  5
152
 10
35.03534655
 20
-0.2813463
 30
0.0
  0
VERTEX
  8
0
  6
CONTINUOUS
 62
       7
  5
153
 10
35.10430125
 20
-0.62435519
 30
0.0
  0
VERTEX
  8
0
  6
CONTINUOUS
 62
       7
  5
154
 10
35.16905457
 20
-0.96822148
 30
0.0
  0
VERTEX
  8
0
  6
CONTINUOUS
 62
       7
  5
155
 10
35.22957239
 20
-1.31288976
 30
0.0
  0
VERTEX
  8
0
  6
CONTINUOUS
 62
       7
  5
156
 10
35.28582058
 20
-1.65830462
 30
0.0
  0
VERTEX
  8
0
  6
CONTINUOUS
 62
       7
  5
157
 10
35.33776502
 20
-2.00441064
 30
0.0
  0
VERTEX
  8
0
  6
CONTINUOUS
 62
       7
  5
158
 10
35.38537159
 20
-2.35115243
 30
0.0
  0
VERTEX
  8
0
  6
CONTINUOUS
 62
       7
  5
159
 10
35.42860615
 20
-2.69847455
 30
0.0
  0
VERTEX
  8
0
  6
CONTINUOUS
 62
       7
  5
15A
 10
35.46743458
 20
-3.04632161
 30
0.0
  0
VERTEX
  8
0
  6
CONTINUOUS
 62
       7
  5
15B
 10
35.50182277
 20
-3.39463819
 30
0.0
  0
VERTEX
  8
0
  6
CONTINUOUS
 62
       7
  5
15C
 10
35.53173657
 20
-3.74336888
 30
0.0
  0
VERTEX
  8
0
  6
CONTINUOUS
 62
       7
  5
15D
 10
35.55714188
 20
-4.09245827
 30
0.0
  0
VERTEX
  8
0
  6
CONTINUOUS
 62
       7
  5
15E
 10
35.57800456
 20
-4.44185095
 30
0.0
  0
VERTEX
  8
0
  6
CONTINUOUS
 62
       7
  5
15F
 10
35.5942905
 20
-4.7914915
 30
0.0
  0
VERTEX
  8
0
  6
CONTINUOUS
 62
       7
  5
160
 10
35.60596556
 20
-5.14132452
 30
0.0
  0
VERTEX
  8
0
  6
CONTINUOUS
 62
       7
  5
161
 10
35.61299562
 20
-5.49129459
 30
0.0
  0
VERTEX
  8
0
  6
CONTINUOUS
 62
       7
  5
162
 10
35.61534655
 20
-5.8413463
 30
0.0
  0
SEQEND
  8
0
  6
CONTINUOUS
 62
       7
  5
163
  0
POLYLINE
  8
0
  6
CONTINUOUS
 62
       7
  5
6E
 66
       1
 10
0.0
 20
0.0
 30
0.0
  0
VERTEX
  8
0
  6
CONTINUOUS
 62
       7
  5
164
 10
-16.12465345
 20
-10.8363463
 30
0.0
  0
VERTEX
  8
0
  6
CONTINUOUS
 62
       7
  5
165
 10
-16.21462653
 20
-10.53321078
 30
0.0
  0
VERTEX
  8
0
  6
CONTINUOUS
 62
       7
  5
166
 10
-16.29929432
 20
-10.22830532
 30
0.0
  0
VERTEX
  8
0
  6
CONTINUOUS
 62
       7
  5
167
 10
-16.37858015
 20
-9.92174164
 30
0.0
  0
VERTEX
  8
0
  6
CONTINUOUS
 62
       7
  5
168
 10
-16.45240734
 20
-9.61363144
 30
0.0
  0
VERTEX
  8
0
  6
CONTINUOUS
 62
       7
  5
169
 10
-16.52069924
 20
-9.30408646
 30
0.0
  0
VERTEX
  8
0
  6
CONTINUOUS
 62
       7
  5
16A
 10
-16.58337917
 20
-8.99321839
 30
0.0
  0
VERTEX
  8
0
  6
CONTINUOUS
 62
       7
  5
16B
 10
-16.64037046
 20
-8.68113897
 30
0.0
  0
VERTEX
  8
0
  6
CONTINUOUS
 62
       7
  5
16C
 10
-16.69159646
 20
-8.3679599
 30
0.0
  0
VERTEX
  8
0
  6
CONTINUOUS
 62
       7
  5
16D
 10
-16.73698049
 20
-8.05379291
 30
0.0
  0
VERTEX
  8
0
  6
CONTINUOUS
 62
       7
  5
16E
 10
-16.77644588
 20
-7.73874972
 30
0.0
  0
VERTEX
  8
0
  6
CONTINUOUS
 62
       7
  5
16F
 10
-16.80991596
 20
-7.42294203
 30
0.0
  0
VERTEX
  8
0
  6
CONTINUOUS
 62
       7
  5
170
 10
-16.83731407
 20
-7.10648156
 30
0.0
  0
VERTEX
  8
0
  6
CONTINUOUS
 62
       7
  5
171
 10
-16.85856355
 20
-6.78948004
 30
0.0
  0
VERTEX
  8
0
  6
CONTINUOUS
 62
       7
  5
172
 10
-16.87358771
 20
-6.47204918
 30
0.0
  0
VERTEX
  8
0
  6
CONTINUOUS
 62
       7
  5
173
 10
-16.8823099
 20
-6.15430069
 30
0.0
  0
VERTEX
  8
0
  6
CONTINUOUS
 62
       7
  5
174
 10
-16.88465345
 20
-5.8363463
 30
0.0
  0
SEQEND
  8
0
  6
CONTINUOUS
 62
       7
  5
175
  0
POLYLINE
  8
0
  6
CONTINUOUS
 62
       7
  5
6F
 66
       1
 10
0.0
 20
0.0
 30
0.0
  0
VERTEX
  8
0
  6
CONTINUOUS
 62
       7
  5
176
 10
-16.12465345
 20
-15.6563463
 30
0.0
  0
VERTEX
  8
0
  6
CONTINUOUS
 62
       7
  5
177
 10
-16.20838256
 20
-15.51881739
 30
0.0
  0
VERTEX
  8
0
  6
CONTINUOUS
 62
       7
  5
178
 10
-16.28850899
 20
-15.37818451
 30
0.0
  0
VERTEX
  8
0
  6
CONTINUOUS
 62
       7
  5
179
 10
-16.36476963
 20
-15.23466721
 30
0.0
  0
VERTEX
  8
0
  6
CONTINUOUS
 62
       7
  5
17A
 10
-16.43690136
 20
-15.08848501
 30
0.0
  0
VERTEX
  8
0
  6
CONTINUOUS
 62
       7
  5
17B
 10
-16.50464106
 20
-14.93985745
 30
0.0
  0
VERTEX
  8
0
  6
CONTINUOUS
 62
       7
  5
17C
 10
-16.56772563
 20
-14.78900405
 30
0.0
  0
VERTEX
  8
0
  6
CONTINUOUS
 62
       7
  5
17D
 10
-16.62589195
 20
-14.63614435
 30
0.0
  0
VERTEX
  8
0
  6
CONTINUOUS
 62
       7
  5
17E
 10
-16.6788769
 20
-14.48149789
 30
0.0
  0
VERTEX
  8
0
  6
CONTINUOUS
 62
       7
  5
17F
 10
-16.72641736
 20
-14.32528418
 30
0.0
  0
VERTEX
  8
0
  6
CONTINUOUS
 62
       7
  5
180
 10
-16.76825023
 20
-14.16772277
 30
0.0
  0
VERTEX
  8
0
  6
CONTINUOUS
 62
       7
  5
181
 10
-16.80411238
 20
-14.00903319
 30
0.0
  0
VERTEX
  8
0
  6
CONTINUOUS
 62
       7
  5
182
 10
-16.83374071
 20
-13.84943497
 30
0.0
  0
VERTEX
  8
0
  6
CONTINUOUS
 62
       7
  5
183
 10
-16.8568721
 20
-13.68914763
 30
0.0
  0
VERTEX
  8
0
  6
CONTINUOUS
 62
       7
  5
184
 10
-16.87324342
 20
-13.52839072
 30
0.0
  0
VERTEX
  8
0
  6
CONTINUOUS
 62
       7
  5
185
 10
-16.88259158
 20
-13.36738377
 30
0.0
  0
VERTEX
  8
0
  6
CONTINUOUS
 62
       7
  5
186
 10
-16.88465345
 20
-13.2063463
 30
0.0
  0
VERTEX
  8
0
  6
CONTINUOUS
 62
       7
  5
187
 10
-16.87955359
 20
-13.05012669
 30
0.0
  0
VERTEX
  8
0
  6
CONTINUOUS
 62
       7
  5
188
 10
-16.86765615
 20
-12.89399292
 30
0.0
  0
VERTEX
  8
0
  6
CONTINUOUS
 62
       7
  5
189
 10
-16.84920632
 20
-12.73815788
 30
0.0
  0
VERTEX
  8
0
  6
CONTINUOUS
 62
       7
  5
18A
 10
-16.8244493
 20
-12.58283443
 30
0.0
  0
VERTEX
  8
0
  6
CONTINUOUS
 62
       7
  5
18B
 10
-16.79363027
 20
-12.42823547
 30
0.0
  0
VERTEX
  8
0
  6
CONTINUOUS
 62
       7
  5
18C
 10
-16.75699443
 20
-12.27457386
 30
0.0
  0
VERTEX
  8
0
  6
CONTINUOUS
 62
       7
  5
18D
 10
-16.71478697
 20
-12.1220625
 30
0.0
  0
VERTEX
  8
0
  6
CONTINUOUS
 62
       7
  5
18E
 10
-16.66725308
 20
-11.97091426
 30
0.0
  0
VERTEX
  8
0
  6
CONTINUOUS
 62
       7
  5
18F
 10
-16.61463795
 20
-11.82134202
 30
0.0
  0
VERTEX
  8
0
  6
CONTINUOUS
 62
       7
  5
190
 10
-16.55718677
 20
-11.67355866
 30
0.0
  0
VERTEX
  8
0
  6
CONTINUOUS
 62
       7
  5
191
 10
-16.49514474
 20
-11.52777707
 30
0.0
  0
VERTEX
  8
0
  6
CONTINUOUS
 62
       7
  5
192
 10
-16.42875704
 20
-11.38421011
 30
0.0
  0
VERTEX
  8
0
  6
CONTINUOUS
 62
       7
  5
193
 10
-16.35826888
 20
-11.24307068
 30
0.0
  0
VERTEX
  8
0
  6
CONTINUOUS
 62
       7
  5
194
 10
-16.28392543
 20
-11.10457164
 30
0.0
  0
VERTEX
  8
0
  6
CONTINUOUS
 62
       7
  5
195
 10
-16.20597189
 20
-10.96892589
 30
0.0
  0
VERTEX
  8
0
  6
CONTINUOUS
 62
       7
  5
196
 10
-16.12465345
 20
-10.8363463
 30
0.0
  0
SEQEND
  8
0
  6
CONTINUOUS
 62
       7
  5
197
  0
POLYLINE
  8
0
  6
CONTINUOUS
 62
       7
  5
70
 66
       1
 10
0.0
 20
0.0
 30
0.0
  0
VERTEX
  8
0
  6
CONTINUOUS
 62
       7
  5
198
 10
-10.63465345
 20
-15.6563463
 30
0.0
  0
VERTEX
  8
0
  6
CONTINUOUS
 62
       7
  5
199
 10
-10.5510367
 20
-15.51881801
 30
0.0
  0
VERTEX
  8
0
  6
CONTINUOUS
 62
       7
  5
19A
 10
-10.47122769
 20
-15.37818693
 30
0.0
  0
VERTEX
  8
0
  6
CONTINUOUS
 62
       7
  5
19B
 10
-10.39546022
 20
-15.23467234
 30
0.0
  0
VERTEX
  8
0
  6
CONTINUOUS
 62
       7
  5
19C
 10
-10.32396813
 20
-15.08849348
 30
0.0
  0
VERTEX
  8
0
  6
CONTINUOUS
 62
       7
  5
19D
 10
-10.25698523
 20
-14.93986963
 30
0.0
  0
VERTEX
  8
0
  6
CONTINUOUS
 62
       7
  5
19E
 10
-10.19474535
 20
-14.78902004
 30
0.0
  0
VERTEX
  8
0
  6
CONTINUOUS
 62
       7
  5
19F
 10
-10.13748231
 20
-14.63616397
 30
0.0
  0
VERTEX
  8
0
  6
CONTINUOUS
 62
       7
  5
1A0
 10
-10.08542994
 20
-14.4815207
 30
0.0
  0
VERTEX
  8
0
  6
CONTINUOUS
 62
       7
  5
1A1
 10
-10.03882204
 20
-14.32530947
 30
0.0
  0
VERTEX
  8
0
  6
CONTINUOUS
 62
       7
  5
1A2
 10
-9.99789246
 20
-14.16774956
 30
0.0
  0
VERTEX
  8
0
  6
CONTINUOUS
 62
       7
  5
1A3
 10
-9.962875
 20
-14.00906022
 30
0.0
  0
VERTEX
  8
0
  6
CONTINUOUS
 62
       7
  5
1A4
 10
-9.9340035
 20
-13.84946072
 30
0.0
  0
VERTEX
  8
0
  6
CONTINUOUS
 62
       7
  5
1A5
 10
-9.91151177
 20
-13.68917031
 30
0.0
  0
VERTEX
  8
0
  6
CONTINUOUS
 62
       7
  5
1A6
 10
-9.89563363
 20
-13.52840826
 30
0.0
  0
VERTEX
  8
0
  6
CONTINUOUS
 62
       7
  5
1A7
 10
-9.88660292
 20
-13.36739384
 30
0.0
  0
VERTEX
  8
0
  6
CONTINUOUS
 62
       7
  5
1A8
 10
-9.88465345
 20
-13.2063463
 30
0.0
  0
VERTEX
  8
0
  6
CONTINUOUS
 62
       7
  5
1A9
 10
-9.889641
 20
-13.05012674
 30
0.0
  0
VERTEX
  8
0
  6
CONTINUOUS
 62
       7
  5
1AA
 10
-9.90122106
 20
-12.89399302
 30
0.0
  0
VERTEX
  8
0
  6
CONTINUOUS
 62
       7
  5
1AB
 10
-9.91917774
 20
-12.738158
 30
0.0
  0
VERTEX
  8
0
  6
CONTINUOUS
 62
       7
  5
1AC
 10
-9.94329514
 20
-12.58283457
 30
0.0
  0
VERTEX
  8
0
  6
CONTINUOUS
 62
       7
  5
1AD
 10
-9.97335735
 20
-12.42823562
 30
0.0
  0
VERTEX
  8
0
  6
CONTINUOUS
 62
       7
  5
1AE
 10
-10.0091485
 20
-12.27457401
 30
0.0
  0
VERTEX
  8
0
  6
CONTINUOUS
 62
       7
  5
1AF
 10
-10.05045267
 20
-12.12206264
 30
0.0
  0
VERTEX
  8
0
  6
CONTINUOUS
 62
       7
  5
1B0
 10
-10.09705397
 20
-11.97091439
 30
0.0
  0
VERTEX
  8
0
  6
CONTINUOUS
 62
       7
  5
1B1
 10
-10.1487365
 20
-11.82134214
 30
0.0
  0
VERTEX
  8
0
  6
CONTINUOUS
 62
       7
  5
1B2
 10
-10.20528437
 20
-11.67355876
 30
0.0
  0
VERTEX
  8
0
  6
CONTINUOUS
 62
       7
  5
1B3
 10
-10.26648168
 20
-11.52777714
 30
0.0
  0
VERTEX
  8
0
  6
CONTINUOUS
 62
       7
  5
1B4
 10
-10.33211254
 20
-11.38421017
 30
0.0
  0
VERTEX
  8
0
  6
CONTINUOUS
 62
       7
  5
1B5
 10
-10.40196104
 20
-11.24307071
 30
0.0
  0
VERTEX
  8
0
  6
CONTINUOUS
 62
       7
  5
1B6
 10
-10.47581129
 20
-11.10457166
 30
0.0
  0
VERTEX
  8
0
  6
CONTINUOUS
 62
       7
  5
1B7
 10
-10.55344739
 20
-10.9689259
 30
0.0
  0
VERTEX
  8
0
  6
CONTINUOUS
 62
       7
  5
1B8
 10
-10.63465345
 20
-10.8363463
 30
0.0
  0
SEQEND
  8
0
  6
CONTINUOUS
 62
       7
  5
1B9
  0
POLYLINE
  8
0
  6
CONTINUOUS
 62
       7
  5
71
 66
       1
 10
0.0
 20
0.0
 30
0.0
  0
VERTEX
  8
0
  6
CONTINUOUS
 62
       7
  5
1BA
 10
-10.63465345
 20
-10.8363463
 30
0.0
  0
VERTEX
  8
0
  6
CONTINUOUS
 62
       7
  5
1BB
 10
-10.54479275
 20
-10.53321094
 30
0.0
  0
VERTEX
  8
0
  6
CONTINUOUS
 62
       7
  5
1BC
 10
-10.4604424
 20
-10.22830604
 30
0.0
  0
VERTEX
  8
0
  6
CONTINUOUS
 62
       7
  5
1BD
 10
-10.38164978
 20
-9.92174322
 30
0.0
  0
VERTEX
  8
0
  6
CONTINUOUS
 62
       7
  5
1BE
 10
-10.30846225
 20
-9.61363411
 30
0.0
  0
VERTEX
  8
0
  6
CONTINUOUS
 62
       7
  5
1BF
 10
-10.2409272
 20
-9.30409034
 30
0.0
  0
VERTEX
  8
0
  6
CONTINUOUS
 62
       7
  5
1C0
 10
-10.17909199
 20
-8.99322353
 30
0.0
  0
VERTEX
  8
0
  6
CONTINUOUS
 62
       7
  5
1C1
 10
-10.12300399
 20
-8.68114532
 30
0.0
  0
VERTEX
  8
0
  6
CONTINUOUS
 62
       7
  5
1C2
 10
-10.07271059
 20
-8.36796732
 30
0.0
  0
VERTEX
  8
0
  6
CONTINUOUS
 62
       7
  5
1C3
 10
-10.02825915
 20
-8.05380116
 30
0.0
  0
VERTEX
  8
0
  6
CONTINUOUS
 62
       7
  5
1C4
 10
-9.98969705
 20
-7.73875847
 30
0.0
  0
VERTEX
  8
0
  6
CONTINUOUS
 62
       7
  5
1C5
 10
-9.95707166
 20
-7.42295088
 30
0.0
  0
VERTEX
  8
0
  6
CONTINUOUS
 62
       7
  5
1C6
 10
-9.93043036
 20
-7.10649001
 30
0.0
  0
VERTEX
  8
0
  6
CONTINUOUS
 62
       7
  5
1C7
 10
-9.90982051
 20
-6.7894875
 30
0.0
  0
VERTEX
  8
0
  6
CONTINUOUS
 62
       7
  5
1C8
 10
-9.89528949
 20
-6.47205495
 30
0.0
  0
VERTEX
  8
0
  6
CONTINUOUS
 62
       7
  5
1C9
 10
-9.88688468
 20
-6.15430401
 30
0.0
  0
VERTEX
  8
0
  6
CONTINUOUS
 62
       7
  5
1CA
 10
-9.88465345
 20
-5.8363463
 30
0.0
  0
SEQEND
  8
0
  6
CONTINUOUS
 62
       7
  5
1CB
  0
POLYLINE
  8
0
  6
CONTINUOUS
 62
       7
  5
72
 66
       1
 10
0.0
 20
0.0
 30
0.0
  0
VERTEX
  8
0
  6
CONTINUOUS
 62
       7
  5
1CC
 10
27.18534655
 20
-21.8413463
 30
0.0
  0
VERTEX
  8
0
  6
CONTINUOUS
 62
       7
  5
1CD
 10
27.11653309
 20
-21.66244928
 30
0.0
  0
VERTEX
  8
0
  6
CONTINUOUS
 62
       7
  5
1CE
 10
27.05179231
 20
-21.48175063
 30
0.0
  0
VERTEX
  8
0
  6
CONTINUOUS
 62
       7
  5
1CF
 10
26.99119975
 20
-21.29937277
 30
0.0
  0
VERTEX
  8
0
  6
CONTINUOUS
 62
       7
  5
1D0
 10
26.93483092
 20
-21.11543809
 30
0.0
  0
VERTEX
  8
0
  6
CONTINUOUS
 62
       7
  5
1D1
 10
26.88276136
 20
-20.930069
 30
0.0
  0
VERTEX
  8
0
  6
CONTINUOUS
 62
       7
  5
1D2
 10
26.83506657
 20
-20.74338791
 30
0.0
  0
VERTEX
  8
0
  6
CONTINUOUS
 62
       7
  5
1D3
 10
26.79182209
 20
-20.55551723
 30
0.0
  0
VERTEX
  8
0
  6
CONTINUOUS
 62
       7
  5
1D4
 10
26.75310343
 20
-20.36657935
 30
0.0
  0
VERTEX
  8
0
  6
CONTINUOUS
 62
       7
  5
1D5
 10
26.71898612
 20
-20.1766967
 30
0.0
  0
VERTEX
  8
0
  6
CONTINUOUS
 62
       7
  5
1D6
 10
26.68954568
 20
-19.98599166
 30
0.0
  0
VERTEX
  8
0
  6
CONTINUOUS
 62
       7
  5
1D7
 10
26.66485764
 20
-19.79458666
 30
0.0
  0
VERTEX
  8
0
  6
CONTINUOUS
 62
       7
  5
1D8
 10
26.6449975
 20
-19.60260409
 30
0.0
  0
VERTEX
  8
0
  6
CONTINUOUS
 62
       7
  5
1D9
 10
26.6300408
 20
-19.41016636
 30
0.0
  0
VERTEX
  8
0
  6
CONTINUOUS
 62
       7
  5
1DA
 10
26.62006307
 20
-19.21739589
 30
0.0
  0
VERTEX
  8
0
  6
CONTINUOUS
 62
       7
  5
1DB
 10
26.61513981
 20
-19.02441506
 30
0.0
  0
VERTEX
  8
0
  6
CONTINUOUS
 62
       7
  5
1DC
 10
26.61534655
 20
-18.8313463
 30
0.0
  0
VERTEX
  8
0
  6
CONTINUOUS
 62
       7
  5
1DD
 10
26.62015509
 20
-18.65259911
 30
0.0
  0
VERTEX
  8
0
  6
CONTINUOUS
 62
       7
  5
1DE
 10
26.62935812
 20
-18.47411513
 30
0.0
  0
VERTEX
  8
0
  6
CONTINUOUS
 62
       7
  5
1DF
 10
26.64289444
 20
-18.29598073
 30
0.0
  0
VERTEX
  8
0
  6
CONTINUOUS
 62
       7
  5
1E0
 10
26.66070282
 20
-18.11828229
 30
0.0
  0
VERTEX
  8
0
  6
CONTINUOUS
 62
       7
  5
1E1
 10
26.68272208
 20
-17.94110618
 30
0.0
  0
VERTEX
  8
0
  6
CONTINUOUS
 62
       7
  5
1E2
 10
26.70889101
 20
-17.76453878
 30
0.0
  0
VERTEX
  8
0
  6
CONTINUOUS
 62
       7
  5
1E3
 10
26.73914839
 20
-17.58866647
 30
0.0
  0
VERTEX
  8
0
  6
CONTINUOUS
 62
       7
  5
1E4
 10
26.77343303
 20
-17.41357561
 30
0.0
  0
VERTEX
  8
0
  6
CONTINUOUS
 62
       7
  5
1E5
 10
26.81168371
 20
-17.23935258
 30
0.0
  0
VERTEX
  8
0
  6
CONTINUOUS
 62
       7
  5
1E6
 10
26.85383924
 20
-17.06608377
 30
0.0
  0
VERTEX
  8
0
  6
CONTINUOUS
 62
       7
  5
1E7
 10
26.8998384
 20
-16.89385554
 30
0.0
  0
VERTEX
  8
0
  6
CONTINUOUS
 62
       7
  5
1E8
 10
26.94961999
 20
-16.72275427
 30
0.0
  0
VERTEX
  8
0
  6
CONTINUOUS
 62
       7
  5
1E9
 10
27.00312281
 20
-16.55286633
 30
0.0
  0
VERTEX
  8
0
  6
CONTINUOUS
 62
       7
  5
1EA
 10
27.06028565
 20
-16.38427811
 30
0.0
  0
VERTEX
  8
0
  6
CONTINUOUS
 62
       7
  5
1EB
 10
27.1210473
 20
-16.21707597
 30
0.0
  0
VERTEX
  8
0
  6
CONTINUOUS
 62
       7
  5
1EC
 10
27.18534655
 20
-16.0513463
 30
0.0
  0
SEQEND
  8
0
  6
CONTINUOUS
 62
       7
  5
1ED
  0
POLYLINE
  8
0
  6
CONTINUOUS
 62
       7
  5
73
 66
       1
 10
0.0
 20
0.0
 30
0.0
  0
VERTEX
  8
0
  6
CONTINUOUS
 62
       7
  5
1EE
 10
35.03534655
 20
-21.8413463
 30
0.0
  0
VERTEX
  8
0
  6
CONTINUOUS
 62
       7
  5
1EF
 10
35.10427232
 20
-21.66244812
 30
0.0
  0
VERTEX
  8
0
  6
CONTINUOUS
 62
       7
  5
1F0
 10
35.16933044
 20
-21.48174634
 30
0.0
  0
VERTEX
  8
0
  6
CONTINUOUS
 62
       7
  5
1F1
 10
35.2304161
 20
-21.29936384
 30
0.0
  0
VERTEX
  8
0
  6
CONTINUOUS
 62
       7
  5
1F2
 10
35.28742449
 20
-21.11542347
 30
0.0
  0
VERTEX
  8
0
  6
CONTINUOUS
 62
       7
  5
1F3
 10
35.3402508
 20
-20.93004808
 30
0.0
  0
VERTEX
  8
0
  6
CONTINUOUS
 62
       7
  5
1F4
 10
35.38879022
 20
-20.74336055
 30
0.0
  0
VERTEX
  8
0
  6
CONTINUOUS
 62
       7
  5
1F5
 10
35.43293793
 20
-20.55548373
 30
0.0
  0
VERTEX
  8
0
  6
CONTINUOUS
 62
       7
  5
1F6
 10
35.47258913
 20
-20.36654048
 30
0.0
  0
VERTEX
  8
0
  6
CONTINUOUS
 62
       7
  5
1F7
 10
35.50763899
 20
-20.17665367
 30
0.0
  0
VERTEX
  8
0
  6
CONTINUOUS
 62
       7
  5
1F8
 10
35.53798271
 20
-19.98594614
 30
0.0
  0
VERTEX
  8
0
  6
CONTINUOUS
 62
       7
  5
1F9
 10
35.56351548
 20
-19.79454077
 30
0.0
  0
VERTEX
  8
0
  6
CONTINUOUS
 62
       7
  5
1FA
 10
35.58413248
 20
-19.60256041
 30
0.0
  0
VERTEX
  8
0
  6
CONTINUOUS
 62
       7
  5
1FB
 10
35.59972889
 20
-19.41012792
 30
0.0
  0
VERTEX
  8
0
  6
CONTINUOUS
 62
       7
  5
1FC
 10
35.61019992
 20
-19.21736617
 30
0.0
  0
VERTEX
  8
0
  6
CONTINUOUS
 62
       7
  5
1FD
 10
35.61544075
 20
-19.02439801
 30
0.0
  0
VERTEX
  8
0
  6
CONTINUOUS
 62
       7
  5
1FE
 10
35.61534655
 20
-18.8313463
 30
0.0
  0
VERTEX
  8
0
  6
CONTINUOUS
 62
       7
  5
1FF
 10
35.61042571
 20
-18.65259901
 30
0.0
  0
VERTEX
  8
0
  6
CONTINUOUS
 62
       7
  5
200
 10
35.6009053
 20
-18.47411495
 30
0.0
  0
VERTEX
  8
0
  6
CONTINUOUS
 62
       7
  5
201
 10
35.58687582
 20
-18.29598051
 30
0.0
  0
VERTEX
  8
0
  6
CONTINUOUS
 62
       7
  5
202
 10
35.56842779
 20
-18.11828204
 30
0.0
  0
VERTEX
  8
0
  6
CONTINUOUS
 62
       7
  5
203
 10
35.5456517
 20
-17.94110593
 30
0.0
  0
VERTEX
  8
0
  6
CONTINUOUS
 62
       7
  5
204
 10
35.51863805
 20
-17.76453854
 30
0.0
  0
VERTEX
  8
0
  6
CONTINUOUS
 62
       7
  5
205
 10
35.48747735
 20
-17.58866624
 30
0.0
  0
VERTEX
  8
0
  6
CONTINUOUS
 62
       7
  5
206
 10
35.4522601
 20
-17.41357542
 30
0.0
  0
VERTEX
  8
0
  6
CONTINUOUS
 62
       7
  5
207
 10
35.4130768
 20
-17.23935243
 30
0.0
  0
VERTEX
  8
0
  6
CONTINUOUS
 62
       7
  5
208
 10
35.37001796
 20
-17.06608366
 30
0.0
  0
VERTEX
  8
0
  6
CONTINUOUS
 62
       7
  5
209
 10
35.32317407
 20
-16.89385547
 30
0.0
  0
VERTEX
  8
0
  6
CONTINUOUS
 62
       7
  5
20A
 10
35.27263564
 20
-16.72275424
 30
0.0
  0
VERTEX
  8
0
  6
CONTINUOUS
 62
       7
  5
20B
 10
35.21849317
 20
-16.55286633
 30
0.0
  0
VERTEX
  8
0
  6
CONTINUOUS
 62
       7
  5
20C
 10
35.16083716
 20
-16.38427812
 30
0.0
  0
VERTEX
  8
0
  6
CONTINUOUS
 62
       7
  5
20D
 10
35.09975812
 20
-16.21707599
 30
0.0
  0
VERTEX
  8
0
  6
CONTINUOUS
 62
       7
  5
20E
 10
35.03534655
 20
-16.0513463
 30
0.0
  0
SEQEND
  8
0
  6
CONTINUOUS
 62
       7
  5
20F
  0
POLYLINE
  8
0
  6
CONTINUOUS
 62
       7
  5
74
 66
       1
 10
0.0
 20
0.0
 30
0.0
  0
VERTEX
  8
0
  6
CONTINUOUS
 62
       7
  5
210
 10
27.18534655
 20
-11.4113463
 30
0.0
  0
VERTEX
  8
0
  6
CONTINUOUS
 62
       7
  5
211
 10
27.11650414
 20
-11.06829812
 30
0.0
  0
VERTEX
  8
0
  6
CONTINUOUS
 62
       7
  5
212
 10
27.05206819
 20
-10.72431413
 30
0.0
  0
VERTEX
  8
0
  6
CONTINUOUS
 62
       7
  5
213
 10
26.99204352
 20
-10.3794498
 30
0.0
  0
VERTEX
  8
0
  6
CONTINUOUS
 62
       7
  5
214
 10
26.93643497
 20
-10.03376063
 30
0.0
  0
VERTEX
  8
0
  6
CONTINUOUS
 62
       7
  5
215
 10
26.88524737
 20
-9.68730208
 30
0.0
  0
VERTEX
  8
0
  6
CONTINUOUS
 62
       7
  5
216
 10
26.83848553
 20
-9.34012963
 30
0.0
  0
VERTEX
  8
0
  6
CONTINUOUS
 62
       7
  5
217
 10
26.7961543
 20
-8.99229877
 30
0.0
  0
VERTEX
  8
0
  6
CONTINUOUS
 62
       7
  5
218
 10
26.75825848
 20
-8.64386497
 30
0.0
  0
VERTEX
  8
0
  6
CONTINUOUS
 62
       7
  5
219
 10
26.72480292
 20
-8.29488371
 30
0.0
  0
VERTEX
  8
0
  6
CONTINUOUS
 62
       7
  5
21A
 10
26.69579244
 20
-7.94541047
 30
0.0
  0
VERTEX
  8
0
  6
CONTINUOUS
 62
       7
  5
21B
 10
26.67123187
 20
-7.59550073
 30
0.0
  0
VERTEX
  8
0
  6
CONTINUOUS
 62
       7
  5
21C
 10
26.65112602
 20
-7.24520997
 30
0.0
  0
VERTEX
  8
0
  6
CONTINUOUS
 62
       7
  5
21D
 10
26.63547975
 20
-6.89459367
 30
0.0
  0
VERTEX
  8
0
  6
CONTINUOUS
 62
       7
  5
21E
 10
26.62429786
 20
-6.5437073
 30
0.0
  0
VERTEX
  8
0
  6
CONTINUOUS
 62
       7
  5
21F
 10
26.61758518
 20
-6.19260635
 30
0.0
  0
VERTEX
  8
0
  6
CONTINUOUS
 62
       7
  5
220
 10
26.61534655
 20
-5.8413463
 30
0.0
  0
SEQEND
  8
0
  6
CONTINUOUS
 62
       7
  5
221
  0
POLYLINE
  8
0
  6
CONTINUOUS
 62
       7
  5
75
 66
       1
 10
0.0
 20
0.0
 30
0.0
  0
VERTEX
  8
0
  6
CONTINUOUS
 62
       7
  5
222
 10
35.03534655
 20
-11.4113463
 30
0.0
  0
VERTEX
  8
0
  6
CONTINUOUS
 62
       7
  5
223
 10
35.10430125
 20
-11.06829816
 30
0.0
  0
VERTEX
  8
0
  6
CONTINUOUS
 62
       7
  5
224
 10
35.16905457
 20
-10.72431417
 30
0.0
  0
VERTEX
  8
0
  6
CONTINUOUS
 62
       7
  5
225
 10
35.22957239
 20
-10.37944982
 30
0.0
  0
VERTEX
  8
0
  6
CONTINUOUS
 62
       7
  5
226
 10
35.28582058
 20
-10.0337606
 30
0.0
  0
VERTEX
  8
0
  6
CONTINUOUS
 62
       7
  5
227
 10
35.33776502
 20
-9.68730198
 30
0.0
  0
VERTEX
  8
0
  6
CONTINUOUS
 62
       7
  5
228
 10
35.38537159
 20
-9.34012945
 30
0.0
  0
VERTEX
  8
0
  6
CONTINUOUS
 62
       7
  5
229
 10
35.42860615
 20
-8.99229851
 30
0.0
  0
VERTEX
  8
0
  6
CONTINUOUS
 62
       7
  5
22A
 10
35.46743458
 20
-8.64386463
 30
0.0
  0
VERTEX
  8
0
  6
CONTINUOUS
 62
       7
  5
22B
 10
35.50182277
 20
-8.29488331
 30
0.0
  0
VERTEX
  8
0
  6
CONTINUOUS
 62
       7
  5
22C
 10
35.53173657
 20
-7.94541002
 30
0.0
  0
VERTEX
  8
0
  6
CONTINUOUS
 62
       7
  5
22D
 10
35.55714188
 20
-7.59550026
 30
0.0
  0
VERTEX
  8
0
  6
CONTINUOUS
 62
       7
  5
22E
 10
35.57800456
 20
-7.2452095
 30
0.0
  0
VERTEX
  8
0
  6
CONTINUOUS
 62
       7
  5
22F
 10
35.5942905
 20
-6.89459324
 30
0.0
  0
VERTEX
  8
0
  6
CONTINUOUS
 62
       7
  5
230
 10
35.60596556
 20
-6.54370697
 30
0.0
  0
VERTEX
  8
0
  6
CONTINUOUS
 62
       7
  5
231
 10
35.61299562
 20
-6.19260616
 30
0.0
  0
VERTEX
  8
0
  6
CONTINUOUS
 62
       7
  5
232
 10
35.61534655
 20
-5.8413463
 30
0.0
  0
SEQEND
  8
0
  6
CONTINUOUS
 62
       7
  5
233
  0
LINE
  8
0
  6
CONTINUOUS
 62
       7
  5
76
 10
-16.88465345
 20
-33.84134598
 30
0.0
 11
-16.88465345
 21
22.15865402
 31
0.0
  0
LINE
  8
0
  6
CONTINUOUS
 62
       7
  5
77
 10
-109.01157157
 20
-33.84134615
 30
0.0
 11
-77.01157157
 21
-33.84134615
 31
0.0
  0
LINE
  8
0
  6
CONTINUOUS
 62
       7
  5
78
 10
-109.01157157
 20
22.15865385
 30
0.0
 11
-77.01157157
 21
22.15865385
 31
0.0
  0
LINE
  8
0
  6
CONTINUOUS
 62
       7
  5
79
 10
-77.01157157
 20
-33.84134615
 30
0.0
 11
-77.01157157
 21
22.15865385
 31
0.0
  0
LINE
  8
0
  6
CONTINUOUS
 62
       7
  5
7A
 10
-109.01157157
 20
-33.84134615
 30
0.0
 11
-109.01157157
 21
22.15865385
 31
0.0
  0
CIRCLE
  8
0
  6
CONTINUOUS
 62
       7
  5
7B
 10
-93.01157157
 20
-27.84134615
 30
0.0
 40
3.5
  0
CIRCLE
  8
0
  6
CONTINUOUS
 62
       7
  5
7C
 10
-93.01157157
 20
16.15865385
 30
0.0
 40
3.5
  0
LINE
  8
0
  6
CONTINUOUS
 62
       2
  5
7D
 10
-99.01157157
 20
-27.84134615
 30
0.0
 11
-87.01157157
 21
-27.84134615
 31
0.0
  0
LINE
  8
0
  6
CONTINUOUS
 62
       2
  5
7E
 10
-99.01157157
 20
16.15865385
 30
0.0
 11
-87.01157157
 21
16.15865385
 31
0.0
  0
LINE
  8
0
  6
CONTINUOUS
 62
       7
  5
7F
 10
-25.88465345
 20
-33.84134598
 30
0.0
 11
-25.88465345
 21
22.15865402
 31
0.0
  0
LINE
  8
0
  6
CONTINUOUS
 62
       2
  5
80
 10
-93.01157157
 20
-37.14077674
 30
0.0
 11
-93.01157157
 21
25.45808436
 31
0.0
  0
LINE
  8
0
  6
CONTINUOUS
 62
       2
  5
81
 10
-112.01157157
 20
-5.84134615
 30
0.0
 11
-74.01157157
 21
-5.84134615
 31
0.0
  0
LINE
  8
0
  6
CONTINUOUS
 62
       7
  5
82
 10
-6.58465345
 20
2.65865402
 30
0.0
 11
-6.58465345
 21
-14.3413463
 31
0.0
  0
LINE
  8
0
  6
CONTINUOUS
 62
       7
  5
83
 10
25.61534655
 20
6.15865402
 30
0.0
 11
26.61534655
 21
6.15865402
 31
0.0
  0
LINE
  8
0
  6
CONTINUOUS
 62
       7
  5
84
 10
25.61534655
 20
-17.84134598
 30
0.0
 11
26.61534655
 21
-17.84134598
 31
0.0
  0
LINE
  8
0
  6
CONTINUOUS
 62
       7
  5
85
 10
-7.88465345
 20
2.65865402
 30
0.0
 11
-6.58465345
 21
2.65865402
 31
0.0
  0
LINE
  8
0
  6
CONTINUOUS
 62
       7
  5
86
 10
-9.88465345
 20
1.55865402
 30
0.0
 11
-7.88465345
 21
1.55865402
 31
0.0
  0
LINE
  8
0
  6
CONTINUOUS
 62
       7
  5
87
 10
-9.88465345
 20
-13.24134598
 30
0.0
 11
-7.88465345
 21
-13.24134598
 31
0.0
  0
LINE
  8
0
  6
CONTINUOUS
 62
       7
  5
88
 10
-25.88465345
 20
22.15865402
 30
0.0
 11
-16.88465345
 21
22.15865402
 31
0.0
  0
LINE
  8
0
  6
CONTINUOUS
 62
       7
  5
89
 10
-25.88465345
 20
-33.84134598
 30
0.0
 11
-16.88465345
 21
-33.84134598
 31
0.0
  0
LINE
  8
0
  6
CONTINUOUS
 62
       2
  5
8A
 10
-28.88465345
 20
16.15865402
 30
0.0
 11
-13.88465345
 21
16.15865402
 31
0.0
  0
LINE
  8
0
  6
CONTINUOUS
 62
       2
  5
8B
 10
-28.88465345
 20
-27.84134598
 30
0.0
 11
-13.88465345
 21
-27.84134598
 31
0.0
  0
CIRCLE
  8
0
  6
CONTINUOUS
 62
       2
  5
8C
 10
-93.01157157
 20
-5.84134615
 30
0.0
 40
6.0
  0
CIRCLE
  8
0
  6
CONTINUOUS
 62
       7
  5
8D
 10
-93.01157157
 20
-5.84134615
 30
0.0
 40
5.37500017
  0
LINE
  8
0
  6
CONTINUOUS
 62
       7
  5
8E
 10
-138.3999939
 20
94.5
 30
0.0
 11
138.3500061
 21
94.5
 31
0.0
  0
LINE
  8
0
  6
CONTINUOUS
 62
       7
  5
8F
 10
138.3500061
 20
94.5
 30
0.0
 11
138.3500061
 21
-94.80000305
 31
0.0
  0
LINE
  8
0
  6
CONTINUOUS
 62
       7
  5
90
 10
-138.3999939
 20
-94.80000305
 30
0.0
 11
138.3500061
 21
-94.80000305
 31
0.0
  0
LINE
  8
0
  6
CONTINUOUS
 62
       7
  5
91
 10
-138.3999939
 20
94.5
 30
0.0
 11
-138.3999939
 21
-94.80000305
 31
0.0
  0
TEXT
  8
0
  6
CONTINUOUS
 62
       7
  5
92
 10
-129.40391548
 20
82.89999998
 30
0.0
 40
3.20000005
  1
MODEL:CJS-12x1.25-3
 41
1.11764705
  7
MX_NOTE_STANDARD
 11
-129.40391548
 21
84.5
 31
0.0
 73
       2
  0
ENDSEC
  0
EOF
