  0
SECTION
  2
HEADER
  9
$ACADVER
  1
AC1003
  9
$EXTMIN
 10
-3.99250000E+02
 20
-2.76750000E+02
  9
$EXTMAX
 10
3.99799805E+02
 20
2.76250000E+02
  9
$LIMMIN
 10
-3.99251000E+02
 20
-2.76751000E+02
  9
$LIMMAX
 10
3.99800805E+02
 20
2.76251000E+02
  9
$SNAPUNIT
 10
1
 20
1
  9
$SNAPBASE
 10
0
 20
0
  9
$GRIDMODE
 70
0
  9
$GRIDUNIT
 10
0
 20
0
  9
$LTSCALE
 40
1.33174967E+01
  9
$TEXTSIZE
 40
3.2
  9
$DIMTAD
 70
0
  9
$LUNITS
 70
2
  9
$LUPREC
 70
4
  9
$FILLETRAD
 40
0
  9
$AUNITS
 70
0
  9
$AUPREC
 70
0
  0
ENDSEC
  0
SECTION
  2
TABLES
  0
TABLE
  2
LTYPE
 70
2
  0
LTYPE
  2
CONTINUOUS
 70
64
  3
Solid-Line
 72
65
 73
0
 40
0
  0
LTYPE
  2
DASHED
 70
64
  3
DASHED
 72
65
 73
2
 40
.75
 49
.5
 49
-.25
  0
LTYPE
  2
HIDDEN
 70
64
  3
HIDDEN
 72
65
 73
2
 40
.375
 49
.25
 49
-.125
  0
LTYPE
  2
CENTER
 70
64
  3
CENTER
 72
65
 73
4
 40
2
 49
1.25
 49
-.25
 49
.25
 49
-.25
  0
LTYPE
  2
PHANTOM
 70
64
  3
PHANTOM
 72
65
 73
6
 40
2.5
 49
1.25
 49
-.25
 49
.25
 49
-.25
 49
.25
 49
-.25
  0
ENDTAB
  0
TABLE
  2
LAYER
 70
1
  0
LAYER
  2
0
 70
0
 62
3
  6
CONTINUOUS
 0
ENDTAB
  0
TABLE
  2
STYLE
 70
2
  0
STYLE
  2
MONOTXT
 70
0
 40
0
 41
1
 50
0
 71
0
 42
.2
  3
monotxt
  0
STYLE
  2
BIGFONT
 70
0
 40
0
 41
1
 50
0
 71
0
 42
.2
  3
txt
  4
bigfont
  0
ENDTAB
  0
ENDSEC
  0
SECTION
  2
ENTITIES
  0
LINE
  8
0
  6
CENTER
 62
2
 10
-3.43029558E+02
 20
1.24524521E+02
 11
-1.04695576E+01
 21
1.24524521E+02
  0
LINE
  8
0
  6
CENTER
 62
2
 10
-6.42595576E+01
 20
1.75974521E+02
 11
-6.42595576E+01
 21
1.44524521E+02
  0
LINE
  8
0
 62
7
 10
-5.07595576E+01
 20
1.50924521E+02
 11
-5.07595576E+01
 21
1.47824521E+02
  0
LINE
  8
0
 62
7
 10
-7.82595576E+01
 20
1.57924521E+02
 11
-7.82595576E+01
 21
1.57524521E+02
  0
LINE
  8
0
 62
7
 10
-5.02595576E+01
 20
1.57924521E+02
 11
-5.02595576E+01
 21
1.50924521E+02
  0
LINE
  8
0
 62
7
 10
-7.72595576E+01
 20
1.58924521E+02
 11
-7.82595576E+01
 21
1.57924521E+02
  0
LINE
  8
0
 62
7
 10
-5.02595576E+01
 20
1.57924521E+02
 11
-5.12595576E+01
 21
1.58924521E+02
  0
LINE
  8
0
 62
7
 10
-5.12595576E+01
 20
1.58924521E+02
 11
-7.72595576E+01
 21
1.58924521E+02
  0
LINE
  8
0
 62
7
 10
-7.14595576E+01
 20
1.59824521E+02
 11
-7.14595576E+01
 21
1.58924521E+02
  0
LINE
  8
0
 62
7
 10
-5.70595576E+01
 20
1.59824521E+02
 11
-5.70595576E+01
 21
1.58924521E+02
  0
LINE
  8
0
 62
7
 10
-7.12595576E+01
 20
1.59824521E+02
 11
-7.12095576E+01
 21
1.66074521E+02
  0
LINE
  8
0
 62
7
 10
-5.72595576E+01
 20
1.59824521E+02
 11
-5.73095576E+01
 21
1.66074521E+02
  0
LINE
  8
0
 62
7
 10
-5.70595576E+01
 20
1.59824521E+02
 11
-7.14595576E+01
 21
1.59824521E+02
  0
LINE
  8
0
 62
7
 10
-6.57595576E+01
 20
1.52924521E+02
 11
-6.99195576E+01
 21
1.52924521E+02
  0
LINE
  8
0
 62
7
 10
-6.58995576E+01
 20
1.53214521E+02
 11
-6.95395576E+01
 21
1.53214521E+02
  0
LINE
  8
0
 62
7
 10
-7.81795576E+01
 20
1.57924521E+02
 11
-7.81795576E+01
 21
1.57524521E+02
  0
LINE
  8
0
 62
7
 10
-7.76595576E+01
 20
1.58424521E+02
 11
-7.76595576E+01
 21
1.57524521E+02
  0
LINE
  8
0
 62
7
 10
-7.70595576E+01
 20
1.57924521E+02
 11
-7.70595576E+01
 21
1.57524521E+02
  0
LINE
  8
0
 62
7
 10
-7.55595576E+01
 20
1.57924521E+02
 11
-7.55595576E+01
 21
1.52924521E+02
  0
LINE
  8
0
 62
7
 10
-7.50395576E+01
 20
1.58424521E+02
 11
-7.50395576E+01
 21
1.53214521E+02
  0
LINE
  8
0
 62
7
 10
-7.25195576E+01
 20
1.57924521E+02
 11
-7.25195576E+01
 21
1.52924521E+02
  0
LINE
  8
0
 62
7
 10
-6.99195576E+01
 20
1.57924521E+02
 11
-6.99195576E+01
 21
1.52924521E+02
  0
LINE
  8
0
 62
7
 10
-6.95395576E+01
 20
1.58424521E+02
 11
-6.95395576E+01
 21
1.53214521E+02
  0
LINE
  8
0
 62
7
 10
-6.58995576E+01
 20
1.58424521E+02
 11
-6.58995576E+01
 21
1.53214521E+02
  0
LINE
  8
0
 62
7
 10
-6.57595576E+01
 20
1.57924521E+02
 11
-6.57595576E+01
 21
1.52924521E+02
  0
LINE
  8
0
 62
7
 10
-6.27595576E+01
 20
1.57924521E+02
 11
-6.57595576E+01
 21
1.57924521E+02
  0
LINE
  8
0
 62
7
 10
-6.58995576E+01
 20
1.58424521E+02
 11
-6.95395576E+01
 21
1.58424521E+02
  0
LINE
  8
0
 62
7
 10
-6.99195576E+01
 20
1.57924521E+02
 11
-7.25195576E+01
 21
1.57924521E+02
  0
LINE
  8
0
 62
7
 10
-7.55595576E+01
 20
1.57924521E+02
 11
-7.70595576E+01
 21
1.57924521E+02
  0
LINE
  8
0
 62
7
 10
-7.25195576E+01
 20
1.53214521E+02
 11
-7.50395576E+01
 21
1.53214521E+02
  0
LINE
  8
0
 62
7
 10
-7.23795576E+01
 20
1.58424521E+02
 11
-7.50395576E+01
 21
1.58424521E+02
  0
LINE
  8
0
 62
7
 10
-6.57595576E+01
 20
1.57924521E+02
 11
-6.58995576E+01
 21
1.58424521E+02
  0
LINE
  8
0
 62
7
 10
-6.58995576E+01
 20
1.53214521E+02
 11
-6.57595576E+01
 21
1.52924521E+02
  0
LINE
  8
0
 62
7
 10
-6.99195576E+01
 20
1.57924521E+02
 11
-6.95395576E+01
 21
1.58424521E+02
  0
LINE
  8
0
 62
7
 10
-6.95395576E+01
 20
1.53214521E+02
 11
-6.99195576E+01
 21
1.52924521E+02
  0
LINE
  8
0
 62
7
 10
-7.25195576E+01
 20
1.57924521E+02
 11
-7.23795576E+01
 21
1.58424521E+02
  0
LINE
  8
0
 62
7
 10
-7.50395576E+01
 20
1.53214521E+02
 11
-7.55595576E+01
 21
1.52924521E+02
  0
LINE
  8
0
 62
7
 10
-7.70595576E+01
 20
1.57924521E+02
 11
-7.66795576E+01
 21
1.58424521E+02
  0
LINE
  8
0
 62
7
 10
-7.55595576E+01
 20
1.57924521E+02
 11
-7.50395576E+01
 21
1.58424521E+02
  0
LINE
  8
0
 62
7
 10
-7.66795576E+01
 20
1.58424521E+02
 11
-7.76595576E+01
 21
1.58424521E+02
  0
LINE
  8
0
 62
7
 10
-7.25195576E+01
 20
1.52924521E+02
 11
-7.55595576E+01
 21
1.52924521E+02
  0
LINE
  8
0
 62
7
 10
-7.81795576E+01
 20
1.57924521E+02
 11
-7.82595576E+01
 21
1.57924521E+02
  0
LINE
  8
0
 62
7
 10
-7.81795576E+01
 20
1.57924521E+02
 11
-7.76595576E+01
 21
1.58424521E+02
  0
LINE
  8
0
 62
7
 10
-6.27595576E+01
 20
1.52924521E+02
 11
-5.85995576E+01
 21
1.52924521E+02
  0
LINE
  8
0
 62
7
 10
-6.26195576E+01
 20
1.53214521E+02
 11
-5.89795576E+01
 21
1.53214521E+02
  0
LINE
  8
0
 62
7
 10
-5.03395576E+01
 20
1.57924521E+02
 11
-5.03395576E+01
 21
1.52924521E+02
  0
LINE
  8
0
 62
7
 10
-5.08595576E+01
 20
1.58424521E+02
 11
-5.08595576E+01
 21
1.53214521E+02
  0
LINE
  8
0
 62
7
 10
-5.14495576E+01
 20
1.57924521E+02
 11
-5.14495576E+01
 21
1.52924521E+02
  0
LINE
  8
0
 62
7
 10
-5.29495576E+01
 20
1.57924521E+02
 11
-5.29495576E+01
 21
1.52924521E+02
  0
LINE
  8
0
 62
7
 10
-5.34695576E+01
 20
1.58424521E+02
 11
-5.34695576E+01
 21
1.53214521E+02
  0
LINE
  8
0
 62
7
 10
-5.59995576E+01
 20
1.57924521E+02
 11
-5.59995576E+01
 21
1.52924521E+02
  0
LINE
  8
0
 62
7
 10
-5.85995576E+01
 20
1.57924521E+02
 11
-5.85995576E+01
 21
1.52924521E+02
  0
LINE
  8
0
 62
7
 10
-5.89795576E+01
 20
1.58424521E+02
 11
-5.89795576E+01
 21
1.53214521E+02
  0
LINE
  8
0
 62
7
 10
-6.26195576E+01
 20
1.58424521E+02
 11
-6.26195576E+01
 21
1.53214521E+02
  0
LINE
  8
0
 62
7
 10
-6.27595576E+01
 20
1.57924521E+02
 11
-6.27595576E+01
 21
1.52924521E+02
  0
LINE
  8
0
 62
7
 10
-6.26195576E+01
 20
1.58424521E+02
 11
-5.89795576E+01
 21
1.58424521E+02
  0
LINE
  8
0
 62
7
 10
-5.85995576E+01
 20
1.57924521E+02
 11
-5.59995576E+01
 21
1.57924521E+02
  0
LINE
  8
0
 62
7
 10
-5.29495576E+01
 20
1.57924521E+02
 11
-5.14495576E+01
 21
1.57924521E+02
  0
LINE
  8
0
 62
7
 10
-5.61395576E+01
 20
1.58424521E+02
 11
-5.34695576E+01
 21
1.58424521E+02
  0
LINE
  8
0
 62
7
 10
-6.27595576E+01
 20
1.57924521E+02
 11
-6.26195576E+01
 21
1.58424521E+02
  0
LINE
  8
0
 62
7
 10
-6.26195576E+01
 20
1.53214521E+02
 11
-6.27595576E+01
 21
1.52924521E+02
  0
LINE
  8
0
 62
7
 10
-5.85995576E+01
 20
1.57924521E+02
 11
-5.89795576E+01
 21
1.58424521E+02
  0
LINE
  8
0
 62
7
 10
-5.59995576E+01
 20
1.57924521E+02
 11
-5.61395576E+01
 21
1.58424521E+02
  0
LINE
  8
0
 62
7
 10
-5.14495576E+01
 20
1.57924521E+02
 11
-5.18295576E+01
 21
1.58424521E+02
  0
LINE
  8
0
 62
7
 10
-5.29495576E+01
 20
1.57924521E+02
 11
-5.34695576E+01
 21
1.58424521E+02
  0
LINE
  8
0
 62
7
 10
-5.18295576E+01
 20
1.58424521E+02
 11
-5.08595576E+01
 21
1.58424521E+02
  0
LINE
  8
0
 62
7
 10
-5.03395576E+01
 20
1.57924521E+02
 11
-5.02595576E+01
 21
1.57924521E+02
  0
LINE
  8
0
 62
7
 10
-5.03395576E+01
 20
1.57924521E+02
 11
-5.08595576E+01
 21
1.58424521E+02
  0
LINE
  8
0
 62
7
 10
-5.02595576E+01
 20
1.50924521E+02
 11
-7.57595576E+01
 21
1.50924521E+02
  0
LINE
  8
0
 62
7
 10
-7.58995576E+01
 20
1.57024521E+02
 11
-7.57595576E+01
 21
1.57024521E+02
  0
LINE
  8
0
 62
7
 10
-7.58995576E+01
 20
1.57024521E+02
 11
-7.64395576E+01
 21
1.57524521E+02
  0
LINE
  8
0
 62
7
 10
-7.71395576E+01
 20
1.51524521E+02
 11
-7.58995576E+01
 21
1.51524521E+02
  0
LINE
  8
0
 62
7
 10
-8.22595576E+01
 20
1.57024521E+02
 11
-8.52595576E+01
 21
1.57024521E+02
  0
LINE
  8
0
 62
7
 10
-7.58995576E+01
 20
1.51524521E+02
 11
-7.64395576E+01
 21
1.51874521E+02
  0
LINE
  8
0
 62
7
 10
-7.97495576E+01
 20
1.51874521E+02
 11
-8.21095576E+01
 21
1.51874521E+02
  0
LINE
  8
0
 62
7
 10
-7.62595576E+01
 20
1.57524521E+02
 11
-9.12595576E+01
 21
1.57524521E+02
  0
LINE
  8
0
 62
7
 10
-7.57595576E+01
 20
1.57024521E+02
 11
-7.57595576E+01
 21
1.49524521E+02
  0
LINE
  8
0
 62
7
 10
-9.17595576E+01
 20
1.57024521E+02
 11
-9.17595576E+01
 21
1.49524521E+02
  0
LINE
  8
0
 62
7
 10
-7.62595576E+01
 20
1.57524521E+02
 11
-7.57595576E+01
 21
1.57024521E+02
  0
LINE
  8
0
 62
7
 10
-9.17595576E+01
 20
1.57024521E+02
 11
-9.12595576E+01
 21
1.57524521E+02
  0
LINE
  8
0
  6
CENTER
 62
2
 10
-8.37595576E+01
 20
1.60524521E+02
 11
-8.37595576E+01
 21
1.00524521E+02
  0
LINE
  8
0
 62
7
 10
-8.52595576E+01
 20
1.51524521E+02
 11
-8.82495576E+01
 21
1.51524521E+02
  0
LINE
  8
0
 62
7
 10
-8.82495576E+01
 20
1.57024521E+02
 11
-9.03695576E+01
 21
1.57024521E+02
  0
LINE
  8
0
 62
7
 10
-9.16195576E+01
 20
1.57024521E+02
 11
-9.16195576E+01
 21
1.51524521E+02
  0
LINE
  8
0
 62
7
 10
-9.10695576E+01
 20
1.57524521E+02
 11
-9.10695576E+01
 21
1.51874521E+02
  0
LINE
  8
0
 62
7
 10
-9.03695576E+01
 20
1.57024521E+02
 11
-9.03695576E+01
 21
1.51524521E+02
  0
LINE
  8
0
 62
7
 10
-8.82495576E+01
 20
1.57024521E+02
 11
-8.82495576E+01
 21
1.51524521E+02
  0
LINE
  8
0
 62
7
 10
-8.77695576E+01
 20
1.57524521E+02
 11
-8.77695576E+01
 21
1.51874521E+02
  0
LINE
  8
0
 62
7
 10
-8.53995576E+01
 20
1.57524521E+02
 11
-8.53995576E+01
 21
1.51874521E+02
  0
LINE
  8
0
 62
7
 10
-8.52595576E+01
 20
1.57024521E+02
 11
-8.52595576E+01
 21
1.51524521E+02
  0
LINE
  8
0
 62
7
 10
-9.10695576E+01
 20
1.51874521E+02
 11
-9.03695576E+01
 21
1.51874521E+02
  0
LINE
  8
0
 62
7
 10
-8.52595576E+01
 20
1.57024521E+02
 11
-8.53995576E+01
 21
1.57524521E+02
  0
LINE
  8
0
 62
7
 10
-8.52595576E+01
 20
1.51524521E+02
 11
-8.53995576E+01
 21
1.51874521E+02
  0
LINE
  8
0
 62
7
 10
-8.77695576E+01
 20
1.51874521E+02
 11
-8.82495576E+01
 21
1.51524521E+02
  0
LINE
  8
0
 62
7
 10
-8.82495576E+01
 20
1.57024521E+02
 11
-8.77695576E+01
 21
1.57524521E+02
  0
LINE
  8
0
 62
7
 10
-9.03795576E+01
 20
1.57024521E+02
 11
-9.00995576E+01
 21
1.57524521E+02
  0
LINE
  8
0
 62
7
 10
-9.16195576E+01
 20
1.51524521E+02
 11
-9.10695576E+01
 21
1.51874521E+02
  0
LINE
  8
0
 62
7
 10
-9.16195576E+01
 20
1.57024521E+02
 11
-9.10695576E+01
 21
1.57524521E+02
  0
LINE
  8
0
 62
7
 10
-9.16195576E+01
 20
1.57024521E+02
 11
-9.17595576E+01
 21
1.57024521E+02
  0
LINE
  8
0
 62
7
 10
-8.77695576E+01
 20
1.51874521E+02
 11
-8.53995576E+01
 21
1.51874521E+02
  0
LINE
  8
0
 62
7
 10
-9.03695576E+01
 20
1.51524521E+02
 11
-9.16195576E+01
 21
1.51524521E+02
  0
LINE
  8
0
 62
7
 10
-8.22595576E+01
 20
1.51524521E+02
 11
-7.92595576E+01
 21
1.51524521E+02
  0
LINE
  8
0
 62
7
 10
-7.92595576E+01
 20
1.57024521E+02
 11
-7.71395576E+01
 21
1.57024521E+02
  0
LINE
  8
0
 62
7
 10
-7.58995576E+01
 20
1.57024521E+02
 11
-7.58995576E+01
 21
1.51524521E+02
  0
LINE
  8
0
 62
7
 10
-7.64395576E+01
 20
1.57524521E+02
 11
-7.64395576E+01
 21
1.51874521E+02
  0
LINE
  8
0
 62
7
 10
-7.71395576E+01
 20
1.57024521E+02
 11
-7.71395576E+01
 21
1.51524521E+02
  0
LINE
  8
0
 62
7
 10
-7.92595576E+01
 20
1.57024521E+02
 11
-7.92595576E+01
 21
1.51524521E+02
  0
LINE
  8
0
 62
7
 10
-7.97495576E+01
 20
1.57524521E+02
 11
-7.97495576E+01
 21
1.51874521E+02
  0
LINE
  8
0
 62
7
 10
-8.21095576E+01
 20
1.57524521E+02
 11
-8.21095576E+01
 21
1.51874521E+02
  0
LINE
  8
0
 62
7
 10
-8.22595576E+01
 20
1.57024521E+02
 11
-8.22595576E+01
 21
1.51524521E+02
  0
LINE
  8
0
 62
7
 10
-7.64395576E+01
 20
1.51874521E+02
 11
-7.71395576E+01
 21
1.51874521E+02
  0
LINE
  8
0
 62
7
 10
-8.22595576E+01
 20
1.57024521E+02
 11
-8.21095576E+01
 21
1.57524521E+02
  0
LINE
  8
0
 62
7
 10
-8.22595576E+01
 20
1.51524521E+02
 11
-8.21095576E+01
 21
1.51874521E+02
  0
LINE
  8
0
 62
7
 10
-7.97495576E+01
 20
1.51874521E+02
 11
-7.92595576E+01
 21
1.51524521E+02
  0
LINE
  8
0
 62
7
 10
-7.92595576E+01
 20
1.57024521E+02
 11
-7.97495576E+01
 21
1.57524521E+02
  0
LINE
  8
0
 62
7
 10
-7.71395576E+01
 20
1.57024521E+02
 11
-7.74195576E+01
 21
1.57524521E+02
  0
LINE
  8
0
 62
7
 10
-5.89795576E+01
 20
1.53214521E+02
 11
-5.85995576E+01
 21
1.52924521E+02
  0
LINE
  8
0
 62
7
 10
-5.59995576E+01
 20
1.52924521E+02
 11
-5.29495576E+01
 21
1.52924521E+02
  0
LINE
  8
0
 62
7
 10
-5.59995576E+01
 20
1.53214521E+02
 11
-5.34695576E+01
 21
1.53214521E+02
  0
LINE
  8
0
 62
7
 10
-5.34695576E+01
 20
1.53214521E+02
 11
-5.29495576E+01
 21
1.52924521E+02
  0
LINE
  8
0
 62
7
 10
-5.14495576E+01
 20
1.52924521E+02
 11
-5.03395576E+01
 21
1.52924521E+02
  0
LINE
  8
0
 62
7
 10
-5.14495576E+01
 20
1.53214521E+02
 11
-5.08595576E+01
 21
1.53214521E+02
  0
LINE
  8
0
 62
7
 10
-5.08595576E+01
 20
1.53214521E+02
 11
-5.03395576E+01
 21
1.52924521E+02
  0
LINE
  8
0
  6
CENTER
 62
2
 10
-2.24249558E+02
 20
1.13024521E+02
 11
-2.41249558E+02
 21
1.13024521E+02
  0
LINE
  8
0
 62
7
 10
-2.13749558E+02
 20
1.01524521E+02
 11
-2.51749558E+02
 21
1.01524521E+02
  0
LINE
  8
0
  6
CENTER
 62
2
 10
-2.32749558E+02
 20
1.84524521E+02
 11
-2.32749558E+02
 21
6.45245209E+01
  0
LINE
  8
0
 62
7
 10
-2.51749558E+02
 20
1.47524521E+02
 11
-2.51749558E+02
 21
1.01524521E+02
  0
LINE
  8
0
 62
7
 10
-2.13749558E+02
 20
1.47524521E+02
 11
-2.13749558E+02
 21
1.01524521E+02
  0
LINE
  8
0
 62
7
 10
-2.23269558E+02
 20
1.07024521E+02
 11
-2.42219558E+02
 21
1.07024521E+02
  0
LINE
  8
0
 62
7
 10
-2.23269558E+02
 20
1.42024521E+02
 11
-2.42219558E+02
 21
1.42024521E+02
  0
LINE
  8
0
 62
7
 10
-2.23269558E+02
 20
1.42024521E+02
 11
-2.23269558E+02
 21
1.07024521E+02
  0
LINE
  8
0
 62
7
 10
-2.42219558E+02
 20
1.42024521E+02
 11
-2.42219558E+02
 21
1.07024521E+02
  0
LINE
  8
0
 62
7
 10
-2.23269558E+02
 20
1.42024521E+02
 11
-2.13749558E+02
 21
1.47524521E+02
  0
LINE
  8
0
 62
7
 10
-2.42219558E+02
 20
1.42024521E+02
 11
-2.51749558E+02
 21
1.47524521E+02
  0
LINE
  8
0
 62
7
 10
-2.42219558E+02
 20
1.07024521E+02
 11
-2.51749558E+02
 21
1.01524521E+02
  0
LINE
  8
0
 62
7
 10
-2.23269558E+02
 20
1.07024521E+02
 11
-2.13749558E+02
 21
1.01524521E+02
  0
LINE
  8
0
  6
CENTER
 62
2
 10
-2.24249558E+02
 20
1.36024521E+02
 11
-2.41249558E+02
 21
1.36024521E+02
  0
LINE
  8
0
 62
7
 10
-2.13749558E+02
 20
1.47524521E+02
 11
-2.51749558E+02
 21
1.47524521E+02
  0
LINE
  8
0
 62
7
 10
-2.26749558E+02
 20
1.48024521E+02
 11
-2.26749558E+02
 21
1.47524521E+02
  0
LINE
  8
0
 62
7
 10
-1.26759558E+02
 20
1.48024521E+02
 11
-1.26759558E+02
 21
1.47524521E+02
  0
LINE
  8
0
 62
7
 10
-2.25249558E+02
 20
1.49524521E+02
 11
-1.28259558E+02
 21
1.49524521E+02
  0
LINE
  8
0
 62
7
 10
-2.26749558E+02
 20
1.48024521E+02
 11
-2.25249558E+02
 21
1.49524521E+02
  0
LINE
  8
0
 62
7
 10
-1.26759558E+02
 20
1.48024521E+02
 11
-1.28259558E+02
 21
1.49524521E+02
  0
LINE
  8
0
 62
7
 10
-2.26749558E+02
 20
1.48024521E+02
 11
-1.26759558E+02
 21
1.48024521E+02
  0
LINE
  8
0
  6
CENTER
 62
2
 10
-1.76749558E+02
 20
1.65524521E+02
 11
-1.76749558E+02
 21
2.96745209E+01
  0
LINE
  8
0
 62
7
 10
-1.96499558E+02
 20
1.50524521E+02
 11
-1.96499558E+02
 21
1.49524521E+02
  0
LINE
  8
0
 62
7
 10
-2.21749558E+02
 20
1.50524521E+02
 11
-2.21749558E+02
 21
1.49524521E+02
  0
LINE
  8
0
 62
7
 10
-2.10749558E+02
 20
1.50524521E+02
 11
-2.10749558E+02
 21
1.49524521E+02
  0
LINE
  8
0
 62
7
 10
-2.21749558E+02
 20
1.50524521E+02
 11
-2.10749558E+02
 21
1.50524521E+02
  0
LINE
  8
0
 62
7
 10
-2.25249558E+02
 20
9.95245209E+01
 11
-1.28259558E+02
 21
9.95245209E+01
  0
LINE
  8
0
 62
7
 10
-2.04749558E+02
 20
9.75245209E+01
 11
-1.48759558E+02
 21
9.75245209E+01
  0
LINE
  8
0
 62
7
 10
-2.26749558E+02
 20
1.01024521E+02
 11
-2.25249558E+02
 21
9.95245209E+01
  0
LINE
  8
0
 62
7
 10
-1.28259558E+02
 20
9.95245209E+01
 11
-1.26759558E+02
 21
1.01024521E+02
  0
LINE
  8
0
 62
7
 10
-1.28259558E+02
 20
9.95245209E+01
 11
-1.28259558E+02
 21
1.01524521E+02
  0
LINE
  8
0
 62
7
 10
-2.25249558E+02
 20
9.95245209E+01
 11
-2.25249558E+02
 21
1.01524521E+02
  0
LINE
  8
0
 62
7
 10
-2.21749558E+02
 20
9.85245209E+01
 11
-2.10749558E+02
 21
9.85245209E+01
  0
LINE
  8
0
 62
7
 10
-2.21749558E+02
 20
9.85245209E+01
 11
-2.21749558E+02
 21
9.95245209E+01
  0
LINE
  8
0
 62
7
 10
-2.10749558E+02
 20
9.85245209E+01
 11
-2.10749558E+02
 21
9.95245209E+01
  0
LINE
  8
0
 62
7
 10
-1.90449558E+02
 20
1.17524521E+02
 11
-1.79823518E+02
 21
1.17524521E+02
  0
LINE
  8
0
 62
7
 10
-2.05749558E+02
 20
9.95245209E+01
 11
-2.05749558E+02
 21
9.85245209E+01
  0
LINE
  8
0
 62
7
 10
-1.47759558E+02
 20
9.95245209E+01
 11
-1.47759558E+02
 21
9.85245209E+01
  0
LINE
  8
0
 62
7
 10
-2.05749558E+02
 20
9.85245209E+01
 11
-2.04749558E+02
 21
9.75245209E+01
  0
LINE
  8
0
 62
7
 10
-1.48759558E+02
 20
9.75245209E+01
 11
-1.47759558E+02
 21
9.85245209E+01
  0
LINE
  8
0
 62
7
 10
-2.05749558E+02
 20
9.85245209E+01
 11
-1.47759558E+02
 21
9.85245209E+01
  0
LINE
  8
0
 62
7
 10
-1.91449558E+02
 20
1.01024521E+02
 11
-1.91449558E+02
 21
1.16524521E+02
  0
LINE
  8
0
 62
7
 10
-1.91449558E+02
 20
1.01024521E+02
 11
-1.92949558E+02
 21
9.95245209E+01
  0
LINE
  8
0
 62
7
 10
-1.90449558E+02
 20
1.17524521E+02
 11
-1.91449558E+02
 21
1.16524521E+02
  0
LINE
  8
0
 62
7
 10
-1.91449558E+02
 20
1.16524521E+02
 11
-1.79446165E+02
 21
1.16524521E+02
  0
LINE
  8
0
 62
7
 10
-2.05749558E+02
 20
1.39524521E+02
 11
-2.05749558E+02
 21
1.09524521E+02
  0
LINE
  8
0
 62
7
 10
-2.26749558E+02
 20
1.01524521E+02
 11
-2.26749558E+02
 21
1.01024521E+02
  0
LINE
  8
0
 62
7
 10
-2.25249558E+02
 20
1.47524521E+02
 11
-2.25249558E+02
 21
1.49524521E+02
  0
LINE
  8
0
 62
7
 10
-2.13749558E+02
 20
1.39524521E+02
 11
-2.05749558E+02
 21
1.39524521E+02
  0
LINE
  8
0
 62
7
 10
-2.13749558E+02
 20
1.09524521E+02
 11
-2.05749558E+02
 21
1.09524521E+02
  0
LINE
  8
0
 62
7
 10
-2.06629558E+02
 20
1.38904521E+02
 11
-2.06629558E+02
 21
1.10134521E+02
  0
LINE
  8
0
 62
7
 10
-2.13749558E+02
 20
1.38904521E+02
 11
-2.06629558E+02
 21
1.38904521E+02
  0
LINE
  8
0
 62
7
 10
-2.13749558E+02
 20
1.10134521E+02
 11
-2.06629558E+02
 21
1.10134521E+02
  0
LINE
  8
0
 62
7
 10
-2.06629558E+02
 20
1.10134521E+02
 11
-2.05749558E+02
 21
1.09524521E+02
  0
LINE
  8
0
 62
7
 10
-2.05749558E+02
 20
1.39524521E+02
 11
-2.06629558E+02
 21
1.38914521E+02
  0
LINE
  8
0
 62
7
 10
-1.96749558E+02
 20
1.50524521E+02
 11
-1.56759558E+02
 21
1.50524521E+02
  0
LINE
  8
0
 62
7
 10
-1.65729558E+02
 20
1.59524521E+02
 11
-1.66699558E+02
 21
1.60524521E+02
  0
LINE
  8
0
 62
7
 10
-1.58249558E+02
 20
1.53524521E+02
 11
-1.57159558E+02
 21
1.52944521E+02
  0
LINE
  8
0
 62
7
 10
-1.72749558E+02
 20
1.52944521E+02
 11
-1.72459558E+02
 21
1.53524521E+02
  0
LINE
  8
0
 62
7
 10
-1.66699558E+02
 20
1.53524521E+02
 11
-1.65729558E+02
 21
1.52944521E+02
  0
LINE
  8
0
 62
7
 10
-1.95749558E+02
 20
1.60524521E+02
 11
-1.57759558E+02
 21
1.60524521E+02
  0
LINE
  8
0
 62
7
 10
-1.56759558E+02
 20
1.59524521E+02
 11
-1.56759558E+02
 21
1.50524521E+02
  0
LINE
  8
0
 62
7
 10
-1.96749558E+02
 20
1.59524521E+02
 11
-1.96749558E+02
 21
1.50524521E+02
  0
LINE
  8
0
 62
7
 10
-1.96749558E+02
 20
1.59524521E+02
 11
-1.95749558E+02
 21
1.60524521E+02
  0
LINE
  8
0
 62
7
 10
-1.56759558E+02
 20
1.59524521E+02
 11
-1.57759558E+02
 21
1.60524521E+02
  0
LINE
  8
0
 62
7
 10
-1.95259558E+02
 20
1.53524521E+02
 11
-1.93429558E+02
 21
1.53524521E+02
  0
LINE
  8
0
 62
7
 10
-1.96339558E+02
 20
1.52944521E+02
 11
-1.93429558E+02
 21
1.52944521E+02
  0
LINE
  8
0
 62
7
 10
-1.80749558E+02
 20
1.59524521E+02
 11
-1.80749558E+02
 21
1.52944521E+02
  0
LINE
  8
0
 62
7
 10
-1.72749558E+02
 20
1.59524521E+02
 11
-1.72749558E+02
 21
1.52944521E+02
  0
LINE
  8
0
 62
7
 10
-1.72459558E+02
 20
1.60524521E+02
 11
-1.72459558E+02
 21
1.53524521E+02
  0
LINE
  8
0
 62
7
 10
-1.81039558E+02
 20
1.60524521E+02
 11
-1.81039558E+02
 21
1.53524521E+02
  0
LINE
  8
0
 62
7
 10
-1.96749558E+02
 20
1.59524521E+02
 11
-1.96339558E+02
 21
1.59524521E+02
  0
LINE
  8
0
 62
7
 10
-1.80749558E+02
 20
1.59524521E+02
 11
-1.72749558E+02
 21
1.59524521E+02
  0
LINE
  8
0
 62
7
 10
-1.65729558E+02
 20
1.59524521E+02
 11
-1.60069558E+02
 21
1.59524521E+02
  0
LINE
  8
0
 62
7
 10
-1.72459558E+02
 20
1.53524521E+02
 11
-1.66699558E+02
 21
1.53524521E+02
  0
LINE
  8
0
 62
7
 10
-1.72749558E+02
 20
1.52944521E+02
 11
-1.65729558E+02
 21
1.52944521E+02
  0
LINE
  8
0
 62
7
 10
-1.86799558E+02
 20
1.60524521E+02
 11
-1.86799558E+02
 21
1.53524521E+02
  0
LINE
  8
0
 62
7
 10
-1.66699558E+02
 20
1.60524521E+02
 11
-1.66699558E+02
 21
1.53524521E+02
  0
LINE
  8
0
 62
7
 10
-1.86799558E+02
 20
1.53524521E+02
 11
-1.81039558E+02
 21
1.53524521E+02
  0
LINE
  8
0
 62
7
 10
-1.60069558E+02
 20
1.53524521E+02
 11
-1.58249558E+02
 21
1.53524521E+02
  0
LINE
  8
0
 62
7
 10
-1.87779558E+02
 20
1.59524521E+02
 11
-1.87779558E+02
 21
1.52944521E+02
  0
LINE
  8
0
 62
7
 10
-1.65729558E+02
 20
1.59524521E+02
 11
-1.65729558E+02
 21
1.52944521E+02
  0
LINE
  8
0
 62
7
 10
-1.87779558E+02
 20
1.52944521E+02
 11
-1.80749558E+02
 21
1.52944521E+02
  0
LINE
  8
0
 62
7
 10
-1.60069558E+02
 20
1.52944521E+02
 11
-1.57159558E+02
 21
1.52944521E+02
  0
LINE
  8
0
 62
7
 10
-1.60069558E+02
 20
1.59524521E+02
 11
-1.60069558E+02
 21
1.52944521E+02
  0
LINE
  8
0
 62
7
 10
-1.93429558E+02
 20
1.59524521E+02
 11
-1.93429558E+02
 21
1.52944521E+02
  0
LINE
  8
0
 62
7
 10
-1.57159558E+02
 20
1.59524521E+02
 11
-1.56759558E+02
 21
1.59524521E+02
  0
LINE
  8
0
 62
7
 10
-1.93429558E+02
 20
1.59524521E+02
 11
-1.87779558E+02
 21
1.59524521E+02
  0
LINE
  8
0
 62
7
 10
-1.93429558E+02
 20
1.59524521E+02
 11
-1.92869558E+02
 21
1.60524521E+02
  0
LINE
  8
0
 62
7
 10
-1.60639558E+02
 20
1.60524521E+02
 11
-1.60069558E+02
 21
1.59524521E+02
  0
LINE
  8
0
 62
7
 10
-1.58249558E+02
 20
1.60524521E+02
 11
-1.58249558E+02
 21
1.53524521E+02
  0
LINE
  8
0
 62
7
 10
-1.95259558E+02
 20
1.60524521E+02
 11
-1.95259558E+02
 21
1.53524521E+02
  0
LINE
  8
0
 62
7
 10
-1.57159558E+02
 20
1.59524521E+02
 11
-1.57159558E+02
 21
1.52944521E+02
  0
LINE
  8
0
 62
7
 10
-1.96339558E+02
 20
1.59524521E+02
 11
-1.96339558E+02
 21
1.52944521E+02
  0
LINE
  8
0
 62
7
 10
-1.95259558E+02
 20
1.53524521E+02
 11
-1.96339558E+02
 21
1.52944521E+02
  0
LINE
  8
0
 62
7
 10
-1.86799558E+02
 20
1.53524521E+02
 11
-1.87779558E+02
 21
1.52944521E+02
  0
LINE
  8
0
 62
7
 10
-1.87779558E+02
 20
1.59524521E+02
 11
-1.86799558E+02
 21
1.60524521E+02
  0
LINE
  8
0
 62
7
 10
-1.81039558E+02
 20
1.60524521E+02
 11
-1.80749558E+02
 21
1.59524521E+02
  0
LINE
  8
0
 62
7
 10
-1.81039558E+02
 20
1.53524521E+02
 11
-1.80749558E+02
 21
1.52944521E+02
  0
LINE
  8
0
 62
7
 10
-1.72749558E+02
 20
1.59524521E+02
 11
-1.72459558E+02
 21
1.60524521E+02
  0
LINE
  8
0
 62
7
 10
-1.57159558E+02
 20
1.59524521E+02
 11
-1.58249558E+02
 21
1.60524521E+02
  0
LINE
  8
0
 62
7
 10
-1.96339558E+02
 20
1.59524521E+02
 11
-1.95259558E+02
 21
1.60524521E+02
  0
LINE
  8
0
 62
7
 10
-1.94779558E+02
 20
3.46745209E+01
 11
-1.58719558E+02
 21
3.46745209E+01
  0
LINE
  8
0
 62
7
 10
-1.97519558E+02
 20
6.66745209E+01
 11
-1.55979558E+02
 21
6.66745209E+01
  0
LINE
  8
0
 62
7
 10
-1.95819558E+02
 20
3.67145209E+01
 11
-1.96999558E+02
 21
3.73945209E+01
  0
LINE
  8
0
 62
7
 10
-1.57689558E+02
 20
3.67145209E+01
 11
-1.56509558E+02
 21
3.73945209E+01
  0
LINE
  8
0
 62
7
 10
-1.95779558E+02
 20
3.56345209E+01
 11
-1.95819558E+02
 21
3.67145209E+01
  0
LINE
  8
0
 62
7
 10
-1.57719558E+02
 20
3.56345209E+01
 11
-1.57689558E+02
 21
3.67145209E+01
  0
LINE
  8
0
 62
7
 10
-1.56509558E+02
 20
3.73945209E+01
 11
-1.55499558E+02
 21
6.61845209E+01
  0
LINE
  8
0
 62
7
 10
-1.96999558E+02
 20
3.73945209E+01
 11
-1.97999558E+02
 21
6.61845209E+01
  0
LINE
  8
0
 62
7
 10
-1.97519558E+02
 20
6.66745209E+01
 11
-1.97999558E+02
 21
6.61845209E+01
  0
LINE
  8
0
 62
7
 10
-1.55979558E+02
 20
6.66745209E+01
 11
-1.55499558E+02
 21
6.61845209E+01
  0
LINE
  8
0
 62
7
 10
-1.97999558E+02
 20
6.61845209E+01
 11
-1.55499558E+02
 21
6.61845209E+01
  0
LINE
  8
0
 62
7
 10
-1.97509558E+02
 20
6.33545209E+01
 11
-1.94519558E+02
 21
6.33545209E+01
  0
LINE
  8
0
 62
7
 10
-1.96999558E+02
 20
3.73945209E+01
 11
-1.96599558E+02
 21
3.73945209E+01
  0
LINE
  8
0
 62
7
 10
-1.95819558E+02
 20
3.67145209E+01
 11
-1.95309558E+02
 21
3.67145209E+01
  0
LINE
  8
0
 62
7
 10
-1.80749558E+02
 20
3.73945209E+01
 11
-1.72749558E+02
 21
3.73945209E+01
  0
LINE
  8
0
 62
7
 10
-1.81109558E+02
 20
3.67145209E+01
 11
-1.72379558E+02
 21
3.67145209E+01
  0
LINE
  8
0
 62
7
 10
-1.87049558E+02
 20
6.33545209E+01
 11
-1.81649558E+02
 21
6.33545209E+01
  0
LINE
  8
0
 62
7
 10
-1.85829558E+02
 20
6.26745209E+01
 11
-1.82019558E+02
 21
6.26745209E+01
  0
LINE
  8
0
 62
7
 10
-1.92909558E+02
 20
3.67145209E+01
 11
-1.86739558E+02
 21
3.67145209E+01
  0
LINE
  8
0
 62
7
 10
-1.93609558E+02
 20
3.73945209E+01
 11
-1.87959558E+02
 21
3.73945209E+01
  0
LINE
  8
0
 62
7
 10
-1.93609558E+02
 20
3.73945209E+01
 11
-1.92909558E+02
 21
3.67145209E+01
  0
LINE
  8
0
 62
7
 10
-1.96219558E+02
 20
6.26745209E+01
 11
-1.94499558E+02
 21
6.26745209E+01
  0
LINE
  8
0
 62
7
 10
-1.96599558E+02
 20
3.73945209E+01
 11
-1.97509558E+02
 21
6.33545209E+01
  0
LINE
  8
0
 62
7
 10
-1.95309558E+02
 20
3.67145209E+01
 11
-1.96219558E+02
 21
6.26745209E+01
  0
LINE
  8
0
 62
7
 10
-1.93609558E+02
 20
3.73945209E+01
 11
-1.94519558E+02
 21
6.33545209E+01
  0
LINE
  8
0
 62
7
 10
-1.80749558E+02
 20
3.73945209E+01
 11
-1.81649558E+02
 21
6.33545209E+01
  0
LINE
  8
0
 62
7
 10
-1.81109558E+02
 20
3.67145209E+01
 11
-1.82019558E+02
 21
6.26745209E+01
  0
LINE
  8
0
 62
7
 10
-1.87959558E+02
 20
3.73945209E+01
 11
-1.87049558E+02
 21
6.33545209E+01
  0
LINE
  8
0
 62
7
 10
-1.86739558E+02
 20
3.67145209E+01
 11
-1.85829558E+02
 21
6.26745209E+01
  0
LINE
  8
0
 62
7
 10
-1.81109558E+02
 20
3.67145209E+01
 11
-1.80749558E+02
 21
3.73945209E+01
  0
LINE
  8
0
 62
7
 10
-1.82019558E+02
 20
6.26745209E+01
 11
-1.81649558E+02
 21
6.33545209E+01
  0
LINE
  8
0
 62
7
 10
-1.85829558E+02
 20
6.26745209E+01
 11
-1.87049558E+02
 21
6.33545209E+01
  0
LINE
  8
0
 62
7
 10
-1.87959558E+02
 20
3.73945209E+01
 11
-1.86739558E+02
 21
3.67145209E+01
  0
LINE
  8
0
 62
7
 10
-1.96219558E+02
 20
6.26745209E+01
 11
-1.97509558E+02
 21
6.33545209E+01
  0
LINE
  8
0
 62
7
 10
-1.96599558E+02
 20
3.73945209E+01
 11
-1.95309558E+02
 21
3.67145209E+01
  0
LINE
  8
0
 62
7
 10
-1.56909558E+02
 20
3.73945209E+01
 11
-1.58189558E+02
 21
3.67145209E+01
  0
LINE
  8
0
 62
7
 10
-1.57279558E+02
 20
6.26745209E+01
 11
-1.55999558E+02
 21
6.33545209E+01
  0
LINE
  8
0
 62
7
 10
-1.67669558E+02
 20
6.26745209E+01
 11
-1.66459558E+02
 21
6.33545209E+01
  0
LINE
  8
0
 62
7
 10
-1.66769558E+02
 20
3.67145209E+01
 11
-1.67669558E+02
 21
6.26745209E+01
  0
LINE
  8
0
 62
7
 10
-1.65549558E+02
 20
3.73945209E+01
 11
-1.66769558E+02
 21
3.67145209E+01
  0
LINE
  8
0
 62
7
 10
-1.71479558E+02
 20
6.26745209E+01
 11
-1.71839558E+02
 21
6.33545209E+01
  0
LINE
  8
0
 62
7
 10
-1.72379558E+02
 20
3.67145209E+01
 11
-1.72749558E+02
 21
3.73945209E+01
  0
LINE
  8
0
 62
7
 10
-1.55999558E+02
 20
6.33545209E+01
 11
-1.58989558E+02
 21
6.33545209E+01
  0
LINE
  8
0
 62
7
 10
-1.56509558E+02
 20
3.73945209E+01
 11
-1.56909558E+02
 21
3.73945209E+01
  0
LINE
  8
0
 62
7
 10
-1.57689558E+02
 20
3.67145209E+01
 11
-1.58189558E+02
 21
3.67145209E+01
  0
LINE
  8
0
 62
7
 10
-1.65549558E+02
 20
3.73945209E+01
 11
-1.66459558E+02
 21
6.33545209E+01
  0
LINE
  8
0
 62
7
 10
-1.72379558E+02
 20
3.67145209E+01
 11
-1.71479558E+02
 21
6.26745209E+01
  0
LINE
  8
0
 62
7
 10
-1.66459558E+02
 20
6.33545209E+01
 11
-1.71839558E+02
 21
6.33545209E+01
  0
LINE
  8
0
 62
7
 10
-1.67669558E+02
 20
6.26745209E+01
 11
-1.71479558E+02
 21
6.26745209E+01
  0
LINE
  8
0
 62
7
 10
-1.60599558E+02
 20
3.67145209E+01
 11
-1.66769558E+02
 21
3.67145209E+01
  0
LINE
  8
0
 62
7
 10
-1.59889558E+02
 20
3.73945209E+01
 11
-1.65549558E+02
 21
3.73945209E+01
  0
LINE
  8
0
 62
7
 10
-1.59889558E+02
 20
3.73945209E+01
 11
-1.60599558E+02
 21
3.67145209E+01
  0
LINE
  8
0
 62
7
 10
-1.57279558E+02
 20
6.26745209E+01
 11
-1.59009558E+02
 21
6.26745209E+01
  0
LINE
  8
0
 62
7
 10
-1.56909558E+02
 20
3.73945209E+01
 11
-1.55999558E+02
 21
6.33545209E+01
  0
LINE
  8
0
 62
7
 10
-1.58189558E+02
 20
3.67145209E+01
 11
-1.57279558E+02
 21
6.26745209E+01
  0
LINE
  8
0
 62
7
 10
-1.59889558E+02
 20
3.73945209E+01
 11
-1.58989558E+02
 21
6.33545209E+01
  0
LINE
  8
0
 62
7
 10
-1.72749558E+02
 20
3.73945209E+01
 11
-1.71839558E+02
 21
6.33545209E+01
  0
LINE
  8
0
 62
7
 10
-2.05249558E+02
 20
9.65245209E+01
 11
-1.48259558E+02
 21
9.65245209E+01
  0
LINE
  8
0
 62
7
 10
-2.05249558E+02
 20
9.65245209E+01
 11
-2.05249558E+02
 21
8.75245209E+01
  0
LINE
  8
0
 62
7
 10
-1.48259558E+02
 20
9.65245209E+01
 11
-1.48259558E+02
 21
8.75245209E+01
  0
LINE
  8
0
 62
7
 10
-2.04249558E+02
 20
8.65245209E+01
 11
-1.49259558E+02
 21
8.65245209E+01
  0
LINE
  8
0
 62
7
 10
-2.05249558E+02
 20
8.75245209E+01
 11
-2.04249558E+02
 21
8.65245209E+01
  0
LINE
  8
0
 62
7
 10
-1.48259558E+02
 20
8.75245209E+01
 11
-1.49259558E+02
 21
8.65245209E+01
  0
LINE
  8
0
 62
7
 10
-2.05249558E+02
 20
8.75245209E+01
 11
-2.05029558E+02
 21
8.75245209E+01
  0
LINE
  8
0
 62
7
 10
-1.66269558E+02
 20
8.75245209E+01
 11
-1.59859558E+02
 21
8.75245209E+01
  0
LINE
  8
0
 62
7
 10
-1.59859558E+02
 20
9.45245209E+01
 11
-1.54009558E+02
 21
9.45245209E+01
  0
LINE
  8
0
 62
7
 10
-1.59579558E+02
 20
9.35245209E+01
 11
-1.55059558E+02
 21
9.35245209E+01
  0
LINE
  8
0
 62
7
 10
-1.59579558E+02
 20
9.35245209E+01
 11
-1.59579558E+02
 21
8.65245209E+01
  0
LINE
  8
0
 62
7
 10
-1.59859558E+02
 20
9.45245209E+01
 11
-1.59859558E+02
 21
8.75245209E+01
  0
LINE
  8
0
 62
7
 10
-1.93919558E+02
 20
9.35245209E+01
 11
-1.93919558E+02
 21
8.65245209E+01
  0
LINE
  8
0
 62
7
 10
-1.93639558E+02
 20
9.45245209E+01
 11
-1.93639558E+02
 21
8.75245209E+01
  0
LINE
  8
0
 62
7
 10
-1.93639558E+02
 20
8.75245209E+01
 11
-1.87239558E+02
 21
8.75245209E+01
  0
LINE
  8
0
 62
7
 10
-1.54009558E+02
 20
8.75245209E+01
 11
-1.50509558E+02
 21
8.75245209E+01
  0
LINE
  8
0
 62
7
 10
-1.55059558E+02
 20
9.35245209E+01
 11
-1.55059558E+02
 21
8.65245209E+01
  0
LINE
  8
0
 62
7
 10
-1.54009558E+02
 20
9.45245209E+01
 11
-1.54009558E+02
 21
8.75245209E+01
  0
LINE
  8
0
 62
7
 10
-1.99489558E+02
 20
9.45245209E+01
 11
-1.99489558E+02
 21
8.75245209E+01
  0
LINE
  8
0
 62
7
 10
-1.98449558E+02
 20
9.35245209E+01
 11
-1.98449558E+02
 21
8.65245209E+01
  0
LINE
  8
0
 62
7
 10
-1.99489558E+02
 20
9.45245209E+01
 11
-1.93639558E+02
 21
9.45245209E+01
  0
LINE
  8
0
 62
7
 10
-1.98449558E+02
 20
9.35245209E+01
 11
-1.93919558E+02
 21
9.35245209E+01
  0
LINE
  8
0
 62
7
 10
-1.50509558E+02
 20
9.45245209E+01
 11
-1.48469558E+02
 21
9.45245209E+01
  0
LINE
  8
0
 62
7
 10
-1.50509558E+02
 20
9.35245209E+01
 11
-1.49519558E+02
 21
9.35245209E+01
  0
LINE
  8
0
 62
7
 10
-1.50509558E+02
 20
9.45245209E+01
 11
-1.50509558E+02
 21
8.75245209E+01
  0
LINE
  8
0
 62
7
 10
-2.02989558E+02
 20
9.45245209E+01
 11
-2.02989558E+02
 21
8.75245209E+01
  0
LINE
  8
0
 62
7
 10
-2.05029558E+02
 20
9.45245209E+01
 11
-2.02989558E+02
 21
9.45245209E+01
  0
LINE
  8
0
 62
7
 10
-2.03989558E+02
 20
9.35245209E+01
 11
-2.02989558E+02
 21
9.35245209E+01
  0
LINE
  8
0
 62
7
 10
-2.02989558E+02
 20
8.75245209E+01
 11
-1.99489558E+02
 21
8.75245209E+01
  0
LINE
  8
0
 62
7
 10
-1.48469558E+02
 20
8.75245209E+01
 11
-1.48259558E+02
 21
8.75245209E+01
  0
LINE
  8
0
 62
7
 10
-2.02989558E+02
 20
8.75245209E+01
 11
-2.02229558E+02
 21
8.65245209E+01
  0
LINE
  8
0
 62
7
 10
-1.49519558E+02
 20
9.35245209E+01
 11
-1.49519558E+02
 21
8.65245209E+01
  0
LINE
  8
0
 62
7
 10
-1.48469558E+02
 20
9.45245209E+01
 11
-1.48469558E+02
 21
8.75245209E+01
  0
LINE
  8
0
 62
7
 10
-2.03989558E+02
 20
9.35245209E+01
 11
-2.03989558E+02
 21
8.65245209E+01
  0
LINE
  8
0
 62
7
 10
-2.05029558E+02
 20
9.45245209E+01
 11
-2.05029558E+02
 21
8.75245209E+01
  0
LINE
  8
0
 62
7
 10
-2.05029558E+02
 20
8.75245209E+01
 11
-2.03989558E+02
 21
8.65245209E+01
  0
LINE
  8
0
 62
7
 10
-2.05029558E+02
 20
9.45245209E+01
 11
-2.03989558E+02
 21
9.35245209E+01
  0
LINE
  8
0
 62
7
 10
-1.49519558E+02
 20
8.65245209E+01
 11
-1.48469558E+02
 21
8.75245209E+01
  0
LINE
  8
0
 62
7
 10
-1.49519558E+02
 20
9.35245209E+01
 11
-1.48469558E+02
 21
9.45245209E+01
  0
LINE
  8
0
 62
7
 10
-1.99489558E+02
 20
8.75245209E+01
 11
-1.98449558E+02
 21
8.65245209E+01
  0
LINE
  8
0
 62
7
 10
-1.98449558E+02
 20
9.35245209E+01
 11
-1.99489558E+02
 21
9.45245209E+01
  0
LINE
  8
0
 62
7
 10
-1.93919558E+02
 20
9.35245209E+01
 11
-1.93639558E+02
 21
9.45245209E+01
  0
LINE
  8
0
 62
7
 10
-1.93919558E+02
 20
8.65245209E+01
 11
-1.93639558E+02
 21
8.75245209E+01
  0
LINE
  8
0
 62
7
 10
-1.59579558E+02
 20
9.35245209E+01
 11
-1.59859558E+02
 21
9.45245209E+01
  0
LINE
  8
0
 62
7
 10
-1.59579558E+02
 20
8.65245209E+01
 11
-1.59859558E+02
 21
8.75245209E+01
  0
LINE
  8
0
 62
7
 10
-1.55059558E+02
 20
9.35245209E+01
 11
-1.54009558E+02
 21
9.45245209E+01
  0
LINE
  8
0
 62
7
 10
-1.54009558E+02
 20
8.75245209E+01
 11
-1.55059558E+02
 21
8.65245209E+01
  0
LINE
  8
0
 62
7
 10
-1.50509558E+02
 20
8.75245209E+01
 11
-1.51279558E+02
 21
8.65245209E+01
  0
LINE
  8
0
 62
7
 10
-1.87239558E+02
 20
9.65245209E+01
 11
-1.87239558E+02
 21
8.75245209E+01
  0
LINE
  8
0
 62
7
 10
-1.66269558E+02
 20
9.65245209E+01
 11
-1.66269558E+02
 21
8.75245209E+01
  0
LINE
  8
0
 62
2
 10
-1.87239558E+02
 20
9.65245209E+01
 11
-1.66269558E+02
 21
8.75245209E+01
  0
LINE
  8
0
 62
2
 10
-1.66269558E+02
 20
9.65245209E+01
 11
-1.87239558E+02
 21
8.75245209E+01
  0
LINE
  8
0
 62
7
 10
-1.55259558E+02
 20
8.65245209E+01
 11
-1.55259558E+02
 21
8.55245209E+01
  0
LINE
  8
0
 62
7
 10
-1.96519558E+02
 20
8.45245209E+01
 11
-1.56989558E+02
 21
8.45245209E+01
  0
LINE
  8
0
 62
7
 10
-1.98249558E+02
 20
8.55245209E+01
 11
-1.55259558E+02
 21
8.55245209E+01
  0
LINE
  8
0
 62
7
 10
-1.98249558E+02
 20
8.55245209E+01
 11
-1.96519558E+02
 21
8.45245209E+01
  0
LINE
  8
0
 62
7
 10
-1.55259558E+02
 20
8.55245209E+01
 11
-1.56989558E+02
 21
8.45245209E+01
  0
LINE
  8
0
 62
7
 10
-1.98249558E+02
 20
8.65245209E+01
 11
-1.98249558E+02
 21
8.55245209E+01
  0
LINE
  8
0
 62
7
 10
-1.99249558E+02
 20
9.75245209E+01
 11
-1.99249558E+02
 21
9.65245209E+01
  0
LINE
  8
0
 62
2
 10
-1.98249558E+02
 20
9.75245209E+01
 11
-1.98249558E+02
 21
9.65245209E+01
  0
LINE
  8
0
 62
2
 10
-1.55259558E+02
 20
9.75245209E+01
 11
-1.55259558E+02
 21
9.65245209E+01
  0
LINE
  8
0
 62
7
 10
-1.54259558E+02
 20
9.75245209E+01
 11
-1.54259558E+02
 21
9.65245209E+01
  0
LINE
  8
0
 62
7
 10
-1.88509558E+02
 20
8.45245209E+01
 11
-1.88509558E+02
 21
6.66745209E+01
  0
LINE
  8
0
 62
7
 10
-1.95799558E+02
 20
8.45245209E+01
 11
-1.95189558E+02
 21
6.66745209E+01
  0
LINE
  8
0
 62
7
 10
-1.82659558E+02
 20
8.45245209E+01
 11
-1.82659558E+02
 21
6.66745209E+01
  0
LINE
  8
0
 62
7
 10
-1.70829558E+02
 20
8.45245209E+01
 11
-1.70829558E+02
 21
6.66745209E+01
  0
LINE
  8
0
 62
7
 10
-1.64989558E+02
 20
8.45245209E+01
 11
-1.64989558E+02
 21
6.66745209E+01
  0
LINE
  8
0
 62
7
 10
-1.57709558E+02
 20
8.45245209E+01
 11
-1.58319558E+02
 21
6.66745209E+01
  0
LINE
  8
0
 62
7
 10
-2.17749558E+02
 20
1.79524521E+02
 11
-2.47749558E+02
 21
1.79524521E+02
  0
LINE
  8
0
 62
7
 10
-2.13749558E+02
 20
1.75524521E+02
 11
-2.13749558E+02
 21
1.50524521E+02
  0
LINE
  8
0
 62
7
 10
-2.51749558E+02
 20
1.75524521E+02
 11
-2.51749558E+02
 21
1.49524521E+02
  0
LINE
  8
0
 62
7
 10
-2.13749558E+02
 20
1.75524521E+02
 11
-2.17749558E+02
 21
1.79524521E+02
  0
LINE
  8
0
 62
7
 10
-2.51749558E+02
 20
1.75524521E+02
 11
-2.47749558E+02
 21
1.79524521E+02
  0
LINE
  8
0
 62
7
 10
-2.15249558E+02
 20
1.74904521E+02
 11
-2.15249558E+02
 21
1.50524521E+02
  0
LINE
  8
0
 62
7
 10
-2.50249558E+02
 20
1.74904521E+02
 11
-2.50249558E+02
 21
1.49524521E+02
  0
LINE
  8
0
 62
7
 10
-2.18369558E+02
 20
1.78024521E+02
 11
-2.47129558E+02
 21
1.78024521E+02
  0
LINE
  8
0
 62
7
 10
-2.50249558E+02
 20
1.74904521E+02
 11
-2.47129558E+02
 21
1.78024521E+02
  0
LINE
  8
0
 62
7
 10
-2.15249558E+02
 20
1.74904521E+02
 11
-2.18369558E+02
 21
1.78024521E+02
  0
LINE
  8
0
  6
CENTER
 62
2
 10
-2.22249558E+02
 20
1.69524521E+02
 11
-2.43249558E+02
 21
1.69524521E+02
  0
LINE
  8
0
 62
7
 10
-2.30749558E+02
 20
1.74024521E+02
 11
-2.34749558E+02
 21
1.74024521E+02
  0
LINE
  8
0
 62
7
 10
-2.30749558E+02
 20
1.65024521E+02
 11
-2.34749558E+02
 21
1.65024521E+02
  0
LINE
  8
0
  6
CENTER
 62
2
 10
-2.30749558E+02
 20
1.76024521E+02
 11
-2.30749558E+02
 21
1.63024521E+02
  0
LINE
  8
0
  6
CENTER
 62
2
 10
-2.34749558E+02
 20
1.76024521E+02
 11
-2.34749558E+02
 21
1.63024521E+02
  0
LINE
  8
0
 62
7
 10
-2.17749558E+02
 20
6.95245209E+01
 11
-2.47749558E+02
 21
6.95245209E+01
  0
LINE
  8
0
 62
7
 10
-2.13749558E+02
 20
7.35245209E+01
 11
-2.13749558E+02
 21
9.85245209E+01
  0
LINE
  8
0
 62
7
 10
-2.13749558E+02
 20
7.35245209E+01
 11
-2.17749558E+02
 21
6.95245209E+01
  0
LINE
  8
0
 62
7
 10
-2.15249558E+02
 20
7.41445209E+01
 11
-2.15249558E+02
 21
9.85245209E+01
  0
LINE
  8
0
 62
7
 10
-2.18369558E+02
 20
7.10245209E+01
 11
-2.47129558E+02
 21
7.10245209E+01
  0
LINE
  8
0
 62
7
 10
-2.15249558E+02
 20
7.41445209E+01
 11
-2.18369558E+02
 21
7.10245209E+01
  0
LINE
  8
0
  6
CENTER
 62
2
 10
-2.22249558E+02
 20
7.95245209E+01
 11
-2.43249558E+02
 21
7.95245209E+01
  0
LINE
  8
0
 62
7
 10
-2.30749558E+02
 20
7.50245209E+01
 11
-2.34749558E+02
 21
7.50245209E+01
  0
LINE
  8
0
 62
7
 10
-2.30749558E+02
 20
8.40245209E+01
 11
-2.34749558E+02
 21
8.40245209E+01
  0
LINE
  8
0
  6
CENTER
 62
2
 10
-2.30749558E+02
 20
7.30245209E+01
 11
-2.30749558E+02
 21
8.60245209E+01
  0
LINE
  8
0
  6
CENTER
 62
2
 10
-2.34749558E+02
 20
7.30245209E+01
 11
-2.34749558E+02
 21
8.60245209E+01
  0
LINE
  8
0
 62
7
 10
-2.48249558E+02
 20
1.57524521E+02
 11
-2.17249558E+02
 21
1.57524521E+02
  0
LINE
  8
0
 62
7
 10
-2.44249558E+02
 20
9.15245209E+01
 11
-2.17249558E+02
 21
9.15245209E+01
  0
LINE
  8
0
 62
7
 10
-2.50249558E+02
 20
1.74904521E+02
 11
-2.51749558E+02
 21
1.75524521E+02
  0
LINE
  8
0
 62
7
 10
-2.15249558E+02
 20
1.74904521E+02
 11
-2.13749558E+02
 21
1.75524521E+02
  0
LINE
  8
0
 62
7
 10
-2.17749558E+02
 20
1.79524521E+02
 11
-2.18369558E+02
 21
1.78024521E+02
  0
LINE
  8
0
 62
7
 10
-2.47749558E+02
 20
1.79524521E+02
 11
-2.47129558E+02
 21
1.78024521E+02
  0
LINE
  8
0
 62
7
 10
-2.17749558E+02
 20
6.95245209E+01
 11
-2.18369558E+02
 21
7.10245209E+01
  0
LINE
  8
0
 62
7
 10
-2.15249558E+02
 20
7.41445209E+01
 11
-2.13749558E+02
 21
7.35245209E+01
  0
LINE
  8
0
 62
7
 10
-1.38259558E+02
 20
1.74904521E+02
 11
-1.39759558E+02
 21
1.75524521E+02
  0
LINE
  8
0
  6
CENTER
 62
2
 10
-1.29259558E+02
 20
1.13024521E+02
 11
-1.12259558E+02
 21
1.13024521E+02
  0
LINE
  8
0
 62
7
 10
-1.39759558E+02
 20
1.01524521E+02
 11
-1.01759558E+02
 21
1.01524521E+02
  0
LINE
  8
0
  6
CENTER
 62
2
 10
-1.20759558E+02
 20
1.84524521E+02
 11
-1.20759558E+02
 21
6.45245209E+01
  0
LINE
  8
0
 62
7
 10
-1.01759558E+02
 20
1.47524521E+02
 11
-1.01759558E+02
 21
1.01524521E+02
  0
LINE
  8
0
 62
7
 10
-1.39759558E+02
 20
1.47524521E+02
 11
-1.39759558E+02
 21
1.31705224E+02
  0
LINE
  8
0
 62
7
 10
-1.30229558E+02
 20
1.07024521E+02
 11
-1.11279558E+02
 21
1.07024521E+02
  0
LINE
  8
0
 62
7
 10
-1.30229558E+02
 20
1.42024521E+02
 11
-1.11279558E+02
 21
1.42024521E+02
  0
LINE
  8
0
 62
7
 10
-1.30229558E+02
 20
1.42024521E+02
 11
-1.30229558E+02
 21
1.07024521E+02
  0
LINE
  8
0
 62
7
 10
-1.11279558E+02
 20
1.42024521E+02
 11
-1.11279558E+02
 21
1.07024521E+02
  0
LINE
  8
0
 62
7
 10
-1.30229558E+02
 20
1.42024521E+02
 11
-1.39759558E+02
 21
1.47524521E+02
  0
LINE
  8
0
 62
7
 10
-1.11279558E+02
 20
1.42024521E+02
 11
-1.01759558E+02
 21
1.47524521E+02
  0
LINE
  8
0
 62
7
 10
-1.11279558E+02
 20
1.07024521E+02
 11
-1.01759558E+02
 21
1.01524521E+02
  0
LINE
  8
0
 62
7
 10
-1.30229558E+02
 20
1.07024521E+02
 11
-1.39759558E+02
 21
1.01524521E+02
  0
LINE
  8
0
  6
CENTER
 62
2
 10
-1.29259558E+02
 20
1.36024521E+02
 11
-1.12259558E+02
 21
1.36024521E+02
  0
LINE
  8
0
 62
7
 10
-1.39759558E+02
 20
1.47524521E+02
 11
-1.01759558E+02
 21
1.47524521E+02
  0
LINE
  8
0
 62
7
 10
-1.38259558E+02
 20
7.41445209E+01
 11
-1.39759558E+02
 21
7.35245209E+01
  0
LINE
  8
0
 62
7
 10
-1.05759558E+02
 20
1.79524521E+02
 11
-1.06379558E+02
 21
1.78024521E+02
  0
LINE
  8
0
 62
7
 10
-1.35759558E+02
 20
6.95245209E+01
 11
-1.35139558E+02
 21
7.10245209E+01
  0
LINE
  8
0
 62
7
 10
-1.35759558E+02
 20
1.79524521E+02
 11
-1.35139558E+02
 21
1.78024521E+02
  0
LINE
  8
0
 62
7
 10
-1.35759558E+02
 20
1.79524521E+02
 11
-1.05759558E+02
 21
1.79524521E+02
  0
LINE
  8
0
 62
7
 10
-1.39759558E+02
 20
1.75524521E+02
 11
-1.39759558E+02
 21
1.49524521E+02
  0
LINE
  8
0
 62
7
 10
-1.01759558E+02
 20
1.75524521E+02
 11
-1.01759558E+02
 21
1.50524521E+02
  0
LINE
  8
0
 62
7
 10
-1.39759558E+02
 20
1.75524521E+02
 11
-1.35759558E+02
 21
1.79524521E+02
  0
LINE
  8
0
 62
7
 10
-1.01759558E+02
 20
1.75524521E+02
 11
-1.05759558E+02
 21
1.79524521E+02
  0
LINE
  8
0
 62
7
 10
-1.38259558E+02
 20
1.74904521E+02
 11
-1.38259558E+02
 21
1.49524521E+02
  0
LINE
  8
0
 62
7
 10
-1.03259558E+02
 20
1.74904521E+02
 11
-1.03259558E+02
 21
1.50524521E+02
  0
LINE
  8
0
 62
7
 10
-1.35139558E+02
 20
1.78024521E+02
 11
-1.06379558E+02
 21
1.78024521E+02
  0
LINE
  8
0
 62
7
 10
-1.03259558E+02
 20
1.74904521E+02
 11
-1.06379558E+02
 21
1.78024521E+02
  0
LINE
  8
0
 62
7
 10
-1.38259558E+02
 20
1.74904521E+02
 11
-1.35139558E+02
 21
1.78024521E+02
  0
LINE
  8
0
  6
CENTER
 62
2
 10
-1.31259558E+02
 20
1.69524521E+02
 11
-1.10259558E+02
 21
1.69524521E+02
  0
LINE
  8
0
 62
7
 10
-1.22759558E+02
 20
1.74024521E+02
 11
-1.18759558E+02
 21
1.74024521E+02
  0
LINE
  8
0
 62
7
 10
-1.22759558E+02
 20
1.65024521E+02
 11
-1.18759558E+02
 21
1.65024521E+02
  0
LINE
  8
0
  6
CENTER
 62
2
 10
-1.22759558E+02
 20
1.76024521E+02
 11
-1.22759558E+02
 21
1.63024521E+02
  0
LINE
  8
0
  6
CENTER
 62
2
 10
-1.18759558E+02
 20
1.76024521E+02
 11
-1.18759558E+02
 21
1.63024521E+02
  0
LINE
  8
0
 62
7
 10
-1.35759558E+02
 20
6.95245209E+01
 11
-1.06859558E+02
 21
6.95245209E+01
  0
LINE
  8
0
 62
7
 10
-1.39759558E+02
 20
7.35245209E+01
 11
-1.39759558E+02
 21
9.95245209E+01
  0
LINE
  8
0
 62
7
 10
-1.39759558E+02
 20
7.35245209E+01
 11
-1.35759558E+02
 21
6.95245209E+01
  0
LINE
  8
0
 62
7
 10
-1.38259558E+02
 20
7.41445209E+01
 11
-1.38259558E+02
 21
9.95245209E+01
  0
LINE
  8
0
 62
7
 10
-1.35139558E+02
 20
7.10245209E+01
 11
-1.06889558E+02
 21
7.10245209E+01
  0
LINE
  8
0
 62
7
 10
-1.38259558E+02
 20
7.41445209E+01
 11
-1.35139558E+02
 21
7.10245209E+01
  0
LINE
  8
0
  6
CENTER
 62
2
 10
-1.31259558E+02
 20
7.95245209E+01
 11
-1.10259558E+02
 21
7.95245209E+01
  0
LINE
  8
0
 62
7
 10
-1.22759558E+02
 20
7.50245209E+01
 11
-1.18759558E+02
 21
7.50245209E+01
  0
LINE
  8
0
 62
7
 10
-1.22759558E+02
 20
8.40245209E+01
 11
-1.18759558E+02
 21
8.40245209E+01
  0
LINE
  8
0
  6
CENTER
 62
2
 10
-1.22759558E+02
 20
7.30245209E+01
 11
-1.22759558E+02
 21
8.60245209E+01
  0
LINE
  8
0
  6
CENTER
 62
2
 10
-1.18759558E+02
 20
7.30245209E+01
 11
-1.18759558E+02
 21
8.60245209E+01
  0
LINE
  8
0
 62
7
 10
-1.05259558E+02
 20
1.57524521E+02
 11
-1.36259558E+02
 21
1.57524521E+02
  0
LINE
  8
0
 62
7
 10
-1.09259558E+02
 20
9.15245209E+01
 11
-1.36259558E+02
 21
9.15245209E+01
  0
LINE
  8
0
 62
7
 10
-1.03259558E+02
 20
1.74904521E+02
 11
-1.01759558E+02
 21
1.75524521E+02
  0
LINE
  8
0
 62
7
 10
-1.26759558E+02
 20
1.01524521E+02
 11
-1.26759558E+02
 21
1.01024521E+02
  0
LINE
  8
0
 62
7
 10
-1.28259558E+02
 20
1.47524521E+02
 11
-1.28259558E+02
 21
1.49524521E+02
  0
LINE
  8
0
 62
7
 10
-2.38749558E+02
 20
1.48024521E+02
 11
-2.38749558E+02
 21
1.47524521E+02
  0
LINE
  8
0
 62
7
 10
-3.28749558E+02
 20
1.48024521E+02
 11
-3.28749558E+02
 21
9.95245209E+01
  0
LINE
  8
0
  6
CENTER
 62
2
 10
-2.83749558E+02
 20
1.54524521E+02
 11
-2.83749558E+02
 21
-3.58654791E+01
  0
LINE
  8
0
 62
7
 10
-3.27249558E+02
 20
1.49524521E+02
 11
-2.40249558E+02
 21
1.49524521E+02
  0
LINE
  8
0
 62
7
 10
-3.22249558E+02
 20
8.45245209E+01
 11
-2.45249558E+02
 21
8.45245209E+01
  0
LINE
  8
0
 62
7
 10
-3.28749558E+02
 20
1.48024521E+02
 11
-3.27249558E+02
 21
1.49524521E+02
  0
LINE
  8
0
 62
7
 10
-2.40249558E+02
 20
1.49524521E+02
 11
-2.38749558E+02
 21
1.48024521E+02
  0
LINE
  8
0
 62
7
 10
-3.28749558E+02
 20
9.95245209E+01
 11
-3.14329558E+02
 21
9.95245209E+01
  0
LINE
  8
0
 62
7
 10
-2.53169558E+02
 20
9.95245209E+01
 11
-2.38749558E+02
 21
9.95245209E+01
  0
LINE
  8
0
 62
7
 10
-3.23249558E+02
 20
9.95245209E+01
 11
-3.23249558E+02
 21
8.55245209E+01
  0
LINE
  8
0
 62
7
 10
-2.44249558E+02
 20
9.95245209E+01
 11
-2.44249558E+02
 21
8.55245209E+01
  0
LINE
  8
0
 62
7
 10
-3.23249558E+02
 20
8.55245209E+01
 11
-3.22249558E+02
 21
8.45245209E+01
  0
LINE
  8
0
 62
7
 10
-2.44249558E+02
 20
8.55245209E+01
 11
-2.45249558E+02
 21
8.45245209E+01
  0
LINE
  8
0
 62
7
 10
-3.23249558E+02
 20
8.55245209E+01
 11
-2.44249558E+02
 21
8.55245209E+01
  0
LINE
  8
0
 62
7
 10
-3.28749558E+02
 20
1.48024521E+02
 11
-2.38749558E+02
 21
1.48024521E+02
  0
LINE
  8
0
 62
7
 10
-3.27249558E+02
 20
1.49524521E+02
 11
-3.27249558E+02
 21
9.95245209E+01
  0
LINE
  8
0
 62
7
 10
-3.14329558E+02
 20
1.04524521E+02
 11
-3.14329558E+02
 21
9.95245209E+01
  0
LINE
  8
0
 62
7
 10
-2.53169558E+02
 20
1.04524521E+02
 11
-2.53169558E+02
 21
9.95245209E+01
  0
LINE
  8
0
 62
7
 10
-3.13329558E+02
 20
1.05524521E+02
 11
-2.54169558E+02
 21
1.05524521E+02
  0
LINE
  8
0
 62
7
 10
-3.14329558E+02
 20
1.04524521E+02
 11
-3.13329558E+02
 21
1.05524521E+02
  0
LINE
  8
0
 62
7
 10
-2.53169558E+02
 20
1.04524521E+02
 11
-2.54169558E+02
 21
1.05524521E+02
  0
LINE
  8
0
 62
7
 10
-3.14329558E+02
 20
1.04524521E+02
 11
-2.53169558E+02
 21
1.04524521E+02
  0
LINE
  8
0
 62
7
 10
-3.23749558E+02
 20
1.50524521E+02
 11
-3.23749558E+02
 21
1.49524521E+02
  0
LINE
  8
0
 62
7
 10
-3.23749558E+02
 20
1.50524521E+02
 11
-3.12759558E+02
 21
1.50524521E+02
  0
LINE
  8
0
 62
7
 10
-3.21749558E+02
 20
1.39524521E+02
 11
-3.21749558E+02
 21
1.09524521E+02
  0
LINE
  8
0
 62
7
 10
-3.07749558E+02
 20
1.39524521E+02
 11
-3.07749558E+02
 21
1.09524521E+02
  0
LINE
  8
0
 62
7
 10
-3.20869558E+02
 20
1.38904521E+02
 11
-3.20869558E+02
 21
1.10134521E+02
  0
LINE
  8
0
 62
7
 10
-3.08629558E+02
 20
1.38904521E+02
 11
-3.08629558E+02
 21
1.10134521E+02
  0
LINE
  8
0
 62
7
 10
-3.21749558E+02
 20
1.39524521E+02
 11
-3.07749558E+02
 21
1.39524521E+02
  0
LINE
  8
0
 62
7
 10
-3.21749558E+02
 20
1.09524521E+02
 11
-3.07749558E+02
 21
1.09524521E+02
  0
LINE
  8
0
 62
7
 10
-3.20869558E+02
 20
1.10134521E+02
 11
-3.08629558E+02
 21
1.10134521E+02
  0
LINE
  8
0
 62
7
 10
-3.20869558E+02
 20
1.38904521E+02
 11
-3.08629558E+02
 21
1.38904521E+02
  0
LINE
  8
0
 62
7
 10
-3.21749558E+02
 20
1.39524521E+02
 11
-3.20869558E+02
 21
1.38904521E+02
  0
LINE
  8
0
 62
7
 10
-3.08629558E+02
 20
1.38904521E+02
 11
-3.07749558E+02
 21
1.39524521E+02
  0
LINE
  8
0
 62
7
 10
-3.08629558E+02
 20
1.10134521E+02
 11
-3.07749558E+02
 21
1.09524521E+02
  0
LINE
  8
0
 62
7
 10
-3.20869558E+02
 20
1.10134521E+02
 11
-3.21749558E+02
 21
1.09524521E+02
  0
LINE
  8
0
 62
7
 10
-2.59749558E+02
 20
1.39524521E+02
 11
-2.59749558E+02
 21
1.09524521E+02
  0
LINE
  8
0
 62
7
 10
-2.58869558E+02
 20
1.38904521E+02
 11
-2.58869558E+02
 21
1.10134521E+02
  0
LINE
  8
0
 62
7
 10
-2.51749558E+02
 20
1.39524521E+02
 11
-2.59749558E+02
 21
1.39524521E+02
  0
LINE
  8
0
 62
7
 10
-2.51749558E+02
 20
1.09524521E+02
 11
-2.59749558E+02
 21
1.09524521E+02
  0
LINE
  8
0
 62
7
 10
-2.51749558E+02
 20
1.10134521E+02
 11
-2.58869558E+02
 21
1.10134521E+02
  0
LINE
  8
0
 62
7
 10
-2.51749558E+02
 20
1.38904521E+02
 11
-2.58869558E+02
 21
1.38904521E+02
  0
LINE
  8
0
 62
7
 10
-2.58869558E+02
 20
1.38904521E+02
 11
-2.59749558E+02
 21
1.39524521E+02
  0
LINE
  8
0
 62
7
 10
-2.58869558E+02
 20
1.10134521E+02
 11
-2.59749558E+02
 21
1.09524521E+02
  0
LINE
  8
0
 62
7
 10
-2.40249558E+02
 20
1.49524521E+02
 11
-2.40249558E+02
 21
1.47524521E+02
  0
LINE
  8
0
 62
7
 10
-2.40249558E+02
 20
1.01524521E+02
 11
-2.40249558E+02
 21
9.95245209E+01
  0
LINE
  8
0
 62
7
 10
-2.38749558E+02
 20
1.01524521E+02
 11
-2.38749558E+02
 21
9.95245209E+01
  0
LINE
  8
0
 62
7
 10
-2.49689558E+02
 20
7.35845209E+01
 11
-2.47129558E+02
 21
7.10245209E+01
  0
LINE
  8
0
 62
7
 10
-2.49709558E+02
 20
7.14845209E+01
 11
-2.47749558E+02
 21
6.95245209E+01
  0
LINE
  8
0
 62
7
 10
-2.47749558E+02
 20
6.95245209E+01
 11
-2.47129558E+02
 21
7.10245209E+01
  0
LINE
  8
0
 62
7
 10
-2.47595576E+01
 20
1.48024521E+02
 11
-2.47595576E+01
 21
9.95245209E+01
  0
LINE
  8
0
 62
7
 10
-1.14759558E+02
 20
1.48024521E+02
 11
-1.14759558E+02
 21
1.47524521E+02
  0
LINE
  8
0
  6
CENTER
 62
2
 10
-6.97595576E+01
 20
1.52524521E+02
 11
-6.97595576E+01
 21
-1.91654791E+01
  0
LINE
  8
0
 62
7
 10
-1.13259558E+02
 20
1.49524521E+02
 11
-2.62595576E+01
 21
1.49524521E+02
  0
LINE
  8
0
 62
7
 10
-1.08259558E+02
 20
8.45245209E+01
 11
-3.12595576E+01
 21
8.45245209E+01
  0
LINE
  8
0
 62
7
 10
-1.14759558E+02
 20
1.48024521E+02
 11
-1.13259558E+02
 21
1.49524521E+02
  0
LINE
  8
0
 62
7
 10
-2.62595576E+01
 20
1.49524521E+02
 11
-2.47595576E+01
 21
1.48024521E+02
  0
LINE
  8
0
 62
7
 10
-1.14759558E+02
 20
9.95245209E+01
 11
-1.00339558E+02
 21
9.95245209E+01
  0
LINE
  8
0
 62
7
 10
-3.91695576E+01
 20
9.95245209E+01
 11
-2.47595576E+01
 21
9.95245209E+01
  0
LINE
  8
0
 62
7
 10
-1.09259558E+02
 20
9.95245209E+01
 11
-1.09259558E+02
 21
8.55245209E+01
  0
LINE
  8
0
 62
7
 10
-3.02595576E+01
 20
9.95245209E+01
 11
-3.02595576E+01
 21
8.55245209E+01
  0
LINE
  8
0
 62
7
 10
-1.09259558E+02
 20
8.55245209E+01
 11
-1.08259558E+02
 21
8.45245209E+01
  0
LINE
  8
0
 62
7
 10
-3.02595576E+01
 20
8.55245209E+01
 11
-3.12595576E+01
 21
8.45245209E+01
  0
LINE
  8
0
 62
7
 10
-1.09259558E+02
 20
8.55245209E+01
 11
-3.02595576E+01
 21
8.55245209E+01
  0
LINE
  8
0
 62
7
 10
-1.14759558E+02
 20
1.48024521E+02
 11
-9.42595576E+01
 21
1.48024521E+02
  0
LINE
  8
0
 62
7
 10
-1.13259558E+02
 20
1.49524521E+02
 11
-1.13259558E+02
 21
1.47524521E+02
  0
LINE
  8
0
 62
7
 10
-1.00339558E+02
 20
1.04524521E+02
 11
-1.00339558E+02
 21
9.95245209E+01
  0
LINE
  8
0
 62
7
 10
-3.91695576E+01
 20
1.04524521E+02
 11
-3.91695576E+01
 21
9.95245209E+01
  0
LINE
  8
0
 62
7
 10
-9.93395576E+01
 20
1.05524521E+02
 11
-4.01795576E+01
 21
1.05524521E+02
  0
LINE
  8
0
 62
7
 10
-1.00339558E+02
 20
1.04524521E+02
 11
-9.93395576E+01
 21
1.05524521E+02
  0
LINE
  8
0
 62
7
 10
-3.91695576E+01
 20
1.04524521E+02
 11
-4.01695576E+01
 21
1.05524521E+02
  0
LINE
  8
0
 62
7
 10
-1.00339558E+02
 20
1.04524521E+02
 11
-3.91695576E+01
 21
1.04524521E+02
  0
LINE
  8
0
 62
7
 10
-1.09759558E+02
 20
1.50524521E+02
 11
-1.09759558E+02
 21
1.49524521E+02
  0
LINE
  8
0
 62
7
 10
-9.87595576E+01
 20
1.50524521E+02
 11
-9.87595576E+01
 21
1.49524521E+02
  0
LINE
  8
0
 62
7
 10
-1.09759558E+02
 20
1.50524521E+02
 11
-9.87595576E+01
 21
1.50524521E+02
  0
LINE
  8
0
 62
7
 10
-9.37595576E+01
 20
1.39524521E+02
 11
-9.37595576E+01
 21
1.09524521E+02
  0
LINE
  8
0
 62
7
 10
-9.46395576E+01
 20
1.38904521E+02
 11
-9.46395576E+01
 21
1.10134521E+02
  0
LINE
  8
0
 62
7
 10
-1.01759558E+02
 20
1.39524521E+02
 11
-9.37595576E+01
 21
1.39524521E+02
  0
LINE
  8
0
 62
7
 10
-1.01759558E+02
 20
1.09524521E+02
 11
-9.37595576E+01
 21
1.09524521E+02
  0
LINE
  8
0
 62
7
 10
-1.01759558E+02
 20
1.10134521E+02
 11
-9.46395576E+01
 21
1.10134521E+02
  0
LINE
  8
0
 62
7
 10
-1.01759558E+02
 20
1.38904521E+02
 11
-9.46395576E+01
 21
1.38904521E+02
  0
LINE
  8
0
 62
7
 10
-9.46395576E+01
 20
1.38904521E+02
 11
-9.37595576E+01
 21
1.39524521E+02
  0
LINE
  8
0
 62
7
 10
-9.46395576E+01
 20
1.10134521E+02
 11
-9.37595576E+01
 21
1.09524521E+02
  0
LINE
  8
0
 62
7
 10
-4.57595576E+01
 20
1.39524521E+02
 11
-4.57595576E+01
 21
1.09524521E+02
  0
LINE
  8
0
 62
7
 10
-4.48795576E+01
 20
1.38904521E+02
 11
-4.48795576E+01
 21
1.10134521E+02
  0
LINE
  8
0
 62
7
 10
-3.17595576E+01
 20
1.39524521E+02
 11
-4.57595576E+01
 21
1.39524521E+02
  0
LINE
  8
0
 62
7
 10
-3.17595576E+01
 20
1.09524521E+02
 11
-4.57595576E+01
 21
1.09524521E+02
  0
LINE
  8
0
 62
7
 10
-3.26395576E+01
 20
1.10134521E+02
 11
-4.48795576E+01
 21
1.10134521E+02
  0
LINE
  8
0
 62
7
 10
-3.26395576E+01
 20
1.38904521E+02
 11
-4.48795576E+01
 21
1.38904521E+02
  0
LINE
  8
0
 62
7
 10
-4.48795576E+01
 20
1.38904521E+02
 11
-4.57595576E+01
 21
1.39524521E+02
  0
LINE
  8
0
 62
7
 10
-4.48795576E+01
 20
1.10134521E+02
 11
-4.57595576E+01
 21
1.09524521E+02
  0
LINE
  8
0
 62
7
 10
-2.62595576E+01
 20
1.49524521E+02
 11
-2.62595576E+01
 21
9.95245209E+01
  0
LINE
  8
0
 62
7
 10
-3.17595576E+01
 20
1.39524521E+02
 11
-3.26395576E+01
 21
1.38904521E+02
  0
LINE
  8
0
 62
7
 10
-3.17595576E+01
 20
1.39524521E+02
 11
-3.17595576E+01
 21
1.09524521E+02
  0
LINE
  8
0
 62
7
 10
-3.26395576E+01
 20
1.38904521E+02
 11
-3.26395576E+01
 21
1.10134521E+02
  0
LINE
  8
0
 62
7
 10
-3.26395576E+01
 20
1.10134521E+02
 11
-3.17595576E+01
 21
1.09524521E+02
  0
LINE
  8
0
 62
7
 10
-1.14759558E+02
 20
1.01524521E+02
 11
-1.14759558E+02
 21
9.95245209E+01
  0
LINE
  8
0
 62
7
 10
-1.13259558E+02
 20
1.01524521E+02
 11
-1.13259558E+02
 21
9.95245209E+01
  0
LINE
  8
0
 62
7
 10
-7.47595576E+01
 20
1.49524521E+02
 11
-7.47595576E+01
 21
1.05524521E+02
  0
LINE
  8
0
 62
7
 10
-9.27595576E+01
 20
1.49524521E+02
 11
-9.27595576E+01
 21
1.05524521E+02
  0
LINE
  8
0
 62
7
 10
-7.32595576E+01
 20
1.48024521E+02
 11
-2.47595576E+01
 21
1.48024521E+02
  0
LINE
  8
0
 62
7
 10
-7.47595576E+01
 20
1.49524521E+02
 11
-7.32595576E+01
 21
1.48024521E+02
  0
LINE
  8
0
 62
7
 10
-9.42595576E+01
 20
1.48024521E+02
 11
-9.27595576E+01
 21
1.49524521E+02
  0
LINE
  8
0
 62
7
 10
-1.39759558E+02
 20
1.17343818E+02
 11
-1.39759558E+02
 21
1.01524521E+02
  0
LINE
  8
0
  6
CENTER
 62
2
 10
-1.59759558E+02
 20
1.46845559E+02
 11
-1.59759558E+02
 21
1.02077143E+02
  0
LINE
  8
0
 62
7
 10
-2.97429558E+02
 20
1.45024521E+02
 11
-3.00019558E+02
 21
1.06924521E+02
  0
LINE
  8
0
 62
7
 10
-2.93949558E+02
 20
1.46524521E+02
 11
-2.97429558E+02
 21
1.45024521E+02
  0
LINE
  8
0
 62
7
 10
-2.93949558E+02
 20
1.46524521E+02
 11
-2.73549558E+02
 21
1.46524521E+02
  0
LINE
  8
0
 62
7
 10
-2.97429558E+02
 20
1.45024521E+02
 11
-2.70059558E+02
 21
1.45024521E+02
  0
LINE
  8
0
 62
7
 10
-2.73549558E+02
 20
1.46524521E+02
 11
-2.70059558E+02
 21
1.45024521E+02
  0
LINE
  8
0
 62
7
 10
-2.70059558E+02
 20
1.45024521E+02
 11
-2.67479558E+02
 21
1.06924521E+02
  0
LINE
  8
0
 62
7
 10
-3.12759558E+02
 20
1.50524521E+02
 11
-3.12759558E+02
 21
1.49524521E+02
  0
ARC
  8
0
 62
7
 10
-6.42595576E+01
 20
1.66027343E+02
 40
6.95016012E+00
 50
3.88927334E-01
 51
1.79611073E+02
  0
ARC
  8
0
 62
7
 10
-4.97545994E+01
 20
1.47829479E+02
 40
1.00497035E+00
 50
1.80282675E+02
 51
2.69717324E+02
  0
CIRCLE
  8
0
 62
7
 10
-2.32752441E+02
 20
1.36027343E+02
 40
5.50000000E+00
  0
CIRCLE
  8
0
 62
7
 10
-2.32752441E+02
 20
1.13027343E+02
 40
5.50000000E+00
  0
ARC
  8
0
 62
7
 10
-1.94782385E+02
 20
3.56724090E+01
 40
9.97892080E-01
 50
1.82175935E+02
 51
2.70162344E+02
  0
ARC
  8
0
 62
7
 10
-1.58719473E+02
 20
3.56752661E+01
 40
1.00074521E+00
 50
2.70000000E+02
 51
3.57666565E+02
  0
ARC
  8
0
 62
7
 10
-1.76754558E+02
 20
1.42028198E+02
 40
5.55030270E+01
 50
2.59110901E+02
 51
2.80889099E+02
  0
ARC
  8
0
 62
7
 10
-2.30749558E+02
 20
1.69524521E+02
 40
4.50000092E+00
 50
2.70000000E+02
 51
9.00000002E+01
  0
ARC
  8
0
 62
7
 10
-2.34749558E+02
 20
1.69524521E+02
 40
4.50000092E+00
 50
9.00000002E+01
 51
2.70000000E+02
  0
ARC
  8
0
 62
7
 10
-2.34749558E+02
 20
7.95245209E+01
 40
4.50000092E+00
 50
9.00000002E+01
 51
2.70000000E+02
  0
ARC
  8
0
 62
7
 10
-2.30749558E+02
 20
7.95245209E+01
 40
4.50000092E+00
 50
2.70000000E+02
 51
9.00000002E+01
  0
ARC
  8
0
 62
7
 10
-1.22759558E+02
 20
7.95245209E+01
 40
4.50000568E+00
 50
9.00000002E+01
 51
2.70000000E+02
  0
ARC
  8
0
 62
7
 10
-1.22759558E+02
 20
1.69524521E+02
 40
4.50000568E+00
 50
9.00000002E+01
 51
2.70000000E+02
  0
ARC
  8
0
 62
7
 10
-1.18759558E+02
 20
1.69524521E+02
 40
4.50000568E+00
 50
2.70000000E+02
 51
9.00000002E+01
  0
CIRCLE
  8
0
 62
7
 10
-1.20752410E+02
 20
1.13027343E+02
 40
5.50000000E+00
  0
CIRCLE
  8
0
 62
7
 10
-1.20752410E+02
 20
1.36027343E+02
 40
5.50000000E+00
  0
ARC
  8
0
 62
7
 10
-1.18759558E+02
 20
7.95245209E+01
 40
4.50000568E+00
 50
2.70000000E+02
 51
9.00000002E+01
  0
ARC
  8
0
 62
7
 10
-3.01518602E+02
 20
1.07027040E+02
 40
1.50254625E+00
 50
2.70344899E+02
 51
3.56087658E+02
  0
ARC
  8
0
 62
7
 10
-2.65983200E+02
 20
1.07024189E+02
 40
1.49967292E+00
 50
1.83810695E+02
 51
2.70139173E+02
  0
LINE
  8
0
 62
7
 10
-8.81695576E+01
 20
-1.46654791E+01
 11
-5.13395576E+01
 21
-1.46654791E+01
  0
LINE
  8
0
 62
7
 10
-8.97095576E+01
 20
2.82452094E+00
 11
-9.66195576E+01
 21
2.82452094E+00
  0
LINE
  8
0
 62
7
 10
-8.97095576E+01
 20
3.88245209E+01
 11
-9.66195576E+01
 21
3.88245209E+01
  0
LINE
  8
0
 62
7
 10
-8.97095576E+01
 20
4.48245209E+01
 11
-9.66195576E+01
 21
4.48245209E+01
  0
LINE
  8
0
 62
7
 10
-9.66195576E+01
 20
7.88245209E+01
 11
-8.97095576E+01
 21
7.88245209E+01
  0
LINE
  8
0
 62
7
 10
-3.63395576E+01
 20
1.94520935E-01
 11
-3.56095576E+01
 21
8.45245209E+01
  0
LINE
  8
0
 62
7
 10
-1.03169558E+02
 20
1.94520935E-01
 11
-1.03649558E+02
 21
5.46245209E+01
  0
LINE
  8
0
 62
7
 10
-9.47895576E+01
 20
7.83245209E+01
 11
-8.97095576E+01
 21
7.83245209E+01
  0
LINE
  8
0
 62
7
 10
-8.97095576E+01
 20
3.83245209E+01
 11
-9.47895576E+01
 21
3.83245209E+01
  0
LINE
  8
0
 62
7
 10
-8.97095576E+01
 20
4.53245209E+01
 11
-9.47895576E+01
 21
4.53245209E+01
  0
LINE
  8
0
 62
7
 10
-8.97095576E+01
 20
3.32452094E+00
 11
-9.47895576E+01
 21
3.32452094E+00
  0
LINE
  8
0
 62
7
 10
-9.76195576E+01
 20
3.78245209E+01
 11
-9.76195576E+01
 21
3.82452094E+00
  0
LINE
  8
0
 62
7
 10
-9.57895576E+01
 20
3.73245209E+01
 11
-9.57895576E+01
 21
4.32452094E+00
  0
LINE
  8
0
 62
7
 10
-8.87095576E+01
 20
3.78245209E+01
 11
-8.87095576E+01
 21
3.82452094E+00
  0
LINE
  8
0
 62
7
 10
-8.93295576E+01
 20
2.32452094E+00
 11
-9.68795576E+01
 21
2.32452094E+00
  0
LINE
  8
0
 62
7
 10
-8.93295576E+01
 20
1.82452094E+00
 11
-9.74695576E+01
 21
1.82452094E+00
  0
LINE
  8
0
 62
7
 10
-9.68795576E+01
 20
7.93245209E+01
 11
-8.93295576E+01
 21
7.93245209E+01
  0
LINE
  8
0
 62
7
 10
-9.74695576E+01
 20
7.98245209E+01
 11
-8.93295576E+01
 21
7.98245209E+01
  0
LINE
  8
0
 62
7
 10
-8.83295576E+01
 20
7.88245209E+01
 11
-8.83295576E+01
 21
2.82452094E+00
  0
LINE
  8
0
 62
7
 10
-8.87095576E+01
 20
7.78245209E+01
 11
-8.87095576E+01
 21
4.58245209E+01
  0
LINE
  8
0
 62
7
 10
-9.57895576E+01
 20
7.73245209E+01
 11
-9.57895576E+01
 21
4.63245209E+01
  0
LINE
  8
0
 62
7
 10
-9.76195576E+01
 20
7.78245209E+01
 11
-9.76195576E+01
 21
4.58245209E+01
  0
LINE
  8
0
 62
7
 10
-9.78795576E+01
 20
7.83245209E+01
 11
-9.78795576E+01
 21
3.32452094E+00
  0
LINE
  8
0
 62
7
 10
-9.84695576E+01
 20
7.88245209E+01
 11
-9.84695576E+01
 21
2.82452094E+00
  0
LINE
  8
0
 62
7
 10
-4.97995576E+01
 20
2.82452094E+00
 11
-4.28895576E+01
 21
2.82452094E+00
  0
LINE
  8
0
 62
7
 10
-4.97995576E+01
 20
3.88245209E+01
 11
-4.28895576E+01
 21
3.88245209E+01
  0
LINE
  8
0
 62
7
 10
-4.97995576E+01
 20
4.48245209E+01
 11
-4.28895576E+01
 21
4.48245209E+01
  0
LINE
  8
0
 62
7
 10
-4.28895576E+01
 20
7.88245209E+01
 11
-4.97995576E+01
 21
7.88245209E+01
  0
LINE
  8
0
 62
7
 10
-4.47295576E+01
 20
7.83245209E+01
 11
-4.97995576E+01
 21
7.83245209E+01
  0
LINE
  8
0
 62
7
 10
-4.97995576E+01
 20
3.83245209E+01
 11
-4.47295576E+01
 21
3.83245209E+01
  0
LINE
  8
0
 62
7
 10
-4.97995576E+01
 20
4.53245209E+01
 11
-4.47295576E+01
 21
4.53245209E+01
  0
LINE
  8
0
 62
7
 10
-4.97995576E+01
 20
3.32452094E+00
 11
-4.47295576E+01
 21
3.32452094E+00
  0
LINE
  8
0
 62
7
 10
-4.18895576E+01
 20
3.78245209E+01
 11
-4.18895576E+01
 21
3.82452094E+00
  0
LINE
  8
0
 62
7
 10
-4.37295576E+01
 20
3.73245209E+01
 11
-4.37295576E+01
 21
4.32452094E+00
  0
LINE
  8
0
 62
7
 10
-5.07995576E+01
 20
3.78245209E+01
 11
-5.07995576E+01
 21
3.82452094E+00
  0
LINE
  8
0
 62
7
 10
-5.01795576E+01
 20
2.32452094E+00
 11
-4.26395576E+01
 21
2.32452094E+00
  0
LINE
  8
0
 62
7
 10
-5.01795576E+01
 20
1.82452094E+00
 11
-4.20395576E+01
 21
1.82452094E+00
  0
LINE
  8
0
 62
7
 10
-4.26395576E+01
 20
7.93245209E+01
 11
-5.01795576E+01
 21
7.93245209E+01
  0
LINE
  8
0
 62
7
 10
-4.20395576E+01
 20
7.98245209E+01
 11
-5.01795576E+01
 21
7.98245209E+01
  0
LINE
  8
0
 62
7
 10
-5.11795576E+01
 20
7.88245209E+01
 11
-5.11795576E+01
 21
2.82452094E+00
  0
LINE
  8
0
 62
7
 10
-5.07995576E+01
 20
7.78245209E+01
 11
-5.07995576E+01
 21
4.58245209E+01
  0
LINE
  8
0
 62
7
 10
-4.37295576E+01
 20
7.73245209E+01
 11
-4.37295576E+01
 21
4.63245209E+01
  0
LINE
  8
0
 62
7
 10
-4.18895576E+01
 20
7.78245209E+01
 11
-4.18895576E+01
 21
4.58245209E+01
  0
LINE
  8
0
 62
7
 10
-4.16395576E+01
 20
7.83245209E+01
 11
-4.16395576E+01
 21
3.32452094E+00
  0
LINE
  8
0
 62
7
 10
-4.10395576E+01
 20
7.88245209E+01
 11
-4.10395576E+01
 21
2.82452094E+00
  0
LINE
  8
0
 62
7
 10
-1.03649558E+02
 20
5.46245209E+01
 11
-1.06429558E+02
 21
5.86045209E+01
  0
LINE
  8
0
 62
7
 10
-1.06479558E+02
 20
5.87745209E+01
 11
-1.06569558E+02
 21
6.81245209E+01
  0
LINE
  8
0
 62
7
 10
-1.03799558E+02
 20
7.24445209E+01
 11
-1.06569558E+02
 21
6.81245209E+01
  0
LINE
  8
0
 62
7
 10
-1.03799558E+02
 20
7.24445209E+01
 11
-1.03909558E+02
 21
8.45245209E+01
  0
LINE
  8
0
 62
7
 10
-1.07159558E+02
 20
8.20045209E+01
 11
-1.06619558E+02
 21
6.00045209E+01
  0
LINE
  8
0
 62
7
 10
-1.06669558E+02
 20
8.25145209E+01
 11
-1.05599558E+02
 21
8.25445209E+01
  0
LINE
  8
0
 62
7
 10
-1.06619558E+02
 20
6.00045209E+01
 11
-1.06489558E+02
 21
5.98845209E+01
  0
LINE
  8
0
 62
7
 10
-1.07159558E+02
 20
8.20045209E+01
 11
-1.06669558E+02
 21
8.25145209E+01
  0
LINE
  8
0
 62
7
 10
-1.06219558E+02
 20
8.45245209E+01
 11
-1.06169558E+02
 21
8.25245209E+01
  0
LINE
  8
0
 62
7
 10
-1.05639558E+02
 20
8.45245209E+01
 11
-1.05599558E+02
 21
8.25445209E+01
  0
LINE
  8
0
 62
7
 10
-1.06669558E+02
 20
8.25145209E+01
 11
-1.06329558E+02
 21
6.84945209E+01
  0
ARC
  8
0
 62
7
 10
-8.81727772E+01
 20
3.31930483E-01
 40
1.49974099E+01
 50
1.80524964E+02
 51
2.70012300E+02
  0
ARC
  8
0
 62
7
 10
-5.13342330E+01
 20
3.29805742E-01
 40
1.49952858E+01
 50
2.69979655E+02
 51
3.59483081E+02
  0
ARC
  8
0
 62
7
 10
-9.47864937E+01
 20
3.73214571E+01
 40
1.00306849E+00
 50
9.01750067E+01
 51
1.79824993E+02
  0
ARC
  8
0
 62
7
 10
-8.97081490E+01
 20
3.73259295E+01
 40
9.98592389E-01
 50
3.59919179E+02
 51
9.00808210E+01
  0
ARC
  8
0
 62
7
 10
-8.97081490E+01
 20
3.78259295E+01
 40
9.98592389E-01
 50
3.59919179E+02
 51
9.00808210E+01
  0
ARC
  8
0
 62
7
 10
-8.97109819E+01
 20
4.32594528E+00
 40
1.00142536E+00
 50
2.70081493E+02
 51
3.59918507E+02
  0
ARC
  8
0
 62
7
 10
-8.97109819E+01
 20
3.82594528E+00
 40
1.00142536E+00
 50
2.70081493E+02
 51
3.59918507E+02
  0
ARC
  8
0
 62
7
 10
-8.93292363E+01
 20
3.32419972E+00
 40
9.99678833E-01
 50
2.70000000E+02
 51
1.84103801E-02
  0
ARC
  8
0
 62
7
 10
-8.93292363E+01
 20
2.82419972E+00
 40
9.99678833E-01
 50
2.70000000E+02
 51
1.84103801E-02
  0
ARC
  8
0
 62
7
 10
-9.47836734E+01
 20
4.33040507E+00
 40
1.00590134E+00
 50
1.80335160E+02
 51
2.69664840E+02
  0
ARC
  8
0
 62
7
 10
-9.66186335E+01
 20
3.78235969E+01
 40
1.00092448E+00
 50
9.00000002E+01
 51
1.79947104E+02
  0
ARC
  8
0
 62
7
 10
-9.66158071E+01
 20
3.82827135E+00
 40
1.00375742E+00
 50
1.80214079E+02
 51
2.69785921E+02
  0
ARC
  8
0
 62
7
 10
-9.68743601E+01
 20
3.32971841E+00
 40
1.00521091E+00
 50
1.80296251E+02
 51
2.69703749E+02
  0
ARC
  8
0
 62
7
 10
-9.74680223E+01
 20
2.82605621E+00
 40
1.00153645E+00
 50
1.80087830E+02
 51
2.69912170E+02
  0
ARC
  8
0
 62
7
 10
-8.97081490E+01
 20
7.73259295E+01
 40
9.98592389E-01
 50
3.59919179E+02
 51
9.00808210E+01
  0
ARC
  8
0
 62
7
 10
-8.97081490E+01
 20
7.78259295E+01
 40
9.98592389E-01
 50
3.59919179E+02
 51
9.00808210E+01
  0
ARC
  8
0
 62
7
 10
-8.93263984E+01
 20
7.83276801E+01
 40
9.96845882E-01
 50
3.59818422E+02
 51
9.01815774E+01
  0
ARC
  8
0
 62
7
 10
-8.93263984E+01
 20
7.88276801E+01
 40
9.96845882E-01
 50
3.59818422E+02
 51
9.01815774E+01
  0
ARC
  8
0
 62
7
 10
-9.47864937E+01
 20
7.73214571E+01
 40
1.00306849E+00
 50
9.01750067E+01
 51
1.79824993E+02
  0
ARC
  8
0
 62
7
 10
-9.66186335E+01
 20
7.78235969E+01
 40
1.00092448E+00
 50
9.00000002E+01
 51
1.79947104E+02
  0
ARC
  8
0
 62
7
 10
-9.68771823E+01
 20
7.83221457E+01
 40
1.00237802E+00
 50
9.01357665E+01
 51
1.79864233E+02
  0
ARC
  8
0
 62
7
 10
-9.74708549E+01
 20
7.88258183E+01
 40
9.98703485E-01
 50
8.99255701E+01
 51
1.80074430E+02
  0
ARC
  8
0
 62
7
 10
-8.97109743E+01
 20
4.63259376E+01
 40
1.00141771E+00
 50
2.70081056E+02
 51
3.59918944E+02
  0
ARC
  8
0
 62
7
 10
-8.97109743E+01
 20
4.58259376E+01
 40
1.00141771E+00
 50
2.70081056E+02
 51
3.59918944E+02
  0
ARC
  8
0
 62
7
 10
-9.47836810E+01
 20
4.63303975E+01
 40
1.00589369E+00
 50
1.80334729E+02
 51
2.69665271E+02
  0
ARC
  8
0
 62
7
 10
-9.66158148E+01
 20
4.58282637E+01
 40
1.00374977E+00
 50
1.80213645E+02
 51
2.69786354E+02
  0
ARC
  8
0
 62
7
 10
-4.47254730E+01
 20
3.73286055E+01
 40
9.95923782E-01
 50
3.59765011E+02
 51
9.02349885E+01
  0
ARC
  8
0
 62
7
 10
-4.97988289E+01
 20
3.73237923E+01
 40
1.00072891E+00
 50
9.00000002E+01
 51
1.79958282E+02
  0
ARC
  8
0
 62
7
 10
-4.97988289E+01
 20
3.78237923E+01
 40
1.00072891E+00
 50
9.00000002E+01
 51
1.79958282E+02
  0
ARC
  8
0
 62
7
 10
-4.97960020E+01
 20
4.32807649E+00
 40
1.00356185E+00
 50
1.80202995E+02
 51
2.69797004E+02
  0
ARC
  8
0
 62
7
 10
-4.97960020E+01
 20
3.82807649E+00
 40
1.00356185E+00
 50
1.80202995E+02
 51
2.69797004E+02
  0
ARC
  8
0
 62
7
 10
-5.01777513E+01
 20
3.32632720E+00
 40
1.00180789E+00
 50
1.80103305E+02
 51
2.69896696E+02
  0
ARC
  8
0
 62
7
 10
-5.01777513E+01
 20
2.82632720E+00
 40
1.00180789E+00
 50
1.80103305E+02
 51
2.69896696E+02
  0
ARC
  8
0
 62
7
 10
-4.47283135E+01
 20
4.32327687E+00
 40
9.98756710E-01
 50
2.69928632E+02
 51
7.13684222E-02
  0
ARC
  8
0
 62
7
 10
-4.28883439E+01
 20
3.78257345E+01
 40
9.98787129E-01
 50
3.59930381E+02
 51
9.00696191E+01
  0
ARC
  8
0
 62
7
 10
-4.28911763E+01
 20
3.82613972E+00
 40
1.00162010E+00
 50
2.70092600E+02
 51
3.59907400E+02
  0
ARC
  8
0
 62
7
 10
-4.26376317E+01
 20
3.32259509E+00
 40
9.98076016E-01
 50
2.69889444E+02
 51
1.10555392E-01
  0
ARC
  8
0
 62
7
 10
-4.20389659E+01
 20
2.82392931E+00
 40
9.99408551E-01
 50
2.70000000E+02
 51
3.39176120E-02
  0
ARC
  8
0
 62
7
 10
-4.97988289E+01
 20
7.73237923E+01
 40
1.00072891E+00
 50
9.00000002E+01
 51
1.79958282E+02
  0
ARC
  8
0
 62
7
 10
-4.97988289E+01
 20
7.78237923E+01
 40
1.00072891E+00
 50
9.00000002E+01
 51
1.79958282E+02
  0
ARC
  8
0
 62
7
 10
-5.01805832E+01
 20
7.83255465E+01
 40
9.98974921E-01
 50
8.99411769E+01
 51
1.80058823E+02
  0
ARC
  8
0
 62
7
 10
-5.01805832E+01
 20
7.88255465E+01
 40
9.98974921E-01
 50
8.99411769E+01
 51
1.80058823E+02
  0
ARC
  8
0
 62
7
 10
-4.47254730E+01
 20
7.73286055E+01
 40
9.95923782E-01
 50
3.59765011E+02
 51
9.02349885E+01
  0
ARC
  8
0
 62
7
 10
-4.28883439E+01
 20
7.78257345E+01
 40
9.98787129E-01
 50
3.59930381E+02
 51
9.00696191E+01
  0
ARC
  8
0
 62
7
 10
-4.26347892E+01
 20
7.83292892E+01
 40
9.95243111E-01
 50
3.59725489E+02
 51
9.02745111E+01
  0
ARC
  8
0
 62
7
 10
-4.20361273E+01
 20
7.88279512E+01
 40
9.96575606E-01
 50
3.59802783E+02
 51
9.01972174E+01
  0
ARC
  8
0
 62
7
 10
-4.97960096E+01
 20
4.63280689E+01
 40
1.00355420E+00
 50
1.80202562E+02
 51
2.69797438E+02
  0
ARC
  8
0
 62
7
 10
-4.97960096E+01
 20
4.58280689E+01
 40
1.00355420E+00
 50
1.80202562E+02
 51
2.69797438E+02
  0
ARC
  8
0
 62
7
 10
-4.47283058E+01
 20
4.63232692E+01
 40
9.98749059E-01
 50
2.69928192E+02
 51
7.18084384E-02
  0
ARC
  8
0
 62
7
 10
-4.28911687E+01
 20
4.58261321E+01
 40
1.00161245E+00
 50
2.70092164E+02
 51
3.59907836E+02
  0
ARC
  8
0
 62
7
 10
-1.06177023E+02
 20
5.87711489E+01
 40
3.02553722E-01
 50
1.79361403E+02
 51
2.13417678E+02
  0
LINE
  8
0
 62
7
 10
-3.02159558E+02
 20
-1.46654791E+01
 11
-2.65329558E+02
 21
-1.46654791E+01
  0
LINE
  8
0
 62
7
 10
-3.03709558E+02
 20
2.82452094E+00
 11
-3.10609558E+02
 21
2.82452094E+00
  0
LINE
  8
0
 62
7
 10
-3.03709558E+02
 20
3.88245209E+01
 11
-3.10609558E+02
 21
3.88245209E+01
  0
LINE
  8
0
 62
7
 10
-3.03709558E+02
 20
4.48245209E+01
 11
-3.10609558E+02
 21
4.48245209E+01
  0
LINE
  8
0
 62
7
 10
-3.10609558E+02
 20
7.88245209E+01
 11
-3.03709558E+02
 21
7.88245209E+01
  0
LINE
  8
0
 62
7
 10
-2.50329558E+02
 20
1.94520935E-01
 11
-2.49599558E+02
 21
8.45245209E+01
  0
LINE
  8
0
 62
7
 10
-3.17159558E+02
 20
1.94520935E-01
 11
-3.17639558E+02
 21
5.46245209E+01
  0
LINE
  8
0
 62
7
 10
-3.08779558E+02
 20
7.83245209E+01
 11
-3.03709558E+02
 21
7.83245209E+01
  0
LINE
  8
0
 62
7
 10
-3.03709558E+02
 20
3.83245209E+01
 11
-3.08779558E+02
 21
3.83245209E+01
  0
LINE
  8
0
 62
7
 10
-3.03709558E+02
 20
4.53245209E+01
 11
-3.08779558E+02
 21
4.53245209E+01
  0
LINE
  8
0
 62
7
 10
-3.03709558E+02
 20
3.32452094E+00
 11
-3.08779558E+02
 21
3.32452094E+00
  0
LINE
  8
0
 62
7
 10
-3.11609558E+02
 20
3.78245209E+01
 11
-3.11609558E+02
 21
3.82452094E+00
  0
LINE
  8
0
 62
7
 10
-3.09779558E+02
 20
3.73245209E+01
 11
-3.09779558E+02
 21
4.32452094E+00
  0
LINE
  8
0
 62
7
 10
-3.02709558E+02
 20
3.78245209E+01
 11
-3.02709558E+02
 21
3.82452094E+00
  0
LINE
  8
0
 62
7
 10
-3.03319558E+02
 20
2.32452094E+00
 11
-3.10869558E+02
 21
2.32452094E+00
  0
LINE
  8
0
 62
7
 10
-3.03319558E+02
 20
1.82452094E+00
 11
-3.11469558E+02
 21
1.82452094E+00
  0
LINE
  8
0
 62
7
 10
-3.10869558E+02
 20
7.93245209E+01
 11
-3.03319558E+02
 21
7.93245209E+01
  0
LINE
  8
0
 62
7
 10
-3.11469558E+02
 20
7.98245209E+01
 11
-3.03319558E+02
 21
7.98245209E+01
  0
LINE
  8
0
 62
7
 10
-3.02319558E+02
 20
7.88245209E+01
 11
-3.02319558E+02
 21
2.82452094E+00
  0
LINE
  8
0
 62
7
 10
-3.02709558E+02
 20
7.78245209E+01
 11
-3.02709558E+02
 21
4.58245209E+01
  0
LINE
  8
0
 62
7
 10
-3.09779558E+02
 20
7.73245209E+01
 11
-3.09779558E+02
 21
4.63245209E+01
  0
LINE
  8
0
 62
7
 10
-3.11609558E+02
 20
7.78245209E+01
 11
-3.11609558E+02
 21
4.58245209E+01
  0
LINE
  8
0
 62
7
 10
-3.11869558E+02
 20
7.83245209E+01
 11
-3.11869558E+02
 21
3.32452094E+00
  0
LINE
  8
0
 62
7
 10
-3.12469558E+02
 20
7.88245209E+01
 11
-3.12469558E+02
 21
2.82452094E+00
  0
LINE
  8
0
 62
7
 10
-2.63789558E+02
 20
2.82452094E+00
 11
-2.56889558E+02
 21
2.82452094E+00
  0
LINE
  8
0
 62
7
 10
-2.63789558E+02
 20
3.88245209E+01
 11
-2.56889558E+02
 21
3.88245209E+01
  0
LINE
  8
0
 62
7
 10
-2.63789558E+02
 20
4.48245209E+01
 11
-2.56889558E+02
 21
4.48245209E+01
  0
LINE
  8
0
 62
7
 10
-2.56889558E+02
 20
7.88245209E+01
 11
-2.63789558E+02
 21
7.88245209E+01
  0
LINE
  8
0
 62
7
 10
-2.58719558E+02
 20
7.83245209E+01
 11
-2.63789558E+02
 21
7.83245209E+01
  0
LINE
  8
0
 62
7
 10
-2.63789558E+02
 20
3.83245209E+01
 11
-2.58719558E+02
 21
3.83245209E+01
  0
LINE
  8
0
 62
7
 10
-2.63789558E+02
 20
4.53245209E+01
 11
-2.58719558E+02
 21
4.53245209E+01
  0
LINE
  8
0
 62
7
 10
-2.63789558E+02
 20
3.32452094E+00
 11
-2.58719558E+02
 21
3.32452094E+00
  0
LINE
  8
0
 62
7
 10
-2.55889558E+02
 20
3.78245209E+01
 11
-2.55889558E+02
 21
3.82452094E+00
  0
LINE
  8
0
 62
7
 10
-2.57719558E+02
 20
3.73245209E+01
 11
-2.57719558E+02
 21
4.32452094E+00
  0
LINE
  8
0
 62
7
 10
-2.64789558E+02
 20
3.78245209E+01
 11
-2.64789558E+02
 21
3.82452094E+00
  0
LINE
  8
0
 62
7
 10
-2.64169558E+02
 20
2.32452094E+00
 11
-2.56629558E+02
 21
2.32452094E+00
  0
LINE
  8
0
 62
7
 10
-2.64169558E+02
 20
1.82452094E+00
 11
-2.56029558E+02
 21
1.82452094E+00
  0
LINE
  8
0
 62
7
 10
-2.56629558E+02
 20
7.93245209E+01
 11
-2.64169558E+02
 21
7.93245209E+01
  0
LINE
  8
0
 62
7
 10
-2.56029558E+02
 20
7.98245209E+01
 11
-2.64169558E+02
 21
7.98245209E+01
  0
LINE
  8
0
 62
7
 10
-2.65169558E+02
 20
7.88245209E+01
 11
-2.65169558E+02
 21
2.82452094E+00
  0
LINE
  8
0
 62
7
 10
-2.64789558E+02
 20
7.78245209E+01
 11
-2.64789558E+02
 21
4.58245209E+01
  0
LINE
  8
0
 62
7
 10
-2.57719558E+02
 20
7.73245209E+01
 11
-2.57719558E+02
 21
4.63245209E+01
  0
LINE
  8
0
 62
7
 10
-2.55889558E+02
 20
7.78245209E+01
 11
-2.55889558E+02
 21
4.58245209E+01
  0
LINE
  8
0
 62
7
 10
-2.55629558E+02
 20
7.83245209E+01
 11
-2.55629558E+02
 21
3.32452094E+00
  0
LINE
  8
0
 62
7
 10
-2.55029558E+02
 20
7.88245209E+01
 11
-2.55029558E+02
 21
2.82452094E+00
  0
LINE
  8
0
 62
7
 10
-3.17639558E+02
 20
5.46245209E+01
 11
-3.20419558E+02
 21
5.86045209E+01
  0
LINE
  8
0
 62
7
 10
-3.20479558E+02
 20
5.87745209E+01
 11
-3.20559558E+02
 21
6.81245209E+01
  0
LINE
  8
0
 62
7
 10
-3.17789558E+02
 20
7.24445209E+01
 11
-3.20559558E+02
 21
6.81245209E+01
  0
LINE
  8
0
 62
7
 10
-3.17789558E+02
 20
7.24445209E+01
 11
-3.17899558E+02
 21
8.45245209E+01
  0
LINE
  8
0
 62
7
 10
-3.21149558E+02
 20
8.20045209E+01
 11
-3.20609558E+02
 21
6.00045209E+01
  0
LINE
  8
0
 62
7
 10
-3.20669558E+02
 20
8.25145209E+01
 11
-3.19589558E+02
 21
8.25445209E+01
  0
LINE
  8
0
 62
7
 10
-3.20609558E+02
 20
6.00045209E+01
 11
-3.20489558E+02
 21
5.98845209E+01
  0
LINE
  8
0
 62
7
 10
-3.21149558E+02
 20
8.20045209E+01
 11
-3.20669558E+02
 21
8.25145209E+01
  0
LINE
  8
0
 62
7
 10
-3.20209558E+02
 20
8.45245209E+01
 11
-3.20169558E+02
 21
8.25245209E+01
  0
LINE
  8
0
 62
7
 10
-3.19639558E+02
 20
8.45245209E+01
 11
-3.19589558E+02
 21
8.25445209E+01
  0
LINE
  8
0
 62
7
 10
-3.20669558E+02
 20
8.25145209E+01
 11
-3.20319558E+02
 21
6.84945209E+01
  0
LINE
  8
0
 62
4
 10
-2.91319558E+02
 20
-1.61654791E+01
 11
-2.76169558E+02
 21
-1.61654791E+01
  0
LINE
  8
0
 62
4
 10
-2.91819558E+02
 20
-1.56654791E+01
 11
-2.91819558E+02
 21
-1.46654791E+01
  0
LINE
  8
0
 62
4
 10
-2.75669558E+02
 20
-1.56654791E+01
 11
-2.75669558E+02
 21
-1.46654791E+01
  0
LINE
  8
0
 62
4
 10
-2.76169558E+02
 20
-1.61654791E+01
 11
-2.75669558E+02
 21
-1.56654791E+01
  0
LINE
  8
0
 62
4
 10
-2.91319558E+02
 20
-1.61654791E+01
 11
-2.91819558E+02
 21
-1.56654791E+01
  0
LINE
  8
0
 62
4
 10
-2.76999558E+02
 20
-3.09654791E+01
 11
-2.90499558E+02
 21
-3.09654791E+01
  0
LINE
  8
0
 62
4
 10
-2.75999558E+02
 20
-1.79654791E+01
 11
-2.75999558E+02
 21
-2.99654791E+01
  0
LINE
  8
0
 62
4
 10
-2.91499558E+02
 20
-1.79654791E+01
 11
-2.91499558E+02
 21
-2.99654791E+01
  0
LINE
  8
0
 62
4
 10
-2.75999558E+02
 20
-2.99654791E+01
 11
-2.76999558E+02
 21
-3.09654791E+01
  0
LINE
  8
0
 62
4
 10
-2.90499558E+02
 20
-3.09654791E+01
 11
-2.91499558E+02
 21
-2.99654791E+01
  0
LINE
  8
0
 62
4
 10
-2.76499558E+02
 20
-1.74654791E+01
 11
-2.90999558E+02
 21
-1.74654791E+01
  0
LINE
  8
0
 62
4
 10
-2.76499558E+02
 20
-1.74654791E+01
 11
-2.75999558E+02
 21
-1.79654791E+01
  0
LINE
  8
0
 62
4
 10
-2.90999558E+02
 20
-1.74654791E+01
 11
-2.91499558E+02
 21
-1.79654791E+01
  0
LINE
  8
0
 62
4
 10
-2.77749558E+02
 20
-1.61654791E+01
 11
-2.77749558E+02
 21
-1.74654791E+01
  0
LINE
  8
0
 62
4
 10
-2.89749558E+02
 20
-1.61654791E+01
 11
-2.89749558E+02
 21
-1.74654791E+01
  0
LINE
  8
0
 62
6
 10
-2.88999558E+02
 20
-1.61654791E+01
 11
-2.88999558E+02
 21
-1.74654791E+01
  0
LINE
  8
0
 62
6
 10
-2.78499558E+02
 20
-1.61654791E+01
 11
-2.78499558E+02
 21
-1.74654791E+01
  0
LINE
  8
0
 62
4
 10
-2.85249558E+02
 20
-2.04654791E+01
 11
-2.85249558E+02
 21
-2.99654791E+01
  0
LINE
  8
0
 62
4
 10
-2.82249558E+02
 20
-2.04654791E+01
 11
-2.82249558E+02
 21
-2.99654791E+01
  0
LINE
  8
0
 62
4
 10
-2.81909558E+02
 20
-2.07454791E+01
 11
-2.81909558E+02
 21
-3.04654791E+01
  0
LINE
  8
0
 62
4
 10
-2.85589558E+02
 20
-2.07454791E+01
 11
-2.85589558E+02
 21
-3.04654791E+01
  0
LINE
  8
0
 62
4
 10
-2.87409558E+02
 20
-2.07454791E+01
 11
-2.87409558E+02
 21
-3.04654791E+01
  0
LINE
  8
0
 62
4
 10
-2.88059558E+02
 20
-2.04654791E+01
 11
-2.88059558E+02
 21
-2.99654791E+01
  0
LINE
  8
0
 62
4
 10
-2.90189558E+02
 20
-2.04654791E+01
 11
-2.90189558E+02
 21
-2.99654791E+01
  0
LINE
  8
0
 62
4
 10
-2.90759558E+02
 20
-2.07454791E+01
 11
-2.90759558E+02
 21
-3.04654791E+01
  0
LINE
  8
0
 62
4
 10
-2.91349558E+02
 20
-2.04654791E+01
 11
-2.91349558E+02
 21
-2.99654791E+01
  0
LINE
  8
0
 62
4
 10
-2.80089558E+02
 20
-2.07454791E+01
 11
-2.80089558E+02
 21
-3.04654791E+01
  0
LINE
  8
0
 62
4
 10
-2.79429558E+02
 20
-2.04654791E+01
 11
-2.79429558E+02
 21
-2.99654791E+01
  0
LINE
  8
0
 62
4
 10
-2.77309558E+02
 20
-2.04654791E+01
 11
-2.77309558E+02
 21
-2.99654791E+01
  0
LINE
  8
0
 62
4
 10
-2.76739558E+02
 20
-2.07454791E+01
 11
-2.76739558E+02
 21
-3.04654791E+01
  0
LINE
  8
0
 62
4
 10
-2.76149558E+02
 20
-2.04654791E+01
 11
-2.76149558E+02
 21
-2.99654791E+01
  0
LINE
  8
0
 62
4
 10
-2.76149558E+02
 20
-2.04654791E+01
 11
-2.77309558E+02
 21
-2.04654791E+01
  0
LINE
  8
0
 62
4
 10
-2.76739558E+02
 20
-2.07454791E+01
 11
-2.77309558E+02
 21
-2.07454791E+01
  0
LINE
  8
0
 62
4
 10
-2.75999558E+02
 20
-2.99654791E+01
 11
-2.76149558E+02
 21
-2.99654791E+01
  0
LINE
  8
0
 62
4
 10
-2.85249558E+02
 20
-2.04654791E+01
 11
-2.88059558E+02
 21
-2.04654791E+01
  0
LINE
  8
0
 62
4
 10
-2.85589558E+02
 20
-2.07454791E+01
 11
-2.87409558E+02
 21
-2.07454791E+01
  0
LINE
  8
0
 62
4
 10
-2.79429558E+02
 20
-2.04654791E+01
 11
-2.82249558E+02
 21
-2.04654791E+01
  0
LINE
  8
0
 62
4
 10
-2.80089558E+02
 20
-2.07454791E+01
 11
-2.81909558E+02
 21
-2.07454791E+01
  0
LINE
  8
0
 62
4
 10
-2.90189558E+02
 20
-2.04654791E+01
 11
-2.91349558E+02
 21
-2.04654791E+01
  0
LINE
  8
0
 62
4
 10
-2.90189558E+02
 20
-2.07454791E+01
 11
-2.90759558E+02
 21
-2.07454791E+01
  0
LINE
  8
0
 62
4
 10
-2.82249558E+02
 20
-2.99654791E+01
 11
-2.85249558E+02
 21
-2.99654791E+01
  0
LINE
  8
0
 62
4
 10
-2.88059558E+02
 20
-2.99654791E+01
 11
-2.90189558E+02
 21
-2.99654791E+01
  0
LINE
  8
0
 62
4
 10
-2.91349558E+02
 20
-2.99654791E+01
 11
-2.91499558E+02
 21
-2.99654791E+01
  0
LINE
  8
0
 62
4
 10
-2.77309558E+02
 20
-2.99654791E+01
 11
-2.79429558E+02
 21
-2.99654791E+01
  0
LINE
  8
0
 62
4
 10
-2.80089558E+02
 20
-3.04654791E+01
 11
-2.81909558E+02
 21
-3.04654791E+01
  0
LINE
  8
0
 62
4
 10
-2.76739558E+02
 20
-3.04654791E+01
 11
-2.76149558E+02
 21
-2.99654791E+01
  0
LINE
  8
0
 62
4
 10
-2.80089558E+02
 20
-3.04654791E+01
 11
-2.79429558E+02
 21
-2.99654791E+01
  0
LINE
  8
0
 62
4
 10
-2.81909558E+02
 20
-3.04654791E+01
 11
-2.82249558E+02
 21
-2.99654791E+01
  0
LINE
  8
0
 62
4
 10
-2.85249558E+02
 20
-2.99654791E+01
 11
-2.85589558E+02
 21
-3.04654791E+01
  0
LINE
  8
0
 62
4
 10
-2.87409558E+02
 20
-3.04654791E+01
 11
-2.88059558E+02
 21
-2.99654791E+01
  0
LINE
  8
0
 62
4
 10
-2.90759558E+02
 20
-3.04654791E+01
 11
-2.91349558E+02
 21
-2.99654791E+01
  0
LINE
  8
0
 62
4
 10
-2.90759558E+02
 20
-2.07454791E+01
 11
-2.91349558E+02
 21
-2.04654791E+01
  0
LINE
  8
0
 62
4
 10
-2.87409558E+02
 20
-2.07454791E+01
 11
-2.88059558E+02
 21
-2.04654791E+01
  0
LINE
  8
0
 62
4
 10
-2.85589558E+02
 20
-2.07454791E+01
 11
-2.85249558E+02
 21
-2.04654791E+01
  0
LINE
  8
0
 62
4
 10
-2.81909558E+02
 20
-2.07454791E+01
 11
-2.82249558E+02
 21
-2.04654791E+01
  0
LINE
  8
0
 62
4
 10
-2.80089558E+02
 20
-2.07454791E+01
 11
-2.79429558E+02
 21
-2.04654791E+01
  0
LINE
  8
0
 62
4
 10
-2.76739558E+02
 20
-2.07454791E+01
 11
-2.76149558E+02
 21
-2.04654791E+01
  0
LINE
  8
0
 62
4
 10
-2.77309558E+02
 20
-2.99654791E+01
 11
-2.77489558E+02
 21
-3.04654791E+01
  0
LINE
  8
0
 62
4
 10
-2.90189558E+02
 20
-2.99654791E+01
 11
-2.90009558E+02
 21
-3.04654791E+01
  0
LINE
  8
0
 62
4
 10
-2.85589558E+02
 20
-3.04654791E+01
 11
-2.87409558E+02
 21
-3.04654791E+01
  0
LINE
  8
0
 62
4
 10
-2.76739558E+02
 20
-3.04654791E+01
 11
-2.77489558E+02
 21
-3.04654791E+01
  0
LINE
  8
0
 62
4
 10
-2.90009558E+02
 20
-3.04654791E+01
 11
-2.90759558E+02
 21
-3.04654791E+01
  0
LINE
  8
0
 62
4
 10
-2.75999558E+02
 20
-1.79654791E+01
 11
-2.91499558E+02
 21
-1.79654791E+01
  0
LINE
  8
0
 62
4
 10
-2.91819558E+02
 20
-1.56654791E+01
 11
-2.75669558E+02
 21
-1.56654791E+01
  0
ARC
  8
0
 62
7
 10
-3.02167739E+02
 20
3.26922371E-01
 40
1.49924037E+01
 50
1.80505999E+02
 51
2.70031265E+02
  0
ARC
  8
0
 62
7
 10
-2.65329195E+02
 20
3.34814834E-01
 40
1.50002939E+01
 50
2.70000000E+02
 51
3.59464120E+02
  0
ARC
  8
0
 62
7
 10
-3.08781518E+02
 20
3.73264816E+01
 40
9.98041240E-01
 50
8.98874403E+01
 51
1.80112560E+02
  0
ARC
  8
0
 62
7
 10
-3.03708157E+02
 20
3.73259219E+01
 40
9.98600018E-01
 50
3.59919618E+02
 51
9.00803822E+01
  0
ARC
  8
0
 62
7
 10
-3.03708157E+02
 20
3.78259219E+01
 40
9.98600018E-01
 50
3.59919618E+02
 51
9.00803822E+01
  0
ARC
  8
0
 62
7
 10
-3.03710990E+02
 20
4.32595290E+00
 40
1.00143299E+00
 50
2.70081928E+02
 51
3.59918072E+02
  0
ARC
  8
0
 62
7
 10
-3.03710990E+02
 20
3.82595290E+00
 40
1.00143299E+00
 50
2.70081928E+02
 51
3.59918072E+02
  0
ARC
  8
0
 62
7
 10
-3.03324241E+02
 20
3.32920403E+00
 40
1.00469401E+00
 50
2.70267069E+02
 51
3.59732931E+02
  0
ARC
  8
0
 62
7
 10
-3.03324241E+02
 20
2.82920403E+00
 40
1.00469401E+00
 50
2.70267069E+02
 51
3.59732931E+02
  0
ARC
  8
0
 62
7
 10
-3.08778684E+02
 20
4.32539476E+00
 40
1.00087421E+00
 50
1.80050023E+02
 51
2.70000000E+02
  0
ARC
  8
0
 62
7
 10
-3.10613647E+02
 20
3.78286107E+01
 40
9.95918622E-01
 50
8.97647122E+01
 51
1.80235288E+02
  0
ARC
  8
0
 62
7
 10
-3.10610807E+02
 20
3.82327170E+00
 40
9.98751550E-01
 50
1.79928335E+02
 51
2.70071665E+02
  0
ARC
  8
0
 62
7
 10
-3.10869367E+02
 20
3.32471153E+00
 40
1.00019061E+00
 50
1.80010918E+02
 51
2.70000000E+02
  0
ARC
  8
0
 62
7
 10
-3.11468030E+02
 20
2.82604859E+00
 40
1.00152882E+00
 50
1.80087395E+02
 51
2.69912605E+02
  0
ARC
  8
0
 62
7
 10
-3.03708157E+02
 20
7.73259219E+01
 40
9.98600018E-01
 50
3.59919618E+02
 51
9.00803822E+01
  0
ARC
  8
0
 62
7
 10
-3.03708157E+02
 20
7.78259219E+01
 40
9.98600018E-01
 50
3.59919618E+02
 51
9.00803822E+01
  0
ARC
  8
0
 62
7
 10
-3.03321417E+02
 20
7.83226616E+01
 40
1.00186110E+00
 50
1.06336316E-01
 51
8.98936638E+01
  0
ARC
  8
0
 62
7
 10
-3.03321417E+02
 20
7.88226616E+01
 40
1.00186110E+00
 50
1.06336316E-01
 51
8.98936638E+01
  0
ARC
  8
0
 62
7
 10
-3.08781518E+02
 20
7.73264816E+01
 40
9.98041240E-01
 50
8.98874403E+01
 51
1.80112560E+02
  0
ARC
  8
0
 62
7
 10
-3.10613647E+02
 20
7.78286107E+01
 40
9.95918622E-01
 50
8.97647122E+01
 51
1.80235288E+02
  0
ARC
  8
0
 62
7
 10
-3.10872203E+02
 20
7.83271668E+01
 40
9.97357652E-01
 50
8.98480019E+01
 51
1.80151998E+02
  0
ARC
  8
0
 62
7
 10
-3.11470863E+02
 20
7.88258259E+01
 40
9.98695854E-01
 50
8.99251312E+01
 51
1.80074869E+02
  0
ARC
  8
0
 62
7
 10
-3.03710982E+02
 20
4.63259453E+01
 40
1.00142534E+00
 50
2.70081492E+02
 51
3.59918508E+02
  0
ARC
  8
0
 62
7
 10
-3.03710982E+02
 20
4.58259453E+01
 40
1.00142534E+00
 50
2.70081492E+02
 51
3.59918508E+02
  0
ARC
  8
0
 62
7
 10
-3.08778691E+02
 20
4.63253871E+01
 40
1.00086656E+00
 50
1.80049585E+02
 51
2.70000000E+02
  0
ARC
  8
0
 62
7
 10
-3.10610814E+02
 20
4.58232640E+01
 40
9.98743899E-01
 50
1.79927895E+02
 51
2.70072105E+02
  0
ARC
  8
0
 62
7
 10
-2.58720487E+02
 20
3.73235917E+01
 40
1.00092969E+00
 50
5.31934218E-02
 51
9.00000002E+01
  0
ARC
  8
0
 62
7
 10
-2.63793842E+02
 20
3.73288051E+01
 40
9.95725004E-01
 50
8.97534782E+01
 51
1.80246522E+02
  0
ARC
  8
0
 62
7
 10
-2.63793842E+02
 20
3.78288051E+01
 40
9.95725004E-01
 50
8.97534782E+01
 51
1.80246522E+02
  0
ARC
  8
0
 62
7
 10
-2.63791001E+02
 20
4.32307782E+00
 40
9.98557926E-01
 50
1.79917196E+02
 51
2.70082804E+02
  0
ARC
  8
0
 62
7
 10
-2.63791001E+02
 20
3.82307782E+00
 40
9.98557926E-01
 50
1.79917196E+02
 51
2.70082804E+02
  0
ARC
  8
0
 62
7
 10
-2.64172741E+02
 20
3.32133729E+00
 40
9.96821435E-01
 50
1.79817009E+02
 51
2.70182992E+02
  0
ARC
  8
0
 62
7
 10
-2.64172741E+02
 20
2.82133729E+00
 40
9.96821435E-01
 50
1.79817009E+02
 51
2.70182992E+02
  0
ARC
  8
0
 62
7
 10
-2.58723313E+02
 20
4.32827654E+00
 40
1.00376263E+00
 50
2.70214374E+02
 51
3.59785626E+02
  0
ARC
  8
0
 62
7
 10
-2.56888352E+02
 20
3.78257269E+01
 40
9.98794762E-01
 50
3.59930820E+02
 51
9.00691803E+01
  0
ARC
  8
0
 62
7
 10
-2.56891184E+02
 20
3.82614734E+00
 40
1.00162773E+00
 50
2.70093035E+02
 51
3.59906965E+02
  0
ARC
  8
0
 62
7
 10
-2.56632628E+02
 20
3.32759134E+00
 40
1.00307510E+00
 50
2.70175382E+02
 51
3.59824618E+02
  0
ARC
  8
0
 62
7
 10
-2.56033969E+02
 20
2.82893226E+00
 40
1.00442101E+00
 50
2.70251638E+02
 51
3.59748361E+02
  0
ARC
  8
0
 62
7
 10
-2.63793842E+02
 20
7.73288051E+01
 40
9.95725004E-01
 50
8.97534782E+01
 51
1.80246522E+02
  0
ARC
  8
0
 62
7
 10
-2.63793842E+02
 20
7.78288051E+01
 40
9.95725004E-01
 50
8.97534782E+01
 51
1.80246522E+02
  0
ARC
  8
0
 62
7
 10
-2.64175587E+02
 20
7.83305506E+01
 40
9.93988588E-01
 50
8.96524320E+01
 51
1.80347568E+02
  0
ARC
  8
0
 62
7
 10
-2.64175587E+02
 20
7.88305506E+01
 40
9.93988588E-01
 50
8.96524320E+01
 51
1.80347568E+02
  0
ARC
  8
0
 62
7
 10
-2.58720487E+02
 20
7.73235917E+01
 40
1.00092969E+00
 50
5.31934218E-02
 51
9.00000002E+01
  0
ARC
  8
0
 62
7
 10
-2.56888352E+02
 20
7.78257269E+01
 40
9.98794762E-01
 50
3.59930820E+02
 51
9.00691803E+01
  0
ARC
  8
0
 62
7
 10
-2.56629800E+02
 20
7.83242788E+01
 40
1.00024215E+00
 50
1.38689229E-02
 51
9.00000002E+01
  0
ARC
  8
0
 62
7
 10
-2.56031144E+02
 20
7.88229341E+01
 40
1.00158810E+00
 50
9.07750751E-02
 51
8.99092248E+01
  0
ARC
  8
0
 62
7
 10
-2.63791008E+02
 20
4.63230702E+01
 40
9.98550275E-01
 50
1.79916756E+02
 51
2.70083244E+02
  0
ARC
  8
0
 62
7
 10
-2.63791008E+02
 20
4.58230702E+01
 40
9.98550275E-01
 50
1.79916756E+02
 51
2.70083244E+02
  0
ARC
  8
0
 62
7
 10
-2.58723306E+02
 20
4.63282689E+01
 40
1.00375498E+00
 50
2.70213941E+02
 51
3.59786059E+02
  0
ARC
  8
0
 62
7
 10
-2.56891176E+02
 20
4.58261397E+01
 40
1.00162008E+00
 50
2.70092599E+02
 51
3.59907401E+02
  0
ARC
  8
0
 62
7
 10
-3.20181264E+02
 20
5.87842127E+01
 40
2.98450605E-01
 50
1.81860918E+02
 51
2.17019151E+02
  0
CIRCLE
  8
0
 62
4
 10
-1.59759558E+02
 20
1.24524521E+02
 40
2.12500000E+01
  0
CIRCLE
  8
0
 62
4
 10
-1.59759558E+02
 20
1.24524521E+02
 40
2.07500000E+01
  0
LINE
  8
0
 62
7
 10
-1.56999558E+02
 20
1.50524521E+02
 11
-1.56999558E+02
 21
1.49524521E+02
  0
LINE
  8
0
 62
7
 10
-1.62049558E+02
 20
1.01024521E+02
 11
-1.62049558E+02
 21
1.03398272E+02
  0
LINE
  8
0
 62
7
 10
-1.62049558E+02
 20
1.01024521E+02
 11
-1.60549558E+02
 21
9.95245209E+01
  0
LINE
  8
0
 62
7
 10
-2.26749558E+02
 20
1.01024521E+02
 11
-1.91449558E+02
 21
1.01024521E+02
  0
LINE
  8
0
 62
7
 10
-1.62049558E+02
 20
1.01024521E+02
 11
-1.26759558E+02
 21
1.01024521E+02
  0
CIRCLE
  8
0
 62
7
 10
-1.20752426E+02
 20
1.36027343E+02
 40
2.88675117E+00
  0
CIRCLE
  8
0
 62
7
 10
-1.20752426E+02
 20
1.36027343E+02
 40
4.30717945E+00
  0
CIRCLE
  8
0
 62
7
 10
-1.20752426E+02
 20
1.36027343E+02
 40
4.99999905E+00
  0
LINE
  8
0
 62
7
 10
-1.19312426E+02
 20
1.38527343E+02
 11
-1.17872426E+02
 21
1.36027343E+02
  0
LINE
  8
0
 62
7
 10
-1.17872426E+02
 20
1.36027343E+02
 11
-1.19312426E+02
 21
1.33527343E+02
  0
LINE
  8
0
 62
7
 10
-1.22192426E+02
 20
1.33527343E+02
 11
-1.19312426E+02
 21
1.33527343E+02
  0
LINE
  8
0
 62
7
 10
-1.23632426E+02
 20
1.36027343E+02
 11
-1.22192426E+02
 21
1.33527343E+02
  0
LINE
  8
0
 62
7
 10
-1.22192426E+02
 20
1.38527343E+02
 11
-1.23632426E+02
 21
1.36027343E+02
  0
LINE
  8
0
 62
7
 10
-1.22192426E+02
 20
1.38527343E+02
 11
-1.19312426E+02
 21
1.38527343E+02
  0
CIRCLE
  8
0
 62
7
 10
-1.20752426E+02
 20
1.13027343E+02
 40
2.88675117E+00
  0
CIRCLE
  8
0
 62
7
 10
-1.20752426E+02
 20
1.13027343E+02
 40
4.30717945E+00
  0
CIRCLE
  8
0
 62
7
 10
-1.20752426E+02
 20
1.13027343E+02
 40
4.99999905E+00
  0
LINE
  8
0
 62
7
 10
-1.19312426E+02
 20
1.15527343E+02
 11
-1.17872426E+02
 21
1.13027343E+02
  0
LINE
  8
0
 62
7
 10
-1.17872426E+02
 20
1.13027343E+02
 11
-1.19312426E+02
 21
1.10527343E+02
  0
LINE
  8
0
 62
7
 10
-1.22192426E+02
 20
1.10527343E+02
 11
-1.19312426E+02
 21
1.10527343E+02
  0
LINE
  8
0
 62
7
 10
-1.23632426E+02
 20
1.13027343E+02
 11
-1.22192426E+02
 21
1.10527343E+02
  0
LINE
  8
0
 62
7
 10
-1.22192426E+02
 20
1.15527343E+02
 11
-1.23632426E+02
 21
1.13027343E+02
  0
LINE
  8
0
 62
7
 10
-1.22192426E+02
 20
1.15527343E+02
 11
-1.19312426E+02
 21
1.15527343E+02
  0
CIRCLE
  8
0
 62
7
 10
-2.32752441E+02
 20
1.13027343E+02
 40
2.88675117E+00
  0
CIRCLE
  8
0
 62
7
 10
-2.32752441E+02
 20
1.13027343E+02
 40
4.30717945E+00
  0
CIRCLE
  8
0
 62
7
 10
-2.32752441E+02
 20
1.13027343E+02
 40
4.99999905E+00
  0
LINE
  8
0
 62
7
 10
-2.31312441E+02
 20
1.15527343E+02
 11
-2.29872441E+02
 21
1.13027343E+02
  0
LINE
  8
0
 62
7
 10
-2.29872441E+02
 20
1.13027343E+02
 11
-2.31312441E+02
 21
1.10527343E+02
  0
LINE
  8
0
 62
7
 10
-2.34192441E+02
 20
1.10527343E+02
 11
-2.31312441E+02
 21
1.10527343E+02
  0
LINE
  8
0
 62
7
 10
-2.35632441E+02
 20
1.13027343E+02
 11
-2.34192441E+02
 21
1.10527343E+02
  0
LINE
  8
0
 62
7
 10
-2.34192441E+02
 20
1.15527343E+02
 11
-2.35632441E+02
 21
1.13027343E+02
  0
LINE
  8
0
 62
7
 10
-2.34192441E+02
 20
1.15527343E+02
 11
-2.31312441E+02
 21
1.15527343E+02
  0
CIRCLE
  8
0
 62
7
 10
-2.32752441E+02
 20
1.36027343E+02
 40
2.88675117E+00
  0
CIRCLE
  8
0
 62
7
 10
-2.32752441E+02
 20
1.36027343E+02
 40
4.30717945E+00
  0
CIRCLE
  8
0
 62
7
 10
-2.32752441E+02
 20
1.36027343E+02
 40
4.99999905E+00
  0
LINE
  8
0
 62
7
 10
-2.31312441E+02
 20
1.38527343E+02
 11
-2.29872441E+02
 21
1.36027343E+02
  0
LINE
  8
0
 62
7
 10
-2.29872441E+02
 20
1.36027343E+02
 11
-2.31312441E+02
 21
1.33527343E+02
  0
LINE
  8
0
 62
7
 10
-2.34192441E+02
 20
1.33527343E+02
 11
-2.31312441E+02
 21
1.33527343E+02
  0
LINE
  8
0
 62
7
 10
-2.35632441E+02
 20
1.36027343E+02
 11
-2.34192441E+02
 21
1.33527343E+02
  0
LINE
  8
0
 62
7
 10
-2.34192441E+02
 20
1.38527343E+02
 11
-2.35632441E+02
 21
1.36027343E+02
  0
LINE
  8
0
 62
7
 10
-2.34192441E+02
 20
1.38527343E+02
 11
-2.31312441E+02
 21
1.38527343E+02
  0
CIRCLE
  8
0
 62
4
 10
-1.59759558E+02
 20
1.24524521E+02
 40
1.75000000E+01
  0
LINE
  8
0
 62
4
 10
-1.58919558E+02
 20
1.25764521E+02
 11
-1.55509558E+02
 21
1.27144521E+02
  0
ARC
  8
0
 62
4
 10
-1.59756413E+02
 20
1.24525306E+02
 40
1.49671065E+00
 50
2.27914952E+02
 51
3.40045629E+02
  0
ARC
  8
0
 62
4
 10
-1.59756661E+02
 20
1.24525690E+02
 40
1.49513989E+00
 50
5.59523004E+01
 51
1.68079377E+02
  0
LINE
  8
0
 62
4
 10
-1.71169558E+02
 20
1.20824521E+02
 11
-1.60759558E+02
 21
1.23414521E+02
  0
LINE
  8
0
 62
4
 10
-1.71169558E+02
 20
1.20824521E+02
 11
-1.61219558E+02
 21
1.24834521E+02
  0
LINE
  8
0
 62
4
 10
-1.55509558E+02
 20
1.27144521E+02
 11
-1.54059558E+02
 21
1.26374521E+02
  0
LINE
  8
0
 62
4
 10
-1.54059558E+02
 20
1.26374521E+02
 11
-1.54779558E+02
 21
1.24904521E+02
  0
LINE
  8
0
 62
4
 10
-1.58349558E+02
 20
1.24014521E+02
 11
-1.54779558E+02
 21
1.24904521E+02
  0
POLYLINE
  8
0
 62
7
 66
1
  0
VERTEX
  8
0
 62
7
 10
-1.03799558E+02
 20
7.24445209E+01
  0
VERTEX
  8
0
 62
7
 10
-1.03580055E+02
 20
7.16813796E+01
  0
VERTEX
  8
0
 62
7
 10
-1.03378619E+02
 20
7.09128017E+01
  0
VERTEX
  8
0
 62
7
 10
-1.03195602E+02
 20
7.01392546E+01
  0
VERTEX
  8
0
 62
7
 10
-1.03031351E+02
 20
6.93612052E+01
  0
VERTEX
  8
0
 62
7
 10
-1.02886219E+02
 20
6.85791207E+01
  0
VERTEX
  8
0
 62
7
 10
-1.02760553E+02
 20
6.77934682E+01
  0
VERTEX
  8
0
 62
7
 10
-1.02654704E+02
 20
6.70047149E+01
  0
VERTEX
  8
0
 62
7
 10
-1.02569022E+02
 20
6.62133279E+01
  0
VERTEX
  8
0
 62
7
 10
-1.02503857E+02
 20
6.54197742E+01
  0
VERTEX
  8
0
 62
7
 10
-1.02459558E+02
 20
6.46245209E+01
  0
VERTEX
  8
0
 62
7
 10
-1.02433851E+02
 20
6.36134878E+01
  0
VERTEX
  8
0
 62
7
 10
-1.02441987E+02
 20
6.26017586E+01
  0
VERTEX
  8
0
 62
7
 10
-1.02483333E+02
 20
6.15905138E+01
  0
VERTEX
  8
0
 62
7
 10
-1.02557257E+02
 20
6.05809339E+01
  0
VERTEX
  8
0
 62
7
 10
-1.02663127E+02
 20
5.95741993E+01
  0
VERTEX
  8
0
 62
7
 10
-1.02800311E+02
 20
5.85714904E+01
  0
VERTEX
  8
0
 62
7
 10
-1.02968178E+02
 20
5.75739877E+01
  0
VERTEX
  8
0
 62
7
 10
-1.03166096E+02
 20
5.65828716E+01
  0
VERTEX
  8
0
 62
7
 10
-1.03393433E+02
 20
5.55993225E+01
  0
VERTEX
  8
0
 62
7
 10
-1.03649558E+02
 20
5.46245209E+01
  0
SEQEND
  8
0
  0
POLYLINE
  8
0
 62
7
 66
1
  0
VERTEX
  8
0
 62
7
 10
-3.17789558E+02
 20
7.24445209E+01
  0
VERTEX
  8
0
 62
7
 10
-3.17570055E+02
 20
7.16813796E+01
  0
VERTEX
  8
0
 62
7
 10
-3.17368619E+02
 20
7.09128017E+01
  0
VERTEX
  8
0
 62
7
 10
-3.17185602E+02
 20
7.01392546E+01
  0
VERTEX
  8
0
 62
7
 10
-3.17021351E+02
 20
6.93612052E+01
  0
VERTEX
  8
0
 62
7
 10
-3.16876219E+02
 20
6.85791207E+01
  0
VERTEX
  8
0
 62
7
 10
-3.16750553E+02
 20
6.77934682E+01
  0
VERTEX
  8
0
 62
7
 10
-3.16644704E+02
 20
6.70047149E+01
  0
VERTEX
  8
0
 62
7
 10
-3.16559022E+02
 20
6.62133279E+01
  0
VERTEX
  8
0
 62
7
 10
-3.16493857E+02
 20
6.54197742E+01
  0
VERTEX
  8
0
 62
7
 10
-3.16449558E+02
 20
6.46245209E+01
  0
VERTEX
  8
0
 62
7
 10
-3.16423851E+02
 20
6.36134878E+01
  0
VERTEX
  8
0
 62
7
 10
-3.16431987E+02
 20
6.26017586E+01
  0
VERTEX
  8
0
 62
7
 10
-3.16473333E+02
 20
6.15905138E+01
  0
VERTEX
  8
0
 62
7
 10
-3.16547257E+02
 20
6.05809339E+01
  0
VERTEX
  8
0
 62
7
 10
-3.16653127E+02
 20
5.95741993E+01
  0
VERTEX
  8
0
 62
7
 10
-3.16790311E+02
 20
5.85714904E+01
  0
VERTEX
  8
0
 62
7
 10
-3.16958178E+02
 20
5.75739877E+01
  0
VERTEX
  8
0
 62
7
 10
-3.17156096E+02
 20
5.65828716E+01
  0
VERTEX
  8
0
 62
7
 10
-3.17383433E+02
 20
5.55993225E+01
  0
VERTEX
  8
0
 62
7
 10
-3.17639558E+02
 20
5.46245209E+01
  0
SEQEND
  8
0
  0
LINE
  8
0
 62
7
 10
1.25960442E+02
 20
1.48024521E+02
 11
1.25960442E+02
 21
9.95245209E+01
  0
LINE
  8
0
  6
CENTER
 62
2
 10
2.84604424E+01
 20
1.24524521E+02
 11
1.65960442E+02
 21
1.24524521E+02
  0
LINE
  8
0
  6
CENTER
 62
2
 10
1.04960442E+02
 20
1.75974521E+02
 11
1.04960442E+02
 21
1.46524521E+02
  0
LINE
  8
0
 62
7
 10
1.18960442E+02
 20
1.57924521E+02
 11
1.18960442E+02
 21
1.50924521E+02
  0
LINE
  8
0
 62
7
 10
1.18960442E+02
 20
1.57924521E+02
 11
1.17960442E+02
 21
1.58924521E+02
  0
LINE
  8
0
 62
7
 10
1.12160442E+02
 20
1.59824521E+02
 11
1.12160442E+02
 21
1.58924521E+02
  0
LINE
  8
0
 62
7
 10
1.11960442E+02
 20
1.59824521E+02
 11
1.11910442E+02
 21
1.66074521E+02
  0
LINE
  8
0
 62
7
 10
1.03320442E+02
 20
1.58424521E+02
 11
1.03320442E+02
 21
1.53214521E+02
  0
LINE
  8
0
 62
7
 10
1.03460442E+02
 20
1.57924521E+02
 11
1.03460442E+02
 21
1.52924521E+02
  0
LINE
  8
0
 62
7
 10
1.06460442E+02
 20
1.57924521E+02
 11
1.03460442E+02
 21
1.57924521E+02
  0
LINE
  8
0
 62
7
 10
1.03460442E+02
 20
1.57924521E+02
 11
1.03320442E+02
 21
1.58424521E+02
  0
LINE
  8
0
 62
7
 10
1.03320442E+02
 20
1.53214521E+02
 11
1.03460442E+02
 21
1.52924521E+02
  0
LINE
  8
0
 62
7
 10
1.06460442E+02
 20
1.52924521E+02
 11
1.10620442E+02
 21
1.52924521E+02
  0
LINE
  8
0
 62
7
 10
1.06600442E+02
 20
1.53214521E+02
 11
1.10240442E+02
 21
1.53214521E+02
  0
LINE
  8
0
 62
7
 10
1.18880442E+02
 20
1.57924521E+02
 11
1.18880442E+02
 21
1.52924521E+02
  0
LINE
  8
0
 62
7
 10
1.18360442E+02
 20
1.58424521E+02
 11
1.18360442E+02
 21
1.53214521E+02
  0
LINE
  8
0
 62
7
 10
1.17760442E+02
 20
1.57924521E+02
 11
1.17760442E+02
 21
1.52924521E+02
  0
LINE
  8
0
 62
7
 10
1.16260442E+02
 20
1.57924521E+02
 11
1.16260442E+02
 21
1.52924521E+02
  0
LINE
  8
0
 62
7
 10
1.15740442E+02
 20
1.58424521E+02
 11
1.15740442E+02
 21
1.53214521E+02
  0
LINE
  8
0
 62
7
 10
1.13220442E+02
 20
1.57924521E+02
 11
1.13220442E+02
 21
1.52924521E+02
  0
LINE
  8
0
 62
7
 10
1.10620442E+02
 20
1.57924521E+02
 11
1.10620442E+02
 21
1.52924521E+02
  0
LINE
  8
0
 62
7
 10
1.10240442E+02
 20
1.58424521E+02
 11
1.10240442E+02
 21
1.53214521E+02
  0
LINE
  8
0
 62
7
 10
1.06600442E+02
 20
1.58424521E+02
 11
1.06600442E+02
 21
1.53214521E+02
  0
LINE
  8
0
 62
7
 10
1.06460442E+02
 20
1.57924521E+02
 11
1.06460442E+02
 21
1.52924521E+02
  0
LINE
  8
0
 62
7
 10
1.06600442E+02
 20
1.58424521E+02
 11
1.10240442E+02
 21
1.58424521E+02
  0
LINE
  8
0
 62
7
 10
1.10620442E+02
 20
1.57924521E+02
 11
1.13220442E+02
 21
1.57924521E+02
  0
LINE
  8
0
 62
7
 10
1.16260442E+02
 20
1.57924521E+02
 11
1.17760442E+02
 21
1.57924521E+02
  0
LINE
  8
0
 62
7
 10
1.13220442E+02
 20
1.53214521E+02
 11
1.15740442E+02
 21
1.53214521E+02
  0
LINE
  8
0
 62
7
 10
1.17760442E+02
 20
1.53214521E+02
 11
1.18360442E+02
 21
1.53214521E+02
  0
LINE
  8
0
 62
7
 10
1.13080442E+02
 20
1.58424521E+02
 11
1.15740442E+02
 21
1.58424521E+02
  0
LINE
  8
0
 62
7
 10
1.06460442E+02
 20
1.57924521E+02
 11
1.06600442E+02
 21
1.58424521E+02
  0
LINE
  8
0
 62
7
 10
1.06600442E+02
 20
1.53214521E+02
 11
1.06460442E+02
 21
1.52924521E+02
  0
LINE
  8
0
 62
7
 10
1.10620442E+02
 20
1.57924521E+02
 11
1.10240442E+02
 21
1.58424521E+02
  0
LINE
  8
0
 62
7
 10
1.10240442E+02
 20
1.53214521E+02
 11
1.10620442E+02
 21
1.52924521E+02
  0
LINE
  8
0
 62
7
 10
1.13210442E+02
 20
1.57924521E+02
 11
1.13070442E+02
 21
1.58424521E+02
  0
LINE
  8
0
 62
7
 10
1.15740442E+02
 20
1.53214521E+02
 11
1.16260442E+02
 21
1.52924521E+02
  0
LINE
  8
0
 62
7
 10
1.17760442E+02
 20
1.57924521E+02
 11
1.17380442E+02
 21
1.58424521E+02
  0
LINE
  8
0
 62
7
 10
1.16260442E+02
 20
1.57924521E+02
 11
1.15740442E+02
 21
1.58424521E+02
  0
LINE
  8
0
 62
7
 10
1.17380442E+02
 20
1.58424521E+02
 11
1.18360442E+02
 21
1.58424521E+02
  0
LINE
  8
0
 62
7
 10
1.13220442E+02
 20
1.52924521E+02
 11
1.16260442E+02
 21
1.52924521E+02
  0
LINE
  8
0
 62
7
 10
1.17790442E+02
 20
1.52924521E+02
 11
1.18880442E+02
 21
1.52924521E+02
  0
LINE
  8
0
 62
7
 10
1.18360442E+02
 20
1.53214521E+02
 11
1.18880442E+02
 21
1.52924521E+02
  0
LINE
  8
0
 62
7
 10
1.18880442E+02
 20
1.57924521E+02
 11
1.18960442E+02
 21
1.57924521E+02
  0
LINE
  8
0
 62
7
 10
1.18880442E+02
 20
1.57924521E+02
 11
1.18360442E+02
 21
1.58424521E+02
  0
LINE
  8
0
 62
7
 10
1.18460442E+02
 20
1.50924521E+02
 11
1.18460442E+02
 21
1.49524521E+02
  0
LINE
  8
0
 62
7
 10
1.25960442E+02
 20
1.48024521E+02
 11
1.24460442E+02
 21
1.49524521E+02
  0
LINE
  8
0
 62
7
 10
1.24460442E+02
 20
1.49524521E+02
 11
1.24460442E+02
 21
9.95245209E+01
  0
LINE
  8
0
  6
CENTER
 62
2
 10
1.00960442E+02
 20
1.65524521E+02
 11
1.00960442E+02
 21
-3.58654791E+01
  0
LINE
  8
0
 62
7
 10
1.03960442E+02
 20
1.50524521E+02
 11
1.03960442E+02
 21
1.49524521E+02
  0
LINE
  8
0
 62
7
 10
1.05960442E+02
 20
1.50524521E+02
 11
1.05960442E+02
 21
1.49524521E+02
  0
LINE
  8
0
 62
7
 10
1.03960442E+02
 20
1.50524521E+02
 11
1.05960442E+02
 21
1.50524521E+02
  0
LINE
  8
0
 62
7
 10
1.60960442E+02
 20
1.79524521E+02
 11
1.60960442E+02
 21
6.95245209E+01
  0
LINE
  8
0
 62
7
 10
1.45960442E+02
 20
1.47524521E+02
 11
1.45960442E+02
 21
1.01524521E+02
  0
LINE
  8
0
 62
7
 10
1.40460442E+02
 20
1.01524521E+02
 11
1.45610442E+02
 21
1.01524521E+02
  0
LINE
  8
0
 62
7
 10
1.25960442E+02
 20
1.47524521E+02
 11
1.45610442E+02
 21
1.47524521E+02
  0
LINE
  8
0
 62
7
 10
1.54460442E+02
 20
1.79524521E+02
 11
1.60960442E+02
 21
1.79524521E+02
  0
LINE
  8
0
 62
7
 10
1.54460442E+02
 20
6.95245209E+01
 11
1.60960442E+02
 21
6.95245209E+01
  0
LINE
  8
0
 62
7
 10
1.52960442E+02
 20
1.78024521E+02
 11
1.52960442E+02
 21
1.59594521E+02
  0
LINE
  8
0
 62
7
 10
1.54460442E+02
 20
6.95245209E+01
 11
1.52960442E+02
 21
7.10245209E+01
  0
LINE
  8
0
 62
7
 10
1.54460442E+02
 20
1.79524521E+02
 11
1.52960442E+02
 21
1.78024521E+02
  0
LINE
  8
0
 62
7
 10
1.52960442E+02
 20
8.94545209E+01
 11
1.52960442E+02
 21
7.10245209E+01
  0
LINE
  8
0
 62
7
 10
1.54460442E+02
 20
1.79524521E+02
 11
1.54460442E+02
 21
1.58974521E+02
  0
LINE
  8
0
 62
7
 10
1.54460442E+02
 20
9.00745209E+01
 11
1.54460442E+02
 21
6.95245209E+01
  0
LINE
  8
0
 62
7
 10
1.25960442E+02
 20
1.46024521E+02
 11
1.46490442E+02
 21
1.46024521E+02
  0
LINE
  8
0
 62
7
 10
1.40460442E+02
 20
1.03024521E+02
 11
1.46490442E+02
 21
1.03024521E+02
  0
LINE
  8
0
 62
7
 10
1.54460442E+02
 20
1.75524521E+02
 11
1.60960442E+02
 21
1.75524521E+02
  0
LINE
  8
0
 62
7
 10
1.54460442E+02
 20
7.35245209E+01
 11
1.60960442E+02
 21
7.35245209E+01
  0
LINE
  8
0
 62
7
 10
1.52960442E+02
 20
7.41445209E+01
 11
1.54460442E+02
 21
7.35245209E+01
  0
LINE
  8
0
 62
7
 10
1.52960442E+02
 20
1.74904521E+02
 11
1.54460442E+02
 21
1.75524521E+02
  0
LINE
  8
0
  6
CENTER
 62
2
 10
1.48960442E+02
 20
7.95245209E+01
 11
1.64960442E+02
 21
7.95245209E+01
  0
LINE
  8
0
  6
CENTER
 62
2
 10
1.48960442E+02
 20
1.69524521E+02
 11
1.64960442E+02
 21
1.69524521E+02
  0
LINE
  8
0
 62
7
 10
1.52290442E+02
 20
1.57094521E+02
 11
1.47340442E+02
 21
1.48524521E+02
  0
LINE
  8
0
 62
7
 10
1.47340442E+02
 20
1.00524521E+02
 11
1.52290442E+02
 21
9.19545209E+01
  0
LINE
  8
0
 62
7
 10
1.53790442E+02
 20
1.56474521E+02
 11
1.48730442E+02
 21
1.47714521E+02
  0
LINE
  8
0
 62
7
 10
1.48730442E+02
 20
1.01324521E+02
 11
1.53790442E+02
 21
9.25745209E+01
  0
LINE
  8
0
 62
7
 10
1.40460442E+02
 20
1.04524521E+02
 11
1.40460442E+02
 21
8.55245209E+01
  0
LINE
  8
0
 62
7
 10
1.40460442E+02
 20
8.55245209E+01
 11
1.39460442E+02
 21
8.45245209E+01
  0
LINE
  8
0
 62
7
 10
1.40460442E+02
 20
1.04524521E+02
 11
1.39460442E+02
 21
1.05524521E+02
  0
LINE
  8
0
 62
7
 10
1.25960442E+02
 20
1.05524521E+02
 11
1.39460442E+02
 21
1.05524521E+02
  0
LINE
  8
0
 62
7
 10
1.25960442E+02
 20
1.04524521E+02
 11
1.40460442E+02
 21
1.04524521E+02
  0
LINE
  8
0
 62
7
 10
1.00960442E+02
 20
1.50524521E+02
 11
1.00960442E+02
 21
1.49524521E+02
  0
LINE
  8
0
 62
7
 10
1.35960442E+02
 20
1.26834521E+02
 11
1.37960442E+02
 21
1.25674521E+02
  0
LINE
  8
0
 62
7
 10
1.33960442E+02
 20
1.25674521E+02
 11
1.35960442E+02
 21
1.26834521E+02
  0
LINE
  8
0
 62
7
 10
1.33960442E+02
 20
1.25674521E+02
 11
1.33960442E+02
 21
1.23364521E+02
  0
LINE
  8
0
 62
7
 10
1.33960442E+02
 20
1.23364521E+02
 11
1.35960442E+02
 21
1.22214521E+02
  0
LINE
  8
0
 62
7
 10
1.35960442E+02
 20
1.22214521E+02
 11
1.37960442E+02
 21
1.23364521E+02
  0
LINE
  8
0
 62
7
 10
1.37960442E+02
 20
1.25674521E+02
 11
1.37960442E+02
 21
1.23364521E+02
  0
LINE
  8
0
  6
CENTER
 62
2
 10
1.35960442E+02
 20
1.32024521E+02
 11
1.35960442E+02
 21
1.17024521E+02
  0
LINE
  8
0
 62
7
 10
6.74604424E+01
 20
1.49524521E+02
 11
1.24460442E+02
 21
1.49524521E+02
  0
LINE
  8
0
 62
7
 10
7.59604424E+01
 20
1.48024521E+02
 11
7.59604424E+01
 21
9.95245209E+01
  0
LINE
  8
0
 62
7
 10
7.74604424E+01
 20
1.49524521E+02
 11
7.59604424E+01
 21
1.48024521E+02
  0
LINE
  8
0
 62
7
 10
9.14604424E+01
 20
1.50924521E+02
 11
9.14604424E+01
 21
1.49524521E+02
  0
LINE
  8
0
 62
7
 10
1.18960442E+02
 20
1.50924521E+02
 11
9.09604424E+01
 21
1.50924521E+02
  0
LINE
  8
0
 62
7
 10
9.09604424E+01
 20
1.57924521E+02
 11
9.09604424E+01
 21
1.50924521E+02
  0
LINE
  8
0
 62
7
 10
9.19604424E+01
 20
1.58924521E+02
 11
9.09604424E+01
 21
1.57924521E+02
  0
LINE
  8
0
 62
7
 10
1.17960442E+02
 20
1.58924521E+02
 11
9.19604424E+01
 21
1.58924521E+02
  0
LINE
  8
0
 62
7
 10
9.77604424E+01
 20
1.59824521E+02
 11
9.77604424E+01
 21
1.58924521E+02
  0
LINE
  8
0
 62
7
 10
9.79604424E+01
 20
1.59824521E+02
 11
9.80104424E+01
 21
1.66074521E+02
  0
LINE
  8
0
 62
7
 10
1.12160442E+02
 20
1.59824521E+02
 11
9.77604424E+01
 21
1.59824521E+02
  0
LINE
  8
0
 62
7
 10
1.03460442E+02
 20
1.52924521E+02
 11
9.93004424E+01
 21
1.52924521E+02
  0
LINE
  8
0
 62
7
 10
1.03320442E+02
 20
1.53214521E+02
 11
9.96804424E+01
 21
1.53214521E+02
  0
LINE
  8
0
 62
7
 10
9.10404424E+01
 20
1.57924521E+02
 11
9.10404424E+01
 21
1.52924521E+02
  0
LINE
  8
0
 62
7
 10
9.15604424E+01
 20
1.58424521E+02
 11
9.15604424E+01
 21
1.53214521E+02
  0
LINE
  8
0
 62
7
 10
9.21504424E+01
 20
1.57924521E+02
 11
9.21504424E+01
 21
1.52924521E+02
  0
LINE
  8
0
 62
7
 10
9.36504424E+01
 20
1.57924521E+02
 11
9.36504424E+01
 21
1.52924521E+02
  0
LINE
  8
0
 62
7
 10
9.41704424E+01
 20
1.58424521E+02
 11
9.41704424E+01
 21
1.53214521E+02
  0
LINE
  8
0
 62
7
 10
9.67004424E+01
 20
1.57924521E+02
 11
9.67004424E+01
 21
1.52924521E+02
  0
LINE
  8
0
 62
7
 10
9.93004424E+01
 20
1.57924521E+02
 11
9.93004424E+01
 21
1.52924521E+02
  0
LINE
  8
0
 62
7
 10
9.96804424E+01
 20
1.58424521E+02
 11
9.96804424E+01
 21
1.53214521E+02
  0
LINE
  8
0
 62
7
 10
1.03320442E+02
 20
1.58424521E+02
 11
9.96804424E+01
 21
1.58424521E+02
  0
LINE
  8
0
 62
7
 10
9.93004424E+01
 20
1.57924521E+02
 11
9.67004424E+01
 21
1.57924521E+02
  0
LINE
  8
0
 62
7
 10
9.36504424E+01
 20
1.57924521E+02
 11
9.21504424E+01
 21
1.57924521E+02
  0
LINE
  8
0
 62
7
 10
9.67004424E+01
 20
1.53214521E+02
 11
9.41704424E+01
 21
1.53214521E+02
  0
LINE
  8
0
 62
7
 10
9.21504424E+01
 20
1.53214521E+02
 11
9.15604424E+01
 21
1.53214521E+02
  0
LINE
  8
0
 62
7
 10
9.68404424E+01
 20
1.58424521E+02
 11
9.41704424E+01
 21
1.58424521E+02
  0
LINE
  8
0
 62
7
 10
9.93004424E+01
 20
1.57924521E+02
 11
9.96804424E+01
 21
1.58424521E+02
  0
LINE
  8
0
 62
7
 10
9.96804424E+01
 20
1.53214521E+02
 11
9.93004424E+01
 21
1.52924521E+02
  0
LINE
  8
0
 62
7
 10
9.67004424E+01
 20
1.57924521E+02
 11
9.68404424E+01
 21
1.58424521E+02
  0
LINE
  8
0
 62
7
 10
9.41704424E+01
 20
1.53214521E+02
 11
9.36504424E+01
 21
1.52924521E+02
  0
LINE
  8
0
 62
7
 10
9.21504424E+01
 20
1.57924521E+02
 11
9.25304424E+01
 21
1.58424521E+02
  0
LINE
  8
0
 62
7
 10
9.36504424E+01
 20
1.57924521E+02
 11
9.41704424E+01
 21
1.58424521E+02
  0
LINE
  8
0
 62
7
 10
9.25304424E+01
 20
1.58424521E+02
 11
9.15604424E+01
 21
1.58424521E+02
  0
LINE
  8
0
 62
7
 10
9.67004424E+01
 20
1.52924521E+02
 11
9.36504424E+01
 21
1.52924521E+02
  0
LINE
  8
0
 62
7
 10
9.21204424E+01
 20
1.52924521E+02
 11
9.10404424E+01
 21
1.52924521E+02
  0
LINE
  8
0
 62
7
 10
9.15604424E+01
 20
1.53214521E+02
 11
9.10404424E+01
 21
1.52924521E+02
  0
LINE
  8
0
 62
7
 10
9.10404424E+01
 20
1.57924521E+02
 11
9.09604424E+01
 21
1.57924521E+02
  0
LINE
  8
0
 62
7
 10
9.10404424E+01
 20
1.57924521E+02
 11
9.15604424E+01
 21
1.58424521E+02
  0
LINE
  8
0
 62
7
 10
8.38204424E+01
 20
1.57024521E+02
 11
8.39604424E+01
 21
1.57024521E+02
  0
LINE
  8
0
 62
7
 10
8.38204424E+01
 20
1.57024521E+02
 11
8.32704424E+01
 21
1.57524521E+02
  0
LINE
  8
0
 62
7
 10
8.25704424E+01
 20
1.51524521E+02
 11
8.38204424E+01
 21
1.51524521E+02
  0
LINE
  8
0
 62
7
 10
7.74604424E+01
 20
1.57024521E+02
 11
7.44604424E+01
 21
1.57024521E+02
  0
LINE
  8
0
 62
7
 10
8.38204424E+01
 20
1.51524521E+02
 11
8.32704424E+01
 21
1.51864521E+02
  0
LINE
  8
0
 62
7
 10
7.99704424E+01
 20
1.51874521E+02
 11
7.76004424E+01
 21
1.51874521E+02
  0
LINE
  8
0
 62
7
 10
8.34604424E+01
 20
1.57524521E+02
 11
6.84604424E+01
 21
1.57524521E+02
  0
LINE
  8
0
 62
7
 10
8.39604424E+01
 20
1.57024521E+02
 11
8.39604424E+01
 21
1.49524521E+02
  0
LINE
  8
0
 62
7
 10
6.79604424E+01
 20
1.57024521E+02
 11
6.79604424E+01
 21
1.49524521E+02
  0
LINE
  8
0
 62
7
 10
8.34604424E+01
 20
1.57524521E+02
 11
8.39604424E+01
 21
1.57024521E+02
  0
LINE
  8
0
 62
7
 10
6.79604424E+01
 20
1.57024521E+02
 11
6.84604424E+01
 21
1.57524521E+02
  0
LINE
  8
0
  6
CENTER
 62
2
 10
7.59604424E+01
 20
1.60524521E+02
 11
7.59604424E+01
 21
1.46524521E+02
  0
LINE
  8
0
 62
7
 10
7.44604424E+01
 20
1.51524521E+02
 11
7.14604424E+01
 21
1.51524521E+02
  0
LINE
  8
0
 62
7
 10
7.14604424E+01
 20
1.57024521E+02
 11
6.93404424E+01
 21
1.57024521E+02
  0
LINE
  8
0
 62
7
 10
6.81004424E+01
 20
1.57024521E+02
 11
6.81004424E+01
 21
1.51524521E+02
  0
LINE
  8
0
 62
7
 10
6.86404424E+01
 20
1.57524521E+02
 11
6.86404424E+01
 21
1.51874521E+02
  0
LINE
  8
0
 62
7
 10
6.93404424E+01
 20
1.57024521E+02
 11
6.93404424E+01
 21
1.51524521E+02
  0
LINE
  8
0
 62
7
 10
7.14604424E+01
 20
1.57024521E+02
 11
7.14604424E+01
 21
1.51524521E+02
  0
LINE
  8
0
 62
7
 10
7.19504424E+01
 20
1.57524521E+02
 11
7.19504424E+01
 21
1.51874521E+02
  0
LINE
  8
0
 62
7
 10
7.43104424E+01
 20
1.57524521E+02
 11
7.43104424E+01
 21
1.51874521E+02
  0
LINE
  8
0
 62
7
 10
7.44604424E+01
 20
1.57024521E+02
 11
7.44604424E+01
 21
1.51524521E+02
  0
LINE
  8
0
 62
7
 10
6.86404424E+01
 20
1.51874521E+02
 11
6.93404424E+01
 21
1.51874521E+02
  0
LINE
  8
0
 62
7
 10
7.44604424E+01
 20
1.57024521E+02
 11
7.43104424E+01
 21
1.57524521E+02
  0
LINE
  8
0
 62
7
 10
7.44604424E+01
 20
1.51524521E+02
 11
7.43104424E+01
 21
1.51874521E+02
  0
LINE
  8
0
 62
7
 10
7.19504424E+01
 20
1.51874521E+02
 11
7.14604424E+01
 21
1.51524521E+02
  0
LINE
  8
0
 62
7
 10
7.14604424E+01
 20
1.57024521E+02
 11
7.19504424E+01
 21
1.57524521E+02
  0
LINE
  8
0
 62
7
 10
6.93404424E+01
 20
1.57024521E+02
 11
6.96204424E+01
 21
1.57524521E+02
  0
LINE
  8
0
 62
7
 10
6.81004424E+01
 20
1.51524521E+02
 11
6.86404424E+01
 21
1.51874521E+02
  0
LINE
  8
0
 62
7
 10
6.81004424E+01
 20
1.57024521E+02
 11
6.86404424E+01
 21
1.57524521E+02
  0
LINE
  8
0
 62
7
 10
6.81004424E+01
 20
1.57024521E+02
 11
6.79604424E+01
 21
1.57024521E+02
  0
LINE
  8
0
 62
7
 10
7.19504424E+01
 20
1.51874521E+02
 11
7.43104424E+01
 21
1.51874521E+02
  0
LINE
  8
0
 62
7
 10
6.93404424E+01
 20
1.51524521E+02
 11
6.81004424E+01
 21
1.51524521E+02
  0
LINE
  8
0
 62
7
 10
7.74604424E+01
 20
1.51524521E+02
 11
8.04504424E+01
 21
1.51524521E+02
  0
LINE
  8
0
 62
7
 10
8.04504424E+01
 20
1.57024521E+02
 11
8.25704424E+01
 21
1.57024521E+02
  0
LINE
  8
0
 62
7
 10
8.38204424E+01
 20
1.57024521E+02
 11
8.38204424E+01
 21
1.51524521E+02
  0
LINE
  8
0
 62
7
 10
8.32704424E+01
 20
1.57524521E+02
 11
8.32704424E+01
 21
1.51874521E+02
  0
LINE
  8
0
 62
7
 10
8.25704424E+01
 20
1.57024521E+02
 11
8.25704424E+01
 21
1.51524521E+02
  0
LINE
  8
0
 62
7
 10
8.04504424E+01
 20
1.57024521E+02
 11
8.04504424E+01
 21
1.51524521E+02
  0
LINE
  8
0
 62
7
 10
7.99704424E+01
 20
1.57524521E+02
 11
7.99704424E+01
 21
1.51874521E+02
  0
LINE
  8
0
 62
7
 10
7.76004424E+01
 20
1.57524521E+02
 11
7.76004424E+01
 21
1.51874521E+02
  0
LINE
  8
0
 62
7
 10
7.74604424E+01
 20
1.57024521E+02
 11
7.74604424E+01
 21
1.51524521E+02
  0
LINE
  8
0
 62
7
 10
8.32704424E+01
 20
1.51874521E+02
 11
8.25704424E+01
 21
1.51874521E+02
  0
LINE
  8
0
 62
7
 10
7.74604424E+01
 20
1.57024521E+02
 11
7.76004424E+01
 21
1.57524521E+02
  0
LINE
  8
0
 62
7
 10
7.74604424E+01
 20
1.51524521E+02
 11
7.76004424E+01
 21
1.51874521E+02
  0
LINE
  8
0
 62
7
 10
7.99704424E+01
 20
1.51874521E+02
 11
8.04504424E+01
 21
1.51524521E+02
  0
LINE
  8
0
 62
7
 10
8.04504424E+01
 20
1.57024521E+02
 11
7.99704424E+01
 21
1.57524521E+02
  0
LINE
  8
0
 62
7
 10
8.25704424E+01
 20
1.57024521E+02
 11
8.22904424E+01
 21
1.57524521E+02
  0
LINE
  8
0
 62
7
 10
7.59604424E+01
 20
1.48024521E+02
 11
1.25960442E+02
 21
1.48024521E+02
  0
LINE
  8
0
 62
7
 10
7.74604424E+01
 20
1.49524521E+02
 11
7.74604424E+01
 21
9.95245209E+01
  0
LINE
  8
0
 62
7
 10
6.69604424E+01
 20
1.49024521E+02
 11
6.69604424E+01
 21
1.05524521E+02
  0
LINE
  8
0
 62
7
 10
8.39604424E+01
 20
1.50524521E+02
 11
9.14604424E+01
 21
1.50524521E+02
  0
LINE
  8
0
 62
7
 10
8.19604424E+01
 20
1.60524521E+02
 11
9.79604424E+01
 21
1.60524521E+02
  0
LINE
  8
0
 62
7
 10
8.09604424E+01
 20
1.59524521E+02
 11
8.09604424E+01
 21
1.57524521E+02
  0
LINE
  8
0
 62
7
 10
8.09604424E+01
 20
1.59524521E+02
 11
8.19604424E+01
 21
1.60524521E+02
  0
LINE
  8
0
 62
7
 10
8.39604424E+01
 20
1.53524521E+02
 11
8.42704424E+01
 21
1.53524521E+02
  0
LINE
  8
0
 62
7
 10
8.39604424E+01
 20
1.52944521E+02
 11
8.42704424E+01
 21
1.52944521E+02
  0
LINE
  8
0
 62
7
 10
8.09604424E+01
 20
1.59524521E+02
 11
8.13604424E+01
 21
1.59524521E+02
  0
LINE
  8
0
 62
7
 10
9.09004424E+01
 20
1.60524521E+02
 11
9.09004424E+01
 21
1.53524521E+02
  0
LINE
  8
0
 62
7
 10
9.09004424E+01
 20
1.53524521E+02
 11
9.09604424E+01
 21
1.53524521E+02
  0
LINE
  8
0
 62
7
 10
8.99304424E+01
 20
1.59524521E+02
 11
8.99304424E+01
 21
1.52944521E+02
  0
LINE
  8
0
 62
7
 10
8.99304424E+01
 20
1.52944521E+02
 11
9.09604424E+01
 21
1.52944521E+02
  0
LINE
  8
0
 62
7
 10
8.42704424E+01
 20
1.59524521E+02
 11
8.42704424E+01
 21
1.52944521E+02
  0
LINE
  8
0
 62
7
 10
8.42704424E+01
 20
1.59524521E+02
 11
8.99304424E+01
 21
1.59524521E+02
  0
LINE
  8
0
 62
7
 10
8.42704424E+01
 20
1.59524521E+02
 11
8.48404424E+01
 21
1.60524521E+02
  0
LINE
  8
0
 62
7
 10
8.24504424E+01
 20
1.60524521E+02
 11
8.24504424E+01
 21
1.57524521E+02
  0
LINE
  8
0
 62
7
 10
8.13604424E+01
 20
1.59524521E+02
 11
8.13604424E+01
 21
1.57524521E+02
  0
LINE
  8
0
 62
7
 10
9.09004424E+01
 20
1.53524521E+02
 11
8.99304424E+01
 21
1.52944521E+02
  0
LINE
  8
0
 62
7
 10
8.99304424E+01
 20
1.59524521E+02
 11
9.09004424E+01
 21
1.60524521E+02
  0
LINE
  8
0
 62
7
 10
8.13604424E+01
 20
1.59524521E+02
 11
8.24504424E+01
 21
1.60524521E+02
  0
LINE
  8
0
 62
7
 10
6.24604424E+01
 20
8.45245209E+01
 11
1.39460442E+02
 21
8.45245209E+01
  0
LINE
  8
0
 62
7
 10
7.59604424E+01
 20
9.95245209E+01
 11
1.25960442E+02
 21
9.95245209E+01
  0
LINE
  8
0
 62
7
 10
6.14604424E+01
 20
8.55245209E+01
 11
1.40460442E+02
 21
8.55245209E+01
  0
LINE
  8
0
 62
7
 10
6.24604424E+01
 20
1.05524521E+02
 11
7.59604424E+01
 21
1.05524521E+02
  0
LINE
  8
0
 62
7
 10
6.14604424E+01
 20
8.55245209E+01
 11
6.24604424E+01
 21
8.45245209E+01
  0
LINE
  8
0
 62
7
 10
6.14604424E+01
 20
1.04524521E+02
 11
6.14604424E+01
 21
8.55245209E+01
  0
LINE
  8
0
 62
7
 10
6.14604424E+01
 20
1.04524521E+02
 11
7.59604424E+01
 21
1.04524521E+02
  0
LINE
  8
0
 62
7
 10
6.24604424E+01
 20
1.05524521E+02
 11
6.14604424E+01
 21
1.04524521E+02
  0
ARC
  8
0
 62
7
 10
1.47960724E+02
 20
1.59594665E+02
 40
4.99971831E+00
 50
3.29996224E+02
 51
3.59998344E+02
  0
ARC
  8
0
 62
7
 10
1.49461059E+02
 20
1.58974576E+02
 40
4.99938300E+00
 50
3.29995194E+02
 51
3.59999374E+02
  0
ARC
  8
0
 62
7
 10
1.47962144E+02
 20
8.94547570E+01
 40
4.99829814E+00
 50
3.59997294E+02
 51
3.00081384E+01
  0
ARC
  8
0
 62
7
 10
1.49462478E+02
 20
9.00748465E+01
 40
4.99796416E+00
 50
3.59996267E+02
 51
3.00091648E+01
  0
ARC
  8
0
 62
7
 10
1.45607917E+02
 20
1.49525340E+02
 40
2.00082055E+00
 50
2.70072318E+02
 51
3.29986486E+02
  0
ARC
  8
0
 62
7
 10
1.45610364E+02
 20
9.95279356E+01
 40
1.99658532E+00
 50
2.99434411E+01
 51
9.00000002E+01
  0
ARC
  8
0
 62
7
 10
1.45607450E+02
 20
1.49524375E+02
 40
3.60952246E+00
 50
2.84159886E+02
 51
3.29906613E+02
  0
ARC
  8
0
 62
7
 10
1.45605061E+02
 20
9.95321361E+01
 40
3.60286722E+00
 50
2.98339764E+01
 51
7.57742207E+01
  0
CIRCLE
  8
0
 62
7
 10
1.35961732E+02
 20
1.24527343E+02
 40
2.30940056E+00
  0
CIRCLE
  8
0
 62
7
 10
1.35961732E+02
 20
1.24527343E+02
 40
3.73038483E+00
  0
CIRCLE
  8
0
 62
7
 10
1.35961732E+02
 20
1.24527343E+02
 40
4.25000000E+00
  0
CIRCLE
  8
0
 62
7
 10
1.35961732E+02
 20
1.24527343E+02
 40
4.75000000E+00
  0
CIRCLE
  8
0
 62
7
 10
1.00961732E+02
 20
1.24527404E+02
 40
2.10000000E+01
  0
ARC
  8
0
 62
7
 10
6.74596801E+01
 20
1.49025283E+02
 40
4.99238206E-01
 50
9.00000002E+01
 51
1.80087495E+02
  0
CIRCLE
  8
0
 62
2
 10
1.00961732E+02
 20
1.24527343E+02
 40
1.32205000E+01
  0
ARC
  8
0
 62
7
 10
1.04960442E+02
 20
1.66027374E+02
 40
6.95015992E+00
 50
3.88675561E-01
 51
1.79611325E+02
  0
CIRCLE
  8
0
 62
7
 10
1.00961732E+02
 20
1.24527343E+02
 40
1.20585012E+01
  0
LINE
  8
0
 62
4
 10
9.33804424E+01
 20
-1.61654791E+01
 11
1.08530442E+02
 21
-1.61654791E+01
  0
LINE
  8
0
 62
4
 10
9.28804424E+01
 20
-1.56654791E+01
 11
9.28804424E+01
 21
-1.46654791E+01
  0
LINE
  8
0
 62
4
 10
1.09030442E+02
 20
-1.56654791E+01
 11
1.09030442E+02
 21
-1.46654791E+01
  0
LINE
  8
0
 62
4
 10
1.08530442E+02
 20
-1.61654791E+01
 11
1.09030442E+02
 21
-1.56654791E+01
  0
LINE
  8
0
 62
4
 10
9.33804424E+01
 20
-1.61654791E+01
 11
9.28804424E+01
 21
-1.56654791E+01
  0
LINE
  8
0
 62
4
 10
1.07710442E+02
 20
-3.09654791E+01
 11
9.42104424E+01
 21
-3.09654791E+01
  0
LINE
  8
0
 62
4
 10
1.08710442E+02
 20
-1.79654791E+01
 11
1.08710442E+02
 21
-2.99654791E+01
  0
LINE
  8
0
 62
4
 10
9.32104424E+01
 20
-1.79654791E+01
 11
9.32104424E+01
 21
-2.99654791E+01
  0
LINE
  8
0
 62
4
 10
1.08710442E+02
 20
-2.99654791E+01
 11
1.07710442E+02
 21
-3.09654791E+01
  0
LINE
  8
0
 62
4
 10
9.42104424E+01
 20
-3.09654791E+01
 11
9.32104424E+01
 21
-2.99654791E+01
  0
LINE
  8
0
 62
4
 10
1.08210442E+02
 20
-1.74654791E+01
 11
9.37104424E+01
 21
-1.74654791E+01
  0
LINE
  8
0
 62
4
 10
1.08210442E+02
 20
-1.74654791E+01
 11
1.08710442E+02
 21
-1.79654791E+01
  0
LINE
  8
0
 62
4
 10
9.37104424E+01
 20
-1.74654791E+01
 11
9.32104424E+01
 21
-1.79654791E+01
  0
LINE
  8
0
 62
4
 10
1.06960442E+02
 20
-1.61654791E+01
 11
1.06960442E+02
 21
-1.74654791E+01
  0
LINE
  8
0
 62
4
 10
9.49604424E+01
 20
-1.61654791E+01
 11
9.49604424E+01
 21
-1.74654791E+01
  0
LINE
  8
0
 62
6
 10
9.57104424E+01
 20
-1.61654791E+01
 11
9.57104424E+01
 21
-1.74654791E+01
  0
LINE
  8
0
 62
6
 10
1.06210442E+02
 20
-1.61654791E+01
 11
1.06210442E+02
 21
-1.74654791E+01
  0
LINE
  8
0
 62
4
 10
9.94604424E+01
 20
-2.04654791E+01
 11
9.94604424E+01
 21
-2.99654791E+01
  0
LINE
  8
0
 62
4
 10
1.02460442E+02
 20
-2.04654791E+01
 11
1.02460442E+02
 21
-2.99654791E+01
  0
LINE
  8
0
 62
4
 10
1.02800442E+02
 20
-2.07454791E+01
 11
1.02800442E+02
 21
-3.04654791E+01
  0
LINE
  8
0
 62
4
 10
9.91204424E+01
 20
-2.07454791E+01
 11
9.91204424E+01
 21
-3.04654791E+01
  0
LINE
  8
0
 62
4
 10
9.73004424E+01
 20
-2.07454791E+01
 11
9.73004424E+01
 21
-3.04654791E+01
  0
LINE
  8
0
 62
4
 10
9.66404424E+01
 20
-2.04654791E+01
 11
9.66404424E+01
 21
-2.99654791E+01
  0
LINE
  8
0
 62
4
 10
9.45204424E+01
 20
-2.04654791E+01
 11
9.45204424E+01
 21
-2.99654791E+01
  0
LINE
  8
0
 62
4
 10
9.39504424E+01
 20
-2.07454791E+01
 11
9.39504424E+01
 21
-3.04654791E+01
  0
LINE
  8
0
 62
4
 10
9.33504424E+01
 20
-2.04654791E+01
 11
9.33504424E+01
 21
-2.99654791E+01
  0
LINE
  8
0
 62
4
 10
1.04610442E+02
 20
-2.07454791E+01
 11
1.04610442E+02
 21
-3.04654791E+01
  0
LINE
  8
0
 62
4
 10
1.05270442E+02
 20
-2.04654791E+01
 11
1.05270442E+02
 21
-2.99654791E+01
  0
LINE
  8
0
 62
4
 10
1.07390442E+02
 20
-2.04654791E+01
 11
1.07390442E+02
 21
-2.99654791E+01
  0
LINE
  8
0
 62
4
 10
1.07970442E+02
 20
-2.07454791E+01
 11
1.07970442E+02
 21
-3.04654791E+01
  0
LINE
  8
0
 62
4
 10
1.08560442E+02
 20
-2.04654791E+01
 11
1.08560442E+02
 21
-2.99654791E+01
  0
LINE
  8
0
 62
4
 10
1.08560442E+02
 20
-2.04654791E+01
 11
1.07390442E+02
 21
-2.04654791E+01
  0
LINE
  8
0
 62
4
 10
1.07970442E+02
 20
-2.07454791E+01
 11
1.07390442E+02
 21
-2.07454791E+01
  0
LINE
  8
0
 62
4
 10
1.08710442E+02
 20
-2.99654791E+01
 11
1.08560442E+02
 21
-2.99654791E+01
  0
LINE
  8
0
 62
4
 10
9.94604424E+01
 20
-2.04654791E+01
 11
9.66404424E+01
 21
-2.04654791E+01
  0
LINE
  8
0
 62
4
 10
9.91204424E+01
 20
-2.07454791E+01
 11
9.73004424E+01
 21
-2.07454791E+01
  0
LINE
  8
0
 62
4
 10
1.05270442E+02
 20
-2.04654791E+01
 11
1.02460442E+02
 21
-2.04654791E+01
  0
LINE
  8
0
 62
4
 10
1.04610442E+02
 20
-2.07454791E+01
 11
1.02800442E+02
 21
-2.07454791E+01
  0
LINE
  8
0
 62
4
 10
9.45204424E+01
 20
-2.04654791E+01
 11
9.33504424E+01
 21
-2.04654791E+01
  0
LINE
  8
0
 62
4
 10
9.45204424E+01
 20
-2.07454791E+01
 11
9.39504424E+01
 21
-2.07454791E+01
  0
LINE
  8
0
 62
4
 10
1.02460442E+02
 20
-2.99654791E+01
 11
9.94604424E+01
 21
-2.99654791E+01
  0
LINE
  8
0
 62
4
 10
9.66404424E+01
 20
-2.99654791E+01
 11
9.45204424E+01
 21
-2.99654791E+01
  0
LINE
  8
0
 62
4
 10
9.33504424E+01
 20
-2.99654791E+01
 11
9.32104424E+01
 21
-2.99654791E+01
  0
LINE
  8
0
 62
4
 10
1.07390442E+02
 20
-2.99654791E+01
 11
1.05270442E+02
 21
-2.99654791E+01
  0
LINE
  8
0
 62
4
 10
1.04610442E+02
 20
-3.04654791E+01
 11
1.02800442E+02
 21
-3.04654791E+01
  0
LINE
  8
0
 62
4
 10
1.07970442E+02
 20
-3.04654791E+01
 11
1.08560442E+02
 21
-2.99654791E+01
  0
LINE
  8
0
 62
4
 10
1.04610442E+02
 20
-3.04654791E+01
 11
1.05270442E+02
 21
-2.99654791E+01
  0
LINE
  8
0
 62
4
 10
1.02800442E+02
 20
-3.04654791E+01
 11
1.02460442E+02
 21
-2.99654791E+01
  0
LINE
  8
0
 62
4
 10
9.94604424E+01
 20
-2.99654791E+01
 11
9.91204424E+01
 21
-3.04654791E+01
  0
LINE
  8
0
 62
4
 10
9.73004424E+01
 20
-3.04654791E+01
 11
9.66404424E+01
 21
-2.99654791E+01
  0
LINE
  8
0
 62
4
 10
9.39504424E+01
 20
-3.04654791E+01
 11
9.33504424E+01
 21
-2.99654791E+01
  0
LINE
  8
0
 62
4
 10
9.39404424E+01
 20
-2.07454791E+01
 11
9.33504424E+01
 21
-2.04654791E+01
  0
LINE
  8
0
 62
4
 10
9.73004424E+01
 20
-2.07454791E+01
 11
9.66404424E+01
 21
-2.04654791E+01
  0
LINE
  8
0
 62
4
 10
9.91204424E+01
 20
-2.07454791E+01
 11
9.94604424E+01
 21
-2.04654791E+01
  0
LINE
  8
0
 62
4
 10
1.02800442E+02
 20
-2.07454791E+01
 11
1.02460442E+02
 21
-2.04654791E+01
  0
LINE
  8
0
 62
4
 10
1.04610442E+02
 20
-2.07454791E+01
 11
1.05270442E+02
 21
-2.04654791E+01
  0
LINE
  8
0
 62
4
 10
1.07970442E+02
 20
-2.07454791E+01
 11
1.08560442E+02
 21
-2.04654791E+01
  0
LINE
  8
0
 62
4
 10
1.07390442E+02
 20
-2.99654791E+01
 11
1.07220442E+02
 21
-3.04654791E+01
  0
LINE
  8
0
 62
4
 10
9.45204424E+01
 20
-2.99654791E+01
 11
9.47004424E+01
 21
-3.04654791E+01
  0
LINE
  8
0
 62
4
 10
9.91204424E+01
 20
-3.04654791E+01
 11
9.73004424E+01
 21
-3.04654791E+01
  0
LINE
  8
0
 62
4
 10
1.07970442E+02
 20
-3.04654791E+01
 11
1.07220442E+02
 21
-3.04654791E+01
  0
LINE
  8
0
 62
4
 10
9.47004424E+01
 20
-3.04654791E+01
 11
9.39504424E+01
 21
-3.04654791E+01
  0
LINE
  8
0
 62
4
 10
1.08710442E+02
 20
-1.79654791E+01
 11
9.32104424E+01
 21
-1.79654791E+01
  0
LINE
  8
0
 62
7
 10
1.19370442E+02
 20
-1.46654791E+01
 11
8.25404424E+01
 21
-1.46654791E+01
  0
LINE
  8
0
 62
7
 10
1.20910442E+02
 20
2.82452094E+00
 11
1.27820442E+02
 21
2.82452094E+00
  0
LINE
  8
0
 62
7
 10
1.20910442E+02
 20
3.88245209E+01
 11
1.27820442E+02
 21
3.88245209E+01
  0
LINE
  8
0
 62
7
 10
1.20910442E+02
 20
4.48245209E+01
 11
1.27820442E+02
 21
4.48245209E+01
  0
LINE
  8
0
 62
7
 10
1.27820442E+02
 20
7.88245209E+01
 11
1.20910442E+02
 21
7.88245209E+01
  0
LINE
  8
0
 62
7
 10
6.75404424E+01
 20
1.94520935E-01
 11
6.68104424E+01
 21
8.45245209E+01
  0
LINE
  8
0
 62
7
 10
1.34370442E+02
 20
1.94520935E-01
 11
1.35110442E+02
 21
8.45245209E+01
  0
LINE
  8
0
 62
7
 10
1.25990442E+02
 20
7.83245209E+01
 11
1.20910442E+02
 21
7.83245209E+01
  0
LINE
  8
0
 62
7
 10
1.20910442E+02
 20
3.83245209E+01
 11
1.25990442E+02
 21
3.83245209E+01
  0
LINE
  8
0
 62
7
 10
1.20910442E+02
 20
4.53245209E+01
 11
1.25990442E+02
 21
4.53245209E+01
  0
LINE
  8
0
 62
7
 10
1.20910442E+02
 20
3.32452094E+00
 11
1.25990442E+02
 21
3.32452094E+00
  0
LINE
  8
0
 62
7
 10
1.28820442E+02
 20
3.78245209E+01
 11
1.28820442E+02
 21
3.82452094E+00
  0
LINE
  8
0
 62
7
 10
1.26990442E+02
 20
3.73245209E+01
 11
1.26990442E+02
 21
4.32452094E+00
  0
LINE
  8
0
 62
7
 10
1.19910442E+02
 20
3.78245209E+01
 11
1.19910442E+02
 21
3.82452094E+00
  0
LINE
  8
0
 62
7
 10
1.20530442E+02
 20
2.32452094E+00
 11
1.28080442E+02
 21
2.32452094E+00
  0
LINE
  8
0
 62
7
 10
1.20530442E+02
 20
1.82452094E+00
 11
1.28670442E+02
 21
1.82452094E+00
  0
LINE
  8
0
 62
7
 10
1.28080442E+02
 20
7.93245209E+01
 11
1.20530442E+02
 21
7.93245209E+01
  0
LINE
  8
0
 62
7
 10
1.28670442E+02
 20
7.98245209E+01
 11
1.20530442E+02
 21
7.98245209E+01
  0
LINE
  8
0
 62
7
 10
1.19530442E+02
 20
7.88245209E+01
 11
1.19530442E+02
 21
2.82452094E+00
  0
LINE
  8
0
 62
7
 10
1.19910442E+02
 20
7.78245209E+01
 11
1.19910442E+02
 21
4.58245209E+01
  0
LINE
  8
0
 62
7
 10
1.26990442E+02
 20
7.73245209E+01
 11
1.26990442E+02
 21
4.63245209E+01
  0
LINE
  8
0
 62
7
 10
1.28820442E+02
 20
7.78245209E+01
 11
1.28820442E+02
 21
4.58245209E+01
  0
LINE
  8
0
 62
7
 10
1.29080442E+02
 20
7.83245209E+01
 11
1.29080442E+02
 21
3.32452094E+00
  0
LINE
  8
0
 62
7
 10
1.29670442E+02
 20
7.88245209E+01
 11
1.29670442E+02
 21
2.82452094E+00
  0
LINE
  8
0
 62
7
 10
8.10004424E+01
 20
2.82452094E+00
 11
7.40904424E+01
 21
2.82452094E+00
  0
LINE
  8
0
 62
7
 10
8.10004424E+01
 20
3.88245209E+01
 11
7.40904424E+01
 21
3.88245209E+01
  0
LINE
  8
0
 62
7
 10
8.10004424E+01
 20
4.48245209E+01
 11
7.40904424E+01
 21
4.48245209E+01
  0
LINE
  8
0
 62
7
 10
7.40904424E+01
 20
7.88245209E+01
 11
8.10004424E+01
 21
7.88245209E+01
  0
LINE
  8
0
 62
7
 10
7.59304424E+01
 20
7.83245209E+01
 11
8.10004424E+01
 21
7.83245209E+01
  0
LINE
  8
0
 62
7
 10
8.10004424E+01
 20
3.83245209E+01
 11
7.59304424E+01
 21
3.83245209E+01
  0
LINE
  8
0
 62
7
 10
8.10004424E+01
 20
4.53245209E+01
 11
7.59304424E+01
 21
4.53245209E+01
  0
LINE
  8
0
 62
7
 10
8.10004424E+01
 20
3.32452094E+00
 11
7.59304424E+01
 21
3.32452094E+00
  0
LINE
  8
0
 62
7
 10
7.30904424E+01
 20
3.78245209E+01
 11
7.30904424E+01
 21
3.82452094E+00
  0
LINE
  8
0
 62
7
 10
7.49304424E+01
 20
3.73245209E+01
 11
7.49304424E+01
 21
4.32452094E+00
  0
LINE
  8
0
 62
7
 10
8.20004424E+01
 20
3.78245209E+01
 11
8.20004424E+01
 21
3.82452094E+00
  0
LINE
  8
0
 62
7
 10
8.13804424E+01
 20
2.32452094E+00
 11
7.38404424E+01
 21
2.32452094E+00
  0
LINE
  8
0
 62
7
 10
8.13804424E+01
 20
1.82452094E+00
 11
7.32404424E+01
 21
1.82452094E+00
  0
LINE
  8
0
 62
7
 10
7.38404424E+01
 20
7.93245209E+01
 11
8.13804424E+01
 21
7.93245209E+01
  0
LINE
  8
0
 62
7
 10
7.32404424E+01
 20
7.98245209E+01
 11
8.13804424E+01
 21
7.98245209E+01
  0
LINE
  8
0
 62
7
 10
8.23804424E+01
 20
7.88245209E+01
 11
8.23804424E+01
 21
2.82452094E+00
  0
LINE
  8
0
 62
7
 10
8.20004424E+01
 20
7.78245209E+01
 11
8.20004424E+01
 21
4.58245209E+01
  0
LINE
  8
0
 62
7
 10
7.49304424E+01
 20
7.73245209E+01
 11
7.49304424E+01
 21
4.63245209E+01
  0
LINE
  8
0
 62
7
 10
7.30904424E+01
 20
7.78245209E+01
 11
7.30904424E+01
 21
4.58245209E+01
  0
LINE
  8
0
 62
7
 10
7.28404424E+01
 20
7.83245209E+01
 11
7.28404424E+01
 21
3.32452094E+00
  0
LINE
  8
0
 62
7
 10
7.22404424E+01
 20
7.88245209E+01
 11
7.22404424E+01
 21
2.82452094E+00
  0
LINE
  8
0
 62
4
 10
9.28804424E+01
 20
-1.56654791E+01
 11
1.09030442E+02
 21
-1.56654791E+01
  0
ARC
  8
0
 62
7
 10
1.19377849E+02
 20
3.27704195E-01
 40
1.49931851E+01
 50
2.69971696E+02
 51
3.59491039E+02
  0
ARC
  8
0
 62
7
 10
8.25392676E+01
 20
3.33994470E-01
 40
1.49994736E+01
 50
1.80532776E+02
 51
2.70004488E+02
  0
ARC
  8
0
 62
7
 10
1.25991536E+02
 20
3.73256147E+01
 40
9.98906819E-01
 50
3.59937262E+02
 51
9.00627373E+01
  0
ARC
  8
0
 62
7
 10
1.20913205E+02
 20
3.73217579E+01
 40
1.00276683E+00
 50
9.01578730E+01
 51
1.79842127E+02
  0
ARC
  8
0
 62
7
 10
1.20913205E+02
 20
3.78217579E+01
 40
1.00276683E+00
 50
9.01578730E+01
 51
1.79842127E+02
  0
ARC
  8
0
 62
7
 10
1.20916027E+02
 20
4.33010513E+00
 40
1.00559970E+00
 50
1.80318171E+02
 51
2.69681829E+02
  0
ARC
  8
0
 62
7
 10
1.20916027E+02
 20
3.83010513E+00
 40
1.00559970E+00
 50
1.80318171E+02
 51
2.69681829E+02
  0
ARC
  8
0
 62
7
 10
1.20534251E+02
 20
3.32832939E+00
 40
1.00381568E+00
 50
1.80217379E+02
 51
2.69782621E+02
  0
ARC
  8
0
 62
7
 10
1.20534251E+02
 20
2.82832939E+00
 40
1.00381568E+00
 50
1.80217379E+02
 51
2.69782621E+02
  0
ARC
  8
0
 62
7
 10
1.25988704E+02
 20
4.32625921E+00
 40
1.00173979E+00
 50
2.70099423E+02
 51
3.59900577E+02
  0
ARC
  8
0
 62
7
 10
1.27823774E+02
 20
3.78278524E+01
 40
9.96674092E-01
 50
3.59808483E+02
 51
9.01915171E+01
  0
ARC
  8
0
 62
7
 10
1.27820936E+02
 20
3.82402785E+00
 40
9.99507040E-01
 50
2.70000000E+02
 51
2.82654501E-02
  0
ARC
  8
0
 62
7
 10
1.28079479E+02
 20
3.32548400E+00
 40
1.00096353E+00
 50
2.70000000E+02
 51
3.59944873E+02
  0
ARC
  8
0
 62
7
 10
1.28673050E+02
 20
2.82191318E+00
 40
9.97395652E-01
 50
2.69850196E+02
 51
1.49803785E-01
  0
ARC
  8
0
 62
7
 10
1.20913205E+02
 20
7.73217579E+01
 40
1.00276683E+00
 50
9.01578730E+01
 51
1.79842127E+02
  0
ARC
  8
0
 62
7
 10
1.20913205E+02
 20
7.78217579E+01
 40
1.00276683E+00
 50
9.01578730E+01
 51
1.79842127E+02
  0
ARC
  8
0
 62
7
 10
1.20531425E+02
 20
7.83235387E+01
 40
1.00098274E+00
 50
9.00000002E+01
 51
1.79943776E+02
  0
ARC
  8
0
 62
7
 10
1.20531425E+02
 20
7.88235387E+01
 40
1.00098274E+00
 50
9.00000002E+01
 51
1.79943776E+02
  0
ARC
  8
0
 62
7
 10
1.25991536E+02
 20
7.73256147E+01
 40
9.98906819E-01
 50
3.59937262E+02
 51
9.00627373E+01
  0
ARC
  8
0
 62
7
 10
1.27823774E+02
 20
7.78278524E+01
 40
9.96674092E-01
 50
3.59808483E+02
 51
9.01915171E+01
  0
ARC
  8
0
 62
7
 10
1.28082314E+02
 20
7.83263921E+01
 40
9.98130566E-01
 50
3.59892588E+02
 51
9.01074120E+01
  0
ARC
  8
0
 62
7
 10
1.28675895E+02
 20
7.88299731E+01
 40
9.94562776E-01
 50
3.59685904E+02
 51
9.03140956E+01
  0
ARC
  8
0
 62
7
 10
1.20916019E+02
 20
4.63300975E+01
 40
1.00559205E+00
 50
1.80317740E+02
 51
2.69682260E+02
  0
ARC
  8
0
 62
7
 10
1.20916019E+02
 20
4.58300975E+01
 40
1.00559205E+00
 50
1.80317740E+02
 51
2.69682260E+02
  0
ARC
  8
0
 62
7
 10
1.25988712E+02
 20
4.63262516E+01
 40
1.00173214E+00
 50
2.70098987E+02
 51
3.59901013E+02
  0
ARC
  8
0
 62
7
 10
1.27820943E+02
 20
4.58240202E+01
 40
9.99499389E-01
 50
2.70000000E+02
 51
2.87044763E-02
  0
ARC
  8
0
 62
7
 10
7.59305184E+01
 20
3.73244450E+01
 40
1.00007592E+00
 50
9.00000002E+01
 51
1.79995651E+02
  0
ARC
  8
0
 62
7
 10
8.10039838E+01
 20
3.73280622E+01
 40
9.96464984E-01
 50
3.59796378E+02
 51
9.02036225E+01
  0
ARC
  8
0
 62
7
 10
8.10039838E+01
 20
3.78280622E+01
 40
9.96464984E-01
 50
3.59796378E+02
 51
9.02036225E+01
  0
ARC
  8
0
 62
7
 10
8.10011448E+01
 20
4.32381862E+00
 40
9.99297927E-01
 50
2.70000000E+02
 51
4.02682315E-02
  0
ARC
  8
0
 62
7
 10
8.10011448E+01
 20
3.82381862E+00
 40
9.99297927E-01
 50
2.70000000E+02
 51
4.02682315E-02
  0
ARC
  8
0
 62
7
 10
8.13827879E+01
 20
3.32217544E+00
 40
9.97657266E-01
 50
2.69865298E+02
 51
1.34702426E-01
  0
ARC
  8
0
 62
7
 10
8.13827879E+01
 20
2.82217544E+00
 40
9.97657266E-01
 50
2.69865298E+02
 51
1.34702426E-01
  0
ARC
  8
0
 62
7
 10
7.59333471E+01
 20
4.32742560E+00
 40
1.00290887E+00
 50
1.80165943E+02
 51
2.69834058E+02
  0
ARC
  8
0
 62
7
 10
7.40934166E+01
 20
3.78215468E+01
 40
1.00297859E+00
 50
9.01699022E+01
 51
1.79830098E+02
  0
ARC
  8
0
 62
7
 10
7.40962372E+01
 20
3.83031569E+00
 40
1.00581145E+00
 50
1.80330099E+02
 51
2.69669901E+02
  0
ARC
  8
0
 62
7
 10
7.38426930E+01
 20
3.32677148E+00
 40
1.00225307E+00
 50
1.80128657E+02
 51
2.69871343E+02
  0
ARC
  8
0
 62
7
 10
7.32441092E+01
 20
2.82818766E+00
 40
1.00367342E+00
 50
1.80209319E+02
 51
2.69790681E+02
  0
ARC
  8
0
 62
7
 10
8.10039838E+01
 20
7.73280622E+01
 40
9.96464984E-01
 50
3.59796378E+02
 51
9.02036225E+01
  0
ARC
  8
0
 62
7
 10
8.10039838E+01
 20
7.78280622E+01
 40
9.96464984E-01
 50
3.59796378E+02
 51
9.02036225E+01
  0
ARC
  8
0
 62
7
 10
8.13856316E+01
 20
7.83297101E+01
 40
9.94824379E-01
 50
3.59701135E+02
 51
9.02988647E+01
  0
ARC
  8
0
 62
7
 10
8.13856316E+01
 20
7.88297101E+01
 40
9.94824379E-01
 50
3.59701135E+02
 51
9.02988647E+01
  0
ARC
  8
0
 62
7
 10
7.59305184E+01
 20
7.73244450E+01
 40
1.00007592E+00
 50
9.00000002E+01
 51
1.79995651E+02
  0
ARC
  8
0
 62
7
 10
7.40934166E+01
 20
7.78215468E+01
 40
1.00297859E+00
 50
9.01699022E+01
 51
1.79830098E+02
  0
ARC
  8
0
 62
7
 10
7.38398624E+01
 20
7.83251010E+01
 40
9.99420103E-01
 50
9.00000002E+01
 51
1.80033255E+02
  0
ARC
  8
0
 62
7
 10
7.32412826E+01
 20
7.88236808E+01
 40
1.00084048E+00
 50
9.00000002E+01
 51
1.79951905E+02
  0
ARC
  8
0
 62
7
 10
8.10011524E+01
 20
4.63238110E+01
 40
9.99290276E-01
 50
2.70000000E+02
 51
4.07075334E-02
  0
ARC
  8
0
 62
7
 10
8.10011524E+01
 20
4.58238110E+01
 40
9.99290276E-01
 50
2.70000000E+02
 51
4.07075334E-02
  0
ARC
  8
0
 62
7
 10
7.59333395E+01
 20
4.63274180E+01
 40
1.00290122E+00
 50
1.80165508E+02
 51
2.69834492E+02
  0
ARC
  8
0
 62
7
 10
7.40962296E+01
 20
4.58303081E+01
 40
1.00580380E+00
 50
1.80329668E+02
 51
2.69670332E+02
  0
LINE
  8
0
 62
4
 10
3.34604424E+01
 20
1.44774521E+02
 11
3.34604424E+01
 21
1.04274521E+02
  0
LINE
  8
0
 62
4
 10
3.44604424E+01
 20
1.45774521E+02
 11
3.64604424E+01
 21
1.45774521E+02
  0
LINE
  8
0
 62
4
 10
3.44604424E+01
 20
1.03274521E+02
 11
3.64604424E+01
 21
1.03274521E+02
  0
LINE
  8
0
 62
4
 10
3.64604424E+01
 20
1.45774521E+02
 11
3.64604424E+01
 21
1.03274521E+02
  0
LINE
  8
0
 62
4
 10
5.99604424E+01
 20
1.43524521E+02
 11
5.99604424E+01
 21
1.05524521E+02
  0
LINE
  8
0
 62
4
 10
3.64604424E+01
 20
1.45524521E+02
 11
5.79604424E+01
 21
1.45524521E+02
  0
LINE
  8
0
 62
4
 10
3.64604424E+01
 20
1.03524521E+02
 11
5.79604424E+01
 21
1.03524521E+02
  0
LINE
  8
0
 62
4
 10
5.99604424E+01
 20
1.17524521E+02
 11
6.69604424E+01
 21
1.17524521E+02
  0
LINE
  8
0
 62
4
 10
5.99604424E+01
 20
1.31524521E+02
 11
6.69604424E+01
 21
1.31524521E+02
  0
LINE
  8
0
 62
6
 10
5.99604424E+01
 20
1.17524521E+02
 11
6.69604424E+01
 21
1.30591188E+02
  0
LINE
  8
0
 62
6
 10
5.99604424E+01
 20
1.31524521E+02
 11
6.69604424E+01
 21
1.18457854E+02
  0
LINE
  8
0
 62
4
 10
3.34604424E+01
 20
1.44774521E+02
 11
3.44604424E+01
 21
1.45774521E+02
  0
LINE
  8
0
 62
4
 10
3.34604424E+01
 20
1.04274521E+02
 11
3.44604424E+01
 21
1.03274521E+02
  0
LINE
  8
0
 62
4
 10
3.44604424E+01
 20
1.45774521E+02
 11
3.44604424E+01
 21
1.03274521E+02
  0
ARC
  8
0
 62
4
 10
5.79604440E+01
 20
1.05524519E+02
 40
1.99999847E+00
 50
2.70000000E+02
 51
4.37132272E-05
  0
ARC
  8
0
 62
4
 10
5.79604440E+01
 20
1.43524522E+02
 40
1.99999847E+00
 50
3.59999956E+02
 51
9.00000002E+01
  0
LINE
  8
0
 62
4
 10
2.41281111E+02
 20
-1.61654791E+01
 11
2.56431111E+02
 21
-1.61654791E+01
  0
LINE
  8
0
 62
4
 10
2.40781111E+02
 20
-1.56654791E+01
 11
2.40781111E+02
 21
-1.46654791E+01
  0
LINE
  8
0
 62
4
 10
2.56931111E+02
 20
-1.56654791E+01
 11
2.56931111E+02
 21
-1.46654791E+01
  0
LINE
  8
0
 62
4
 10
2.56431111E+02
 20
-1.61654791E+01
 11
2.56931111E+02
 21
-1.56654791E+01
  0
LINE
  8
0
 62
4
 10
2.41281111E+02
 20
-1.61654791E+01
 11
2.40781111E+02
 21
-1.56654791E+01
  0
LINE
  8
0
 62
4
 10
2.55611111E+02
 20
-3.09554791E+01
 11
2.42111111E+02
 21
-3.09554791E+01
  0
LINE
  8
0
 62
4
 10
2.56611111E+02
 20
-1.79554791E+01
 11
2.56611111E+02
 21
-2.99554791E+01
  0
LINE
  8
0
 62
4
 10
2.41111111E+02
 20
-1.79554791E+01
 11
2.41111111E+02
 21
-2.99554791E+01
  0
LINE
  8
0
 62
4
 10
2.56611111E+02
 20
-2.99554791E+01
 11
2.55611111E+02
 21
-3.09554791E+01
  0
LINE
  8
0
 62
4
 10
2.42111111E+02
 20
-3.09554791E+01
 11
2.41111111E+02
 21
-2.99554791E+01
  0
LINE
  8
0
 62
4
 10
2.56111111E+02
 20
-1.74554791E+01
 11
2.41611111E+02
 21
-1.74554791E+01
  0
LINE
  8
0
 62
4
 10
2.56111111E+02
 20
-1.74554791E+01
 11
2.56611111E+02
 21
-1.79554791E+01
  0
LINE
  8
0
 62
4
 10
2.41611111E+02
 20
-1.74554791E+01
 11
2.41111111E+02
 21
-1.79554791E+01
  0
LINE
  8
0
 62
4
 10
2.54861111E+02
 20
-1.61654791E+01
 11
2.54861111E+02
 21
-1.74554791E+01
  0
LINE
  8
0
 62
4
 10
2.42861111E+02
 20
-1.61654791E+01
 11
2.42861111E+02
 21
-1.74554791E+01
  0
LINE
  8
0
 62
6
 10
2.43611111E+02
 20
-1.61654791E+01
 11
2.43611111E+02
 21
-1.74554791E+01
  0
LINE
  8
0
 62
6
 10
2.54111111E+02
 20
-1.61654791E+01
 11
2.54111111E+02
 21
-1.74554791E+01
  0
LINE
  8
0
 62
4
 10
2.47361111E+02
 20
-2.04554791E+01
 11
2.47361111E+02
 21
-2.99554791E+01
  0
LINE
  8
0
 62
4
 10
2.50361111E+02
 20
-2.04554791E+01
 11
2.50361111E+02
 21
-2.99554791E+01
  0
LINE
  8
0
 62
4
 10
2.50701111E+02
 20
-2.07454791E+01
 11
2.50701111E+02
 21
-3.04554791E+01
  0
LINE
  8
0
 62
4
 10
2.47021111E+02
 20
-2.07454791E+01
 11
2.47021111E+02
 21
-3.04554791E+01
  0
LINE
  8
0
 62
4
 10
2.45201111E+02
 20
-2.07454791E+01
 11
2.45201111E+02
 21
-3.04554791E+01
  0
LINE
  8
0
 62
4
 10
2.44541111E+02
 20
-2.04554791E+01
 11
2.44541111E+02
 21
-2.99554791E+01
  0
LINE
  8
0
 62
4
 10
2.42421111E+02
 20
-2.04554791E+01
 11
2.42421111E+02
 21
-2.99554791E+01
  0
LINE
  8
0
 62
4
 10
2.41851111E+02
 20
-2.07454791E+01
 11
2.41851111E+02
 21
-3.04554791E+01
  0
LINE
  8
0
 62
4
 10
2.41251111E+02
 20
-2.04554791E+01
 11
2.41251111E+02
 21
-2.99554791E+01
  0
LINE
  8
0
 62
4
 10
2.52511111E+02
 20
-2.07454791E+01
 11
2.52511111E+02
 21
-3.04554791E+01
  0
LINE
  8
0
 62
4
 10
2.53171111E+02
 20
-2.04554791E+01
 11
2.53171111E+02
 21
-2.99554791E+01
  0
LINE
  8
0
 62
4
 10
2.55301111E+02
 20
-2.04554791E+01
 11
2.55301111E+02
 21
-2.99554791E+01
  0
LINE
  8
0
 62
4
 10
2.55871111E+02
 20
-2.07454791E+01
 11
2.55871111E+02
 21
-3.04554791E+01
  0
LINE
  8
0
 62
4
 10
2.56461111E+02
 20
-2.04554791E+01
 11
2.56461111E+02
 21
-2.99554791E+01
  0
LINE
  8
0
 62
4
 10
2.56461111E+02
 20
-2.04554791E+01
 11
2.55301111E+02
 21
-2.04554791E+01
  0
LINE
  8
0
 62
4
 10
2.55871111E+02
 20
-2.07454791E+01
 11
2.55301111E+02
 21
-2.07454791E+01
  0
LINE
  8
0
 62
4
 10
2.56611111E+02
 20
-2.99554791E+01
 11
2.56461111E+02
 21
-2.99554791E+01
  0
LINE
  8
0
 62
4
 10
2.47361111E+02
 20
-2.04554791E+01
 11
2.44541111E+02
 21
-2.04554791E+01
  0
LINE
  8
0
 62
4
 10
2.47021111E+02
 20
-2.07454791E+01
 11
2.45201111E+02
 21
-2.07454791E+01
  0
LINE
  8
0
 62
4
 10
2.53171111E+02
 20
-2.04554791E+01
 11
2.50361111E+02
 21
-2.04554791E+01
  0
LINE
  8
0
 62
4
 10
2.52511111E+02
 20
-2.07454791E+01
 11
2.50701111E+02
 21
-2.07454791E+01
  0
LINE
  8
0
 62
4
 10
2.42421111E+02
 20
-2.04554791E+01
 11
2.41251111E+02
 21
-2.04554791E+01
  0
LINE
  8
0
 62
4
 10
2.42421111E+02
 20
-2.07454791E+01
 11
2.41851111E+02
 21
-2.07454791E+01
  0
LINE
  8
0
 62
4
 10
2.50361111E+02
 20
-2.99554791E+01
 11
2.47361111E+02
 21
-2.99554791E+01
  0
LINE
  8
0
 62
4
 10
2.44541111E+02
 20
-2.99554791E+01
 11
2.42421111E+02
 21
-2.99554791E+01
  0
LINE
  8
0
 62
4
 10
2.41251111E+02
 20
-2.99554791E+01
 11
2.41111111E+02
 21
-2.99554791E+01
  0
LINE
  8
0
 62
4
 10
2.55301111E+02
 20
-2.99554791E+01
 11
2.53171111E+02
 21
-2.99554791E+01
  0
LINE
  8
0
 62
4
 10
2.52511111E+02
 20
-3.04554791E+01
 11
2.50701111E+02
 21
-3.04554791E+01
  0
LINE
  8
0
 62
4
 10
2.55871111E+02
 20
-3.04554791E+01
 11
2.56461111E+02
 21
-2.99554791E+01
  0
LINE
  8
0
 62
4
 10
2.52511111E+02
 20
-3.04554791E+01
 11
2.53171111E+02
 21
-2.99554791E+01
  0
LINE
  8
0
 62
4
 10
2.50701111E+02
 20
-3.04554791E+01
 11
2.50361111E+02
 21
-2.99554791E+01
  0
LINE
  8
0
 62
4
 10
2.47361111E+02
 20
-2.99554791E+01
 11
2.47021111E+02
 21
-3.04554791E+01
  0
LINE
  8
0
 62
4
 10
2.45201111E+02
 20
-3.04554791E+01
 11
2.44541111E+02
 21
-2.99554791E+01
  0
LINE
  8
0
 62
4
 10
2.41851111E+02
 20
-3.04554791E+01
 11
2.41251111E+02
 21
-2.99554791E+01
  0
LINE
  8
0
 62
4
 10
2.41851111E+02
 20
-2.07454791E+01
 11
2.41251111E+02
 21
-2.04554791E+01
  0
LINE
  8
0
 62
4
 10
2.45201111E+02
 20
-2.07454791E+01
 11
2.44541111E+02
 21
-2.04554791E+01
  0
LINE
  8
0
 62
4
 10
2.47021111E+02
 20
-2.07454791E+01
 11
2.47361111E+02
 21
-2.04554791E+01
  0
LINE
  8
0
 62
4
 10
2.50701111E+02
 20
-2.07454791E+01
 11
2.50361111E+02
 21
-2.04554791E+01
  0
LINE
  8
0
 62
4
 10
2.52511111E+02
 20
-2.07454791E+01
 11
2.53171111E+02
 21
-2.04554791E+01
  0
LINE
  8
0
 62
4
 10
2.55871111E+02
 20
-2.07454791E+01
 11
2.56461111E+02
 21
-2.04554791E+01
  0
LINE
  8
0
 62
4
 10
2.55301111E+02
 20
-2.99554791E+01
 11
2.55121111E+02
 21
-3.04554791E+01
  0
LINE
  8
0
 62
4
 10
2.42421111E+02
 20
-2.99554791E+01
 11
2.42601111E+02
 21
-3.04554791E+01
  0
LINE
  8
0
 62
4
 10
2.47021111E+02
 20
-3.04554791E+01
 11
2.45201111E+02
 21
-3.04554791E+01
  0
LINE
  8
0
 62
4
 10
2.55871111E+02
 20
-3.04554791E+01
 11
2.55121111E+02
 21
-3.04554791E+01
  0
LINE
  8
0
 62
4
 10
2.42601111E+02
 20
-3.04554791E+01
 11
2.41851111E+02
 21
-3.04554791E+01
  0
LINE
  8
0
 62
4
 10
2.56611111E+02
 20
-1.79554791E+01
 11
2.41111111E+02
 21
-1.79554791E+01
  0
LINE
  8
0
 62
4
 10
2.54861111E+02
 20
-3.24554791E+01
 11
2.42861111E+02
 21
-3.24554791E+01
  0
LINE
  8
0
 62
4
 10
2.55361111E+02
 20
-3.19554791E+01
 11
2.55361111E+02
 21
-3.09554791E+01
  0
LINE
  8
0
 62
4
 10
2.42361111E+02
 20
-3.19554791E+01
 11
2.42361111E+02
 21
-3.09554791E+01
  0
LINE
  8
0
 62
4
 10
2.42361111E+02
 20
-3.19554791E+01
 11
2.42861111E+02
 21
-3.24554791E+01
  0
LINE
  8
0
 62
4
 10
2.54861111E+02
 20
-3.24554791E+01
 11
2.55361111E+02
 21
-3.19554791E+01
  0
LINE
  8
0
 62
4
 10
2.51691111E+02
 20
-3.94554791E+01
 11
2.46031111E+02
 21
-3.94554791E+01
  0
LINE
  8
0
 62
4
 10
2.45611111E+02
 20
-3.70554791E+01
 11
2.45611111E+02
 21
-3.68554791E+01
  0
LINE
  8
0
 62
4
 10
2.52111111E+02
 20
-3.70554791E+01
 11
2.52111111E+02
 21
-3.68554791E+01
  0
LINE
  8
0
 62
4
 10
2.52111111E+02
 20
-3.68554791E+01
 11
2.45611111E+02
 21
-3.68554791E+01
  0
LINE
  8
0
 62
4
 10
2.52111111E+02
 20
-3.42554791E+01
 11
2.45611111E+02
 21
-3.42554791E+01
  0
LINE
  8
0
 62
4
 10
2.52111111E+02
 20
-3.44554791E+01
 11
2.45611111E+02
 21
-3.44554791E+01
  0
LINE
  8
0
 62
4
 10
2.52111111E+02
 20
-3.70554791E+01
 11
2.45611111E+02
 21
-3.70554791E+01
  0
LINE
  8
0
 62
4
 10
2.45611111E+02
 20
-3.44554791E+01
 11
2.45611111E+02
 21
-3.42554791E+01
  0
LINE
  8
0
 62
4
 10
2.52111111E+02
 20
-3.44554791E+01
 11
2.52111111E+02
 21
-3.42554791E+01
  0
LINE
  8
0
 62
4
 10
2.45611111E+02
 20
-3.44554791E+01
 11
2.46031111E+02
 21
-3.68554791E+01
  0
LINE
  8
0
 62
4
 10
2.45611111E+02
 20
-3.70554791E+01
 11
2.46031111E+02
 21
-3.94554791E+01
  0
LINE
  8
0
 62
4
 10
2.52111111E+02
 20
-3.70554791E+01
 11
2.51691111E+02
 21
-3.94554791E+01
  0
LINE
  8
0
 62
4
 10
2.52111111E+02
 20
-3.44554791E+01
 11
2.51691111E+02
 21
-3.68554791E+01
  0
LINE
  8
0
 62
4
 10
2.51711111E+02
 20
-3.42554791E+01
 11
2.51711111E+02
 21
-3.24554791E+01
  0
LINE
  8
0
 62
4
 10
2.46011111E+02
 20
-3.42554791E+01
 11
2.46011111E+02
 21
-3.24554791E+01
  0
LINE
  8
0
 62
4
 10
2.42361111E+02
 20
-3.19554791E+01
 11
2.55361111E+02
 21
-3.19554791E+01
  0
LINE
  8
0
 62
4
 10
2.40781111E+02
 20
-1.56654791E+01
 11
2.56931111E+02
 21
-1.56654791E+01
  0
CIRCLE
  8
0
 62
4
 10
-2.25802584E+02
 20
-1.81980372E+02
 40
2.25000000E+01
  0
ARC
  8
0
 62
4
 10
-2.04556883E+02
 20
-1.60734671E+02
 40
5.00430118E+00
 50
4.92243793E-02
 51
8.99507757E+01
  0
LINE
  8
0
  6
CENTER
 62
6
 10
-2.09302584E+02
 20
-1.61980372E+02
 11
-2.02302584E+02
 21
-1.61980372E+02
  0
LINE
  8
0
 62
4
 10
-2.04552584E+02
 20
-1.55730372E+02
 11
-2.47052584E+02
 21
-1.55730372E+02
  0
LINE
  8
0
  6
CENTER
 62
6
 10
-2.05802584E+02
 20
-1.58480372E+02
 11
-2.05802584E+02
 21
-1.65480372E+02
  0
CIRCLE
  8
0
 62
4
 10
-2.05802584E+02
 20
-1.61988967E+02
 40
2.25000000E+00
  0
CIRCLE
  8
0
 62
6
 10
-2.05802584E+02
 20
-1.61988967E+02
 40
2.00000000E+00
  0
CIRCLE
  8
0
 62
4
 10
-2.05802584E+02
 20
-1.61988967E+02
 40
1.62099934E+00
  0
LINE
  8
0
  6
CENTER
 62
2
 10
-2.25802584E+02
 20
-1.50730372E+02
 11
-2.25802584E+02
 21
-2.13230372E+02
  0
LINE
  8
0
  6
CENTER
 62
6
 10
-2.45802584E+02
 20
-1.98480372E+02
 11
-2.45802584E+02
 21
-2.05480372E+02
  0
LINE
  8
0
  6
CENTER
 62
6
 10
-2.49302584E+02
 20
-2.01980372E+02
 11
-2.42302584E+02
 21
-2.01980372E+02
  0
LINE
  8
0
  6
CENTER
 62
2
 10
-1.85197387E+02
 20
-1.81980372E+02
 11
-2.97802584E+02
 21
-1.81980372E+02
  0
CIRCLE
  8
0
 62
4
 10
-2.45802584E+02
 20
-2.01988967E+02
 40
2.25000000E+00
  0
CIRCLE
  8
0
 62
6
 10
-2.45802584E+02
 20
-2.01988967E+02
 40
2.00000000E+00
  0
CIRCLE
  8
0
 62
4
 10
-2.45802584E+02
 20
-2.01988967E+02
 40
1.62099934E+00
  0
LINE
  8
0
 62
4
 10
-2.40275498E+02
 20
-1.80693204E+02
 11
-2.29296292E+02
 21
-1.82634555E+02
  0
CIRCLE
  8
0
 62
4
 10
-2.25802584E+02
 20
-1.81980372E+02
 40
1.99999993E+00
  0
LINE
  8
0
 62
4
 10
-2.23302636E+02
 20
-1.82020363E+02
 11
-2.18232637E+02
 21
-1.79770363E+02
  0
LINE
  8
0
 62
4
 10
-2.41392636E+02
 20
-1.90080363E+02
 11
-2.27432636E+02
 21
-1.83860363E+02
  0
LINE
  8
0
 62
4
 10
-2.41782636E+02
 20
-1.89280363E+02
 11
-2.28292636E+02
 21
-1.82100363E+02
  0
ARC
  8
0
 62
4
 10
-2.25800403E+02
 20
-1.81962109E+02
 40
3.49676556E+00
 50
2.21827547E+02
 51
6.17427376E+00
  0
CIRCLE
  8
0
 62
4
 10
-2.25802584E+02
 20
-1.81980372E+02
 40
2.49427605E+00
  0
ARC
  8
0
 62
4
 10
-2.40193687E+02
 20
-1.80206329E+02
 40
4.93700744E-01
 50
8.55225138E+01
 51
2.60461526E+02
  0
ARC
  8
0
 62
4
 10
-2.41579901E+02
 20
-1.89676592E+02
 40
4.45083167E-01
 50
1.17096987E+02
 51
2.94881480E+02
  0
LINE
  8
0
 62
4
 10
-2.40155145E+02
 20
-1.79714135E+02
 11
-2.28970798E+02
 21
-1.80486994E+02
  0
LINE
  8
0
 62
4
 10
-2.18162637E+02
 20
-1.78260363E+02
 11
-2.18232637E+02
 21
-1.79770363E+02
  0
LINE
  8
0
 62
4
 10
-2.19402637E+02
 20
-1.77380363E+02
 11
-2.18162637E+02
 21
-1.78260363E+02
  0
LINE
  8
0
 62
4
 10
-2.24302636E+02
 20
-1.79990363E+02
 11
-2.19402637E+02
 21
-1.77380363E+02
  0
ARC
  8
0
 62
4
 10
-2.25800403E+02
 20
-1.81962109E+02
 40
3.49676556E+00
 50
4.52784072E+01
 51
1.55048472E+02
  0
ARC
  8
0
 62
4
 10
-2.47056880E+02
 20
-2.03234667E+02
 40
4.99570621E+00
 50
1.79950733E+02
 51
2.70049267E+02
  0
LINE
  8
0
 62
4
 10
-2.52052584E+02
 20
-1.60730372E+02
 11
-2.52052584E+02
 21
-2.03230372E+02
  0
ARC
  8
0
 62
4
 10
-2.47048285E+02
 20
-1.60734671E+02
 40
5.00430118E+00
 50
9.00492241E+01
 51
1.79950776E+02
  0
LINE
  8
0
  6
CENTER
 62
6
 10
-2.49302584E+02
 20
-1.61980372E+02
 11
-2.42302584E+02
 21
-1.61980372E+02
  0
LINE
  8
0
  6
CENTER
 62
6
 10
-2.45802584E+02
 20
-1.58480372E+02
 11
-2.45802584E+02
 21
-1.65480372E+02
  0
CIRCLE
  8
0
 62
4
 10
-2.45802584E+02
 20
-1.61988967E+02
 40
2.25000000E+00
  0
LINE
  8
0
 62
4
 10
-1.99552584E+02
 20
-1.60730372E+02
 11
-1.99552584E+02
 21
-2.03230372E+02
  0
LINE
  8
0
 62
4
 10
-2.04552584E+02
 20
-2.08230372E+02
 11
-2.47052584E+02
 21
-2.08230372E+02
  0
ARC
  8
0
 62
4
 10
-2.04548288E+02
 20
-2.03234667E+02
 40
4.99570621E+00
 50
2.69950733E+02
 51
4.92667057E-02
  0
LINE
  8
0
 62
4
 10
-1.22802584E+02
 20
-1.81980372E+02
 11
-1.14802584E+02
 21
-1.81980372E+02
  0
LINE
  8
0
 62
4
 10
-1.22802584E+02
 20
-1.88980372E+02
 11
-1.14802584E+02
 21
-1.88980372E+02
  0
LINE
  8
0
 62
4
 10
-1.22802584E+02
 20
-1.74980372E+02
 11
-1.14802584E+02
 21
-1.74980372E+02
  0
LINE
  8
0
  6
CENTER
 62
2
 10
-8.08025840E+01
 20
-1.81980372E+02
 11
-1.65390488E+02
 21
-1.81980372E+02
  0
LINE
  8
0
 62
4
 10
-1.54802584E+02
 20
-1.55730372E+02
 11
-1.24802584E+02
 21
-1.55730372E+02
  0
LINE
  8
0
 62
4
 10
-1.54802584E+02
 20
-2.08230372E+02
 11
-1.24802584E+02
 21
-2.08230372E+02
  0
LINE
  8
0
 62
4
 10
-1.57802584E+02
 20
-1.58730372E+02
 11
-1.57802584E+02
 21
-2.05230372E+02
  0
LINE
  8
0
  6
PHANTOM
 62
6
 10
-1.42202584E+02
 20
-2.16230372E+02
 11
-1.42202584E+02
 21
-2.38730372E+02
  0
LINE
  8
0
  6
PHANTOM
 62
6
 10
-1.27402584E+02
 20
-2.16230372E+02
 11
-1.27402584E+02
 21
-2.38730372E+02
  0
LINE
  8
0
  6
PHANTOM
 62
6
 10
-1.27902584E+02
 20
-2.39230372E+02
 11
-1.41702584E+02
 21
-2.39230372E+02
  0
LINE
  8
0
  6
PHANTOM
 62
6
 10
-1.37602584E+02
 20
-2.40410372E+02
 11
-1.37602584E+02
 21
-2.39730372E+02
  0
LINE
  8
0
  6
PHANTOM
 62
6
 10
-1.32002584E+02
 20
-2.40410372E+02
 11
-1.32002584E+02
 21
-2.39730372E+02
  0
LINE
  8
0
  6
PHANTOM
 62
6
 10
-1.38052584E+02
 20
-2.39730372E+02
 11
-1.31552584E+02
 21
-2.39730372E+02
  0
LINE
  8
0
  6
PHANTOM
 62
6
 10
-1.38052584E+02
 20
-2.39730372E+02
 11
-1.38052584E+02
 21
-2.39230372E+02
  0
LINE
  8
0
  6
PHANTOM
 62
6
 10
-1.31552584E+02
 20
-2.39730372E+02
 11
-1.31552584E+02
 21
-2.39230372E+02
  0
LINE
  8
0
  6
PHANTOM
 62
6
 10
-1.42202584E+02
 20
-2.16730372E+02
 11
-1.27402584E+02
 21
-2.16730372E+02
  0
LINE
  8
0
 62
4
 10
-1.25802584E+02
 20
-1.55730372E+02
 11
-1.25802584E+02
 21
-2.08230372E+02
  0
LINE
  8
0
  6
PHANTOM
 62
6
 10
-1.42802584E+02
 20
-2.08230372E+02
 11
-1.42802584E+02
 21
-2.16230372E+02
  0
LINE
  8
0
  6
PHANTOM
 62
6
 10
-1.42802584E+02
 20
-2.16230372E+02
 11
-1.26802584E+02
 21
-2.16230372E+02
  0
LINE
  8
0
  6
PHANTOM
 62
6
 10
-1.42802584E+02
 20
-2.09230372E+02
 11
-1.26802584E+02
 21
-2.09230372E+02
  0
LINE
  8
0
  6
PHANTOM
 62
6
 10
-1.33802584E+02
 20
-2.09230372E+02
 11
-1.33802584E+02
 21
-2.20970372E+02
  0
LINE
  8
0
  6
PHANTOM
 62
6
 10
-1.35802584E+02
 20
-2.09230372E+02
 11
-1.35802584E+02
 21
-2.21500372E+02
  0
LINE
  8
0
 62
6
 10
-1.38302584E+02
 20
-2.22170372E+02
 11
-1.31302584E+02
 21
-2.20300372E+02
  0
LINE
  8
0
 62
6
 10
-1.38302584E+02
 20
-2.23210372E+02
 11
-1.31302584E+02
 21
-2.21330372E+02
  0
LINE
  8
0
  6
PHANTOM
 62
6
 10
-1.35802584E+02
 20
-2.29230372E+02
 11
-1.33802584E+02
 21
-2.29230372E+02
  0
LINE
  8
0
  6
PHANTOM
 62
6
 10
-1.33802584E+02
 20
-2.22000372E+02
 11
-1.33802584E+02
 21
-2.29230372E+02
  0
LINE
  8
0
  6
PHANTOM
 62
6
 10
-1.35802584E+02
 20
-2.22540372E+02
 11
-1.35802584E+02
 21
-2.29230372E+02
  0
LINE
  8
0
  6
PHANTOM
 62
6
 10
-1.35302584E+02
 20
-2.34230372E+02
 11
-1.34302584E+02
 21
-2.34230372E+02
  0
LINE
  8
0
  6
PHANTOM
 62
6
 10
-1.34302584E+02
 20
-2.29230372E+02
 11
-1.34302584E+02
 21
-2.34230372E+02
  0
LINE
  8
0
  6
PHANTOM
 62
6
 10
-1.35302584E+02
 20
-2.29230372E+02
 11
-1.35302584E+02
 21
-2.34230372E+02
  0
LINE
  8
0
  6
PHANTOM
 62
6
 10
-1.37302584E+02
 20
-2.09230372E+02
 11
-1.37302584E+02
 21
-2.21900372E+02
  0
LINE
  8
0
  6
PHANTOM
 62
6
 10
-1.32302584E+02
 20
-2.09230372E+02
 11
-1.32302584E+02
 21
-2.20560372E+02
  0
LINE
  8
0
  6
PHANTOM
 62
6
 10
-1.38252584E+02
 20
-2.27820372E+02
 11
-1.36832584E+02
 21
-2.29230372E+02
  0
LINE
  8
0
  6
PHANTOM
 62
6
 10
-1.41432584E+02
 20
-2.31700372E+02
 11
-1.40732584E+02
 21
-2.32410372E+02
  0
LINE
  8
0
  6
PHANTOM
 62
6
 10
-1.40732584E+02
 20
-2.32410372E+02
 11
-1.37192584E+02
 21
-2.28880372E+02
  0
LINE
  8
0
  6
PHANTOM
 62
6
 10
-1.41432584E+02
 20
-2.31700372E+02
 11
-1.37902584E+02
 21
-2.28170372E+02
  0
LINE
  8
0
  6
PHANTOM
 62
6
 10
-1.31362584E+02
 20
-2.27820372E+02
 11
-1.32782584E+02
 21
-2.29230372E+02
  0
LINE
  8
0
  6
PHANTOM
 62
6
 10
-1.28172584E+02
 20
-2.31700372E+02
 11
-1.31712584E+02
 21
-2.28170372E+02
  0
LINE
  8
0
  6
PHANTOM
 62
6
 10
-1.28882584E+02
 20
-2.32410372E+02
 11
-1.32422584E+02
 21
-2.28880372E+02
  0
LINE
  8
0
  6
PHANTOM
 62
6
 10
-1.37302584E+02
 20
-2.22940372E+02
 11
-1.37302584E+02
 21
-2.25230372E+02
  0
LINE
  8
0
  6
PHANTOM
 62
6
 10
-1.32302584E+02
 20
-2.21600372E+02
 11
-1.32302584E+02
 21
-2.25230372E+02
  0
LINE
  8
0
  6
PHANTOM
 62
6
 10
-1.26802584E+02
 20
-2.08230372E+02
 11
-1.26802584E+02
 21
-2.16230372E+02
  0
LINE
  8
0
  6
PHANTOM
 62
6
 10
-1.28172584E+02
 20
-2.31700372E+02
 11
-1.28882584E+02
 21
-2.32410372E+02
  0
LINE
  8
0
 62
4
 10
-1.22802584E+02
 20
-1.57730372E+02
 11
-1.22802584E+02
 21
-2.06230372E+02
  0
ARC
  8
0
 62
4
 10
-1.24806894E+02
 20
-1.57734681E+02
 40
2.00431438E+00
 50
1.23199522E-01
 51
8.98768005E+01
  0
ARC
  8
0
 62
4
 10
-1.54798276E+02
 20
-1.58734680E+02
 40
3.00431129E+00
 50
9.00821623E+01
 51
1.79917838E+02
  0
ARC
  8
0
 62
4
 10
-1.54806878E+02
 20
-2.05234666E+02
 40
2.99570867E+00
 50
1.79917865E+02
 51
2.70082135E+02
  0
ARC
  8
0
  6
PHANTOM
 62
6
 10
-1.27898308E+02
 20
-2.38734648E+02
 40
4.95742500E-01
 50
2.69505799E+02
 51
4.94200946E-01
  0
ARC
  8
0
  6
PHANTOM
 62
6
 10
-1.41706860E+02
 20
-2.38734648E+02
 40
4.95742500E-01
 50
1.79505799E+02
 51
2.70494201E+02
  0
ARC
  8
0
  6
PHANTOM
 62
6
 10
-1.34807584E+02
 20
-2.36638958E+02
 40
5.00110216E+00
 50
2.40469201E+02
 51
2.99530799E+02
  0
ARC
  8
0
  6
PHANTOM
 62
6
 10
-1.36934127E+02
 20
-2.40413922E+02
 40
6.68466455E-01
 50
1.79695693E+02
 51
2.39581074E+02
  0
ARC
  8
0
  6
PHANTOM
 62
6
 10
-1.32668567E+02
 20
-2.40409623E+02
 40
6.65983090E-01
 50
2.99306140E+02
 51
3.59935608E+02
  0
ARC
  8
0
  6
PHANTOM
 62
6
 10
-1.41300471E+02
 20
-2.25233193E+02
 40
3.99788799E+00
 50
3.19673959E+02
 51
4.04345272E-02
  0
ARC
  8
0
  6
PHANTOM
 62
6
 10
-1.41294549E+02
 20
-2.25226451E+02
 40
5.99504049E+00
 50
3.18096947E+02
 51
3.36360234E+02
  0
ARC
  8
0
  6
PHANTOM
 62
6
 10
-1.28300899E+02
 20
-2.25243602E+02
 40
4.00170714E+00
 50
1.79810574E+02
 51
2.20084575E+02
  0
ARC
  8
0
  6
PHANTOM
 62
6
 10
-1.28297919E+02
 20
-2.25246273E+02
 40
5.99877189E+00
 50
2.03417686E+02
 51
2.21617335E+02
  0
ARC
  8
0
 62
4
 10
-1.24798299E+02
 20
-2.06234657E+02
 40
1.99571935E+00
 50
2.69876973E+02
 51
1.23026933E-01
  0
LINE
  8
0
  6
CENTER
 62
2
 10
-8.08025840E+01
 20
-1.29100372E+02
 11
-8.08025840E+01
 21
-2.42350372E+02
  0
ARC
  8
0
 62
7
 10
-8.08025840E+01
 20
-1.81980372E+02
 40
1.20585012E+01
 50
9.00000002E+01
 51
2.70000000E+02
  0
ARC
  8
0
 62
2
 10
-8.08025840E+01
 20
-1.81980372E+02
 40
1.32205000E+01
 50
9.00000002E+01
 51
2.70000000E+02
  0
TEXT
  8
0
 62
7
 10
-2.43023460E+02
 20
-2.67900000E+02
 40
6.30000019E+00
  1
-GS1A,-GS1B,-GS1C,-GS1D
 41
1.00000000E+00
  7
MONOTXT
  0
LINE
  8
0
 62
2
 10
2.15237997E+02
 20
2.43438071E+01
 11
2.82326955E+02
 21
6.36737490E+00
  0
TEXT
  8
0
 62
7
 10
2.12232667E+02
 20
-5.84899127E+01
 40
6.30000019E+00
  1
-E,-A,-F,-NE,-NA,-NF
 41
1.00000000E+00
  7
MONOTXT
  0
LINE
  8
0
 62
7
 10
-3.99250000E+02
 20
-9.24166667E+01
 11
3.99799805E+02
 21
-9.24166667E+01
  0
LINE
  8
0
 62
7
 10
-3.99250000E+02
 20
2.56250000E+02
 11
-2.49250000E+02
 21
2.56250000E+02
  0
LINE
  8
0
 62
7
 10
-2.49250000E+02
 20
2.76250000E+02
 11
-2.49250000E+02
 21
2.56250000E+02
  0
TEXT
  8
0
 62
7
 10
-3.58000282E+02
 20
2.58100000E+02
 40
6.30000019E+00
  1
COMBINATION
 41
1.00000000E+00
  7
MONOTXT
  0
TEXT
  8
0
 62
7
 10
-3.95800283E+02
 20
2.68100000E+02
 40
6.30000019E+00
  1
F.R.L.LARGE FLOW SERIES
 41
1.05504587E+00
  7
MONOTXT
  0
TEXT
  8
0
 62
7
 10
-3.88350281E+02
 20
-1.05566667E+02
 40
6.30000019E+00
  1
PRESSURE GAUGE
 41
1.04477612E+00
  7
MONOTXT
  0
LINE
  8
0
  6
CENTER
 62
2
 10
2.48861111E+02
 20
1.88045209E+01
 11
2.48861111E+02
 21
-4.63506249E+01
  0
LINE
  8
0
  6
CENTER
 62
2
 10
-2.42802584E+02
 20
-1.37980372E+02
 11
-2.42802584E+02
 21
-2.30930372E+02
  0
LINE
  8
0
 62
7
 10
-8.08025840E+01
 20
-1.55980372E+02
 11
-8.08025840E+01
 21
-1.56980372E+02
  0
LINE
  8
0
 62
7
 10
-2.21302584E+02
 20
-2.19980372E+02
 11
-2.21302584E+02
 21
-2.20980372E+02
  0
LINE
  8
0
 62
7
 10
-2.21302584E+02
 20
-2.20980372E+02
 11
-2.23032584E+02
 21
-2.21980372E+02
  0
LINE
  8
0
 62
7
 10
-2.54562584E+02
 20
-2.21980372E+02
 11
-2.54562584E+02
 21
-2.29020372E+02
  0
LINE
  8
0
 62
7
 10
-2.61852584E+02
 20
-2.21980372E+02
 11
-2.61582584E+02
 21
-2.29530372E+02
  0
LINE
  8
0
 62
7
 10
-2.48712584E+02
 20
-2.21980372E+02
 11
-2.48712584E+02
 21
-2.29660372E+02
  0
LINE
  8
0
 62
7
 10
-2.36882584E+02
 20
-2.21980372E+02
 11
-2.36882584E+02
 21
-2.32100372E+02
  0
LINE
  8
0
 62
7
 10
-2.31032584E+02
 20
-2.21980372E+02
 11
-2.31032584E+02
 21
-2.32520372E+02
  0
LINE
  8
0
 62
7
 10
-2.23752584E+02
 20
-2.21980372E+02
 11
-2.24102584E+02
 21
-2.32020372E+02
  0
LINE
  8
0
 62
7
 10
-1.92802584E+02
 20
-1.58480372E+02
 11
-1.92802584E+02
 21
-2.05480372E+02
  0
LINE
  8
0
 62
7
 10
-2.91302584E+02
 20
-1.56980372E+02
 11
-2.50352584E+02
 21
-1.56980372E+02
  0
LINE
  8
0
 62
7
 10
-2.92802584E+02
 20
-1.58480372E+02
 11
-2.91302584E+02
 21
-1.56980372E+02
  0
LINE
  8
0
 62
7
 10
-1.92802584E+02
 20
-1.58480372E+02
 11
-1.94302584E+02
 21
-1.56980372E+02
  0
LINE
  8
0
 62
7
 10
-2.92802584E+02
 20
-1.58480372E+02
 11
-2.51512584E+02
 21
-1.58480372E+02
  0
LINE
  8
0
 62
7
 10
-2.62552584E+02
 20
-1.55980372E+02
 11
-2.62552584E+02
 21
-1.56980372E+02
  0
LINE
  8
0
 62
7
 10
-2.87802584E+02
 20
-1.55980372E+02
 11
-2.87802584E+02
 21
-1.56980372E+02
  0
LINE
  8
0
 62
7
 10
-2.76802584E+02
 20
-1.55980372E+02
 11
-2.76802584E+02
 21
-1.56980372E+02
  0
LINE
  8
0
 62
7
 10
-2.87802584E+02
 20
-1.55980372E+02
 11
-2.76802584E+02
 21
-1.55980372E+02
  0
LINE
  8
0
 62
7
 10
-2.91302584E+02
 20
-2.06980372E+02
 11
-2.58992584E+02
 21
-2.06980372E+02
  0
LINE
  8
0
 62
7
 10
-2.70802584E+02
 20
-2.08980372E+02
 11
-2.14802584E+02
 21
-2.08980372E+02
  0
LINE
  8
0
 62
7
 10
-2.92802584E+02
 20
-2.05480372E+02
 11
-2.91302584E+02
 21
-2.06980372E+02
  0
LINE
  8
0
 62
7
 10
-1.94302584E+02
 20
-2.06980372E+02
 11
-1.92802584E+02
 21
-2.05480372E+02
  0
LINE
  8
0
 62
7
 10
-2.92802584E+02
 20
-2.05480372E+02
 11
-2.57492584E+02
 21
-2.05480372E+02
  0
LINE
  8
0
 62
7
 10
-2.87802584E+02
 20
-2.07980372E+02
 11
-2.76802584E+02
 21
-2.07980372E+02
  0
LINE
  8
0
 62
7
 10
-2.87802584E+02
 20
-2.07980372E+02
 11
-2.87802584E+02
 21
-2.06980372E+02
  0
LINE
  8
0
 62
7
 10
-2.76802584E+02
 20
-2.07980372E+02
 11
-2.76802584E+02
 21
-2.06980372E+02
  0
LINE
  8
0
 62
7
 10
-2.71802584E+02
 20
-2.06980372E+02
 11
-2.71802584E+02
 21
-2.07980372E+02
  0
LINE
  8
0
 62
7
 10
-2.71802584E+02
 20
-2.07980372E+02
 11
-2.70802584E+02
 21
-2.08980372E+02
  0
LINE
  8
0
 62
7
 10
-2.14802584E+02
 20
-2.08980372E+02
 11
-2.14052584E+02
 21
-2.08230372E+02
  0
LINE
  8
0
 62
7
 10
-2.71802584E+02
 20
-2.07980372E+02
 11
-2.48612584E+02
 21
-2.07980372E+02
  0
LINE
  8
0
 62
7
 10
-2.57492584E+02
 20
-2.05480372E+02
 11
-2.57492584E+02
 21
-1.89980372E+02
  0
LINE
  8
0
 62
7
 10
-2.57492584E+02
 20
-2.05480372E+02
 11
-2.58992584E+02
 21
-2.06980372E+02
  0
LINE
  8
0
 62
7
 10
-2.56492584E+02
 20
-1.88980372E+02
 11
-2.57492584E+02
 21
-1.89980372E+02
  0
LINE
  8
0
 62
7
 10
-2.71802584E+02
 20
-1.66980372E+02
 11
-2.71802584E+02
 21
-1.96980372E+02
  0
LINE
  8
0
 62
7
 10
-2.92802584E+02
 20
-1.58480372E+02
 11
-2.92802584E+02
 21
-2.05480372E+02
  0
LINE
  8
0
 62
7
 10
-2.91302584E+02
 20
-2.06980372E+02
 11
-2.91302584E+02
 21
-1.56980372E+02
  0
LINE
  8
0
 62
7
 10
-2.85802584E+02
 20
-1.66980372E+02
 11
-2.71802584E+02
 21
-1.66980372E+02
  0
LINE
  8
0
 62
7
 10
-2.85802584E+02
 20
-1.96980372E+02
 11
-2.71802584E+02
 21
-1.96980372E+02
  0
LINE
  8
0
 62
7
 10
-2.72682584E+02
 20
-1.67600372E+02
 11
-2.72682584E+02
 21
-1.96370372E+02
  0
LINE
  8
0
 62
7
 10
-2.84912584E+02
 20
-1.67600372E+02
 11
-2.72682584E+02
 21
-1.67600372E+02
  0
LINE
  8
0
 62
7
 10
-2.84912584E+02
 20
-1.96370372E+02
 11
-2.72682584E+02
 21
-1.96370372E+02
  0
LINE
  8
0
 62
7
 10
-2.72682584E+02
 20
-1.96370372E+02
 11
-2.71802584E+02
 21
-1.96980372E+02
  0
LINE
  8
0
 62
7
 10
-2.71802584E+02
 20
-1.66980372E+02
 11
-2.72682584E+02
 21
-1.67600372E+02
  0
LINE
  8
0
 62
7
 10
-2.62802584E+02
 20
-1.55980372E+02
 11
-2.48612584E+02
 21
-1.55980372E+02
  0
LINE
  8
0
 62
7
 10
-2.31772584E+02
 20
-1.46980372E+02
 11
-2.32742584E+02
 21
-1.45980372E+02
  0
LINE
  8
0
 62
7
 10
-2.24292584E+02
 20
-1.52980372E+02
 11
-2.23202584E+02
 21
-1.53560372E+02
  0
LINE
  8
0
 62
7
 10
-2.38802584E+02
 20
-1.53560372E+02
 11
-2.38502584E+02
 21
-1.52980372E+02
  0
LINE
  8
0
 62
7
 10
-2.32742584E+02
 20
-1.52980372E+02
 11
-2.31772584E+02
 21
-1.53560372E+02
  0
LINE
  8
0
 62
7
 10
-2.61802584E+02
 20
-1.45980372E+02
 11
-2.23802584E+02
 21
-1.45980372E+02
  0
LINE
  8
0
 62
7
 10
-2.22802584E+02
 20
-1.46980372E+02
 11
-2.22802584E+02
 21
-1.55730372E+02
  0
LINE
  8
0
 62
7
 10
-2.62802584E+02
 20
-1.46980372E+02
 11
-2.62802584E+02
 21
-1.55980372E+02
  0
LINE
  8
0
 62
7
 10
-2.62802584E+02
 20
-1.46980372E+02
 11
-2.61802584E+02
 21
-1.45980372E+02
  0
LINE
  8
0
 62
7
 10
-2.22802584E+02
 20
-1.46980372E+02
 11
-2.23802584E+02
 21
-1.45980372E+02
  0
LINE
  8
0
 62
7
 10
-2.61302584E+02
 20
-1.52980372E+02
 11
-2.59482584E+02
 21
-1.52980372E+02
  0
LINE
  8
0
 62
7
 10
-2.62392584E+02
 20
-1.53560372E+02
 11
-2.59482584E+02
 21
-1.53560372E+02
  0
LINE
  8
0
 62
7
 10
-2.46802584E+02
 20
-1.46980372E+02
 11
-2.46802584E+02
 21
-1.53560372E+02
  0
LINE
  8
0
 62
7
 10
-2.38802584E+02
 20
-1.46980372E+02
 11
-2.38802584E+02
 21
-1.53560372E+02
  0
LINE
  8
0
 62
7
 10
-2.38502584E+02
 20
-1.45980372E+02
 11
-2.38502584E+02
 21
-1.52980372E+02
  0
LINE
  8
0
 62
7
 10
-2.47092584E+02
 20
-1.45980372E+02
 11
-2.47092584E+02
 21
-1.52980372E+02
  0
LINE
  8
0
 62
7
 10
-2.62802584E+02
 20
-1.46980372E+02
 11
-2.62392584E+02
 21
-1.46980372E+02
  0
LINE
  8
0
 62
7
 10
-2.46802584E+02
 20
-1.46980372E+02
 11
-2.38802584E+02
 21
-1.46980372E+02
  0
LINE
  8
0
 62
7
 10
-2.31772584E+02
 20
-1.46980372E+02
 11
-2.26112584E+02
 21
-1.46980372E+02
  0
LINE
  8
0
 62
7
 10
-2.38502584E+02
 20
-1.52980372E+02
 11
-2.32742584E+02
 21
-1.52980372E+02
  0
LINE
  8
0
 62
7
 10
-2.38802584E+02
 20
-1.53560372E+02
 11
-2.31772584E+02
 21
-1.53560372E+02
  0
LINE
  8
0
 62
7
 10
-2.52852584E+02
 20
-1.45980372E+02
 11
-2.52852584E+02
 21
-1.52980372E+02
  0
LINE
  8
0
 62
7
 10
-2.32742584E+02
 20
-1.45980372E+02
 11
-2.32742584E+02
 21
-1.52980372E+02
  0
LINE
  8
0
 62
7
 10
-2.52852584E+02
 20
-1.52980372E+02
 11
-2.47092584E+02
 21
-1.52980372E+02
  0
LINE
  8
0
 62
7
 10
-2.26112584E+02
 20
-1.52980372E+02
 11
-2.24292584E+02
 21
-1.52980372E+02
  0
LINE
  8
0
 62
7
 10
-2.53822584E+02
 20
-1.46980372E+02
 11
-2.53822584E+02
 21
-1.53560372E+02
  0
LINE
  8
0
 62
7
 10
-2.31772584E+02
 20
-1.46980372E+02
 11
-2.31772584E+02
 21
-1.53560372E+02
  0
LINE
  8
0
 62
7
 10
-2.53822584E+02
 20
-1.53560372E+02
 11
-2.46802584E+02
 21
-1.53560372E+02
  0
LINE
  8
0
 62
7
 10
-2.26112584E+02
 20
-1.53560372E+02
 11
-2.23202584E+02
 21
-1.53560372E+02
  0
LINE
  8
0
 62
7
 10
-2.26112584E+02
 20
-1.46980372E+02
 11
-2.26112584E+02
 21
-1.53560372E+02
  0
LINE
  8
0
 62
7
 10
-2.59482584E+02
 20
-1.46980372E+02
 11
-2.59482584E+02
 21
-1.53560372E+02
  0
LINE
  8
0
 62
7
 10
-2.23202584E+02
 20
-1.46980372E+02
 11
-2.22802584E+02
 21
-1.46980372E+02
  0
LINE
  8
0
 62
7
 10
-2.59482584E+02
 20
-1.46980372E+02
 11
-2.53822584E+02
 21
-1.46980372E+02
  0
LINE
  8
0
 62
7
 10
-2.59482584E+02
 20
-1.46980372E+02
 11
-2.58922584E+02
 21
-1.45980372E+02
  0
LINE
  8
0
 62
7
 10
-2.26672584E+02
 20
-1.45980372E+02
 11
-2.26112584E+02
 21
-1.46980372E+02
  0
LINE
  8
0
 62
7
 10
-2.24292584E+02
 20
-1.45980372E+02
 11
-2.24292584E+02
 21
-1.52980372E+02
  0
LINE
  8
0
 62
7
 10
-2.61302584E+02
 20
-1.45980372E+02
 11
-2.61302584E+02
 21
-1.52980372E+02
  0
LINE
  8
0
 62
7
 10
-2.23202584E+02
 20
-1.46980372E+02
 11
-2.23202584E+02
 21
-1.53560372E+02
  0
LINE
  8
0
 62
7
 10
-2.62392584E+02
 20
-1.46980372E+02
 11
-2.62392584E+02
 21
-1.53560372E+02
  0
LINE
  8
0
 62
7
 10
-2.61302584E+02
 20
-1.52980372E+02
 11
-2.62392584E+02
 21
-1.53560372E+02
  0
LINE
  8
0
 62
7
 10
-2.52852584E+02
 20
-1.52980372E+02
 11
-2.53822584E+02
 21
-1.53560372E+02
  0
LINE
  8
0
 62
7
 10
-2.53822584E+02
 20
-1.46980372E+02
 11
-2.52852584E+02
 21
-1.45980372E+02
  0
LINE
  8
0
 62
7
 10
-2.47092584E+02
 20
-1.45980372E+02
 11
-2.46802584E+02
 21
-1.46980372E+02
  0
LINE
  8
0
 62
7
 10
-2.47092584E+02
 20
-1.52980372E+02
 11
-2.46802584E+02
 21
-1.53560372E+02
  0
LINE
  8
0
 62
7
 10
-2.38802584E+02
 20
-1.46980372E+02
 11
-2.38502584E+02
 21
-1.45980372E+02
  0
LINE
  8
0
 62
7
 10
-2.23202584E+02
 20
-1.46980372E+02
 11
-2.24292584E+02
 21
-1.45980372E+02
  0
LINE
  8
0
 62
7
 10
-2.62392584E+02
 20
-1.46980372E+02
 11
-2.61302584E+02
 21
-1.45980372E+02
  0
LINE
  8
0
 62
7
 10
-2.71302584E+02
 20
-2.09980372E+02
 11
-2.14302584E+02
 21
-2.09980372E+02
  0
LINE
  8
0
 62
7
 10
-2.53282584E+02
 20
-2.09980372E+02
 11
-2.53282584E+02
 21
-2.18980372E+02
  0
LINE
  8
0
 62
7
 10
-2.32312584E+02
 20
-2.09980372E+02
 11
-2.32312584E+02
 21
-2.18980372E+02
  0
LINE
  8
0
 62
2
 10
-2.53282584E+02
 20
-2.09980372E+02
 11
-2.32312584E+02
 21
-2.18980372E+02
  0
LINE
  8
0
 62
2
 10
-2.32312584E+02
 20
-2.09980372E+02
 11
-2.53282584E+02
 21
-2.18980372E+02
  0
LINE
  8
0
 62
7
 10
-2.65302584E+02
 20
-2.08980372E+02
 11
-2.65302584E+02
 21
-2.09980372E+02
  0
LINE
  8
0
 62
2
 10
-2.64302584E+02
 20
-2.08980372E+02
 11
-2.64302584E+02
 21
-2.09980372E+02
  0
LINE
  8
0
 62
2
 10
-2.21302584E+02
 20
-2.08980372E+02
 11
-2.21302584E+02
 21
-2.09980372E+02
  0
LINE
  8
0
 62
7
 10
-2.20302584E+02
 20
-2.08980372E+02
 11
-2.20302584E+02
 21
-2.09980372E+02
  0
LINE
  8
0
 62
7
 10
-1.94302584E+02
 20
-2.06980372E+02
 11
-1.94302584E+02
 21
-1.56980372E+02
  0
LINE
  8
0
 62
7
 10
-2.71302584E+02
 20
-2.18980372E+02
 11
-2.71082584E+02
 21
-2.18980372E+02
  0
LINE
  8
0
 62
7
 10
-2.59972584E+02
 20
-2.12980372E+02
 11
-2.59972584E+02
 21
-2.19980372E+02
  0
LINE
  8
0
 62
7
 10
-2.59692584E+02
 20
-2.11980372E+02
 11
-2.59692584E+02
 21
-2.18980372E+02
  0
LINE
  8
0
 62
7
 10
-2.59692584E+02
 20
-2.18980372E+02
 11
-2.53282584E+02
 21
-2.18980372E+02
  0
LINE
  8
0
 62
7
 10
-2.65542584E+02
 20
-2.11980372E+02
 11
-2.65542584E+02
 21
-2.18980372E+02
  0
LINE
  8
0
 62
7
 10
-2.64492584E+02
 20
-2.12980372E+02
 11
-2.64492584E+02
 21
-2.19980372E+02
  0
LINE
  8
0
 62
7
 10
-2.65542584E+02
 20
-2.11980372E+02
 11
-2.59692584E+02
 21
-2.11980372E+02
  0
LINE
  8
0
 62
7
 10
-2.64492584E+02
 20
-2.12980372E+02
 11
-2.59972584E+02
 21
-2.12980372E+02
  0
LINE
  8
0
 62
7
 10
-2.69042584E+02
 20
-2.11980372E+02
 11
-2.69042584E+02
 21
-2.18980372E+02
  0
LINE
  8
0
 62
7
 10
-2.71082584E+02
 20
-2.11980372E+02
 11
-2.69042584E+02
 21
-2.11980372E+02
  0
LINE
  8
0
 62
7
 10
-2.70032584E+02
 20
-2.12980372E+02
 11
-2.69042584E+02
 21
-2.12980372E+02
  0
LINE
  8
0
 62
7
 10
-2.69042584E+02
 20
-2.18980372E+02
 11
-2.65542584E+02
 21
-2.18980372E+02
  0
LINE
  8
0
 62
7
 10
-2.69042584E+02
 20
-2.18980372E+02
 11
-2.68282584E+02
 21
-2.19980372E+02
  0
LINE
  8
0
 62
7
 10
-2.70032584E+02
 20
-2.12980372E+02
 11
-2.70032584E+02
 21
-2.19980372E+02
  0
LINE
  8
0
 62
7
 10
-2.71082584E+02
 20
-2.11980372E+02
 11
-2.71082584E+02
 21
-2.18980372E+02
  0
LINE
  8
0
 62
7
 10
-2.71082584E+02
 20
-2.18980372E+02
 11
-2.70032584E+02
 21
-2.19980372E+02
  0
LINE
  8
0
 62
7
 10
-2.71082584E+02
 20
-2.11980372E+02
 11
-2.70032584E+02
 21
-2.12980372E+02
  0
LINE
  8
0
 62
7
 10
-2.65542584E+02
 20
-2.18980372E+02
 11
-2.64492584E+02
 21
-2.19980372E+02
  0
LINE
  8
0
 62
7
 10
-2.64492584E+02
 20
-2.12980372E+02
 11
-2.65542584E+02
 21
-2.11980372E+02
  0
LINE
  8
0
 62
7
 10
-2.59972584E+02
 20
-2.12980372E+02
 11
-2.59692584E+02
 21
-2.11980372E+02
  0
LINE
  8
0
 62
7
 10
-2.59972584E+02
 20
-2.19980372E+02
 11
-2.59692584E+02
 21
-2.18980372E+02
  0
LINE
  8
0
 62
7
 10
-2.56492584E+02
 20
-1.88980372E+02
 11
-2.52052584E+02
 21
-1.88980372E+02
  0
LINE
  8
0
 62
7
 10
-2.57492584E+02
 20
-1.89980372E+02
 11
-2.52052584E+02
 21
-1.89980372E+02
  0
LINE
  8
0
 62
7
 10
-2.01252584E+02
 20
-1.56980372E+02
 11
-1.94302584E+02
 21
-1.56980372E+02
  0
LINE
  8
0
 62
7
 10
-2.00092584E+02
 20
-1.58480372E+02
 11
-1.92802584E+02
 21
-1.58480372E+02
  0
LINE
  8
0
 62
7
 10
-2.01252584E+02
 20
-2.06980372E+02
 11
-1.94302584E+02
 21
-2.06980372E+02
  0
LINE
  8
0
 62
7
 10
-2.00092584E+02
 20
-2.05480372E+02
 11
-1.92802584E+02
 21
-2.05480372E+02
  0
LINE
  8
0
 62
7
 10
-2.85802584E+02
 20
-1.66980372E+02
 11
-2.84912584E+02
 21
-1.67600372E+02
  0
LINE
  8
0
 62
7
 10
-2.84912584E+02
 20
-1.67600372E+02
 11
-2.84912584E+02
 21
-1.96370372E+02
  0
LINE
  8
0
 62
7
 10
-2.85802584E+02
 20
-1.66980372E+02
 11
-2.85802584E+02
 21
-1.96980372E+02
  0
LINE
  8
0
 62
7
 10
-2.84912584E+02
 20
-1.96370372E+02
 11
-2.85802584E+02
 21
-1.96980372E+02
  0
LINE
  8
0
 62
7
 10
-2.71302584E+02
 20
-2.09980372E+02
 11
-2.71302584E+02
 21
-2.18980372E+02
  0
LINE
  8
0
 62
7
 10
-2.71302584E+02
 20
-2.18980372E+02
 11
-2.70302584E+02
 21
-2.19980372E+02
  0
LINE
  8
0
 62
7
 10
-2.70302584E+02
 20
-2.19980372E+02
 11
-2.15302584E+02
 21
-2.19980372E+02
  0
LINE
  8
0
 62
7
 10
-2.64302584E+02
 20
-2.19980372E+02
 11
-2.64302584E+02
 21
-2.20980372E+02
  0
LINE
  8
0
 62
7
 10
-2.64302584E+02
 20
-2.20980372E+02
 11
-2.62562584E+02
 21
-2.21980372E+02
  0
LINE
  8
0
 62
7
 10
-2.64302584E+02
 20
-2.20980372E+02
 11
-2.21302584E+02
 21
-2.20980372E+02
  0
LINE
  8
0
 62
7
 10
-2.62562584E+02
 20
-2.21980372E+02
 11
-2.23032584E+02
 21
-2.21980372E+02
  0
LINE
  8
0
 62
7
 10
-2.14302584E+02
 20
-2.18980372E+02
 11
-2.14522584E+02
 21
-2.18980372E+02
  0
LINE
  8
0
 62
7
 10
-2.25622584E+02
 20
-2.12980372E+02
 11
-2.25622584E+02
 21
-2.19980372E+02
  0
LINE
  8
0
 62
7
 10
-2.25902584E+02
 20
-2.11980372E+02
 11
-2.25902584E+02
 21
-2.18980372E+02
  0
LINE
  8
0
 62
7
 10
-2.25902584E+02
 20
-2.18980372E+02
 11
-2.32312584E+02
 21
-2.18980372E+02
  0
LINE
  8
0
 62
7
 10
-2.20062584E+02
 20
-2.11980372E+02
 11
-2.20062584E+02
 21
-2.18980372E+02
  0
LINE
  8
0
 62
7
 10
-2.21102584E+02
 20
-2.12980372E+02
 11
-2.21102584E+02
 21
-2.19980372E+02
  0
LINE
  8
0
 62
7
 10
-2.20062584E+02
 20
-2.11980372E+02
 11
-2.25902584E+02
 21
-2.11980372E+02
  0
LINE
  8
0
 62
7
 10
-2.21102584E+02
 20
-2.12980372E+02
 11
-2.25622584E+02
 21
-2.12980372E+02
  0
LINE
  8
0
 62
7
 10
-2.16562584E+02
 20
-2.11980372E+02
 11
-2.16562584E+02
 21
-2.18980372E+02
  0
LINE
  8
0
 62
7
 10
-2.14522584E+02
 20
-2.11980372E+02
 11
-2.16562584E+02
 21
-2.11980372E+02
  0
LINE
  8
0
 62
7
 10
-2.15572584E+02
 20
-2.12980372E+02
 11
-2.16562584E+02
 21
-2.12980372E+02
  0
LINE
  8
0
 62
7
 10
-2.16562584E+02
 20
-2.18980372E+02
 11
-2.20062584E+02
 21
-2.18980372E+02
  0
LINE
  8
0
 62
7
 10
-2.16562584E+02
 20
-2.18980372E+02
 11
-2.17322584E+02
 21
-2.19980372E+02
  0
LINE
  8
0
 62
7
 10
-2.15572584E+02
 20
-2.12980372E+02
 11
-2.15572584E+02
 21
-2.19980372E+02
  0
LINE
  8
0
 62
7
 10
-2.14522584E+02
 20
-2.11980372E+02
 11
-2.14522584E+02
 21
-2.18980372E+02
  0
LINE
  8
0
 62
7
 10
-2.14522584E+02
 20
-2.18980372E+02
 11
-2.15572584E+02
 21
-2.19980372E+02
  0
LINE
  8
0
 62
7
 10
-2.14522584E+02
 20
-2.11980372E+02
 11
-2.15572584E+02
 21
-2.12980372E+02
  0
LINE
  8
0
 62
7
 10
-2.20062584E+02
 20
-2.18980372E+02
 11
-2.21102584E+02
 21
-2.19980372E+02
  0
LINE
  8
0
 62
7
 10
-2.21102584E+02
 20
-2.12980372E+02
 11
-2.20062584E+02
 21
-2.11980372E+02
  0
LINE
  8
0
 62
7
 10
-2.25622584E+02
 20
-2.12980372E+02
 11
-2.25902584E+02
 21
-2.11980372E+02
  0
LINE
  8
0
 62
7
 10
-2.25622584E+02
 20
-2.19980372E+02
 11
-2.25902584E+02
 21
-2.18980372E+02
  0
LINE
  8
0
 62
7
 10
-2.14302584E+02
 20
-2.09980372E+02
 11
-2.14302584E+02
 21
-2.18980372E+02
  0
LINE
  8
0
 62
7
 10
-2.14302584E+02
 20
-2.18980372E+02
 11
-2.15302584E+02
 21
-2.19980372E+02
  0
LINE
  8
0
 62
7
 10
-1.14302584E+02
 20
-1.56980372E+02
 11
-8.08025840E+01
 21
-1.56980372E+02
  0
LINE
  8
0
 62
7
 10
-1.05802584E+02
 20
-1.58480372E+02
 11
-1.05802584E+02
 21
-2.06980372E+02
  0
LINE
  8
0
 62
7
 10
-1.04302584E+02
 20
-1.56980372E+02
 11
-1.05802584E+02
 21
-1.58480372E+02
  0
LINE
  8
0
 62
7
 10
-9.03025840E+01
 20
-1.55580372E+02
 11
-9.03025840E+01
 21
-1.56980372E+02
  0
LINE
  8
0
 62
7
 10
-8.08025840E+01
 20
-1.55580372E+02
 11
-9.08025840E+01
 21
-1.55580372E+02
  0
LINE
  8
0
 62
7
 10
-9.08025840E+01
 20
-1.48580372E+02
 11
-9.08025840E+01
 21
-1.55580372E+02
  0
LINE
  8
0
 62
7
 10
-8.98025840E+01
 20
-1.47580372E+02
 11
-9.08025840E+01
 21
-1.48580372E+02
  0
LINE
  8
0
 62
7
 10
-8.08025840E+01
 20
-1.47580372E+02
 11
-8.98025840E+01
 21
-1.47580372E+02
  0
LINE
  8
0
 62
7
 10
-8.40025840E+01
 20
-1.46680372E+02
 11
-8.40025840E+01
 21
-1.47580372E+02
  0
LINE
  8
0
 62
7
 10
-8.38025840E+01
 20
-1.46680372E+02
 11
-8.37525840E+01
 21
-1.40430372E+02
  0
LINE
  8
0
 62
7
 10
-8.08025840E+01
 20
-1.46680372E+02
 11
-8.40025840E+01
 21
-1.46680372E+02
  0
LINE
  8
0
 62
7
 10
-8.08025840E+01
 20
-1.53580372E+02
 11
-8.24625840E+01
 21
-1.53580372E+02
  0
LINE
  8
0
 62
7
 10
-8.08025840E+01
 20
-1.53300372E+02
 11
-8.20825840E+01
 21
-1.53300372E+02
  0
LINE
  8
0
 62
7
 10
-9.07225840E+01
 20
-1.48580372E+02
 11
-9.07225840E+01
 21
-1.53580372E+02
  0
LINE
  8
0
 62
7
 10
-9.02025840E+01
 20
-1.48080372E+02
 11
-9.02025840E+01
 21
-1.53300372E+02
  0
LINE
  8
0
 62
7
 10
-8.96125840E+01
 20
-1.48580372E+02
 11
-8.96125840E+01
 21
-1.53580372E+02
  0
LINE
  8
0
 62
7
 10
-8.81125840E+01
 20
-1.48580372E+02
 11
-8.81125840E+01
 21
-1.53580372E+02
  0
LINE
  8
0
 62
7
 10
-8.75925840E+01
 20
-1.48080372E+02
 11
-8.75925840E+01
 21
-1.53300372E+02
  0
LINE
  8
0
 62
7
 10
-8.50625840E+01
 20
-1.48580372E+02
 11
-8.50625840E+01
 21
-1.53580372E+02
  0
LINE
  8
0
 62
7
 10
-8.24625840E+01
 20
-1.48580372E+02
 11
-8.24625840E+01
 21
-1.53580372E+02
  0
LINE
  8
0
 62
7
 10
-8.20825840E+01
 20
-1.48080372E+02
 11
-8.20825840E+01
 21
-1.53300372E+02
  0
LINE
  8
0
 62
7
 10
-8.08025840E+01
 20
-1.48080372E+02
 11
-8.20825840E+01
 21
-1.48080372E+02
  0
LINE
  8
0
 62
7
 10
-8.24625840E+01
 20
-1.48580372E+02
 11
-8.50625840E+01
 21
-1.48580372E+02
  0
LINE
  8
0
 62
7
 10
-8.81125840E+01
 20
-1.48580372E+02
 11
-8.96125840E+01
 21
-1.48580372E+02
  0
LINE
  8
0
 62
7
 10
-8.50625840E+01
 20
-1.53300372E+02
 11
-8.75925840E+01
 21
-1.53300372E+02
  0
LINE
  8
0
 62
7
 10
-8.96125840E+01
 20
-1.53300372E+02
 11
-9.02025840E+01
 21
-1.53300372E+02
  0
LINE
  8
0
 62
7
 10
-8.49225840E+01
 20
-1.48080372E+02
 11
-8.75925840E+01
 21
-1.48080372E+02
  0
LINE
  8
0
 62
7
 10
-8.24625840E+01
 20
-1.48580372E+02
 11
-8.20825840E+01
 21
-1.48080372E+02
  0
LINE
  8
0
 62
7
 10
-8.20825840E+01
 20
-1.53300372E+02
 11
-8.24625840E+01
 21
-1.53580372E+02
  0
LINE
  8
0
 62
7
 10
-8.50625840E+01
 20
-1.48580372E+02
 11
-8.49225840E+01
 21
-1.48080372E+02
  0
LINE
  8
0
 62
7
 10
-8.75925840E+01
 20
-1.53300372E+02
 11
-8.81125840E+01
 21
-1.53580372E+02
  0
LINE
  8
0
 62
7
 10
-8.96125840E+01
 20
-1.48580372E+02
 11
-8.92325840E+01
 21
-1.48080372E+02
  0
LINE
  8
0
 62
7
 10
-8.81125840E+01
 20
-1.48580372E+02
 11
-8.75925840E+01
 21
-1.48080372E+02
  0
LINE
  8
0
 62
7
 10
-8.92325840E+01
 20
-1.48080372E+02
 11
-9.02025840E+01
 21
-1.48080372E+02
  0
LINE
  8
0
 62
7
 10
-8.50625840E+01
 20
-1.53580372E+02
 11
-8.81125840E+01
 21
-1.53580372E+02
  0
LINE
  8
0
 62
7
 10
-8.96425840E+01
 20
-1.53580372E+02
 11
-9.07225840E+01
 21
-1.53580372E+02
  0
LINE
  8
0
 62
7
 10
-9.02025840E+01
 20
-1.53300372E+02
 11
-9.07225840E+01
 21
-1.53580372E+02
  0
LINE
  8
0
 62
7
 10
-9.07225840E+01
 20
-1.48580372E+02
 11
-9.08025840E+01
 21
-1.48580372E+02
  0
LINE
  8
0
 62
7
 10
-9.07225840E+01
 20
-1.48580372E+02
 11
-9.02025840E+01
 21
-1.48080372E+02
  0
LINE
  8
0
 62
7
 10
-9.79525840E+01
 20
-1.49480372E+02
 11
-9.78025840E+01
 21
-1.49480372E+02
  0
LINE
  8
0
 62
7
 10
-9.79525840E+01
 20
-1.49480372E+02
 11
-9.84925840E+01
 21
-1.48980372E+02
  0
LINE
  8
0
 62
7
 10
-9.91925840E+01
 20
-1.54980372E+02
 11
-9.79525840E+01
 21
-1.54980372E+02
  0
LINE
  8
0
 62
7
 10
-1.04302584E+02
 20
-1.49480372E+02
 11
-1.07302584E+02
 21
-1.49480372E+02
  0
LINE
  8
0
 62
7
 10
-9.79525840E+01
 20
-1.54980372E+02
 11
-9.84925840E+01
 21
-1.54640372E+02
  0
LINE
  8
0
 62
7
 10
-1.01792584E+02
 20
-1.54640372E+02
 11
-1.04162584E+02
 21
-1.54640372E+02
  0
LINE
  8
0
 62
7
 10
-9.83025840E+01
 20
-1.48980372E+02
 11
-1.13302584E+02
 21
-1.48980372E+02
  0
LINE
  8
0
 62
7
 10
-9.78025840E+01
 20
-1.49480372E+02
 11
-9.78025840E+01
 21
-1.56980372E+02
  0
LINE
  8
0
 62
7
 10
-1.13802584E+02
 20
-1.49480372E+02
 11
-1.13802584E+02
 21
-1.56980372E+02
  0
LINE
  8
0
 62
7
 10
-9.83025840E+01
 20
-1.48980372E+02
 11
-9.78025840E+01
 21
-1.49480372E+02
  0
LINE
  8
0
 62
7
 10
-1.13802584E+02
 20
-1.49480372E+02
 11
-1.13302584E+02
 21
-1.48980372E+02
  0
LINE
  8
0
  6
CENTER
 62
2
 10
-1.05802584E+02
 20
-1.45980372E+02
 11
-1.05802584E+02
 21
-1.59980372E+02
  0
LINE
  8
0
 62
7
 10
-1.07302584E+02
 20
-1.54980372E+02
 11
-1.10302584E+02
 21
-1.54980372E+02
  0
LINE
  8
0
 62
7
 10
-1.10302584E+02
 20
-1.49480372E+02
 11
-1.12422584E+02
 21
-1.49480372E+02
  0
LINE
  8
0
 62
7
 10
-1.13662584E+02
 20
-1.49480372E+02
 11
-1.13662584E+02
 21
-1.54980372E+02
  0
LINE
  8
0
 62
7
 10
-1.13122584E+02
 20
-1.48980372E+02
 11
-1.13122584E+02
 21
-1.54640372E+02
  0
LINE
  8
0
 62
7
 10
-1.12422584E+02
 20
-1.49480372E+02
 11
-1.12422584E+02
 21
-1.54980372E+02
  0
LINE
  8
0
 62
7
 10
-1.10302584E+02
 20
-1.49480372E+02
 11
-1.10302584E+02
 21
-1.54980372E+02
  0
LINE
  8
0
 62
7
 10
-1.09822584E+02
 20
-1.48980372E+02
 11
-1.09822584E+02
 21
-1.54640372E+02
  0
LINE
  8
0
 62
7
 10
-1.07452584E+02
 20
-1.48980372E+02
 11
-1.07452584E+02
 21
-1.54640372E+02
  0
LINE
  8
0
 62
7
 10
-1.07302584E+02
 20
-1.49480372E+02
 11
-1.07302584E+02
 21
-1.54980372E+02
  0
LINE
  8
0
 62
7
 10
-1.13122584E+02
 20
-1.54640372E+02
 11
-1.12422584E+02
 21
-1.54640372E+02
  0
LINE
  8
0
 62
7
 10
-1.07302584E+02
 20
-1.49480372E+02
 11
-1.07452584E+02
 21
-1.48980372E+02
  0
LINE
  8
0
 62
7
 10
-1.07302584E+02
 20
-1.54980372E+02
 11
-1.07452584E+02
 21
-1.54640372E+02
  0
LINE
  8
0
 62
7
 10
-1.09822584E+02
 20
-1.54640372E+02
 11
-1.10302584E+02
 21
-1.54980372E+02
  0
LINE
  8
0
 62
7
 10
-1.10302584E+02
 20
-1.49480372E+02
 11
-1.09822584E+02
 21
-1.48980372E+02
  0
LINE
  8
0
 62
7
 10
-1.12422584E+02
 20
-1.49480372E+02
 11
-1.12142584E+02
 21
-1.48980372E+02
  0
LINE
  8
0
 62
7
 10
-1.13662584E+02
 20
-1.54980372E+02
 11
-1.13122584E+02
 21
-1.54640372E+02
  0
LINE
  8
0
 62
7
 10
-1.13662584E+02
 20
-1.49480372E+02
 11
-1.13122584E+02
 21
-1.48980372E+02
  0
LINE
  8
0
 62
7
 10
-1.13662584E+02
 20
-1.49480372E+02
 11
-1.13802584E+02
 21
-1.49480372E+02
  0
LINE
  8
0
 62
7
 10
-1.09822584E+02
 20
-1.54640372E+02
 11
-1.07452584E+02
 21
-1.54640372E+02
  0
LINE
  8
0
 62
7
 10
-1.12422584E+02
 20
-1.54980372E+02
 11
-1.13662584E+02
 21
-1.54980372E+02
  0
LINE
  8
0
 62
7
 10
-1.04302584E+02
 20
-1.54980372E+02
 11
-1.01312584E+02
 21
-1.54980372E+02
  0
LINE
  8
0
 62
7
 10
-1.01312584E+02
 20
-1.49480372E+02
 11
-9.91925840E+01
 21
-1.49480372E+02
  0
LINE
  8
0
 62
7
 10
-9.79525840E+01
 20
-1.49480372E+02
 11
-9.79525840E+01
 21
-1.54980372E+02
  0
LINE
  8
0
 62
7
 10
-9.84925840E+01
 20
-1.48980372E+02
 11
-9.84925840E+01
 21
-1.54640372E+02
  0
LINE
  8
0
 62
7
 10
-9.91925840E+01
 20
-1.49480372E+02
 11
-9.91925840E+01
 21
-1.54980372E+02
  0
LINE
  8
0
 62
7
 10
-1.01312584E+02
 20
-1.49480372E+02
 11
-1.01312584E+02
 21
-1.54980372E+02
  0
LINE
  8
0
 62
7
 10
-1.01792584E+02
 20
-1.48980372E+02
 11
-1.01792584E+02
 21
-1.54640372E+02
  0
LINE
  8
0
 62
7
 10
-1.04162584E+02
 20
-1.48980372E+02
 11
-1.04162584E+02
 21
-1.54640372E+02
  0
LINE
  8
0
 62
7
 10
-1.04302584E+02
 20
-1.49480372E+02
 11
-1.04302584E+02
 21
-1.54980372E+02
  0
LINE
  8
0
 62
7
 10
-9.84925840E+01
 20
-1.54640372E+02
 11
-9.91925840E+01
 21
-1.54640372E+02
  0
LINE
  8
0
 62
7
 10
-1.04302584E+02
 20
-1.49480372E+02
 11
-1.04162584E+02
 21
-1.48980372E+02
  0
LINE
  8
0
 62
7
 10
-1.04302584E+02
 20
-1.54980372E+02
 11
-1.04162584E+02
 21
-1.54640372E+02
  0
LINE
  8
0
 62
7
 10
-1.01792584E+02
 20
-1.54640372E+02
 11
-1.01312584E+02
 21
-1.54980372E+02
  0
LINE
  8
0
 62
7
 10
-1.01312584E+02
 20
-1.49490372E+02
 11
-1.01792584E+02
 21
-1.48990372E+02
  0
LINE
  8
0
 62
7
 10
-9.91925840E+01
 20
-1.49490372E+02
 11
-9.94725840E+01
 21
-1.48980372E+02
  0
LINE
  8
0
 62
7
 10
-1.05802584E+02
 20
-1.58480372E+02
 11
-8.08025840E+01
 21
-1.58480372E+02
  0
LINE
  8
0
 62
7
 10
-1.04302584E+02
 20
-1.56980372E+02
 11
-1.04302584E+02
 21
-2.06980372E+02
  0
LINE
  8
0
 62
7
 10
-1.14802584E+02
 20
-1.57480372E+02
 11
-1.14802584E+02
 21
-2.00980372E+02
  0
LINE
  8
0
 62
7
 10
-9.78025840E+01
 20
-1.55980372E+02
 11
-9.03025840E+01
 21
-1.55980372E+02
  0
LINE
  8
0
 62
7
 10
-9.98025840E+01
 20
-1.45980372E+02
 11
-8.38025840E+01
 21
-1.45980372E+02
  0
LINE
  8
0
 62
7
 10
-1.00802584E+02
 20
-1.46980372E+02
 11
-1.00802584E+02
 21
-1.48980372E+02
  0
LINE
  8
0
 62
7
 10
-1.00802584E+02
 20
-1.46980372E+02
 11
-9.98025840E+01
 21
-1.45980372E+02
  0
LINE
  8
0
 62
7
 10
-9.78025840E+01
 20
-1.52980372E+02
 11
-9.74925840E+01
 21
-1.52980372E+02
  0
LINE
  8
0
 62
7
 10
-9.78025840E+01
 20
-1.53560372E+02
 11
-9.74925840E+01
 21
-1.53560372E+02
  0
LINE
  8
0
 62
7
 10
-1.00802584E+02
 20
-1.46980372E+02
 11
-1.00402584E+02
 21
-1.46980372E+02
  0
LINE
  8
0
 62
7
 10
-9.08625840E+01
 20
-1.45980372E+02
 11
-9.08625840E+01
 21
-1.52980372E+02
  0
LINE
  8
0
 62
7
 10
-9.08625840E+01
 20
-1.52980372E+02
 11
-9.08025840E+01
 21
-1.52980372E+02
  0
LINE
  8
0
 62
7
 10
-9.18325840E+01
 20
-1.46980372E+02
 11
-9.18325840E+01
 21
-1.53560372E+02
  0
LINE
  8
0
 62
7
 10
-9.18325840E+01
 20
-1.53560372E+02
 11
-9.08025840E+01
 21
-1.53560372E+02
  0
LINE
  8
0
 62
7
 10
-9.74925840E+01
 20
-1.46980372E+02
 11
-9.74925840E+01
 21
-1.53560372E+02
  0
LINE
  8
0
 62
7
 10
-9.74925840E+01
 20
-1.46980372E+02
 11
-9.18325840E+01
 21
-1.46980372E+02
  0
LINE
  8
0
 62
7
 10
-9.74925840E+01
 20
-1.46980372E+02
 11
-9.69325840E+01
 21
-1.45980372E+02
  0
LINE
  8
0
 62
7
 10
-9.93125840E+01
 20
-1.45980372E+02
 11
-9.93125840E+01
 21
-1.48980372E+02
  0
LINE
  8
0
 62
7
 10
-1.00402584E+02
 20
-1.46980372E+02
 11
-1.00402584E+02
 21
-1.48980372E+02
  0
LINE
  8
0
 62
7
 10
-9.08625840E+01
 20
-1.52980372E+02
 11
-9.18325840E+01
 21
-1.53560372E+02
  0
LINE
  8
0
 62
7
 10
-9.18325840E+01
 20
-1.46980372E+02
 11
-9.08625840E+01
 21
-1.45980372E+02
  0
LINE
  8
0
 62
7
 10
-1.00402584E+02
 20
-1.46980372E+02
 11
-9.93125840E+01
 21
-1.45980372E+02
  0
LINE
  8
0
 62
7
 10
-1.19302584E+02
 20
-2.21980372E+02
 11
-8.08025840E+01
 21
-2.21980372E+02
  0
LINE
  8
0
 62
7
 10
-1.05802584E+02
 20
-2.06980372E+02
 11
-8.08025840E+01
 21
-2.06980372E+02
  0
LINE
  8
0
 62
7
 10
-1.20302584E+02
 20
-2.01980372E+02
 11
-1.20302584E+02
 21
-2.20980372E+02
  0
LINE
  8
0
 62
7
 10
-1.20302584E+02
 20
-2.20980372E+02
 11
-1.19302584E+02
 21
-2.21980372E+02
  0
LINE
  8
0
 62
7
 10
-1.20302584E+02
 20
-2.20980372E+02
 11
-8.08025840E+01
 21
-2.20980372E+02
  0
LINE
  8
0
 62
7
 10
-1.19302584E+02
 20
-2.00980372E+02
 11
-1.05802584E+02
 21
-2.00980372E+02
  0
LINE
  8
0
 62
7
 10
-1.20302584E+02
 20
-2.01980372E+02
 11
-1.05802584E+02
 21
-2.01980372E+02
  0
LINE
  8
0
 62
7
 10
-1.20302584E+02
 20
-2.01980372E+02
 11
-1.19302584E+02
 21
-2.00980372E+02
  0
ARC
  8
0
 62
7
 10
-2.42797584E+02
 20
-1.64488112E+02
 40
5.54918156E+01
 50
2.59108674E+02
 51
2.80891326E+02
  0
ARC
  8
0
 62
7
 10
-7.68006237E+01
 20
-1.40485182E+02
 40
6.95217637E+00
 50
1.25144560E+02
 51
1.79548279E+02
  0
ARC
  8
0
 62
7
 10
-1.14298268E+02
 20
-1.57484688E+02
 40
5.04334419E-01
 50
9.04903272E+01
 51
1.79509673E+02
  0
ARC
  8
0
 62
7
 10
-8.08025840E+01
 20
-1.81980372E+02
 40
2.10000000E+01
 50
9.00000002E+01
 51
2.70000000E+02
  0
POLYLINE
  8
0
 62
2
 66
1
  0
VERTEX
  8
0
 62
2
 10
-2.61582286E+02
 20
-2.29528972E+02
  0
VERTEX
  8
0
 62
2
 10
-2.60734970E+02
 20
-2.29404789E+02
  0
VERTEX
  8
0
 62
2
 10
-2.59886544E+02
 20
-2.29296243E+02
  0
VERTEX
  8
0
 62
2
 10
-2.59037369E+02
 20
-2.29204164E+02
  0
VERTEX
  8
0
 62
2
 10
-2.58187808E+02
 20
-2.29129381E+02
  0
VERTEX
  8
0
 62
2
 10
-2.57338222E+02
 20
-2.29072724E+02
  0
VERTEX
  8
0
 62
2
 10
-2.56488974E+02
 20
-2.29035023E+02
  0
VERTEX
  8
0
 62
2
 10
-2.55640423E+02
 20
-2.29017108E+02
  0
VERTEX
  8
0
 62
2
 10
-2.54792934E+02
 20
-2.29019808E+02
  0
VERTEX
  8
0
 62
2
 10
-2.53946867E+02
 20
-2.29043952E+02
  0
VERTEX
  8
0
 62
2
 10
-2.53102584E+02
 20
-2.29090372E+02
  0
VERTEX
  8
0
 62
2
 10
-2.51306637E+02
 20
-2.29263296E+02
  0
VERTEX
  8
0
 62
2
 10
-2.49518612E+02
 20
-2.29521948E+02
  0
VERTEX
  8
0
 62
2
 10
-2.47736535E+02
 20
-2.29846601E+02
  0
VERTEX
  8
0
 62
2
 10
-2.45958429E+02
 20
-2.30217532E+02
  0
VERTEX
  8
0
 62
2
 10
-2.44182321E+02
 20
-2.30615016E+02
  0
VERTEX
  8
0
 62
2
 10
-2.42406233E+02
 20
-2.31019329E+02
  0
VERTEX
  8
0
 62
2
 10
-2.40628191E+02
 20
-2.31410745E+02
  0
VERTEX
  8
0
 62
2
 10
-2.38846219E+02
 20
-2.31769541E+02
  0
VERTEX
  8
0
 62
2
 10
-2.37058342E+02
 20
-2.32075991E+02
  0
VERTEX
  8
0
 62
2
 10
-2.35262584E+02
 20
-2.32310372E+02
  0
VERTEX
  8
0
 62
2
 10
-2.34152838E+02
 20
-2.32411178E+02
  0
VERTEX
  8
0
 62
2
 10
-2.33040221E+02
 20
-2.32478621E+02
  0
VERTEX
  8
0
 62
2
 10
-2.31925280E+02
 20
-2.32514342E+02
  0
VERTEX
  8
0
 62
2
 10
-2.30808563E+02
 20
-2.32519980E+02
  0
VERTEX
  8
0
 62
2
 10
-2.29690618E+02
 20
-2.32497178E+02
  0
VERTEX
  8
0
 62
2
 10
-2.28571993E+02
 20
-2.32447576E+02
  0
VERTEX
  8
0
 62
2
 10
-2.27453235E+02
 20
-2.32372816E+02
  0
VERTEX
  8
0
 62
2
 10
-2.26334892E+02
 20
-2.32274538E+02
  0
VERTEX
  8
0
 62
2
 10
-2.25217513E+02
 20
-2.32154384E+02
  0
VERTEX
  8
0
 62
2
 10
-2.24101644E+02
 20
-2.32013995E+02
  0
SEQEND
  8
0
  0
POLYLINE
  8
0
 62
2
 66
1
  0
VERTEX
  8
0
 62
2
 10
-1.14797936E+02
 20
-2.40533248E+02
  0
VERTEX
  8
0
 62
2
 10
-1.14321704E+02
 20
-2.40492453E+02
  0
VERTEX
  8
0
 62
2
 10
-1.13845597E+02
 20
-2.40460253E+02
  0
VERTEX
  8
0
 62
2
 10
-1.13369709E+02
 20
-2.40436884E+02
  0
VERTEX
  8
0
 62
2
 10
-1.12894135E+02
 20
-2.40422582E+02
  0
VERTEX
  8
0
 62
2
 10
-1.12418970E+02
 20
-2.40417582E+02
  0
VERTEX
  8
0
 62
2
 10
-1.11944309E+02
 20
-2.40422120E+02
  0
VERTEX
  8
0
 62
2
 10
-1.11470245E+02
 20
-2.40436433E+02
  0
VERTEX
  8
0
 62
2
 10
-1.10996873E+02
 20
-2.40460755E+02
  0
VERTEX
  8
0
 62
2
 10
-1.10524288E+02
 20
-2.40495323E+02
  0
VERTEX
  8
0
 62
2
 10
-1.10052584E+02
 20
-2.40540372E+02
  0
VERTEX
  8
0
 62
2
 10
-1.08199651E+02
 20
-2.40816690E+02
  0
VERTEX
  8
0
 62
2
 10
-1.06358815E+02
 20
-2.41223827E+02
  0
VERTEX
  8
0
 62
2
 10
-1.04527285E+02
 20
-2.41725448E+02
  0
VERTEX
  8
0
 62
2
 10
-1.02702268E+02
 20
-2.42285221E+02
  0
VERTEX
  8
0
 62
2
 10
-1.00880972E+02
 20
-2.42866812E+02
  0
VERTEX
  8
0
 62
2
 10
-9.90606053E+01
 20
-2.43433887E+02
  0
VERTEX
  8
0
 62
2
 10
-9.72383752E+01
 20
-2.43950114E+02
  0
VERTEX
  8
0
 62
2
 10
-9.54114897E+01
 20
-2.44379160E+02
  0
VERTEX
  8
0
 62
2
 10
-9.35771567E+01
 20
-2.44684690E+02
  0
VERTEX
  8
0
 62
2
 10
-9.17325840E+01
 20
-2.44830372E+02
  0
VERTEX
  8
0
 62
2
 10
-9.06300857E+01
 20
-2.44828280E+02
  0
VERTEX
  8
0
 62
2
 10
-8.95248799E+01
 20
-2.44760880E+02
  0
VERTEX
  8
0
 62
2
 10
-8.84188037E+01
 20
-2.44632189E+02
  0
VERTEX
  8
0
 62
2
 10
-8.73136944E+01
 20
-2.44446225E+02
  0
VERTEX
  8
0
 62
2
 10
-8.62113890E+01
 20
-2.44207007E+02
  0
VERTEX
  8
0
 62
2
 10
-8.51137246E+01
 20
-2.43918552E+02
  0
VERTEX
  8
0
 62
2
 10
-8.40225383E+01
 20
-2.43584880E+02
  0
VERTEX
  8
0
 62
2
 10
-8.29396672E+01
 20
-2.43210008E+02
  0
VERTEX
  8
0
 62
2
 10
-8.18669485E+01
 20
-2.42797955E+02
  0
VERTEX
  8
0
 62
2
 10
-8.08062192E+01
 20
-2.42352738E+02
  0
SEQEND
  8
0
  0
TEXT
  8
0
 62
7
 10
-3.60929839E+02
 20
1.28520227E+02
 40
6.30000019E+00
  1
IN
 41
1.00000000E+00
  7
MONOTXT
  0
TEXT
  8
0
 62
7
 10
-6.51983908E+00
 20
1.28520227E+02
 40
6.30000019E+00
  1
OUT
 41
1.00000000E+00
  7
MONOTXT
  0
LINE
  8
0
 62
7
 10
2.67271111E+02
 20
-1.46654791E+01
 11
2.30441111E+02
 21
-1.46654791E+01
  0
LINE
  8
0
 62
7
 10
2.68821111E+02
 20
2.83452094E+00
 11
2.75721111E+02
 21
2.83452094E+00
  0
LINE
  8
0
 62
7
 10
2.15441111E+02
 20
2.04520935E-01
 11
2.15237997E+02
 21
2.43438071E+01
  0
LINE
  8
0
 62
7
 10
2.82271111E+02
 20
2.04520935E-01
 11
2.82326955E+02
 21
6.36737490E+00
  0
LINE
  8
0
 62
7
 10
2.68821111E+02
 20
3.33452094E+00
 11
2.73891111E+02
 21
3.33452094E+00
  0
LINE
  8
0
 62
7
 10
2.76721111E+02
 20
7.86945644E+00
 11
2.76721111E+02
 21
3.83452094E+00
  0
LINE
  8
0
 62
7
 10
2.74891111E+02
 20
8.35980346E+00
 11
2.74891111E+02
 21
4.33452094E+00
  0
LINE
  8
0
 62
7
 10
2.67821111E+02
 20
1.02542043E+01
 11
2.67821111E+02
 21
3.83452094E+00
  0
LINE
  8
0
 62
7
 10
2.68431111E+02
 20
2.33452094E+00
 11
2.75981111E+02
 21
2.33452094E+00
  0
LINE
  8
0
 62
7
 10
2.68431111E+02
 20
1.83452094E+00
 11
2.76581111E+02
 21
1.83452094E+00
  0
LINE
  8
0
 62
7
 10
2.67431111E+02
 20
1.03587044E+01
 11
2.67431111E+02
 21
2.83452094E+00
  0
LINE
  8
0
 62
7
 10
2.76981111E+02
 20
7.79978965E+00
 11
2.76981111E+02
 21
3.33452094E+00
  0
LINE
  8
0
 62
7
 10
2.77581111E+02
 20
7.63902014E+00
 11
2.77581111E+02
 21
2.83452094E+00
  0
LINE
  8
0
 62
7
 10
2.28901111E+02
 20
2.83452094E+00
 11
2.22001111E+02
 21
2.83452094E+00
  0
LINE
  8
0
 62
7
 10
2.28901111E+02
 20
3.33452094E+00
 11
2.23831111E+02
 21
3.33452094E+00
  0
LINE
  8
0
 62
7
 10
2.21001111E+02
 20
2.27995854E+01
 11
2.21001111E+02
 21
3.83452094E+00
  0
LINE
  8
0
 62
7
 10
2.22831111E+02
 20
2.23092384E+01
 11
2.22831111E+02
 21
4.33452094E+00
  0
LINE
  8
0
 62
7
 10
2.29901111E+02
 20
2.04148376E+01
 11
2.29901111E+02
 21
3.83452094E+00
  0
LINE
  8
0
 62
7
 10
2.29281111E+02
 20
2.33452094E+00
 11
2.21741111E+02
 21
2.33452094E+00
  0
LINE
  8
0
 62
7
 10
2.29281111E+02
 20
1.83452094E+00
 11
2.21141111E+02
 21
1.83452094E+00
  0
LINE
  8
0
 62
7
 10
2.30281111E+02
 20
2.03130169E+01
 11
2.30281111E+02
 21
2.83452094E+00
  0
LINE
  8
0
 62
7
 10
2.20741111E+02
 20
2.28692522E+01
 11
2.20741111E+02
 21
3.33452094E+00
  0
LINE
  8
0
 62
7
 10
2.20141111E+02
 20
2.30300218E+01
 11
2.20141111E+02
 21
2.83452094E+00
  0
ARC
  8
0
 62
7
 10
2.67272849E+02
 20
3.33335407E-01
 40
1.49988146E+01
 50
2.69993359E+02
 51
3.59507920E+02
  0
ARC
  8
0
 62
7
 10
2.30438672E+02
 20
3.32629804E-01
 40
1.49981091E+01
 50
1.80489408E+02
 51
2.70009314E+02
  0
ARC
  8
0
 62
7
 10
2.68815310E+02
 20
4.32872048E+00
 40
9.94216466E-01
 50
1.79665723E+02
 51
2.70334277E+02
  0
ARC
  8
0
 62
7
 10
2.68815310E+02
 20
3.82872048E+00
 40
9.94216466E-01
 50
1.79665723E+02
 51
2.70334277E+02
  0
ARC
  8
0
 62
7
 10
2.68428533E+02
 20
3.33194377E+00
 40
9.97426164E-01
 50
1.79851958E+02
 51
2.70148042E+02
  0
ARC
  8
0
 62
7
 10
2.68428533E+02
 20
2.83194377E+00
 40
9.97426164E-01
 50
1.79851958E+02
 51
2.70148042E+02
  0
ARC
  8
0
 62
7
 10
2.73888688E+02
 20
4.33694303E+00
 40
1.00242502E+00
 50
2.70138440E+02
 51
3.59861560E+02
  0
ARC
  8
0
 62
7
 10
2.75720934E+02
 20
3.83469739E+00
 40
1.00017647E+00
 50
2.70000000E+02
 51
3.59989892E+02
  0
ARC
  8
0
 62
7
 10
2.75979469E+02
 20
3.33616286E+00
 40
1.00164327E+00
 50
2.70093921E+02
 51
3.59906079E+02
  0
ARC
  8
0
 62
7
 10
2.76578045E+02
 20
2.83758626E+00
 40
1.00307001E+00
 50
2.70175093E+02
 51
3.59824907E+02
  0
ARC
  8
0
 62
7
 10
2.28901114E+02
 20
4.33451741E+00
 40
9.99996479E-01
 50
2.70000000E+02
 51
2.01734585E-04
  0
ARC
  8
0
 62
7
 10
2.28901114E+02
 20
3.83451741E+00
 40
9.99996479E-01
 50
2.70000000E+02
 51
2.01734585E-04
  0
ARC
  8
0
 62
7
 10
2.29282867E+02
 20
3.33276436E+00
 40
9.98244967E-01
 50
2.69899178E+02
 51
1.00821524E-01
  0
ARC
  8
0
 62
7
 10
2.29282867E+02
 20
2.83276436E+00
 40
9.98244967E-01
 50
2.69899178E+02
 51
1.00821524E-01
  0
ARC
  8
0
 62
7
 10
2.23827706E+02
 20
4.33111684E+00
 40
9.96601718E-01
 50
1.79804294E+02
 51
2.70195706E+02
  0
ARC
  8
0
 62
7
 10
2.21995580E+02
 20
3.82899072E+00
 40
9.94485161E-01
 50
1.79681383E+02
 51
2.70318617E+02
  0
ARC
  8
0
 62
7
 10
2.21737022E+02
 20
3.33043262E+00
 40
9.95920079E-01
 50
1.79764797E+02
 51
2.70235203E+02
  0
ARC
  8
0
 62
7
 10
2.21138361E+02
 20
2.83177161E+00
 40
9.97254469E-01
 50
1.79842042E+02
 51
2.70157958E+02
  0
LINE
  8
0
 62
7
 10
-1.14792584E+02
 20
-2.40540372E+02
 11
-1.14962584E+02
 21
-2.21980372E+02
  0
LINE
  8
0
 62
7
 10
-1.07672584E+02
 20
-2.27680372E+02
 11
-1.00762584E+02
 21
-2.27680372E+02
  0
LINE
  8
0
 62
7
 10
-1.05832584E+02
 20
-2.28180372E+02
 11
-1.00762584E+02
 21
-2.28180372E+02
  0
LINE
  8
0
 62
7
 10
-1.07922584E+02
 20
-2.27180372E+02
 11
-1.00382584E+02
 21
-2.27180372E+02
  0
LINE
  8
0
 62
7
 10
-1.08522584E+02
 20
-2.26680372E+02
 11
-1.00382584E+02
 21
-2.26680372E+02
  0
LINE
  8
0
 62
7
 10
-9.93825840E+01
 20
-2.27680372E+02
 11
-9.93825840E+01
 21
-2.43340372E+02
  0
LINE
  8
0
 62
7
 10
-9.97625840E+01
 20
-2.28680372E+02
 11
-9.97625840E+01
 21
-2.43220372E+02
  0
LINE
  8
0
 62
7
 10
-1.06832584E+02
 20
-2.29180372E+02
 11
-1.06832584E+02
 21
-2.41110372E+02
  0
LINE
  8
0
 62
7
 10
-1.08672584E+02
 20
-2.28680372E+02
 11
-1.08672584E+02
 21
-2.40740372E+02
  0
LINE
  8
0
 62
7
 10
-1.08922584E+02
 20
-2.28180372E+02
 11
-1.08922584E+02
 21
-2.40690372E+02
  0
LINE
  8
0
 62
7
 10
-1.09522584E+02
 20
-2.27680372E+02
 11
-1.09522584E+02
 21
-2.40610372E+02
  0
ARC
  8
0
 62
7
 10
-1.00765465E+02
 20
-2.29183253E+02
 40
1.00288553E+00
 50
1.64616655E-01
 51
8.98353831E+01
  0
ARC
  8
0
 62
7
 10
-1.00765465E+02
 20
-2.28683253E+02
 40
1.00288553E+00
 50
1.64616655E-01
 51
8.98353831E+01
  0
ARC
  8
0
 62
7
 10
-1.00383727E+02
 20
-2.28181515E+02
 40
1.00114402E+00
 50
6.54352712E-02
 51
8.99345650E+01
  0
ARC
  8
0
 62
7
 10
-1.00383727E+02
 20
-2.27681515E+02
 40
1.00114402E+00
 50
6.54352712E-02
 51
8.99345650E+01
  0
ARC
  8
0
 62
7
 10
-1.05827389E+02
 20
-2.29185567E+02
 40
1.00520842E+00
 50
9.02961105E+01
 51
1.79703889E+02
  0
ARC
  8
0
 62
7
 10
-1.07664524E+02
 20
-2.28688431E+02
 40
1.00809205E+00
 50
9.04580925E+01
 51
1.79541907E+02
  0
ARC
  8
0
 62
7
 10
-1.07918071E+02
 20
-2.28184884E+02
 40
1.00452288E+00
 50
9.02573980E+01
 51
1.79742602E+02
  0
ARC
  8
0
 62
7
 10
-1.08516736E+02
 20
-2.27686220E+02
 40
1.00586489E+00
 50
9.03331075E+01
 51
1.79666892E+02
  0
LINE
  8
0
 62
7
 10
2.79799927E+02
 20
-2.56750000E+02
 11
3.99799805E+02
 21
-2.56750000E+02
  0
LINE
  8
0
 62
7
 10
2.79799927E+02
 20
-2.56750000E+02
 11
2.79799927E+02
 21
-2.76750000E+02
  0
TEXT
  8
0
 62
7
 10
2.87585240E+02
 20
-2.71250000E+02
 40
9.00000000E+00
  1
KOGANEI CORP.
 41
1.04838710E+00
  7
MONOTXT
  0
TEXT
  8
0
 62
7
 10
3.15499645E+02
 20
2.63100000E+02
 40
6.30000019E+00
  1
Ver. 1.0
 41
1.08108108E+00
  7
MONOTXT
  0
LINE
  8
0
 62
7
 10
2.79799927E+02
 20
2.56250000E+02
 11
3.99799805E+02
 21
2.56250000E+02
  0
LINE
  8
0
 62
7
 10
2.79799927E+02
 20
2.76250000E+02
 11
2.79799927E+02
 21
2.56250000E+02
  0
TEXT
  8
0
 62
7
 10
-3.85600562E+02
 20
2.38100000E+02
 40
6.30000019E+00
  1
MODEL:CN650-06-G1A
 41
1.00000000E+00
  7
MONOTXT
  0
LINE
  8
0
 62
7
 10
-3.99250000E+02
 20
-2.76750000E+02
 11
3.99799805E+02
 21
-2.76750000E+02
  0
LINE
  8
0
 62
7
 10
-3.99250000E+02
 20
2.76250000E+02
 11
3.99799805E+02
 21
2.76250000E+02
  0
LINE
  8
0
 62
7
 10
-3.99250000E+02
 20
2.76250000E+02
 11
-3.99250000E+02
 21
-2.76750000E+02
  0
LINE
  8
0
 62
7
 10
3.99799805E+02
 20
2.76250000E+02
 11
3.99799805E+02
 21
-2.76750000E+02
  0
ENDSEC
  0
EOF
