  0
SECTION
  2
HEADER
  9
$ACADVER
  1
AC1003
  9
$EXTMIN
 10
-3.99250000E+02
 20
-2.76750000E+02
  9
$EXTMAX
 10
3.99799805E+02
 20
2.76250000E+02
  9
$LIMMIN
 10
-3.99251000E+02
 20
-2.76751000E+02
  9
$LIMMAX
 10
3.99800805E+02
 20
2.76251000E+02
  9
$SNAPUNIT
 10
1
 20
1
  9
$SNAPBASE
 10
0
 20
0
  9
$GRIDMODE
 70
0
  9
$GRIDUNIT
 10
0
 20
0
  9
$LTSCALE
 40
1.33174967E+01
  9
$TEXTSIZE
 40
3.2
  9
$DIMTAD
 70
0
  9
$LUNITS
 70
2
  9
$LUPREC
 70
4
  9
$FILLETRAD
 40
0
  9
$AUNITS
 70
0
  9
$AUPREC
 70
0
  0
ENDSEC
  0
SECTION
  2
TABLES
  0
TABLE
  2
LTYPE
 70
2
  0
LTYPE
  2
CONTINUOUS
 70
64
  3
Solid-Line
 72
65
 73
0
 40
0
  0
LTYPE
  2
DASHED
 70
64
  3
DASHED
 72
65
 73
2
 40
.75
 49
.5
 49
-.25
  0
LTYPE
  2
HIDDEN
 70
64
  3
HIDDEN
 72
65
 73
2
 40
.375
 49
.25
 49
-.125
  0
LTYPE
  2
CENTER
 70
64
  3
CENTER
 72
65
 73
4
 40
2
 49
1.25
 49
-.25
 49
.25
 49
-.25
  0
LTYPE
  2
PHANTOM
 70
64
  3
PHANTOM
 72
65
 73
6
 40
2.5
 49
1.25
 49
-.25
 49
.25
 49
-.25
 49
.25
 49
-.25
  0
ENDTAB
  0
TABLE
  2
LAYER
 70
1
  0
LAYER
  2
0
 70
0
 62
3
  6
CONTINUOUS
 0
ENDTAB
  0
TABLE
  2
STYLE
 70
2
  0
STYLE
  2
MONOTXT
 70
0
 40
0
 41
1
 50
0
 71
0
 42
.2
  3
monotxt
  0
STYLE
  2
BIGFONT
 70
0
 40
0
 41
1
 50
0
 71
0
 42
.2
  3
txt
  4
bigfont
  0
ENDTAB
  0
ENDSEC
  0
SECTION
  2
BLOCKS
  0
BLOCK
  8
0
  2
PP1
 70
10
 10
0.0
 20
0.0
  0
LINE
  8
0
 62
4
 10
-5.70500000E+01
 20
-1.68471719E+02
 11
-5.70500000E+01
 21
-1.68453417E+02
  0
ENDBLK
  8
0
  0
ENDSEC
  0
SECTION
  2
ENTITIES
  0
LINE
  8
0
 62
4
 10
-2.33712092E+02
 20
1.41793449E+02
 11
-2.05712092E+02
 21
1.41793449E+02
  0
LINE
  8
0
 62
4
 10
-2.33712092E+02
 20
1.71793449E+02
 11
-2.05712112E+02
 21
1.71793449E+02
  0
LINE
  8
0
 62
7
 10
-2.33712088E+02
 20
1.41793449E+02
 11
-2.69712092E+02
 21
1.41793449E+02
  0
LINE
  8
0
 62
7
 10
-2.05712112E+02
 20
1.71793449E+02
 11
-1.69712092E+02
 21
1.71793449E+02
  0
LINE
  8
0
 62
7
 10
-1.74712092E+02
 20
1.69793449E+02
 11
-1.74712092E+02
 21
1.43793449E+02
  0
LINE
  8
0
 62
7
 10
-2.64712092E+02
 20
1.69793449E+02
 11
-2.64712092E+02
 21
1.43793449E+02
  0
LINE
  8
0
 62
7
 10
-2.52712092E+02
 20
1.31493449E+02
 11
-1.86712092E+02
 21
1.31493449E+02
  0
LINE
  8
0
 62
7
 10
-2.42092092E+02
 20
1.01493449E+02
 11
-2.41612092E+02
 21
9.07934493E+01
  0
LINE
  8
0
 62
7
 10
-2.37462092E+02
 20
4.07934493E+01
 11
-2.01962092E+02
 21
4.07934493E+01
  0
LINE
  8
0
 62
7
 10
-2.02312092E+02
 20
4.36834493E+01
 11
-2.01022092E+02
 21
8.07934493E+01
  0
LINE
  8
0
 62
7
 10
-2.38402092E+02
 20
8.07934493E+01
 11
-2.37102092E+02
 21
4.36834493E+01
  0
LINE
  8
0
 62
7
 10
-2.43602092E+02
 20
9.07934493E+01
 11
-1.95812092E+02
 21
9.07934493E+01
  0
LINE
  8
0
 62
7
 10
-2.43752092E+02
 20
8.07934493E+01
 11
-2.43512092E+02
 21
8.06534493E+01
  0
LINE
  8
0
 62
7
 10
-2.43512092E+02
 20
8.06534493E+01
 11
-2.42612092E+02
 21
5.47934493E+01
  0
LINE
  8
0
 62
7
 10
-1.88712092E+02
 20
1.97793449E+02
 11
-2.50712092E+02
 21
1.97793449E+02
  0
LINE
  8
0
 62
7
 10
-2.52712092E+02
 20
1.95793449E+02
 11
-2.52712092E+02
 21
1.71793449E+02
  0
LINE
  8
0
 62
7
 10
-1.86712092E+02
 20
1.95793449E+02
 11
-1.86712092E+02
 21
1.71793449E+02
  0
LINE
  8
0
 62
7
 10
-1.86712092E+02
 20
1.31493449E+02
 11
-1.86712092E+02
 21
1.02793449E+02
  0
LINE
  8
0
 62
7
 10
-2.52712092E+02
 20
1.31493449E+02
 11
-2.52712092E+02
 21
1.02793449E+02
  0
LINE
  8
0
 62
7
 10
-1.88712092E+02
 20
1.17493449E+02
 11
-2.50712092E+02
 21
1.17493449E+02
  0
LINE
  8
0
 62
7
 10
-2.43602092E+02
 20
9.07934493E+01
 11
-2.44092092E+02
 21
9.03134493E+01
  0
LINE
  8
0
 62
7
 10
-1.95812092E+02
 20
9.07934493E+01
 11
-1.95332092E+02
 21
9.03134493E+01
  0
LINE
  8
0
 62
7
 10
-1.97332092E+02
 20
1.01493449E+02
 11
-1.97802092E+02
 21
9.07934493E+01
  0
LINE
  8
0
 62
7
 10
-2.15712092E+02
 20
8.07934493E+01
 11
-2.15712092E+02
 21
4.36834493E+01
  0
LINE
  8
0
 62
7
 10
-2.23712092E+02
 20
8.07934493E+01
 11
-2.23712092E+02
 21
4.36834493E+01
  0
LINE
  8
0
 62
7
 10
-2.23712092E+02
 20
4.36834493E+01
 11
-2.15712092E+02
 21
4.36834493E+01
  0
LINE
  8
0
 62
7
 10
-2.15712092E+02
 20
8.07934493E+01
 11
-2.01022092E+02
 21
8.07934493E+01
  0
LINE
  8
0
 62
7
 10
-2.25192092E+02
 20
5.09934493E+01
 11
-2.25192092E+02
 21
4.07934493E+01
  0
LINE
  8
0
 62
7
 10
-2.14232092E+02
 20
5.09934493E+01
 11
-2.14232092E+02
 21
4.07934493E+01
  0
LINE
  8
0
 62
7
 10
-2.15712092E+02
 20
4.36834493E+01
 11
-2.14232092E+02
 21
4.07934493E+01
  0
LINE
  8
0
 62
7
 10
-2.23712092E+02
 20
4.36834493E+01
 11
-2.25192092E+02
 21
4.07934493E+01
  0
LINE
  8
0
 62
7
 10
-2.02312092E+02
 20
4.36834493E+01
 11
-2.07822092E+02
 21
4.07934493E+01
  0
LINE
  8
0
 62
7
 10
-2.23712092E+02
 20
8.07934493E+01
 11
-2.38402092E+02
 21
8.07934493E+01
  0
LINE
  8
0
 62
7
 10
-2.23712092E+02
 20
5.47934493E+01
 11
-2.37492092E+02
 21
5.47934493E+01
  0
LINE
  8
0
 62
7
 10
-2.25192092E+02
 20
5.09934493E+01
 11
-2.32362092E+02
 21
5.09934493E+01
  0
LINE
  8
0
 62
7
 10
-2.37102092E+02
 20
4.36834493E+01
 11
-2.31592092E+02
 21
4.07934493E+01
  0
LINE
  8
0
 62
7
 10
-2.37102092E+02
 20
4.36834493E+01
 11
-2.41962092E+02
 21
4.36834493E+01
  0
LINE
  8
0
 62
7
 10
-2.51962092E+02
 20
1.24493449E+02
 11
-2.42712092E+02
 21
1.24493449E+02
  0
LINE
  8
0
 62
7
 10
-2.42712092E+02
 20
1.24493449E+02
 11
-2.42712092E+02
 21
1.19493449E+02
  0
LINE
  8
0
  6
CENTER
 62
2
 10
-2.47712092E+02
 20
1.25493449E+02
 11
-2.47712092E+02
 21
1.16493449E+02
  0
LINE
  8
0
 62
7
 10
-2.51962092E+02
 20
1.90793449E+02
 11
-2.42712092E+02
 21
1.90793449E+02
  0
LINE
  8
0
  6
CENTER
 62
2
 10
-2.47712092E+02
 20
1.89793449E+02
 11
-2.47712092E+02
 21
1.98793449E+02
  0
LINE
  8
0
 62
7
 10
-2.42712092E+02
 20
1.90793449E+02
 11
-2.42712092E+02
 21
1.95793449E+02
  0
LINE
  8
0
  6
CENTER
 62
2
 10
-2.19712092E+02
 20
2.04933449E+02
 11
-2.19712092E+02
 21
3.36534493E+01
  0
LINE
  8
0
 62
7
 10
-1.96712092E+02
 20
1.24493449E+02
 11
-1.96712092E+02
 21
1.19493449E+02
  0
LINE
  8
0
 62
7
 10
-1.87462092E+02
 20
1.24493449E+02
 11
-1.96712092E+02
 21
1.24493449E+02
  0
LINE
  8
0
  6
CENTER
 62
2
 10
-1.91712092E+02
 20
1.25493449E+02
 11
-1.91712092E+02
 21
1.16493449E+02
  0
LINE
  8
0
 62
7
 10
-1.87462092E+02
 20
1.90793449E+02
 11
-1.96712092E+02
 21
1.90793449E+02
  0
LINE
  8
0
  6
CENTER
 62
2
 10
-1.91712092E+02
 20
1.89793449E+02
 11
-1.91712092E+02
 21
1.98793449E+02
  0
LINE
  8
0
 62
7
 10
-1.96712092E+02
 20
1.90793449E+02
 11
-1.96712092E+02
 21
1.95793449E+02
  0
LINE
  8
0
 62
7
 10
-2.15712092E+02
 20
5.47934493E+01
 11
-2.14232092E+02
 21
5.09934493E+01
  0
LINE
  8
0
 62
7
 10
-2.23712092E+02
 20
5.47934493E+01
 11
-2.25192092E+02
 21
5.09934493E+01
  0
LINE
  8
0
 62
7
 10
-2.44092092E+02
 20
9.03134493E+01
 11
-2.43752092E+02
 21
8.07934493E+01
  0
LINE
  8
0
 62
7
 10
-2.32362092E+02
 20
5.09934493E+01
 11
-2.31592092E+02
 21
4.07934493E+01
  0
LINE
  8
0
 62
7
 10
-2.37492092E+02
 20
5.47934493E+01
 11
-2.32362092E+02
 21
5.09934493E+01
  0
LINE
  8
0
 62
7
 10
-2.14232092E+02
 20
5.09934493E+01
 11
-2.07062092E+02
 21
5.09934493E+01
  0
LINE
  8
0
 62
7
 10
-2.15712092E+02
 20
5.47934493E+01
 11
-2.01932092E+02
 21
5.47934493E+01
  0
LINE
  8
0
 62
7
 10
-2.01932092E+02
 20
5.47934493E+01
 11
-2.07062092E+02
 21
5.09934493E+01
  0
LINE
  8
0
 62
7
 10
-2.07062092E+02
 20
5.09934493E+01
 11
-2.07822092E+02
 21
4.07934493E+01
  0
LINE
  8
0
 62
7
 10
-2.42352092E+02
 20
5.47934493E+01
 11
-2.41962092E+02
 21
4.36934493E+01
  0
LINE
  8
0
 62
7
 10
-2.42612092E+02
 20
5.47934493E+01
 11
-2.42352092E+02
 21
5.47934493E+01
  0
LINE
  8
0
 62
7
 10
-2.37462092E+02
 20
4.07934493E+01
 11
-2.41962092E+02
 21
4.36834493E+01
  0
LINE
  8
0
 62
7
 10
-1.95332092E+02
 20
9.03134493E+01
 11
-1.95662092E+02
 21
8.07934493E+01
  0
LINE
  8
0
 62
7
 10
-1.95912092E+02
 20
8.06534493E+01
 11
-1.96812092E+02
 21
5.47934493E+01
  0
LINE
  8
0
 62
7
 10
-1.95662092E+02
 20
8.07934493E+01
 11
-1.95912092E+02
 21
8.06534493E+01
  0
LINE
  8
0
 62
7
 10
-1.96812092E+02
 20
5.47934493E+01
 11
-1.97072092E+02
 21
5.47934493E+01
  0
LINE
  8
0
 62
7
 10
-1.97072092E+02
 20
5.47934493E+01
 11
-1.97462092E+02
 21
4.36934493E+01
  0
LINE
  8
0
 62
7
 10
-2.01962092E+02
 20
4.07934493E+01
 11
-1.97462092E+02
 21
4.36834493E+01
  0
LINE
  8
0
 62
7
 10
-2.52712092E+02
 20
1.81793449E+02
 11
-1.86712092E+02
 21
1.81793449E+02
  0
LINE
  8
0
 62
7
 10
-2.52712092E+02
 20
1.31793449E+02
 11
-1.86712092E+02
 21
1.31793449E+02
  0
LINE
  8
0
 62
7
 10
-2.51712092E+02
 20
1.31793449E+02
 11
-2.51712092E+02
 21
1.31493449E+02
  0
LINE
  8
0
 62
7
 10
-1.87712092E+02
 20
1.31793449E+02
 11
-1.87712092E+02
 21
1.31493449E+02
  0
LINE
  8
0
 62
7
 10
-1.69712092E+02
 20
1.41793449E+02
 11
-2.05712092E+02
 21
1.41793449E+02
  0
LINE
  8
0
 62
7
 10
-2.52712092E+02
 20
1.41793449E+02
 11
-2.52712092E+02
 21
1.31793449E+02
  0
LINE
  8
0
 62
7
 10
-1.86712092E+02
 20
1.41793449E+02
 11
-1.86712092E+02
 21
1.31793449E+02
  0
LINE
  8
0
 62
7
 10
-2.35212092E+02
 20
1.70793449E+02
 11
-2.35212092E+02
 21
1.42793449E+02
  0
LINE
  8
0
 62
7
 10
-2.04212092E+02
 20
1.70793449E+02
 11
-2.04212092E+02
 21
1.42793449E+02
  0
LINE
  8
0
  6
CENTER
 62
2
 10
-1.94712092E+02
 20
1.64293449E+02
 11
-1.94712092E+02
 21
1.49293449E+02
  0
LINE
  8
0
  6
CENTER
 62
2
 10
-2.44712092E+02
 20
1.64293449E+02
 11
-2.44712092E+02
 21
1.49293449E+02
  0
LINE
  8
0
 62
4
 10
-2.04712092E+02
 20
1.70793449E+02
 11
-2.04712092E+02
 21
1.42793449E+02
  0
LINE
  8
0
 62
4
 10
-2.34712092E+02
 20
1.70793449E+02
 11
-2.34712092E+02
 21
1.42793449E+02
  0
LINE
  8
0
 62
7
 10
-3.42712092E+02
 20
1.16793449E+02
 11
-2.52712092E+02
 21
1.16793449E+02
  0
LINE
  8
0
 62
7
 10
-3.42712092E+02
 20
1.80293449E+02
 11
-3.42712092E+02
 21
1.02793449E+02
  0
LINE
  8
0
 62
7
 10
-3.42712092E+02
 20
1.80293449E+02
 11
-3.41212092E+02
 21
1.81793449E+02
  0
LINE
  8
0
 62
7
 10
-3.41712092E+02
 20
1.31793449E+02
 11
-2.53712092E+02
 21
1.31793449E+02
  0
LINE
  8
0
 62
7
 10
-2.69712092E+02
 20
1.71793449E+02
 11
-2.33717767E+02
 21
1.71793449E+02
  0
LINE
  8
0
 62
7
 10
-3.41212092E+02
 20
1.81793449E+02
 11
-3.41212092E+02
 21
1.31733449E+02
  0
LINE
  8
0
 62
7
 10
-2.69712092E+02
 20
1.80293449E+02
 11
-2.69712092E+02
 21
1.71793449E+02
  0
LINE
  8
0
 62
7
 10
-2.69712092E+02
 20
1.41793449E+02
 11
-2.69712092E+02
 21
1.31793449E+02
  0
LINE
  8
0
 62
7
 10
-3.26592092E+02
 20
1.71173449E+02
 11
-3.26592092E+02
 21
1.42403449E+02
  0
LINE
  8
0
 62
7
 10
-3.25712092E+02
 20
1.71793449E+02
 11
-3.35712092E+02
 21
1.71793449E+02
  0
LINE
  8
0
 62
7
 10
-3.34832092E+02
 20
1.71173449E+02
 11
-3.34832092E+02
 21
1.42403449E+02
  0
LINE
  8
0
 62
7
 10
-3.35712092E+02
 20
1.71793449E+02
 11
-3.35712092E+02
 21
1.41793449E+02
  0
LINE
  8
0
 62
7
 10
-3.25712092E+02
 20
1.41793449E+02
 11
-3.35712092E+02
 21
1.41793449E+02
  0
LINE
  8
0
 62
7
 10
-3.26592092E+02
 20
1.42403449E+02
 11
-3.34832092E+02
 21
1.42403449E+02
  0
LINE
  8
0
 62
7
 10
-3.25712092E+02
 20
1.41793449E+02
 11
-3.25712092E+02
 21
1.31793449E+02
  0
LINE
  8
0
 62
7
 10
-3.26592092E+02
 20
1.71173449E+02
 11
-3.34832092E+02
 21
1.71173449E+02
  0
LINE
  8
0
 62
7
 10
-3.25712092E+02
 20
1.80293449E+02
 11
-3.25712092E+02
 21
1.71793449E+02
  0
LINE
  8
0
 62
7
 10
-3.34832092E+02
 20
1.71173449E+02
 11
-3.35712092E+02
 21
1.71793449E+02
  0
LINE
  8
0
 62
7
 10
-3.34832092E+02
 20
1.42403449E+02
 11
-3.35712092E+02
 21
1.41793449E+02
  0
LINE
  8
0
 62
7
 10
-3.26592092E+02
 20
1.71173449E+02
 11
-3.25712092E+02
 21
1.71793449E+02
  0
LINE
  8
0
 62
7
 10
-3.26592092E+02
 20
1.42403449E+02
 11
-3.25712092E+02
 21
1.41793449E+02
  0
LINE
  8
0
 62
7
 10
-3.41712092E+02
 20
1.24293449E+02
 11
-3.28212092E+02
 21
1.24293449E+02
  0
LINE
  8
0
 62
7
 10
-2.67212092E+02
 20
1.24293449E+02
 11
-2.53712092E+02
 21
1.24293449E+02
  0
LINE
  8
0
 62
7
 10
-2.67712092E+02
 20
1.30793449E+02
 11
-2.67712092E+02
 21
1.24793449E+02
  0
LINE
  8
0
  6
CENTER
 62
2
 10
-2.60712092E+02
 20
1.34793449E+02
 11
-2.60712092E+02
 21
1.21293449E+02
  0
LINE
  8
0
  6
CENTER
 62
2
 10
-3.34712092E+02
 20
1.34793449E+02
 11
-3.34712092E+02
 21
1.21293449E+02
  0
LINE
  8
0
  6
CENTER
 62
2
 10
-2.97712092E+02
 20
1.88933449E+02
 11
-2.97712092E+02
 21
-6.59465507E+01
  0
LINE
  8
0
 62
7
 10
-3.27712092E+02
 20
1.30793449E+02
 11
-3.27712092E+02
 21
1.24793449E+02
  0
LINE
  8
0
 62
7
 10
-3.24452092E+02
 20
1.81793449E+02
 11
-3.25712092E+02
 21
1.80293449E+02
  0
LINE
  8
0
 62
7
 10
-3.23292092E+02
 20
1.81793449E+02
 11
-3.24672092E+02
 21
1.80293449E+02
  0
LINE
  8
0
 62
7
 10
-3.24142092E+02
 20
1.31793449E+02
 11
-3.24672092E+02
 21
1.80293449E+02
  0
LINE
  8
0
 62
7
 10
-2.71282092E+02
 20
1.31793449E+02
 11
-2.70752092E+02
 21
1.80293449E+02
  0
LINE
  8
0
 62
7
 10
-2.72132092E+02
 20
1.81793449E+02
 11
-2.70752092E+02
 21
1.80293449E+02
  0
LINE
  8
0
 62
7
 10
-2.70972092E+02
 20
1.81793449E+02
 11
-2.69712092E+02
 21
1.80293449E+02
  0
LINE
  8
0
 62
7
 10
-3.37712092E+02
 20
1.82793449E+02
 11
-3.26722092E+02
 21
1.82793449E+02
  0
LINE
  8
0
 62
7
 10
-3.37712092E+02
 20
1.82793449E+02
 11
-3.37712092E+02
 21
1.81793449E+02
  0
LINE
  8
0
 62
7
 10
-3.26722092E+02
 20
1.82793449E+02
 11
-3.26722092E+02
 21
1.81793449E+02
  0
LINE
  8
0
 62
7
 10
-3.35682092E+02
 20
5.67934493E+01
 11
-2.59742092E+02
 21
5.67934493E+01
  0
LINE
  8
0
 62
7
 10
-3.41712092E+02
 20
1.01793449E+02
 11
-2.53712092E+02
 21
1.01793449E+02
  0
LINE
  8
0
 62
7
 10
-3.36742092E+02
 20
5.77934493E+01
 11
-3.37862092E+02
 21
1.00823449E+02
  0
LINE
  8
0
 62
7
 10
-3.36742092E+02
 20
5.77934493E+01
 11
-3.35682092E+02
 21
5.67934493E+01
  0
LINE
  8
0
 62
7
 10
-2.58682092E+02
 20
5.77934493E+01
 11
-2.59742092E+02
 21
5.67934493E+01
  0
LINE
  8
0
 62
7
 10
-3.36742092E+02
 20
5.77934493E+01
 11
-2.58682092E+02
 21
5.77934493E+01
  0
LINE
  8
0
 62
7
 10
-3.39712092E+02
 20
1.31193449E+02
 11
-3.39712092E+02
 21
1.25793449E+02
  0
LINE
  8
0
 62
7
 10
-3.29712092E+02
 20
1.31193449E+02
 11
-3.29712092E+02
 21
1.25793449E+02
  0
LINE
  8
0
 62
7
 10
-3.28612092E+02
 20
1.25793449E+02
 11
-3.40812092E+02
 21
1.25793449E+02
  0
LINE
  8
0
 62
7
 10
-3.28612092E+02
 20
1.25793449E+02
 11
-3.28612092E+02
 21
1.24293449E+02
  0
LINE
  8
0
 62
7
 10
-3.40812092E+02
 20
1.25793449E+02
 11
-3.40812092E+02
 21
1.24293449E+02
  0
LINE
  8
0
 62
7
 10
-3.39712092E+02
 20
1.31193449E+02
 11
-3.29712092E+02
 21
1.31193449E+02
  0
LINE
  8
0
 62
7
 10
-3.39712092E+02
 20
1.31193449E+02
 11
-3.39112092E+02
 21
1.31793449E+02
  0
LINE
  8
0
 62
7
 10
-3.29712092E+02
 20
1.31193449E+02
 11
-3.30312092E+02
 21
1.31793449E+02
  0
LINE
  8
0
 62
7
 10
-2.65712092E+02
 20
1.31193449E+02
 11
-2.65712092E+02
 21
1.25793449E+02
  0
LINE
  8
0
 62
7
 10
-2.54612092E+02
 20
1.25793449E+02
 11
-2.66812092E+02
 21
1.25793449E+02
  0
LINE
  8
0
 62
7
 10
-2.66812092E+02
 20
1.25793449E+02
 11
-2.66812092E+02
 21
1.24293449E+02
  0
LINE
  8
0
 62
7
 10
-2.65712092E+02
 20
1.31193449E+02
 11
-2.55712092E+02
 21
1.31193449E+02
  0
LINE
  8
0
 62
7
 10
-2.65712092E+02
 20
1.31193449E+02
 11
-2.65112092E+02
 21
1.31793449E+02
  0
LINE
  8
0
 62
7
 10
-2.68832092E+02
 20
1.71173449E+02
 11
-2.69712092E+02
 21
1.71793449E+02
  0
LINE
  8
0
 62
7
 10
-2.68832092E+02
 20
1.42403449E+02
 11
-2.69712092E+02
 21
1.41793449E+02
  0
LINE
  8
0
 62
7
 10
-2.58682092E+02
 20
5.77934493E+01
 11
-2.57562092E+02
 21
1.00813449E+02
  0
LINE
  8
0
 62
7
 10
-2.55712092E+02
 20
1.31193449E+02
 11
-2.55712092E+02
 21
1.25793449E+02
  0
LINE
  8
0
 62
7
 10
-2.54612092E+02
 20
1.25793449E+02
 11
-2.54612092E+02
 21
1.24293449E+02
  0
LINE
  8
0
 62
7
 10
-2.55712092E+02
 20
1.31193449E+02
 11
-2.56312092E+02
 21
1.31793449E+02
  0
LINE
  8
0
 62
7
 10
-1.86712092E+02
 20
1.16793449E+02
 11
-9.67220923E+01
 21
1.16793449E+02
  0
LINE
  8
0
  6
CENTER
 62
2
 10
-3.56992092E+02
 20
1.56793449E+02
 11
-8.24320923E+01
 21
1.56793449E+02
  0
LINE
  8
0
 62
7
 10
-9.67220923E+01
 20
1.80293449E+02
 11
-9.67220923E+01
 21
1.02793449E+02
  0
LINE
  8
0
 62
7
 10
-9.82220923E+01
 20
1.81793449E+02
 11
-9.67220923E+01
 21
1.80293449E+02
  0
LINE
  8
0
 62
7
 10
-1.85712092E+02
 20
1.31793449E+02
 11
-9.77220923E+01
 21
1.31793449E+02
  0
LINE
  8
0
 62
7
 10
-1.13722092E+02
 20
1.71793449E+02
 11
-1.03722092E+02
 21
1.71793449E+02
  0
LINE
  8
0
 62
7
 10
-1.13722092E+02
 20
1.41793449E+02
 11
-1.03722092E+02
 21
1.41793449E+02
  0
LINE
  8
0
 62
7
 10
-1.03722092E+02
 20
1.71793449E+02
 11
-1.03722092E+02
 21
1.41793449E+02
  0
LINE
  8
0
 62
7
 10
-1.04602092E+02
 20
1.71173449E+02
 11
-1.04602092E+02
 21
1.42403449E+02
  0
LINE
  8
0
 62
7
 10
-1.12842092E+02
 20
1.71173449E+02
 11
-1.12842092E+02
 21
1.42403449E+02
  0
LINE
  8
0
 62
7
 10
-1.12842092E+02
 20
1.71173449E+02
 11
-1.04602092E+02
 21
1.71173449E+02
  0
LINE
  8
0
 62
7
 10
-1.12842092E+02
 20
1.42403449E+02
 11
-1.04602092E+02
 21
1.42403449E+02
  0
LINE
  8
0
  6
CENTER
 62
2
 10
-1.52722092E+02
 20
2.12943449E+02
 11
-1.52722092E+02
 21
1.78793449E+02
  0
LINE
  8
0
 62
7
 10
-1.66212092E+02
 20
1.87893449E+02
 11
-1.66212092E+02
 21
1.82793449E+02
  0
LINE
  8
0
 62
7
 10
-1.66712092E+02
 20
1.94893449E+02
 11
-1.66712092E+02
 21
1.87893449E+02
  0
LINE
  8
0
 62
7
 10
-1.38722092E+02
 20
1.94893449E+02
 11
-1.38722092E+02
 21
1.92793449E+02
  0
LINE
  8
0
 62
7
 10
-1.65712092E+02
 20
1.95893449E+02
 11
-1.66712092E+02
 21
1.94893449E+02
  0
LINE
  8
0
 62
7
 10
-1.38722092E+02
 20
1.94893449E+02
 11
-1.39722092E+02
 21
1.95893449E+02
  0
LINE
  8
0
 62
7
 10
-1.39722092E+02
 20
1.95893449E+02
 11
-1.65712092E+02
 21
1.95893449E+02
  0
LINE
  8
0
 62
7
 10
-1.59922092E+02
 20
1.96793449E+02
 11
-1.59922092E+02
 21
1.95893449E+02
  0
LINE
  8
0
 62
7
 10
-1.45522092E+02
 20
1.96793449E+02
 11
-1.45522092E+02
 21
1.95893449E+02
  0
LINE
  8
0
 62
7
 10
-1.59722092E+02
 20
1.96793449E+02
 11
-1.59672092E+02
 21
2.03043449E+02
  0
LINE
  8
0
 62
7
 10
-1.45722092E+02
 20
1.96793449E+02
 11
-1.45772092E+02
 21
2.03043449E+02
  0
LINE
  8
0
 62
7
 10
-1.45522092E+02
 20
1.96793449E+02
 11
-1.59922092E+02
 21
1.96793449E+02
  0
LINE
  8
0
 62
7
 10
-1.54222092E+02
 20
1.89893449E+02
 11
-1.58382092E+02
 21
1.89893449E+02
  0
LINE
  8
0
 62
7
 10
-1.54362092E+02
 20
1.90183449E+02
 11
-1.58002092E+02
 21
1.90183449E+02
  0
LINE
  8
0
 62
7
 10
-1.66632092E+02
 20
1.94893449E+02
 11
-1.66632092E+02
 21
1.89893449E+02
  0
LINE
  8
0
 62
7
 10
-1.66112092E+02
 20
1.95393449E+02
 11
-1.66112092E+02
 21
1.90183449E+02
  0
LINE
  8
0
 62
7
 10
-1.65512092E+02
 20
1.94893449E+02
 11
-1.65512092E+02
 21
1.89893449E+02
  0
LINE
  8
0
 62
7
 10
-1.64012092E+02
 20
1.94893449E+02
 11
-1.64012092E+02
 21
1.89893449E+02
  0
LINE
  8
0
 62
7
 10
-1.63492092E+02
 20
1.95393449E+02
 11
-1.63492092E+02
 21
1.90183449E+02
  0
LINE
  8
0
 62
7
 10
-1.60982092E+02
 20
1.94893449E+02
 11
-1.60982092E+02
 21
1.89893449E+02
  0
LINE
  8
0
 62
7
 10
-1.58382092E+02
 20
1.94893449E+02
 11
-1.58382092E+02
 21
1.89893449E+02
  0
LINE
  8
0
 62
7
 10
-1.58002092E+02
 20
1.95393449E+02
 11
-1.58002092E+02
 21
1.90183449E+02
  0
LINE
  8
0
 62
7
 10
-1.54362092E+02
 20
1.95393449E+02
 11
-1.54362092E+02
 21
1.90183449E+02
  0
LINE
  8
0
 62
7
 10
-1.54222092E+02
 20
1.94893449E+02
 11
-1.54222092E+02
 21
1.89893449E+02
  0
LINE
  8
0
 62
7
 10
-1.51222092E+02
 20
1.94893449E+02
 11
-1.54222092E+02
 21
1.94893449E+02
  0
LINE
  8
0
 62
7
 10
-1.54362092E+02
 20
1.95393449E+02
 11
-1.58002092E+02
 21
1.95393449E+02
  0
LINE
  8
0
 62
7
 10
-1.58382092E+02
 20
1.94893449E+02
 11
-1.60982092E+02
 21
1.94893449E+02
  0
LINE
  8
0
 62
7
 10
-1.64012092E+02
 20
1.94893449E+02
 11
-1.65512092E+02
 21
1.94893449E+02
  0
LINE
  8
0
 62
7
 10
-1.60982092E+02
 20
1.90183449E+02
 11
-1.63492092E+02
 21
1.90183449E+02
  0
LINE
  8
0
 62
7
 10
-1.65512092E+02
 20
1.90183449E+02
 11
-1.66112092E+02
 21
1.90183449E+02
  0
LINE
  8
0
 62
7
 10
-1.60842092E+02
 20
1.95393449E+02
 11
-1.63492092E+02
 21
1.95393449E+02
  0
LINE
  8
0
 62
7
 10
-1.54222092E+02
 20
1.94893449E+02
 11
-1.54362092E+02
 21
1.95393449E+02
  0
LINE
  8
0
 62
7
 10
-1.54362092E+02
 20
1.90183449E+02
 11
-1.54222092E+02
 21
1.89893449E+02
  0
LINE
  8
0
 62
7
 10
-1.58382092E+02
 20
1.94893449E+02
 11
-1.58002092E+02
 21
1.95393449E+02
  0
LINE
  8
0
 62
7
 10
-1.58002092E+02
 20
1.90183449E+02
 11
-1.58382092E+02
 21
1.89893449E+02
  0
LINE
  8
0
 62
7
 10
-1.60982092E+02
 20
1.94893449E+02
 11
-1.60842092E+02
 21
1.95393449E+02
  0
LINE
  8
0
 62
7
 10
-1.63492092E+02
 20
1.90183449E+02
 11
-1.64012092E+02
 21
1.89893449E+02
  0
LINE
  8
0
 62
7
 10
-1.65512092E+02
 20
1.94893449E+02
 11
-1.65132092E+02
 21
1.95393449E+02
  0
LINE
  8
0
 62
7
 10
-1.64012092E+02
 20
1.94893449E+02
 11
-1.63492092E+02
 21
1.95393449E+02
  0
LINE
  8
0
 62
7
 10
-1.65132092E+02
 20
1.95393449E+02
 11
-1.66112092E+02
 21
1.95393449E+02
  0
LINE
  8
0
 62
7
 10
-1.60982092E+02
 20
1.89893449E+02
 11
-1.64012092E+02
 21
1.89893449E+02
  0
LINE
  8
0
 62
7
 10
-1.65512092E+02
 20
1.89893449E+02
 11
-1.66632092E+02
 21
1.89893449E+02
  0
LINE
  8
0
 62
7
 10
-1.66112092E+02
 20
1.90183449E+02
 11
-1.66632092E+02
 21
1.89893449E+02
  0
LINE
  8
0
 62
7
 10
-1.66632092E+02
 20
1.94893449E+02
 11
-1.66712092E+02
 21
1.94893449E+02
  0
LINE
  8
0
 62
7
 10
-1.66632092E+02
 20
1.94893449E+02
 11
-1.66112092E+02
 21
1.95393449E+02
  0
LINE
  8
0
 62
7
 10
-1.51222092E+02
 20
1.89893449E+02
 11
-1.47062092E+02
 21
1.89893449E+02
  0
LINE
  8
0
 62
7
 10
-1.51082092E+02
 20
1.90183449E+02
 11
-1.47442092E+02
 21
1.90183449E+02
  0
LINE
  8
0
 62
7
 10
-1.38802092E+02
 20
1.94893449E+02
 11
-1.38802092E+02
 21
1.89893449E+02
  0
LINE
  8
0
 62
7
 10
-1.39322092E+02
 20
1.95393449E+02
 11
-1.39322092E+02
 21
1.90183449E+02
  0
LINE
  8
0
 62
7
 10
-1.39912092E+02
 20
1.94893449E+02
 11
-1.39912092E+02
 21
1.89893449E+02
  0
LINE
  8
0
 62
7
 10
-1.41412092E+02
 20
1.94893449E+02
 11
-1.41412092E+02
 21
1.89893449E+02
  0
LINE
  8
0
 62
7
 10
-1.41932092E+02
 20
1.95393449E+02
 11
-1.41932092E+02
 21
1.90183449E+02
  0
LINE
  8
0
 62
7
 10
-1.44462092E+02
 20
1.94893449E+02
 11
-1.44462092E+02
 21
1.89893449E+02
  0
LINE
  8
0
 62
7
 10
-1.47062092E+02
 20
1.94893449E+02
 11
-1.47062092E+02
 21
1.89893449E+02
  0
LINE
  8
0
 62
7
 10
-1.47442092E+02
 20
1.95393449E+02
 11
-1.47442092E+02
 21
1.90183449E+02
  0
LINE
  8
0
 62
7
 10
-1.51082092E+02
 20
1.95393449E+02
 11
-1.51082092E+02
 21
1.90183449E+02
  0
LINE
  8
0
 62
7
 10
-1.51222092E+02
 20
1.94893449E+02
 11
-1.51222092E+02
 21
1.89893449E+02
  0
LINE
  8
0
 62
7
 10
-1.51082092E+02
 20
1.95393449E+02
 11
-1.47442092E+02
 21
1.95393449E+02
  0
LINE
  8
0
 62
7
 10
-1.47062092E+02
 20
1.94893449E+02
 11
-1.44462092E+02
 21
1.94893449E+02
  0
LINE
  8
0
 62
7
 10
-1.41412092E+02
 20
1.94893449E+02
 11
-1.39912092E+02
 21
1.94893449E+02
  0
LINE
  8
0
 62
7
 10
-1.44602092E+02
 20
1.95393449E+02
 11
-1.41932092E+02
 21
1.95393449E+02
  0
LINE
  8
0
 62
7
 10
-1.51222092E+02
 20
1.94893449E+02
 11
-1.51082092E+02
 21
1.95393449E+02
  0
LINE
  8
0
 62
7
 10
-1.51082092E+02
 20
1.90183449E+02
 11
-1.51222092E+02
 21
1.89893449E+02
  0
LINE
  8
0
 62
7
 10
-1.47062092E+02
 20
1.94893449E+02
 11
-1.47442092E+02
 21
1.95393449E+02
  0
LINE
  8
0
 62
7
 10
-1.44462092E+02
 20
1.94893449E+02
 11
-1.44602092E+02
 21
1.95393449E+02
  0
LINE
  8
0
 62
7
 10
-1.39912092E+02
 20
1.94893449E+02
 11
-1.40292092E+02
 21
1.95393449E+02
  0
LINE
  8
0
 62
7
 10
-1.41412092E+02
 20
1.94893449E+02
 11
-1.41932092E+02
 21
1.95393449E+02
  0
LINE
  8
0
 62
7
 10
-1.40292092E+02
 20
1.95393449E+02
 11
-1.39322092E+02
 21
1.95393449E+02
  0
LINE
  8
0
 62
7
 10
-1.38802092E+02
 20
1.94893449E+02
 11
-1.38722092E+02
 21
1.94893449E+02
  0
LINE
  8
0
 62
7
 10
-1.38802092E+02
 20
1.94893449E+02
 11
-1.39322092E+02
 21
1.95393449E+02
  0
LINE
  8
0
 62
7
 10
-9.82220923E+01
 20
1.81793449E+02
 11
-9.82220923E+01
 21
1.31733449E+02
  0
LINE
  8
0
 62
7
 10
-1.13722092E+02
 20
1.80293449E+02
 11
-1.13722092E+02
 21
1.71793449E+02
  0
LINE
  8
0
 62
7
 10
-1.13722092E+02
 20
1.41793449E+02
 11
-1.13722092E+02
 21
1.31793449E+02
  0
LINE
  8
0
 62
7
 10
-1.69712092E+02
 20
1.41793449E+02
 11
-1.69712092E+02
 21
1.31793449E+02
  0
LINE
  8
0
 62
7
 10
-1.69712092E+02
 20
1.80293449E+02
 11
-1.69712092E+02
 21
1.71793449E+02
  0
LINE
  8
0
 62
7
 10
-1.70592092E+02
 20
1.71173449E+02
 11
-1.69712092E+02
 21
1.71793449E+02
  0
LINE
  8
0
 62
7
 10
-1.70592092E+02
 20
1.42403449E+02
 11
-1.69712092E+02
 21
1.41793449E+02
  0
LINE
  8
0
 62
7
 10
-1.46722092E+02
 20
1.87893449E+02
 11
-1.66712092E+02
 21
1.87893449E+02
  0
LINE
  8
0
 62
7
 10
-1.85712092E+02
 20
1.24293449E+02
 11
-1.72212092E+02
 21
1.24293449E+02
  0
LINE
  8
0
 62
7
 10
-1.11222092E+02
 20
1.24293449E+02
 11
-9.77220923E+01
 21
1.24293449E+02
  0
LINE
  8
0
 62
7
 10
-1.11722092E+02
 20
1.30793449E+02
 11
-1.11722092E+02
 21
1.24793449E+02
  0
LINE
  8
0
  6
CENTER
 62
2
 10
-1.78712092E+02
 20
1.34793449E+02
 11
-1.78712092E+02
 21
1.21293449E+02
  0
LINE
  8
0
 62
7
 10
-1.30862092E+02
 20
1.89293449E+02
 11
-1.30722092E+02
 21
1.89293449E+02
  0
LINE
  8
0
 62
7
 10
-1.30862092E+02
 20
1.89293449E+02
 11
-1.31402092E+02
 21
1.89793449E+02
  0
LINE
  8
0
 62
7
 10
-1.32102092E+02
 20
1.83793449E+02
 11
-1.30862092E+02
 21
1.83793449E+02
  0
LINE
  8
0
 62
7
 10
-1.37222092E+02
 20
1.89293449E+02
 11
-1.40222092E+02
 21
1.89293449E+02
  0
LINE
  8
0
 62
7
 10
-1.30862092E+02
 20
1.83793449E+02
 11
-1.31402092E+02
 21
1.84143449E+02
  0
LINE
  8
0
 62
7
 10
-1.34712092E+02
 20
1.84143449E+02
 11
-1.37072092E+02
 21
1.84143449E+02
  0
LINE
  8
0
 62
7
 10
-1.31222092E+02
 20
1.89793449E+02
 11
-1.46222092E+02
 21
1.89793449E+02
  0
LINE
  8
0
 62
7
 10
-1.30722092E+02
 20
1.89293449E+02
 11
-1.30722092E+02
 21
1.81793449E+02
  0
LINE
  8
0
 62
7
 10
-1.46722092E+02
 20
1.89293449E+02
 11
-1.46722092E+02
 21
1.81793449E+02
  0
LINE
  8
0
 62
7
 10
-1.31222092E+02
 20
1.89793449E+02
 11
-1.30722092E+02
 21
1.89293449E+02
  0
LINE
  8
0
 62
7
 10
-1.46722092E+02
 20
1.89293449E+02
 11
-1.46222092E+02
 21
1.89793449E+02
  0
LINE
  8
0
  6
CENTER
 62
2
 10
-1.38722092E+02
 20
1.92793449E+02
 11
-1.38722092E+02
 21
1.78793449E+02
  0
LINE
  8
0
 62
7
 10
-1.40222092E+02
 20
1.83793449E+02
 11
-1.43212092E+02
 21
1.83793449E+02
  0
LINE
  8
0
 62
7
 10
-1.43212092E+02
 20
1.89293449E+02
 11
-1.45332092E+02
 21
1.89293449E+02
  0
LINE
  8
0
 62
7
 10
-1.46582092E+02
 20
1.89293449E+02
 11
-1.46582092E+02
 21
1.83793449E+02
  0
LINE
  8
0
 62
7
 10
-1.46032092E+02
 20
1.89793449E+02
 11
-1.46032092E+02
 21
1.84143449E+02
  0
LINE
  8
0
 62
7
 10
-1.45332092E+02
 20
1.89293449E+02
 11
-1.45332092E+02
 21
1.83793449E+02
  0
LINE
  8
0
 62
7
 10
-1.43212092E+02
 20
1.89293449E+02
 11
-1.43212092E+02
 21
1.83793449E+02
  0
LINE
  8
0
 62
7
 10
-1.42732092E+02
 20
1.89793449E+02
 11
-1.42732092E+02
 21
1.84143449E+02
  0
LINE
  8
0
 62
7
 10
-1.40362092E+02
 20
1.89793449E+02
 11
-1.40362092E+02
 21
1.84143449E+02
  0
LINE
  8
0
 62
7
 10
-1.40222092E+02
 20
1.89293449E+02
 11
-1.40222092E+02
 21
1.83793449E+02
  0
LINE
  8
0
 62
7
 10
-1.46032092E+02
 20
1.84143449E+02
 11
-1.45332092E+02
 21
1.84143449E+02
  0
LINE
  8
0
 62
7
 10
-1.40222092E+02
 20
1.89293449E+02
 11
-1.40362092E+02
 21
1.89793449E+02
  0
LINE
  8
0
 62
7
 10
-1.40222092E+02
 20
1.83793449E+02
 11
-1.40362092E+02
 21
1.84143449E+02
  0
LINE
  8
0
 62
7
 10
-1.42732092E+02
 20
1.84143449E+02
 11
-1.43212092E+02
 21
1.83793449E+02
  0
LINE
  8
0
 62
7
 10
-1.43212092E+02
 20
1.89293449E+02
 11
-1.42732092E+02
 21
1.89793449E+02
  0
LINE
  8
0
 62
7
 10
-1.45342092E+02
 20
1.89293449E+02
 11
-1.45062092E+02
 21
1.89793449E+02
  0
LINE
  8
0
 62
7
 10
-1.46582092E+02
 20
1.83793449E+02
 11
-1.46032092E+02
 21
1.84143449E+02
  0
LINE
  8
0
 62
7
 10
-1.46582092E+02
 20
1.89293449E+02
 11
-1.46032092E+02
 21
1.89793449E+02
  0
LINE
  8
0
 62
7
 10
-1.46582092E+02
 20
1.89293449E+02
 11
-1.46722092E+02
 21
1.89293449E+02
  0
LINE
  8
0
 62
7
 10
-1.42732092E+02
 20
1.84143449E+02
 11
-1.40362092E+02
 21
1.84143449E+02
  0
LINE
  8
0
 62
7
 10
-1.45332092E+02
 20
1.83793449E+02
 11
-1.46582092E+02
 21
1.83793449E+02
  0
LINE
  8
0
 62
7
 10
-1.37222092E+02
 20
1.83793449E+02
 11
-1.34222092E+02
 21
1.83793449E+02
  0
LINE
  8
0
 62
7
 10
-1.34222092E+02
 20
1.89293449E+02
 11
-1.32102092E+02
 21
1.89293449E+02
  0
LINE
  8
0
 62
7
 10
-1.30862092E+02
 20
1.89293449E+02
 11
-1.30862092E+02
 21
1.83793449E+02
  0
LINE
  8
0
 62
7
 10
-1.31402092E+02
 20
1.89793449E+02
 11
-1.31402092E+02
 21
1.84143449E+02
  0
LINE
  8
0
 62
7
 10
-1.32102092E+02
 20
1.89293449E+02
 11
-1.32102092E+02
 21
1.83793449E+02
  0
LINE
  8
0
 62
7
 10
-1.34222092E+02
 20
1.89293449E+02
 11
-1.34222092E+02
 21
1.83793449E+02
  0
LINE
  8
0
 62
7
 10
-1.34712092E+02
 20
1.89793449E+02
 11
-1.34712092E+02
 21
1.84143449E+02
  0
LINE
  8
0
 62
7
 10
-1.37072092E+02
 20
1.89793449E+02
 11
-1.37072092E+02
 21
1.84143449E+02
  0
LINE
  8
0
 62
7
 10
-1.37222092E+02
 20
1.89293449E+02
 11
-1.37222092E+02
 21
1.83793449E+02
  0
LINE
  8
0
 62
7
 10
-1.31402092E+02
 20
1.84143449E+02
 11
-1.32102092E+02
 21
1.84143449E+02
  0
LINE
  8
0
 62
7
 10
-1.37222092E+02
 20
1.89293449E+02
 11
-1.37072092E+02
 21
1.89793449E+02
  0
LINE
  8
0
 62
7
 10
-1.37222092E+02
 20
1.83793449E+02
 11
-1.37072092E+02
 21
1.84143449E+02
  0
LINE
  8
0
 62
7
 10
-1.34712092E+02
 20
1.84143449E+02
 11
-1.34222092E+02
 21
1.83793449E+02
  0
LINE
  8
0
 62
7
 10
-1.34222092E+02
 20
1.89293449E+02
 11
-1.34712092E+02
 21
1.89793449E+02
  0
LINE
  8
0
 62
7
 10
-1.32102092E+02
 20
1.89293449E+02
 11
-1.32382092E+02
 21
1.89793449E+02
  0
LINE
  8
0
  6
CENTER
 62
2
 10
-1.41722092E+02
 20
2.03033449E+02
 11
-1.41722092E+02
 21
-4.90465507E+01
  0
LINE
  8
0
 62
7
 10
-1.71712092E+02
 20
1.30793449E+02
 11
-1.71712092E+02
 21
1.24793449E+02
  0
LINE
  8
0
 62
7
 10
-1.47442092E+02
 20
1.90183449E+02
 11
-1.47062092E+02
 21
1.89893449E+02
  0
LINE
  8
0
 62
7
 10
-1.68452092E+02
 20
1.81793449E+02
 11
-1.69712092E+02
 21
1.80293449E+02
  0
LINE
  8
0
 62
7
 10
-1.67292092E+02
 20
1.81793449E+02
 11
-1.68672092E+02
 21
1.80293449E+02
  0
LINE
  8
0
 62
7
 10
-1.68142092E+02
 20
1.31793449E+02
 11
-1.68672092E+02
 21
1.80293449E+02
  0
LINE
  8
0
 62
7
 10
-1.15292092E+02
 20
1.31793449E+02
 11
-1.14762092E+02
 21
1.80293449E+02
  0
LINE
  8
0
 62
7
 10
-1.16142092E+02
 20
1.81793449E+02
 11
-1.14762092E+02
 21
1.80293449E+02
  0
LINE
  8
0
 62
7
 10
-1.14982092E+02
 20
1.81793449E+02
 11
-1.13722092E+02
 21
1.80293449E+02
  0
LINE
  8
0
 62
7
 10
-1.44462092E+02
 20
1.89893449E+02
 11
-1.41412092E+02
 21
1.89893449E+02
  0
LINE
  8
0
 62
7
 10
-1.44462092E+02
 20
1.90183449E+02
 11
-1.41932092E+02
 21
1.90183449E+02
  0
LINE
  8
0
 62
7
 10
-1.41932092E+02
 20
1.90183449E+02
 11
-1.41412092E+02
 21
1.89893449E+02
  0
LINE
  8
0
 62
7
 10
-1.39912092E+02
 20
1.89893449E+02
 11
-1.38802092E+02
 21
1.89893449E+02
  0
LINE
  8
0
 62
7
 10
-1.39912092E+02
 20
1.90183449E+02
 11
-1.39322092E+02
 21
1.90183449E+02
  0
LINE
  8
0
 62
7
 10
-1.39322092E+02
 20
1.90183449E+02
 11
-1.38802092E+02
 21
1.89893449E+02
  0
LINE
  8
0
 62
7
 10
-1.79682092E+02
 20
5.67934493E+01
 11
-1.03742092E+02
 21
5.67934493E+01
  0
LINE
  8
0
 62
7
 10
-1.85712092E+02
 20
1.01793449E+02
 11
-9.77220923E+01
 21
1.01793449E+02
  0
LINE
  8
0
 62
7
 10
-1.02692092E+02
 20
5.77934493E+01
 11
-1.01562092E+02
 21
1.00823449E+02
  0
LINE
  8
0
 62
7
 10
-1.80732092E+02
 20
5.77934493E+01
 11
-1.79682092E+02
 21
5.67934493E+01
  0
LINE
  8
0
 62
7
 10
-1.02692092E+02
 20
5.77934493E+01
 11
-1.03742092E+02
 21
5.67934493E+01
  0
LINE
  8
0
 62
7
 10
-1.80732092E+02
 20
5.77934493E+01
 11
-1.02692092E+02
 21
5.77934493E+01
  0
LINE
  8
0
 62
7
 10
-1.83712092E+02
 20
1.31193449E+02
 11
-1.83712092E+02
 21
1.25793449E+02
  0
LINE
  8
0
 62
7
 10
-1.73712092E+02
 20
1.31193449E+02
 11
-1.73712092E+02
 21
1.25793449E+02
  0
LINE
  8
0
 62
7
 10
-1.72612092E+02
 20
1.25793449E+02
 11
-1.84812092E+02
 21
1.25793449E+02
  0
LINE
  8
0
 62
7
 10
-1.72612092E+02
 20
1.25793449E+02
 11
-1.72612092E+02
 21
1.24293449E+02
  0
LINE
  8
0
 62
7
 10
-1.84812092E+02
 20
1.25793449E+02
 11
-1.84812092E+02
 21
1.24293449E+02
  0
LINE
  8
0
 62
7
 10
-1.83712092E+02
 20
1.31193449E+02
 11
-1.73712092E+02
 21
1.31193449E+02
  0
LINE
  8
0
 62
7
 10
-1.83712092E+02
 20
1.31193449E+02
 11
-1.83112092E+02
 21
1.31793449E+02
  0
LINE
  8
0
 62
7
 10
-1.73712092E+02
 20
1.31193449E+02
 11
-1.74312092E+02
 21
1.31793449E+02
  0
LINE
  8
0
 62
7
 10
-1.09722092E+02
 20
1.31193449E+02
 11
-1.09722092E+02
 21
1.25793449E+02
  0
LINE
  8
0
 62
7
 10
-9.97220923E+01
 20
1.31193449E+02
 11
-9.97220923E+01
 21
1.25793449E+02
  0
LINE
  8
0
 62
7
 10
-9.86220923E+01
 20
1.25793449E+02
 11
-1.10822092E+02
 21
1.25793449E+02
  0
LINE
  8
0
 62
7
 10
-9.86220923E+01
 20
1.25793449E+02
 11
-9.86220923E+01
 21
1.24293449E+02
  0
LINE
  8
0
 62
7
 10
-1.10822092E+02
 20
1.25793449E+02
 11
-1.10822092E+02
 21
1.24293449E+02
  0
LINE
  8
0
 62
7
 10
-1.09722092E+02
 20
1.31193449E+02
 11
-9.97220923E+01
 21
1.31193449E+02
  0
LINE
  8
0
 62
7
 10
-1.09722092E+02
 20
1.31193449E+02
 11
-1.09122092E+02
 21
1.31793449E+02
  0
LINE
  8
0
 62
7
 10
-9.97220923E+01
 20
1.31193449E+02
 11
-1.00322092E+02
 21
1.31793449E+02
  0
LINE
  8
0
 62
7
 10
-1.30722092E+02
 20
1.82793449E+02
 11
-1.26722092E+02
 21
1.82793449E+02
  0
LINE
  8
0
 62
7
 10
-1.12842092E+02
 20
1.71173449E+02
 11
-1.13722092E+02
 21
1.71793449E+02
  0
LINE
  8
0
 62
7
 10
-1.12842092E+02
 20
1.42403449E+02
 11
-1.13722092E+02
 21
1.41793449E+02
  0
LINE
  8
0
 62
7
 10
-1.04602092E+02
 20
1.71183449E+02
 11
-1.03722092E+02
 21
1.71793449E+02
  0
LINE
  8
0
 62
7
 10
-1.04602092E+02
 20
1.42403449E+02
 11
-1.03722092E+02
 21
1.41793449E+02
  0
LINE
  8
0
 62
7
 10
-1.26722092E+02
 20
1.82793449E+02
 11
-1.26722092E+02
 21
1.81793449E+02
  0
LINE
  8
0
 62
7
 10
-2.69712092E+02
 20
1.90803449E+02
 11
-2.69712092E+02
 21
1.81793449E+02
  0
LINE
  8
0
 62
7
 10
-2.58712092E+02
 20
1.90803449E+02
 11
-2.54712092E+02
 21
1.90803449E+02
  0
LINE
  8
0
  6
CENTER
 62
2
 10
-2.65212092E+02
 20
1.86303449E+02
 11
-2.50712092E+02
 21
1.86303449E+02
  0
LINE
  8
0
  6
CENTER
 62
2
 10
-2.58712092E+02
 20
1.92803449E+02
 11
-2.58712092E+02
 21
1.79803449E+02
  0
LINE
  8
0
  6
CENTER
 62
2
 10
-2.56712092E+02
 20
1.92803449E+02
 11
-2.56712092E+02
 21
1.79803449E+02
  0
LINE
  8
0
  6
CENTER
 62
2
 10
-2.54712092E+02
 20
1.92803449E+02
 11
-2.54712092E+02
 21
1.79803449E+02
  0
LINE
  8
0
 62
7
 10
-2.58712092E+02
 20
1.81803449E+02
 11
-2.54712092E+02
 21
1.81803449E+02
  0
LINE
  8
0
 62
7
 10
-2.64972092E+02
 20
1.95793449E+02
 11
-2.52712092E+02
 21
1.95793449E+02
  0
LINE
  8
0
 62
7
 10
-1.80712092E+02
 20
1.90803449E+02
 11
-1.84712092E+02
 21
1.90803449E+02
  0
LINE
  8
0
  6
CENTER
 62
2
 10
-1.80712092E+02
 20
1.92803449E+02
 11
-1.80712092E+02
 21
1.79803449E+02
  0
LINE
  8
0
  6
CENTER
 62
2
 10
-1.82712092E+02
 20
1.92803449E+02
 11
-1.82712092E+02
 21
1.79803449E+02
  0
LINE
  8
0
  6
CENTER
 62
2
 10
-1.84712092E+02
 20
1.92803449E+02
 11
-1.84712092E+02
 21
1.79803449E+02
  0
LINE
  8
0
  6
CENTER
 62
2
 10
-1.74212092E+02
 20
1.86303449E+02
 11
-1.88712092E+02
 21
1.86303449E+02
  0
LINE
  8
0
 62
7
 10
-1.69712092E+02
 20
1.90803449E+02
 11
-1.69712092E+02
 21
1.81793449E+02
  0
LINE
  8
0
 62
7
 10
-1.86712092E+02
 20
1.95793449E+02
 11
-1.74452092E+02
 21
1.95793449E+02
  0
LINE
  8
0
 62
7
 10
-1.84712092E+02
 20
1.81803449E+02
 11
-1.81712092E+02
 21
1.81803449E+02
  0
LINE
  8
0
 62
7
 10
-2.43712092E+02
 20
1.03493449E+02
 11
-1.95712092E+02
 21
1.03493449E+02
  0
LINE
  8
0
 62
7
 10
-1.95712092E+02
 20
1.01493449E+02
 11
-2.43712092E+02
 21
1.01493449E+02
  0
LINE
  8
0
 62
7
 10
-2.04452092E+02
 20
9.07934493E+01
 11
-2.04212092E+02
 21
1.01493449E+02
  0
LINE
  8
0
 62
7
 10
-2.08212092E+02
 20
9.49934493E+01
 11
-2.08212092E+02
 21
9.07934493E+01
  0
LINE
  8
0
 62
7
 10
-2.08212092E+02
 20
9.49934493E+01
 11
-2.11712092E+02
 21
9.49934493E+01
  0
LINE
  8
0
 62
7
 10
-2.09712092E+02
 20
9.49934493E+01
 11
-2.09712092E+02
 21
9.07934493E+01
  0
LINE
  8
0
 62
7
 10
-2.11712092E+02
 20
9.49934493E+01
 11
-2.11712092E+02
 21
9.07934493E+01
  0
LINE
  8
0
 62
7
 10
-2.15212092E+02
 20
1.01493449E+02
 11
-2.15212092E+02
 21
9.07934493E+01
  0
LINE
  8
0
 62
7
 10
-2.24212092E+02
 20
1.01493449E+02
 11
-2.24212092E+02
 21
9.07934493E+01
  0
LINE
  8
0
 62
7
 10
-2.27712092E+02
 20
9.49934493E+01
 11
-2.27712092E+02
 21
9.07934493E+01
  0
LINE
  8
0
 62
7
 10
-2.27712092E+02
 20
9.49934493E+01
 11
-2.31212092E+02
 21
9.49934493E+01
  0
LINE
  8
0
 62
7
 10
-2.29712092E+02
 20
9.49934493E+01
 11
-2.29712092E+02
 21
9.07934493E+01
  0
LINE
  8
0
 62
7
 10
-2.31212092E+02
 20
9.49934493E+01
 11
-2.31212092E+02
 21
9.07934493E+01
  0
LINE
  8
0
 62
7
 10
-2.35212092E+02
 20
1.01493449E+02
 11
-2.34972092E+02
 21
9.07934493E+01
  0
LINE
  8
0
 62
7
 10
-2.43712092E+02
 20
1.17493449E+02
 11
-2.43712092E+02
 21
1.01493449E+02
  0
LINE
  8
0
 62
7
 10
-1.95712092E+02
 20
1.15493449E+02
 11
-2.43712092E+02
 21
1.15493449E+02
  0
LINE
  8
0
 62
7
 10
-1.95712092E+02
 20
1.17493449E+02
 11
-1.95712092E+02
 21
1.01493449E+02
  0
LINE
  8
0
 62
7
 10
-1.80732092E+02
 20
5.77934493E+01
 11
-1.81862092E+02
 21
1.00823449E+02
  0
LINE
  8
0
 62
7
 10
-2.54212092E+02
 20
1.81793449E+02
 11
-2.52712092E+02
 21
1.80293449E+02
  0
LINE
  8
0
 62
7
 10
-2.52712092E+02
 20
1.80293449E+02
 11
-3.42712092E+02
 21
1.80293449E+02
  0
LINE
  8
0
 62
7
 10
-3.41212092E+02
 20
1.81793449E+02
 11
-2.54212092E+02
 21
1.81793449E+02
  0
LINE
  8
0
 62
7
 10
-2.54212092E+02
 20
1.81793449E+02
 11
-2.54212092E+02
 21
1.71793449E+02
  0
LINE
  8
0
 62
7
 10
-2.68832092E+02
 20
1.71173449E+02
 11
-2.64152092E+02
 21
1.71173449E+02
  0
LINE
  8
0
 62
7
 10
-2.68832092E+02
 20
1.42403449E+02
 11
-2.64152092E+02
 21
1.42403449E+02
  0
LINE
  8
0
 62
7
 10
-2.68832092E+02
 20
1.71173449E+02
 11
-2.68832092E+02
 21
1.42403449E+02
  0
LINE
  8
0
 62
7
 10
-2.54212092E+02
 20
1.41793449E+02
 11
-2.54212092E+02
 21
1.31793449E+02
  0
LINE
  8
0
 62
7
 10
-1.85212092E+02
 20
1.81793449E+02
 11
-1.85212092E+02
 21
1.71793449E+02
  0
LINE
  8
0
 62
7
 10
-9.67220923E+01
 20
1.80293449E+02
 11
-1.86712092E+02
 21
1.80293449E+02
  0
LINE
  8
0
 62
7
 10
-1.86712092E+02
 20
1.80293449E+02
 11
-1.85212092E+02
 21
1.81793449E+02
  0
LINE
  8
0
 62
7
 10
-1.81712092E+02
 20
1.82793449E+02
 11
-1.70722092E+02
 21
1.82793449E+02
  0
LINE
  8
0
 62
7
 10
-1.85212092E+02
 20
1.81793449E+02
 11
-9.82220923E+01
 21
1.81793449E+02
  0
LINE
  8
0
 62
7
 10
-1.81712092E+02
 20
1.82793449E+02
 11
-1.81712092E+02
 21
1.81793449E+02
  0
LINE
  8
0
 62
7
 10
-1.70722092E+02
 20
1.82793449E+02
 11
-1.70722092E+02
 21
1.81793449E+02
  0
LINE
  8
0
 62
7
 10
-1.70592092E+02
 20
1.71173449E+02
 11
-1.75272092E+02
 21
1.71173449E+02
  0
LINE
  8
0
 62
7
 10
-1.70592092E+02
 20
1.71173449E+02
 11
-1.70592092E+02
 21
1.42403449E+02
  0
LINE
  8
0
 62
7
 10
-1.70592092E+02
 20
1.42403449E+02
 11
-1.75272092E+02
 21
1.42403449E+02
  0
LINE
  8
0
 62
7
 10
-1.85212092E+02
 20
1.41793449E+02
 11
-1.85212092E+02
 21
1.31733449E+02
  0
LINE
  8
0
 62
4
 10
-2.12212092E+02
 20
1.56793449E+02
 11
-2.12212092E+02
 21
1.54793449E+02
  0
LINE
  8
0
 62
4
 10
-2.14212092E+02
 20
1.56793449E+02
 11
-2.14212092E+02
 21
1.54793449E+02
  0
LINE
  8
0
 62
4
 10
-2.14212092E+02
 20
1.54793449E+02
 11
-2.12212092E+02
 21
1.54793449E+02
  0
LINE
  8
0
 62
4
 10
-2.25212092E+02
 20
1.56793449E+02
 11
-2.25212092E+02
 21
1.54793449E+02
  0
LINE
  8
0
 62
4
 10
-2.25212092E+02
 20
1.54793449E+02
 11
-2.27212092E+02
 21
1.54793449E+02
  0
LINE
  8
0
 62
4
 10
-2.27212092E+02
 20
1.56793449E+02
 11
-2.27212092E+02
 21
1.54793449E+02
  0
ARC
  8
0
 62
7
 10
-2.50714930E+02
 20
1.95796287E+02
 40
1.99716449E+00
 50
8.99185955E+01
 51
1.80081404E+02
  0
ARC
  8
0
 62
7
 10
-1.88712110E+02
 20
1.95793432E+02
 40
2.00001727E+00
 50
4.94792834E-04
 51
9.00000002E+01
  0
ARC
  8
0
 62
7
 10
-1.88714951E+02
 20
1.19496308E+02
 40
2.00286093E+00
 50
2.70081784E+02
 51
3.59918216E+02
  0
ARC
  8
0
 62
7
 10
-2.50712084E+02
 20
1.19493457E+02
 40
2.00000815E+00
 50
1.80000234E+02
 51
2.70000000E+02
  0
ARC
  8
0
 62
7
 10
-2.50712099E+02
 20
1.26493442E+02
 40
1.99999287E+00
 50
1.79999796E+02
 51
2.70000000E+02
  0
ARC
  8
0
 62
7
 10
-2.40712084E+02
 20
1.19493457E+02
 40
2.00000815E+00
 50
1.80000234E+02
 51
2.70000000E+02
  0
ARC
  8
0
 62
7
 10
-2.50714930E+02
 20
1.88796287E+02
 40
1.99716449E+00
 50
8.99185955E+01
 51
1.80081404E+02
  0
ARC
  8
0
 62
7
 10
-2.40714930E+02
 20
1.95796287E+02
 40
1.99716449E+00
 50
8.99185955E+01
 51
1.80081404E+02
  0
ARC
  8
0
 62
7
 10
-1.98714951E+02
 20
1.19496308E+02
 40
2.00286093E+00
 50
2.70081784E+02
 51
3.59918216E+02
  0
ARC
  8
0
 62
7
 10
-1.88714936E+02
 20
1.26496293E+02
 40
2.00284565E+00
 50
2.70081348E+02
 51
3.59918652E+02
  0
ARC
  8
0
 62
7
 10
-1.88712110E+02
 20
1.88793432E+02
 40
2.00001727E+00
 50
4.94792834E-04
 51
9.00000002E+01
  0
ARC
  8
0
 62
7
 10
-1.98712110E+02
 20
1.95793432E+02
 40
2.00001727E+00
 50
4.94792834E-04
 51
9.00000002E+01
  0
ARC
  8
0
 62
7
 10
-2.62714945E+02
 20
1.69796302E+02
 40
1.99714925E+00
 50
8.99181572E+01
 51
1.80081843E+02
  0
ARC
  8
0
 62
7
 10
-2.62712075E+02
 20
1.43793467E+02
 40
2.00001732E+00
 50
1.80000496E+02
 51
2.70000000E+02
  0
ARC
  8
0
 62
7
 10
-1.76714976E+02
 20
1.43796333E+02
 40
2.00288538E+00
 50
2.70082481E+02
 51
3.59917518E+02
  0
ARC
  8
0
 62
7
 10
-1.76712110E+02
 20
1.69793432E+02
 40
2.00001732E+00
 50
4.96039857E-04
 51
9.00000002E+01
  0
ARC
  8
0
 62
7
 10
-2.36212112E+02
 20
1.70793430E+02
 40
1.00001928E+00
 50
1.10490360E-03
 51
9.00000002E+01
  0
ARC
  8
0
 62
7
 10
-2.36214945E+02
 20
1.42796302E+02
 40
1.00285684E+00
 50
2.70162987E+02
 51
3.59837013E+02
  0
ARC
  8
0
 62
7
 10
-2.03214930E+02
 20
1.70796287E+02
 40
9.97166513E-01
 50
8.98369599E+01
 51
1.80163040E+02
  0
ARC
  8
0
 62
7
 10
-2.03212088E+02
 20
1.42793453E+02
 40
1.00000407E+00
 50
1.80000233E+02
 51
2.70000000E+02
  0
CIRCLE
  8
0
 62
7
 10
-1.94714945E+02
 20
1.56796272E+02
 40
5.50000000E+00
  0
CIRCLE
  8
0
 62
7
 10
-2.44714945E+02
 20
1.56796272E+02
 40
5.50000000E+00
  0
ARC
  8
0
 62
4
 10
-2.33714930E+02
 20
1.70796287E+02
 40
9.97166513E-01
 50
8.98369599E+01
 51
1.80163040E+02
  0
ARC
  8
0
 62
4
 10
-2.33712088E+02
 20
1.42793453E+02
 40
1.00000407E+00
 50
1.80000233E+02
 51
2.70000000E+02
  0
ARC
  8
0
 62
4
 10
-2.05714945E+02
 20
1.42796302E+02
 40
1.00285684E+00
 50
2.70162987E+02
 51
3.59837013E+02
  0
ARC
  8
0
 62
4
 10
-2.05712112E+02
 20
1.70793430E+02
 40
1.00001928E+00
 50
1.10490360E-03
 51
9.00000002E+01
  0
ARC
  8
0
 62
7
 10
-3.28214960E+02
 20
1.24796317E+02
 40
5.02876221E-01
 50
2.70326776E+02
 51
3.59673225E+02
  0
ARC
  8
0
 62
7
 10
-2.67212069E+02
 20
1.24793473E+02
 40
5.00023485E-01
 50
1.80002691E+02
 51
2.70000000E+02
  0
ARC
  8
0
 62
7
 10
-3.26714960E+02
 20
1.30796317E+02
 40
9.97136083E-01
 50
8.98352009E+01
 51
1.80164799E+02
  0
ARC
  8
0
 62
7
 10
-2.68712096E+02
 20
1.30793445E+02
 40
1.00000416E+00
 50
2.38162037E-04
 51
9.00000002E+01
  0
ARC
  8
0
 62
7
 10
-3.41714930E+02
 20
1.23296287E+02
 40
9.97166513E-01
 50
8.98369599E+01
 51
1.80163040E+02
  0
ARC
  8
0
 62
7
 10
-3.41714945E+02
 20
1.30796302E+02
 40
9.97151298E-01
 50
8.98360804E+01
 51
1.80163920E+02
  0
ARC
  8
0
 62
7
 10
-3.41712058E+02
 20
1.02793484E+02
 40
1.00003459E+00
 50
1.80001982E+02
 51
2.70000000E+02
  0
ARC
  8
0
 62
7
 10
-3.38863052E+02
 20
1.00791996E+02
 40
1.00145391E+00
 50
1.79982941E+00
 51
9.00000002E+01
  0
ARC
  8
0
 62
7
 10
-2.53712112E+02
 20
1.23293430E+02
 40
1.00001937E+00
 50
1.10989162E-03
 51
9.00000002E+01
  0
ARC
  8
0
 62
7
 10
-2.53714945E+02
 20
1.02796302E+02
 40
1.00285684E+00
 50
2.70162987E+02
 51
3.59837013E+02
  0
ARC
  8
0
 62
7
 10
-2.56563922E+02
 20
1.00794871E+02
 40
9.98579692E-01
 50
8.98950383E+01
 51
1.78360047E+02
  0
ARC
  8
0
 62
7
 10
-1.52722092E+02
 20
2.02996345E+02
 40
6.95015963E+00
 50
3.88323552E-01
 51
1.79611677E+02
  0
ARC
  8
0
 62
7
 10
-1.72214976E+02
 20
1.24796333E+02
 40
5.02891566E-01
 50
2.70328504E+02
 51
3.59671496E+02
  0
ARC
  8
0
 62
7
 10
-1.11217095E+02
 20
1.24798446E+02
 40
5.05021538E-01
 50
1.80566909E+02
 51
2.69433091E+02
  0
ARC
  8
0
 62
7
 10
-1.70714976E+02
 20
1.30796333E+02
 40
9.97120868E-01
 50
8.98343220E+01
 51
1.80165678E+02
  0
ARC
  8
0
 62
7
 10
-1.12717102E+02
 20
1.30798439E+02
 40
9.95022367E-01
 50
3.59712654E+02
 51
9.02873460E+01
  0
ARC
  8
0
 62
7
 10
-9.77171174E+01
 20
1.23298424E+02
 40
9.95037581E-01
 50
3.59713539E+02
 51
9.02864607E+01
  0
ARC
  8
0
 62
7
 10
-1.85714960E+02
 20
1.23296317E+02
 40
9.97136083E-01
 50
8.98352009E+01
 51
1.80164799E+02
  0
ARC
  8
0
 62
7
 10
-9.77171021E+01
 20
1.30798439E+02
 40
9.95022367E-01
 50
3.59712654E+02
 51
9.02873460E+01
  0
ARC
  8
0
 62
7
 10
-1.67214960E+02
 20
1.82796317E+02
 40
1.00287214E+00
 50
2.70163856E+02
 51
3.59836144E+02
  0
ARC
  8
0
 62
7
 10
-1.85712088E+02
 20
1.02793453E+02
 40
1.00000416E+00
 50
1.80000238E+02
 51
2.70000000E+02
  0
ARC
  8
0
 62
7
 10
-9.77199727E+01
 20
1.02791330E+02
 40
9.97882717E-01
 50
2.69878302E+02
 51
1.21698122E-01
  0
ARC
  8
0
 62
7
 10
-1.00563922E+02
 20
1.00794871E+02
 40
9.98579692E-01
 50
8.98950383E+01
 51
1.78360047E+02
  0
ARC
  8
0
 62
7
 10
-2.64713348E+02
 20
1.90804704E+02
 40
4.99874492E+00
 50
8.99856126E+01
 51
1.80014387E+02
  0
ARC
  8
0
 62
7
 10
-1.74713674E+02
 20
1.90801867E+02
 40
5.00158244E+00
 50
1.81247694E-02
 51
8.99818752E+01
  0
ARC
  8
0
 62
7
 10
-2.58712092E+02
 20
1.86303449E+02
 40
4.50000089E+00
 50
9.00000002E+01
 51
2.70000000E+02
  0
ARC
  8
0
 62
7
 10
-2.54695170E+02
 20
1.86307701E+02
 40
4.50428390E+00
 50
2.69784747E+02
 51
2.96120783E+02
  0
ARC
  8
0
 62
7
 10
-1.84710007E+02
 20
1.86304258E+02
 40
4.49919190E+00
 50
9.00265516E+01
 51
1.16422551E+02
  0
ARC
  8
0
 62
7
 10
-1.80714298E+02
 20
1.86301268E+02
 40
4.50218148E+00
 50
3.08818314E+02
 51
8.99719333E+01
  0
ARC
  8
0
 62
7
 10
-2.54714474E+02
 20
1.86302997E+02
 40
4.50045324E+00
 50
6.35812148E+01
 51
8.99696827E+01
  0
ARC
  8
0
 62
7
 10
-1.84729304E+02
 20
1.86306441E+02
 40
4.50302490E+00
 50
2.43875470E+02
 51
2.70219001E+02
  0
ARC
  8
0
 62
7
 10
-1.82863082E+02
 20
1.00791965E+02
 40
1.00148458E+00
 50
1.80152825E+00
 51
9.00000002E+01
  0
ARC
  8
0
 62
7
 10
-1.85714976E+02
 20
1.30796333E+02
 40
9.97120868E-01
 50
8.98343220E+01
 51
1.80165678E+02
  0
ARC
  8
0
 62
7
 10
-2.53712096E+02
 20
1.30793445E+02
 40
1.00000416E+00
 50
2.38162037E-04
 51
9.00000002E+01
  0
CIRCLE
  8
0
 62
4
 10
-2.19714945E+02
 20
1.56796272E+02
 40
1.40000000E+01
  0
CIRCLE
  8
0
 62
4
 10
-2.19714945E+02
 20
1.56796272E+02
 40
1.25000000E+01
  0
ARC
  8
0
 62
4
 10
-2.19712092E+02
 20
1.56793449E+02
 40
7.50000053E+00
 50
0.00000000E+00
 51
1.80000000E+02
  0
ARC
  8
0
 62
4
 10
-2.19712092E+02
 20
1.56793449E+02
 40
5.50000072E+00
 50
0.00000000E+00
 51
1.80000000E+02
  0
LINE
  8
0
 62
7
 10
-3.16122092E+02
 20
-4.23965507E+01
 11
-2.79292092E+02
 21
-4.23965507E+01
  0
LINE
  8
0
 62
7
 10
-3.17672092E+02
 20
-2.48965507E+01
 11
-3.24572092E+02
 21
-2.48965507E+01
  0
LINE
  8
0
 62
7
 10
-3.17672092E+02
 20
1.10934493E+01
 11
-3.24572092E+02
 21
1.10934493E+01
  0
LINE
  8
0
 62
7
 10
-3.17672092E+02
 20
1.70934493E+01
 11
-3.24572092E+02
 21
1.70934493E+01
  0
LINE
  8
0
 62
7
 10
-3.24572092E+02
 20
5.10934493E+01
 11
-3.17672092E+02
 21
5.10934493E+01
  0
LINE
  8
0
 62
7
 10
-2.64292092E+02
 20
-2.75265507E+01
 11
-2.63562092E+02
 21
5.67934493E+01
  0
LINE
  8
0
 62
7
 10
-3.31122092E+02
 20
-2.75265507E+01
 11
-3.31602092E+02
 21
2.68934493E+01
  0
LINE
  8
0
 62
7
 10
-3.22742092E+02
 20
5.05934493E+01
 11
-3.17672092E+02
 21
5.05934493E+01
  0
LINE
  8
0
 62
7
 10
-3.17672092E+02
 20
1.05934493E+01
 11
-3.22742092E+02
 21
1.05934493E+01
  0
LINE
  8
0
 62
7
 10
-3.17672092E+02
 20
1.75934493E+01
 11
-3.22742092E+02
 21
1.75934493E+01
  0
LINE
  8
0
 62
7
 10
-3.17672092E+02
 20
-2.43965507E+01
 11
-3.22742092E+02
 21
-2.43965507E+01
  0
LINE
  8
0
 62
7
 10
-3.25572092E+02
 20
1.00934493E+01
 11
-3.25572092E+02
 21
-2.38965507E+01
  0
LINE
  8
0
 62
7
 10
-3.23742092E+02
 20
9.59344925E+00
 11
-3.23742092E+02
 21
-2.33965507E+01
  0
LINE
  8
0
 62
7
 10
-3.16672092E+02
 20
1.00934493E+01
 11
-3.16672092E+02
 21
-2.38965507E+01
  0
LINE
  8
0
 62
7
 10
-3.17282092E+02
 20
-2.53965507E+01
 11
-3.24832092E+02
 21
-2.53965507E+01
  0
LINE
  8
0
 62
7
 10
-3.17282092E+02
 20
-2.58965507E+01
 11
-3.25432092E+02
 21
-2.58965507E+01
  0
LINE
  8
0
 62
7
 10
-3.24832092E+02
 20
5.15934493E+01
 11
-3.17282092E+02
 21
5.15934493E+01
  0
LINE
  8
0
 62
7
 10
-3.25432092E+02
 20
5.20934493E+01
 11
-3.17282092E+02
 21
5.20934493E+01
  0
LINE
  8
0
 62
7
 10
-3.16282092E+02
 20
5.10934493E+01
 11
-3.16282092E+02
 21
-2.48965507E+01
  0
LINE
  8
0
 62
7
 10
-3.16672092E+02
 20
5.00934493E+01
 11
-3.16672092E+02
 21
1.80934493E+01
  0
LINE
  8
0
 62
7
 10
-3.23742092E+02
 20
4.95934493E+01
 11
-3.23742092E+02
 21
1.85934493E+01
  0
LINE
  8
0
 62
7
 10
-3.25572092E+02
 20
5.00934493E+01
 11
-3.25572092E+02
 21
1.80934493E+01
  0
LINE
  8
0
 62
7
 10
-3.25832092E+02
 20
5.05934493E+01
 11
-3.25832092E+02
 21
-2.43965507E+01
  0
LINE
  8
0
 62
7
 10
-3.26432092E+02
 20
5.10934493E+01
 11
-3.26432092E+02
 21
-2.48965507E+01
  0
LINE
  8
0
 62
7
 10
-2.77752092E+02
 20
-2.48965507E+01
 11
-2.70852092E+02
 21
-2.48965507E+01
  0
LINE
  8
0
 62
7
 10
-2.77752092E+02
 20
1.10934493E+01
 11
-2.70852092E+02
 21
1.10934493E+01
  0
LINE
  8
0
 62
7
 10
-2.77752092E+02
 20
1.70934493E+01
 11
-2.70852092E+02
 21
1.70934493E+01
  0
LINE
  8
0
 62
7
 10
-2.70852092E+02
 20
5.10934493E+01
 11
-2.77752092E+02
 21
5.10934493E+01
  0
LINE
  8
0
 62
7
 10
-2.72682092E+02
 20
5.05934493E+01
 11
-2.77752092E+02
 21
5.05934493E+01
  0
LINE
  8
0
 62
7
 10
-2.77752092E+02
 20
1.05934493E+01
 11
-2.72682092E+02
 21
1.05934493E+01
  0
LINE
  8
0
 62
7
 10
-2.77752092E+02
 20
1.75934493E+01
 11
-2.72682092E+02
 21
1.75934493E+01
  0
LINE
  8
0
 62
7
 10
-2.77752092E+02
 20
-2.43965507E+01
 11
-2.72682092E+02
 21
-2.43965507E+01
  0
LINE
  8
0
 62
7
 10
-2.69852092E+02
 20
1.00934493E+01
 11
-2.69852092E+02
 21
-2.38965507E+01
  0
LINE
  8
0
 62
7
 10
-2.71682092E+02
 20
9.59344925E+00
 11
-2.71682092E+02
 21
-2.33965507E+01
  0
LINE
  8
0
 62
7
 10
-2.78752092E+02
 20
1.00934493E+01
 11
-2.78752092E+02
 21
-2.38965507E+01
  0
LINE
  8
0
 62
7
 10
-2.78142092E+02
 20
-2.53965507E+01
 11
-2.70592092E+02
 21
-2.53965507E+01
  0
LINE
  8
0
 62
7
 10
-2.78142092E+02
 20
-2.58965507E+01
 11
-2.69992092E+02
 21
-2.58965507E+01
  0
LINE
  8
0
 62
7
 10
-2.70592092E+02
 20
5.15934493E+01
 11
-2.78142092E+02
 21
5.15934493E+01
  0
LINE
  8
0
 62
7
 10
-2.69992092E+02
 20
5.20934493E+01
 11
-2.78142092E+02
 21
5.20934493E+01
  0
LINE
  8
0
 62
7
 10
-2.79142092E+02
 20
5.10934493E+01
 11
-2.79142092E+02
 21
-2.48965507E+01
  0
LINE
  8
0
 62
7
 10
-2.78752092E+02
 20
5.00934493E+01
 11
-2.78752092E+02
 21
1.80934493E+01
  0
LINE
  8
0
 62
7
 10
-2.71682092E+02
 20
4.95934493E+01
 11
-2.71682092E+02
 21
1.85934493E+01
  0
LINE
  8
0
 62
7
 10
-2.69852092E+02
 20
5.00934493E+01
 11
-2.69852092E+02
 21
1.80934493E+01
  0
LINE
  8
0
 62
7
 10
-2.69592092E+02
 20
5.05934493E+01
 11
-2.69592092E+02
 21
-2.43965507E+01
  0
LINE
  8
0
 62
7
 10
-2.68992092E+02
 20
5.10934493E+01
 11
-2.68992092E+02
 21
-2.48965507E+01
  0
LINE
  8
0
 62
7
 10
-3.31602092E+02
 20
2.68934493E+01
 11
-3.34382092E+02
 21
3.08734493E+01
  0
LINE
  8
0
 62
7
 10
-3.34442092E+02
 20
3.10434493E+01
 11
-3.34522092E+02
 21
4.03934493E+01
  0
LINE
  8
0
 62
7
 10
-3.31752092E+02
 20
4.47134493E+01
 11
-3.34522092E+02
 21
4.03934493E+01
  0
LINE
  8
0
 62
7
 10
-3.31752092E+02
 20
4.47134493E+01
 11
-3.31862092E+02
 21
5.67934493E+01
  0
LINE
  8
0
 62
7
 10
-3.35112092E+02
 20
5.42734493E+01
 11
-3.34572092E+02
 21
3.22734493E+01
  0
LINE
  8
0
 62
7
 10
-3.34632092E+02
 20
5.47834493E+01
 11
-3.33552092E+02
 21
5.48134493E+01
  0
LINE
  8
0
 62
7
 10
-3.34572092E+02
 20
3.22734493E+01
 11
-3.34452092E+02
 21
3.21534493E+01
  0
LINE
  8
0
 62
7
 10
-3.35112092E+02
 20
5.42734493E+01
 11
-3.34632092E+02
 21
5.47834493E+01
  0
LINE
  8
0
 62
7
 10
-3.34172092E+02
 20
5.67934493E+01
 11
-3.34132092E+02
 21
5.47934493E+01
  0
LINE
  8
0
 62
7
 10
-3.33602092E+02
 20
5.67934493E+01
 11
-3.33552092E+02
 21
5.48134493E+01
  0
LINE
  8
0
 62
7
 10
-3.34632092E+02
 20
5.47834493E+01
 11
-3.34282092E+02
 21
4.07634493E+01
  0
LINE
  8
0
 62
4
 10
-3.05282092E+02
 20
-4.38965507E+01
 11
-2.90132092E+02
 21
-4.38965507E+01
  0
LINE
  8
0
 62
4
 10
-3.05782092E+02
 20
-4.33965507E+01
 11
-3.05782092E+02
 21
-4.23965507E+01
  0
LINE
  8
0
 62
4
 10
-2.89632092E+02
 20
-4.33965507E+01
 11
-2.89632092E+02
 21
-4.23965507E+01
  0
LINE
  8
0
 62
4
 10
-2.90132092E+02
 20
-4.38965507E+01
 11
-2.89632092E+02
 21
-4.33965507E+01
  0
LINE
  8
0
 62
4
 10
-3.05282092E+02
 20
-4.38965507E+01
 11
-3.05782092E+02
 21
-4.33965507E+01
  0
LINE
  8
0
 62
4
 10
-2.90962092E+02
 20
-5.86965507E+01
 11
-3.04462092E+02
 21
-5.86965507E+01
  0
LINE
  8
0
 62
4
 10
-2.89962092E+02
 20
-4.56965507E+01
 11
-2.89962092E+02
 21
-5.76965507E+01
  0
LINE
  8
0
 62
4
 10
-3.05462092E+02
 20
-4.56965507E+01
 11
-3.05462092E+02
 21
-5.76965507E+01
  0
LINE
  8
0
 62
4
 10
-2.89962092E+02
 20
-5.76965507E+01
 11
-2.90962092E+02
 21
-5.86965507E+01
  0
LINE
  8
0
 62
4
 10
-3.04462092E+02
 20
-5.86965507E+01
 11
-3.05462092E+02
 21
-5.76965507E+01
  0
LINE
  8
0
 62
4
 10
-2.90462092E+02
 20
-4.51965507E+01
 11
-3.04962092E+02
 21
-4.51965507E+01
  0
LINE
  8
0
 62
4
 10
-2.90462092E+02
 20
-4.51965507E+01
 11
-2.89962092E+02
 21
-4.56965507E+01
  0
LINE
  8
0
 62
4
 10
-3.04962092E+02
 20
-4.51965507E+01
 11
-3.05462092E+02
 21
-4.56965507E+01
  0
LINE
  8
0
 62
4
 10
-2.91712092E+02
 20
-4.38965507E+01
 11
-2.91712092E+02
 21
-4.51965507E+01
  0
LINE
  8
0
 62
4
 10
-3.03712092E+02
 20
-4.38965507E+01
 11
-3.03712092E+02
 21
-4.51965507E+01
  0
LINE
  8
0
 62
6
 10
-3.02962092E+02
 20
-4.38965507E+01
 11
-3.02962092E+02
 21
-4.51965507E+01
  0
LINE
  8
0
 62
6
 10
-2.92462092E+02
 20
-4.38965507E+01
 11
-2.92462092E+02
 21
-4.51965507E+01
  0
LINE
  8
0
 62
4
 10
-2.99212092E+02
 20
-4.81965507E+01
 11
-2.99212092E+02
 21
-5.76965507E+01
  0
LINE
  8
0
 62
4
 10
-2.96212092E+02
 20
-4.81965507E+01
 11
-2.96212092E+02
 21
-5.76965507E+01
  0
LINE
  8
0
 62
4
 10
-2.95872092E+02
 20
-4.84765507E+01
 11
-2.95872092E+02
 21
-5.81965507E+01
  0
LINE
  8
0
 62
4
 10
-2.99552092E+02
 20
-4.84765507E+01
 11
-2.99552092E+02
 21
-5.81965507E+01
  0
LINE
  8
0
 62
4
 10
-3.01372092E+02
 20
-4.84765507E+01
 11
-3.01372092E+02
 21
-5.81965507E+01
  0
LINE
  8
0
 62
4
 10
-3.02022092E+02
 20
-4.81965507E+01
 11
-3.02022092E+02
 21
-5.76965507E+01
  0
LINE
  8
0
 62
4
 10
-3.04152092E+02
 20
-4.81965507E+01
 11
-3.04152092E+02
 21
-5.76965507E+01
  0
LINE
  8
0
 62
4
 10
-3.04722092E+02
 20
-4.84765507E+01
 11
-3.04722092E+02
 21
-5.81965507E+01
  0
LINE
  8
0
 62
4
 10
-3.05312092E+02
 20
-4.81965507E+01
 11
-3.05312092E+02
 21
-5.76965507E+01
  0
LINE
  8
0
 62
4
 10
-2.94052092E+02
 20
-4.84765507E+01
 11
-2.94052092E+02
 21
-5.81965507E+01
  0
LINE
  8
0
 62
4
 10
-2.93392092E+02
 20
-4.81965507E+01
 11
-2.93392092E+02
 21
-5.76965507E+01
  0
LINE
  8
0
 62
4
 10
-2.91272092E+02
 20
-4.81965507E+01
 11
-2.91272092E+02
 21
-5.76965507E+01
  0
LINE
  8
0
 62
4
 10
-2.90702092E+02
 20
-4.84765507E+01
 11
-2.90702092E+02
 21
-5.81965507E+01
  0
LINE
  8
0
 62
4
 10
-2.90112092E+02
 20
-4.81965507E+01
 11
-2.90112092E+02
 21
-5.76965507E+01
  0
LINE
  8
0
 62
4
 10
-2.90112092E+02
 20
-4.81965507E+01
 11
-2.91272092E+02
 21
-4.81965507E+01
  0
LINE
  8
0
 62
4
 10
-2.90702092E+02
 20
-4.84765507E+01
 11
-2.91272092E+02
 21
-4.84765507E+01
  0
LINE
  8
0
 62
4
 10
-2.89962092E+02
 20
-5.76965507E+01
 11
-2.90112092E+02
 21
-5.76965507E+01
  0
LINE
  8
0
 62
4
 10
-2.99212092E+02
 20
-4.81965507E+01
 11
-3.02022092E+02
 21
-4.81965507E+01
  0
LINE
  8
0
 62
4
 10
-2.99552092E+02
 20
-4.84765507E+01
 11
-3.01372092E+02
 21
-4.84765507E+01
  0
LINE
  8
0
 62
4
 10
-2.93392092E+02
 20
-4.81965507E+01
 11
-2.96212092E+02
 21
-4.81965507E+01
  0
LINE
  8
0
 62
4
 10
-2.94052092E+02
 20
-4.84765507E+01
 11
-2.95872092E+02
 21
-4.84765507E+01
  0
LINE
  8
0
 62
4
 10
-3.04152092E+02
 20
-4.81965507E+01
 11
-3.05312092E+02
 21
-4.81965507E+01
  0
LINE
  8
0
 62
4
 10
-3.04152092E+02
 20
-4.84765507E+01
 11
-3.04722092E+02
 21
-4.84765507E+01
  0
LINE
  8
0
 62
4
 10
-2.96212092E+02
 20
-5.76965507E+01
 11
-2.99212092E+02
 21
-5.76965507E+01
  0
LINE
  8
0
 62
4
 10
-3.02022092E+02
 20
-5.76965507E+01
 11
-3.04152092E+02
 21
-5.76965507E+01
  0
LINE
  8
0
 62
4
 10
-3.05312092E+02
 20
-5.76965507E+01
 11
-3.05462092E+02
 21
-5.76965507E+01
  0
LINE
  8
0
 62
4
 10
-2.91272092E+02
 20
-5.76965507E+01
 11
-2.93392092E+02
 21
-5.76965507E+01
  0
LINE
  8
0
 62
4
 10
-2.94052092E+02
 20
-5.81965507E+01
 11
-2.95872092E+02
 21
-5.81965507E+01
  0
LINE
  8
0
 62
4
 10
-2.90702092E+02
 20
-5.81965507E+01
 11
-2.90112092E+02
 21
-5.76965507E+01
  0
LINE
  8
0
 62
4
 10
-2.94052092E+02
 20
-5.81965507E+01
 11
-2.93392092E+02
 21
-5.76965507E+01
  0
LINE
  8
0
 62
4
 10
-2.95872092E+02
 20
-5.81965507E+01
 11
-2.96212092E+02
 21
-5.76965507E+01
  0
LINE
  8
0
 62
4
 10
-2.99212092E+02
 20
-5.76965507E+01
 11
-2.99552092E+02
 21
-5.81965507E+01
  0
LINE
  8
0
 62
4
 10
-3.01372092E+02
 20
-5.81965507E+01
 11
-3.02022092E+02
 21
-5.76965507E+01
  0
LINE
  8
0
 62
4
 10
-3.04722092E+02
 20
-5.81965507E+01
 11
-3.05312092E+02
 21
-5.76965507E+01
  0
LINE
  8
0
 62
4
 10
-3.04722092E+02
 20
-4.84765507E+01
 11
-3.05312092E+02
 21
-4.81965507E+01
  0
LINE
  8
0
 62
4
 10
-3.01372092E+02
 20
-4.84765507E+01
 11
-3.02022092E+02
 21
-4.81965507E+01
  0
LINE
  8
0
 62
4
 10
-2.99552092E+02
 20
-4.84765507E+01
 11
-2.99212092E+02
 21
-4.81965507E+01
  0
LINE
  8
0
 62
4
 10
-2.95872092E+02
 20
-4.84765507E+01
 11
-2.96212092E+02
 21
-4.81965507E+01
  0
LINE
  8
0
 62
4
 10
-2.94052092E+02
 20
-4.84765507E+01
 11
-2.93392092E+02
 21
-4.81965507E+01
  0
LINE
  8
0
 62
4
 10
-2.90702092E+02
 20
-4.84765507E+01
 11
-2.90112092E+02
 21
-4.81965507E+01
  0
LINE
  8
0
 62
4
 10
-2.91272092E+02
 20
-5.76965507E+01
 11
-2.91452092E+02
 21
-5.81965507E+01
  0
LINE
  8
0
 62
4
 10
-3.04152092E+02
 20
-5.76965507E+01
 11
-3.03972092E+02
 21
-5.81965507E+01
  0
LINE
  8
0
 62
4
 10
-2.99552092E+02
 20
-5.81965507E+01
 11
-3.01372092E+02
 21
-5.81965507E+01
  0
LINE
  8
0
 62
4
 10
-2.90702092E+02
 20
-5.81965507E+01
 11
-2.91452092E+02
 21
-5.81965507E+01
  0
LINE
  8
0
 62
4
 10
-3.03972092E+02
 20
-5.81965507E+01
 11
-3.04722092E+02
 21
-5.81965507E+01
  0
LINE
  8
0
 62
4
 10
-2.89962092E+02
 20
-4.56965507E+01
 11
-3.05462092E+02
 21
-4.56965507E+01
  0
LINE
  8
0
 62
4
 10
-3.05782092E+02
 20
-4.33965507E+01
 11
-2.89632092E+02
 21
-4.33965507E+01
  0
ARC
  8
0
 62
7
 10
-3.16130170E+02
 20
-2.74041306E+01
 40
1.49924223E+01
 50
1.80467852E+02
 51
2.70030869E+02
  0
ARC
  8
0
 62
7
 10
-2.79291778E+02
 20
-2.73962992E+01
 40
1.50002515E+01
 50
2.70000000E+02
 51
3.59502478E+02
  0
ARC
  8
0
 62
7
 10
-3.22744053E+02
 20
9.59540989E+00
 40
9.98041294E-01
 50
8.98874438E+01
 51
1.80112556E+02
  0
ARC
  8
0
 62
7
 10
-3.17670630E+02
 20
9.59491125E+00
 40
9.98539071E-01
 50
3.59916111E+02
 51
9.00838892E+01
  0
ARC
  8
0
 62
7
 10
-3.17670630E+02
 20
1.00949113E+01
 40
9.98539071E-01
 50
3.59916111E+02
 51
9.00838892E+01
  0
ARC
  8
0
 62
7
 10
-3.17668529E+02
 20
-2.34001135E+01
 40
9.96443567E-01
 50
2.69795137E+02
 51
2.04862573E-01
  0
ARC
  8
0
 62
7
 10
-3.17668529E+02
 20
-2.39001135E+01
 40
9.96443567E-01
 50
2.69795137E+02
 51
2.04862573E-01
  0
ARC
  8
0
 62
7
 10
-3.17281797E+02
 20
-2.43968464E+01
 40
9.99704423E-01
 50
2.70000000E+02
 51
1.69428007E-02
  0
ARC
  8
0
 62
7
 10
-3.17281797E+02
 20
-2.48968464E+01
 40
9.99704423E-01
 50
2.70000000E+02
 51
1.69428007E-02
  0
ARC
  8
0
 62
7
 10
-3.22746155E+02
 20
-2.34006132E+01
 40
9.95945802E-01
 50
1.79766289E+02
 51
2.70233711E+02
  0
ARC
  8
0
 62
7
 10
-3.24576182E+02
 20
1.00975391E+01
 40
9.95918547E-01
 50
8.97647076E+01
 51
1.80235292E+02
  0
ARC
  8
0
 62
7
 10
-3.24578288E+02
 20
-2.39027469E+01
 40
9.93823128E-01
 50
1.79642776E+02
 51
2.70357224E+02
  0
ARC
  8
0
 62
7
 10
-3.24836841E+02
 20
-2.44012999E+01
 40
9.95262192E-01
 50
1.79726598E+02
 51
2.70273402E+02
  0
ARC
  8
0
 62
7
 10
-3.25435498E+02
 20
-2.48999561E+01
 40
9.96600442E-01
 50
1.79804220E+02
 51
2.70195780E+02
  0
ARC
  8
0
 62
7
 10
-3.17670630E+02
 20
4.95949113E+01
 40
9.98539071E-01
 50
3.59916111E+02
 51
9.00838892E+01
  0
ARC
  8
0
 62
7
 10
-3.17670630E+02
 20
5.00949113E+01
 40
9.98539071E-01
 50
3.59916111E+02
 51
9.00838892E+01
  0
ARC
  8
0
 62
7
 10
-3.17283891E+02
 20
5.05916509E+01
 40
1.00179995E+00
 50
1.02852027E-01
 51
8.98971480E+01
  0
ARC
  8
0
 62
7
 10
-3.17283891E+02
 20
5.10916509E+01
 40
1.00179995E+00
 50
1.02852027E-01
 51
8.98971480E+01
  0
ARC
  8
0
 62
7
 10
-3.22744053E+02
 20
4.95954099E+01
 40
9.98041294E-01
 50
8.98874438E+01
 51
1.80112556E+02
  0
ARC
  8
0
 62
7
 10
-3.24576182E+02
 20
5.00975391E+01
 40
9.95918547E-01
 50
8.97647076E+01
 51
1.80235292E+02
  0
ARC
  8
0
 62
7
 10
-3.24834738E+02
 20
5.05960951E+01
 40
9.97357664E-01
 50
8.98480025E+01
 51
1.80151997E+02
  0
ARC
  8
0
 62
7
 10
-3.25433397E+02
 20
5.10947542E+01
 40
9.98695949E-01
 50
8.99251369E+01
 51
1.80074863E+02
  0
ARC
  8
0
 62
7
 10
-3.17673517E+02
 20
1.85948737E+01
 40
1.00142542E+00
 50
2.70081496E+02
 51
3.59918503E+02
  0
ARC
  8
0
 62
7
 10
-3.17673517E+02
 20
1.80948737E+01
 40
1.00142542E+00
 50
2.70081496E+02
 51
3.59918503E+02
  0
ARC
  8
0
 62
7
 10
-3.22741165E+02
 20
1.85943765E+01
 40
1.00092765E+00
 50
1.80053076E+02
 51
2.70000000E+02
  0
ARC
  8
0
 62
7
 10
-3.24573288E+02
 20
1.80922534E+01
 40
9.98804859E-01
 50
1.79931401E+02
 51
2.70068600E+02
  0
ARC
  8
0
 62
7
 10
-2.72682960E+02
 20
9.59258103E+00
 40
1.00086860E+00
 50
4.97026453E-02
 51
9.00000002E+01
  0
ARC
  8
0
 62
7
 10
-2.77756377E+02
 20
9.59773355E+00
 40
9.95724917E-01
 50
8.97534731E+01
 51
1.80246527E+02
  0
ARC
  8
0
 62
7
 10
-2.77756377E+02
 20
1.00977336E+01
 40
9.95724917E-01
 50
8.97534731E+01
 51
1.80246527E+02
  0
ARC
  8
0
 62
7
 10
-2.77758483E+02
 20
-2.34029418E+01
 40
9.93629507E-01
 50
1.79631470E+02
 51
2.70368530E+02
  0
ARC
  8
0
 62
7
 10
-2.77758483E+02
 20
-2.39029418E+01
 40
9.93629507E-01
 50
1.79631470E+02
 51
2.70368530E+02
  0
ARC
  8
0
 62
7
 10
-2.78145225E+02
 20
-2.43996838E+01
 40
9.96871885E-01
 50
1.79819927E+02
 51
2.70180074E+02
  0
ARC
  8
0
 62
7
 10
-2.78145225E+02
 20
-2.48996838E+01
 40
9.96871885E-01
 50
1.79819927E+02
 51
2.70180074E+02
  0
ARC
  8
0
 62
7
 10
-2.72680865E+02
 20
-2.33977784E+01
 40
9.98773075E-01
 50
2.69929573E+02
 51
7.04272858E-02
  0
ARC
  8
0
 62
7
 10
-2.70850825E+02
 20
1.00947163E+01
 40
9.98733802E-01
 50
3.59927314E+02
 51
9.00726856E+01
  0
ARC
  8
0
 62
7
 10
-2.70848725E+02
 20
-2.38999181E+01
 40
9.96638294E-01
 50
2.69806411E+02
 51
1.93588643E-01
  0
ARC
  8
0
 62
7
 10
-2.70590176E+02
 20
-2.43984670E+01
 40
9.98085571E-01
 50
2.69889996E+02
 51
1.10004752E-01
  0
ARC
  8
0
 62
7
 10
-2.69991524E+02
 20
-2.48971195E+01
 40
9.99431438E-01
 50
2.70000000E+02
 51
3.26040337E-02
  0
ARC
  8
0
 62
7
 10
-2.77756377E+02
 20
4.95977336E+01
 40
9.95724917E-01
 50
8.97534731E+01
 51
1.80246527E+02
  0
ARC
  8
0
 62
7
 10
-2.77756377E+02
 20
5.00977336E+01
 40
9.95724917E-01
 50
8.97534731E+01
 51
1.80246527E+02
  0
ARC
  8
0
 62
7
 10
-2.78143125E+02
 20
5.05944824E+01
 40
9.98967397E-01
 50
8.99407443E+01
 51
1.80059256E+02
  0
ARC
  8
0
 62
7
 10
-2.78143125E+02
 20
5.10944824E+01
 40
9.98967397E-01
 50
8.99407443E+01
 51
1.80059256E+02
  0
ARC
  8
0
 62
7
 10
-2.72682960E+02
 20
4.95925810E+01
 40
1.00086860E+00
 50
4.97026453E-02
 51
9.00000002E+01
  0
ARC
  8
0
 62
7
 10
-2.70850825E+02
 20
5.00947163E+01
 40
9.98733802E-01
 50
3.59927314E+02
 51
9.00726856E+01
  0
ARC
  8
0
 62
7
 10
-2.70592273E+02
 20
5.05932682E+01
 40
1.00018110E+00
 50
1.03733457E-02
 51
9.00000002E+01
  0
ARC
  8
0
 62
7
 10
-2.69993618E+02
 20
5.10919234E+01
 40
1.00152697E+00
 50
8.72888865E-02
 51
8.99127112E+01
  0
ARC
  8
0
 62
7
 10
-2.77753482E+02
 20
1.85920595E+01
 40
9.98611223E-01
 50
1.79920263E+02
 51
2.70079737E+02
  0
ARC
  8
0
 62
7
 10
-2.77753482E+02
 20
1.80920595E+01
 40
9.98611223E-01
 50
1.79920263E+02
 51
2.70079737E+02
  0
ARC
  8
0
 62
7
 10
-2.72685840E+02
 20
1.85971972E+01
 40
1.00375493E+00
 50
2.70213938E+02
 51
3.59786062E+02
  0
ARC
  8
0
 62
7
 10
-2.70853711E+02
 20
1.80950681E+01
 40
1.00162015E+00
 50
2.70092603E+02
 51
3.59907397E+02
  0
ARC
  8
0
 62
7
 10
-3.34143726E+02
 20
3.10531666E+01
 40
2.98523998E-01
 50
1.81865381E+02
 51
2.17014689E+02
  0
LINE
  8
0
 62
7
 10
-1.60132092E+02
 20
-4.23965507E+01
 11
-1.23302092E+02
 21
-4.23965507E+01
  0
LINE
  8
0
 62
7
 10
-1.61672092E+02
 20
-2.48965507E+01
 11
-1.68572092E+02
 21
-2.48965507E+01
  0
LINE
  8
0
 62
7
 10
-1.61672092E+02
 20
1.10934493E+01
 11
-1.68572092E+02
 21
1.10934493E+01
  0
LINE
  8
0
 62
7
 10
-1.61672092E+02
 20
1.70934493E+01
 11
-1.68572092E+02
 21
1.70934493E+01
  0
LINE
  8
0
 62
7
 10
-1.68572092E+02
 20
5.10934493E+01
 11
-1.61672092E+02
 21
5.10934493E+01
  0
LINE
  8
0
 62
7
 10
-1.08302092E+02
 20
-2.75265507E+01
 11
-1.07572092E+02
 21
5.67934493E+01
  0
LINE
  8
0
 62
7
 10
-1.75122092E+02
 20
-2.75265507E+01
 11
-1.75602092E+02
 21
2.68934493E+01
  0
LINE
  8
0
 62
7
 10
-1.66742092E+02
 20
5.05934493E+01
 11
-1.61672092E+02
 21
5.05934493E+01
  0
LINE
  8
0
 62
7
 10
-1.61672092E+02
 20
1.05934493E+01
 11
-1.66742092E+02
 21
1.05934493E+01
  0
LINE
  8
0
 62
7
 10
-1.61672092E+02
 20
1.75934493E+01
 11
-1.66742092E+02
 21
1.75934493E+01
  0
LINE
  8
0
 62
7
 10
-1.61672092E+02
 20
-2.43965507E+01
 11
-1.66742092E+02
 21
-2.43965507E+01
  0
LINE
  8
0
 62
7
 10
-1.69572092E+02
 20
1.00934493E+01
 11
-1.69572092E+02
 21
-2.38965507E+01
  0
LINE
  8
0
 62
7
 10
-1.67742092E+02
 20
9.59344925E+00
 11
-1.67742092E+02
 21
-2.33965507E+01
  0
LINE
  8
0
 62
7
 10
-1.60672092E+02
 20
1.00934493E+01
 11
-1.60672092E+02
 21
-2.38965507E+01
  0
LINE
  8
0
 62
7
 10
-1.61292092E+02
 20
-2.53965507E+01
 11
-1.68832092E+02
 21
-2.53965507E+01
  0
LINE
  8
0
 62
7
 10
-1.61292092E+02
 20
-2.58965507E+01
 11
-1.69432092E+02
 21
-2.58965507E+01
  0
LINE
  8
0
 62
7
 10
-1.68832092E+02
 20
5.15934493E+01
 11
-1.61292092E+02
 21
5.15934493E+01
  0
LINE
  8
0
 62
7
 10
-1.69432092E+02
 20
5.20934493E+01
 11
-1.61292092E+02
 21
5.20934493E+01
  0
LINE
  8
0
 62
7
 10
-1.60292092E+02
 20
5.10934493E+01
 11
-1.60292092E+02
 21
-2.48965507E+01
  0
LINE
  8
0
 62
7
 10
-1.60672092E+02
 20
5.00934493E+01
 11
-1.60672092E+02
 21
1.80934493E+01
  0
LINE
  8
0
 62
7
 10
-1.67742092E+02
 20
4.95934493E+01
 11
-1.67742092E+02
 21
1.85934493E+01
  0
LINE
  8
0
 62
7
 10
-1.69572092E+02
 20
5.00934493E+01
 11
-1.69572092E+02
 21
1.80934493E+01
  0
LINE
  8
0
 62
7
 10
-1.69832092E+02
 20
5.05934493E+01
 11
-1.69832092E+02
 21
-2.43965507E+01
  0
LINE
  8
0
 62
7
 10
-1.70432092E+02
 20
5.10934493E+01
 11
-1.70432092E+02
 21
-2.48965507E+01
  0
LINE
  8
0
 62
7
 10
-1.21762092E+02
 20
-2.48965507E+01
 11
-1.14852092E+02
 21
-2.48965507E+01
  0
LINE
  8
0
 62
7
 10
-1.21762092E+02
 20
1.10934493E+01
 11
-1.14852092E+02
 21
1.10934493E+01
  0
LINE
  8
0
 62
7
 10
-1.21762092E+02
 20
1.70934493E+01
 11
-1.14852092E+02
 21
1.70934493E+01
  0
LINE
  8
0
 62
7
 10
-1.14852092E+02
 20
5.10934493E+01
 11
-1.21762092E+02
 21
5.10934493E+01
  0
LINE
  8
0
 62
7
 10
-1.16692092E+02
 20
5.05934493E+01
 11
-1.21762092E+02
 21
5.05934493E+01
  0
LINE
  8
0
 62
7
 10
-1.21762092E+02
 20
1.05934493E+01
 11
-1.16692092E+02
 21
1.05934493E+01
  0
LINE
  8
0
 62
7
 10
-1.21762092E+02
 20
1.75934493E+01
 11
-1.16692092E+02
 21
1.75934493E+01
  0
LINE
  8
0
 62
7
 10
-1.21762092E+02
 20
-2.43965507E+01
 11
-1.16692092E+02
 21
-2.43965507E+01
  0
LINE
  8
0
 62
7
 10
-1.13852092E+02
 20
1.00934493E+01
 11
-1.13852092E+02
 21
-2.38965507E+01
  0
LINE
  8
0
 62
7
 10
-1.15692092E+02
 20
9.59344925E+00
 11
-1.15692092E+02
 21
-2.33965507E+01
  0
LINE
  8
0
 62
7
 10
-1.22762092E+02
 20
1.00934493E+01
 11
-1.22762092E+02
 21
-2.38965507E+01
  0
LINE
  8
0
 62
7
 10
-1.22142092E+02
 20
-2.53965507E+01
 11
-1.14602092E+02
 21
-2.53965507E+01
  0
LINE
  8
0
 62
7
 10
-1.22142092E+02
 20
-2.58965507E+01
 11
-1.14002092E+02
 21
-2.58965507E+01
  0
LINE
  8
0
 62
7
 10
-1.14602092E+02
 20
5.15934493E+01
 11
-1.22142092E+02
 21
5.15934493E+01
  0
LINE
  8
0
 62
7
 10
-1.14002092E+02
 20
5.20934493E+01
 11
-1.22142092E+02
 21
5.20934493E+01
  0
LINE
  8
0
 62
7
 10
-1.23142092E+02
 20
5.10934493E+01
 11
-1.23142092E+02
 21
-2.48965507E+01
  0
LINE
  8
0
 62
7
 10
-1.22762092E+02
 20
5.00934493E+01
 11
-1.22762092E+02
 21
1.80934493E+01
  0
LINE
  8
0
 62
7
 10
-1.15692092E+02
 20
4.95934493E+01
 11
-1.15692092E+02
 21
1.85934493E+01
  0
LINE
  8
0
 62
7
 10
-1.13852092E+02
 20
5.00934493E+01
 11
-1.13852092E+02
 21
1.80934493E+01
  0
LINE
  8
0
 62
7
 10
-1.13602092E+02
 20
5.05934493E+01
 11
-1.13602092E+02
 21
-2.43965507E+01
  0
LINE
  8
0
 62
7
 10
-1.13002092E+02
 20
5.10934493E+01
 11
-1.13002092E+02
 21
-2.48965507E+01
  0
LINE
  8
0
 62
7
 10
-1.75602092E+02
 20
2.68934493E+01
 11
-1.78382092E+02
 21
3.08734493E+01
  0
LINE
  8
0
 62
7
 10
-1.78432092E+02
 20
3.10434493E+01
 11
-1.78522092E+02
 21
4.03934493E+01
  0
LINE
  8
0
 62
7
 10
-1.75752092E+02
 20
4.47134493E+01
 11
-1.78522092E+02
 21
4.03934493E+01
  0
LINE
  8
0
 62
7
 10
-1.75752092E+02
 20
4.47134493E+01
 11
-1.75862092E+02
 21
5.67934493E+01
  0
LINE
  8
0
 62
7
 10
-1.79112092E+02
 20
5.42734493E+01
 11
-1.78572092E+02
 21
3.22734493E+01
  0
LINE
  8
0
 62
7
 10
-1.78622092E+02
 20
5.47834493E+01
 11
-1.77552092E+02
 21
5.48134493E+01
  0
LINE
  8
0
 62
7
 10
-1.78572092E+02
 20
3.22734493E+01
 11
-1.78442092E+02
 21
3.21534493E+01
  0
LINE
  8
0
 62
7
 10
-1.79112092E+02
 20
5.42734493E+01
 11
-1.78622092E+02
 21
5.47834493E+01
  0
LINE
  8
0
 62
7
 10
-1.78172092E+02
 20
5.67934493E+01
 11
-1.78132092E+02
 21
5.47934493E+01
  0
LINE
  8
0
 62
7
 10
-1.77602092E+02
 20
5.67934493E+01
 11
-1.77552092E+02
 21
5.48134493E+01
  0
LINE
  8
0
 62
7
 10
-1.78622092E+02
 20
5.47834493E+01
 11
-1.78282092E+02
 21
4.07634493E+01
  0
ARC
  8
0
 62
7
 10
-1.60130194E+02
 20
-2.74041526E+01
 40
1.49923982E+01
 50
1.80467769E+02
 51
2.69992744E+02
  0
ARC
  8
0
 62
7
 10
-1.23296843E+02
 20
-2.74012778E+01
 40
1.49952739E+01
 50
2.69979942E+02
 51
3.59521336E+02
  0
ARC
  8
0
 62
7
 10
-1.66744076E+02
 20
9.59543279E+00
 40
9.98018431E-01
 50
8.98861260E+01
 51
1.80113874E+02
  0
ARC
  8
0
 62
7
 10
-1.61670653E+02
 20
9.59488833E+00
 40
9.98561958E-01
 50
3.59917428E+02
 51
9.00825720E+01
  0
ARC
  8
0
 62
7
 10
-1.61670653E+02
 20
1.00948883E+01
 40
9.98561958E-01
 50
3.59917428E+02
 51
9.00825720E+01
  0
ARC
  8
0
 62
7
 10
-1.61668552E+02
 20
-2.34000906E+01
 40
9.96466454E-01
 50
2.69796463E+02
 51
2.03537152E-01
  0
ARC
  8
0
 62
7
 10
-1.61668552E+02
 20
-2.39000906E+01
 40
9.96466454E-01
 50
2.69796463E+02
 51
2.03537152E-01
  0
ARC
  8
0
 62
7
 10
-1.61286798E+02
 20
-2.44018448E+01
 40
9.94719998E-01
 50
2.69695059E+02
 51
3.04940567E-01
  0
ARC
  8
0
 62
7
 10
-1.61286798E+02
 20
-2.49018448E+01
 40
9.94719998E-01
 50
2.69695059E+02
 51
3.04940567E-01
  0
ARC
  8
0
 62
7
 10
-1.66746178E+02
 20
-2.34006362E+01
 40
9.95922939E-01
 50
1.79764963E+02
 51
2.70235038E+02
  0
ARC
  8
0
 62
7
 10
-1.68576205E+02
 20
1.00975620E+01
 40
9.95895781E-01
 50
8.97633869E+01
 51
1.80236613E+02
  0
ARC
  8
0
 62
7
 10
-1.68578311E+02
 20
-2.39027698E+01
 40
9.93800363E-01
 50
1.79641447E+02
 51
2.70358553E+02
  0
ARC
  8
0
 62
7
 10
-1.68836864E+02
 20
-2.44013228E+01
 40
9.95239360E-01
 50
1.79725271E+02
 51
2.70274729E+02
  0
ARC
  8
0
 62
7
 10
-1.69435521E+02
 20
-2.48999791E+01
 40
9.96577548E-01
 50
1.79802895E+02
 51
2.70197105E+02
  0
ARC
  8
0
 62
7
 10
-1.61670653E+02
 20
4.95948883E+01
 40
9.98561958E-01
 50
3.59917428E+02
 51
9.00825720E+01
  0
ARC
  8
0
 62
7
 10
-1.61670653E+02
 20
5.00948883E+01
 40
9.98561958E-01
 50
3.59917428E+02
 51
9.00825720E+01
  0
ARC
  8
0
 62
7
 10
-1.61288903E+02
 20
5.05966389E+01
 40
9.96815452E-01
 50
3.59816662E+02
 51
9.01833375E+01
  0
ARC
  8
0
 62
7
 10
-1.61288903E+02
 20
5.10966389E+01
 40
9.96815452E-01
 50
3.59816662E+02
 51
9.01833375E+01
  0
ARC
  8
0
 62
7
 10
-1.66744076E+02
 20
4.95954328E+01
 40
9.98018431E-01
 50
8.98861260E+01
 51
1.80113874E+02
  0
ARC
  8
0
 62
7
 10
-1.68576205E+02
 20
5.00975620E+01
 40
9.95895781E-01
 50
8.97633869E+01
 51
1.80236613E+02
  0
ARC
  8
0
 62
7
 10
-1.68834761E+02
 20
5.05961180E+01
 40
9.97334832E-01
 50
8.98466836E+01
 51
1.80153316E+02
  0
ARC
  8
0
 62
7
 10
-1.69433420E+02
 20
5.10947771E+01
 40
9.98673055E-01
 50
8.99238197E+01
 51
1.80076180E+02
  0
ARC
  8
0
 62
7
 10
-1.61673540E+02
 20
1.85948965E+01
 40
1.00144831E+00
 50
2.70082802E+02
 51
3.59917197E+02
  0
ARC
  8
0
 62
7
 10
-1.61673540E+02
 20
1.80948965E+01
 40
1.00144831E+00
 50
2.70082802E+02
 51
3.59917197E+02
  0
ARC
  8
0
 62
7
 10
-1.66741188E+02
 20
1.85943536E+01
 40
1.00090478E+00
 50
1.80051770E+02
 51
2.70000000E+02
  0
ARC
  8
0
 62
7
 10
-1.68573311E+02
 20
1.80922306E+01
 40
9.98782092E-01
 50
1.79930091E+02
 51
2.70069909E+02
  0
ARC
  8
0
 62
7
 10
-1.16687977E+02
 20
9.59756440E+00
 40
9.95893352E-01
 50
3.59763247E+02
 51
9.02367538E+01
  0
ARC
  8
0
 62
7
 10
-1.21761394E+02
 20
9.59275102E+00
 40
1.00069848E+00
 50
9.00000002E+01
 51
1.79960022E+02
  0
ARC
  8
0
 62
7
 10
-1.21761394E+02
 20
1.00927510E+01
 40
1.00069848E+00
 50
9.00000002E+01
 51
1.79960022E+02
  0
ARC
  8
0
 62
7
 10
-1.21763490E+02
 20
-2.33979488E+01
 40
9.98602949E-01
 50
1.79919787E+02
 51
2.70080213E+02
  0
ARC
  8
0
 62
7
 10
-1.21763490E+02
 20
-2.38979488E+01
 40
9.98602949E-01
 50
1.79919787E+02
 51
2.70080213E+02
  0
ARC
  8
0
 62
7
 10
-1.22145248E+02
 20
-2.43997068E+01
 40
9.96848979E-01
 50
1.79818602E+02
 51
2.70181398E+02
  0
ARC
  8
0
 62
7
 10
-1.22145248E+02
 20
-2.48997068E+01
 40
9.96848979E-01
 50
1.79818602E+02
 51
2.70181398E+02
  0
ARC
  8
0
 62
7
 10
-1.16685871E+02
 20
-2.34027723E+01
 40
9.93797935E-01
 50
2.69641305E+02
 51
3.58694948E-01
  0
ARC
  8
0
 62
7
 10
-1.14850848E+02
 20
1.00946933E+01
 40
9.98756699E-01
 50
3.59928631E+02
 51
9.00713690E+01
  0
ARC
  8
0
 62
7
 10
-1.14848748E+02
 20
-2.38998952E+01
 40
9.96661191E-01
 50
2.69807737E+02
 51
1.92263484E-01
  0
ARC
  8
0
 62
7
 10
-1.14595186E+02
 20
-2.44034575E+01
 40
9.93117297E-01
 50
2.69601528E+02
 51
3.98471654E-01
  0
ARC
  8
0
 62
7
 10
-1.13996526E+02
 20
-2.49021166E+01
 40
9.94449732E-01
 50
2.69679319E+02
 51
3.20680908E-01
  0
ARC
  8
0
 62
7
 10
-1.21761394E+02
 20
4.95927510E+01
 40
1.00069848E+00
 50
9.00000002E+01
 51
1.79960022E+02
  0
ARC
  8
0
 62
7
 10
-1.21761394E+02
 20
5.00927510E+01
 40
1.00069848E+00
 50
9.00000002E+01
 51
1.79960022E+02
  0
ARC
  8
0
 62
7
 10
-1.22143148E+02
 20
5.05945053E+01
 40
9.98944491E-01
 50
8.99394277E+01
 51
1.80060572E+02
  0
ARC
  8
0
 62
7
 10
-1.22143148E+02
 20
5.10945053E+01
 40
9.98944491E-01
 50
8.99394277E+01
 51
1.80060572E+02
  0
ARC
  8
0
 62
7
 10
-1.16687977E+02
 20
4.95975644E+01
 40
9.95893352E-01
 50
3.59763247E+02
 51
9.02367538E+01
  0
ARC
  8
0
 62
7
 10
-1.14850848E+02
 20
5.00946933E+01
 40
9.98756699E-01
 50
3.59928631E+02
 51
9.00713690E+01
  0
ARC
  8
0
 62
7
 10
-1.14597293E+02
 20
5.05982481E+01
 40
9.95212682E-01
 50
3.59723720E+02
 51
9.02762799E+01
  0
ARC
  8
0
 62
7
 10
-1.13998631E+02
 20
5.10969101E+01
 40
9.96545176E-01
 50
3.59801021E+02
 51
9.01989793E+01
  0
ARC
  8
0
 62
7
 10
-1.21758514E+02
 20
1.85970277E+01
 40
1.00358481E+00
 50
1.80204296E+02
 51
2.69795703E+02
  0
ARC
  8
0
 62
7
 10
-1.21758514E+02
 20
1.80970277E+01
 40
1.00358481E+00
 50
1.80204296E+02
 51
2.69795703E+02
  0
ARC
  8
0
 62
7
 10
-1.16690871E+02
 20
1.85922282E+01
 40
9.98779664E-01
 50
2.69929952E+02
 51
7.00483928E-02
  0
ARC
  8
0
 62
7
 10
-1.14853734E+02
 20
1.80950910E+01
 40
1.00164305E+00
 50
2.70093908E+02
 51
3.59906091E+02
  0
ARC
  8
0
 62
7
 10
-1.78138672E+02
 20
3.10373964E+01
 40
2.93482757E-01
 50
1.78818237E+02
 51
2.13960844E+02
  0
LINE
  8
0
 62
4
 10
-2.25214945E+02
 20
1.56796272E+02
 11
-2.25214945E+02
 21
1.54796272E+02
  0
LINE
  8
0
 62
4
 10
-2.25214945E+02
 20
1.54796272E+02
 11
-2.27214945E+02
 21
1.54796272E+02
  0
LINE
  8
0
 62
4
 10
-2.27214945E+02
 20
1.56796272E+02
 11
-2.27214945E+02
 21
1.54796272E+02
  0
CIRCLE
  8
0
 62
7
 10
-1.94714945E+02
 20
1.56796272E+02
 40
2.89829731E+00
  0
CIRCLE
  8
0
 62
7
 10
-1.94714945E+02
 20
1.56796272E+02
 40
3.96076870E+00
  0
CIRCLE
  8
0
 62
7
 10
-1.94714945E+02
 20
1.56796272E+02
 40
5.00000000E+00
  0
LINE
  8
0
 62
7
 10
-1.97224945E+02
 20
1.55356272E+02
 11
-1.94714945E+02
 21
1.53906272E+02
  0
LINE
  8
0
 62
7
 10
-1.94714945E+02
 20
1.59686272E+02
 11
-1.92204945E+02
 21
1.58236272E+02
  0
LINE
  8
0
 62
7
 10
-1.94714945E+02
 20
1.53906272E+02
 11
-1.92204945E+02
 21
1.55356272E+02
  0
LINE
  8
0
 62
7
 10
-1.97224945E+02
 20
1.58236272E+02
 11
-1.94714945E+02
 21
1.59686272E+02
  0
LINE
  8
0
 62
7
 10
-1.92204945E+02
 20
1.58236272E+02
 11
-1.92204945E+02
 21
1.55356272E+02
  0
LINE
  8
0
 62
7
 10
-1.97224945E+02
 20
1.58236272E+02
 11
-1.97224945E+02
 21
1.55356272E+02
  0
CIRCLE
  8
0
 62
7
 10
-2.44714945E+02
 20
1.56796272E+02
 40
2.89829731E+00
  0
CIRCLE
  8
0
 62
7
 10
-2.44714945E+02
 20
1.56796272E+02
 40
3.96076870E+00
  0
CIRCLE
  8
0
 62
7
 10
-2.44714945E+02
 20
1.56796272E+02
 40
5.00000000E+00
  0
LINE
  8
0
 62
7
 10
-2.47224945E+02
 20
1.55356272E+02
 11
-2.44714945E+02
 21
1.53906272E+02
  0
LINE
  8
0
 62
7
 10
-2.44714945E+02
 20
1.59686272E+02
 11
-2.42204945E+02
 21
1.58236272E+02
  0
LINE
  8
0
 62
7
 10
-2.44714945E+02
 20
1.53906272E+02
 11
-2.42204945E+02
 21
1.55356272E+02
  0
LINE
  8
0
 62
7
 10
-2.47224945E+02
 20
1.58236272E+02
 11
-2.44714945E+02
 21
1.59686272E+02
  0
LINE
  8
0
 62
7
 10
-2.42204945E+02
 20
1.58236272E+02
 11
-2.42204945E+02
 21
1.55356272E+02
  0
LINE
  8
0
 62
7
 10
-2.47224945E+02
 20
1.58236272E+02
 11
-2.47224945E+02
 21
1.55356272E+02
  0
LINE
  8
0
 62
7
 10
-1.87464977E+02
 20
1.19796313E+02
 11
-1.87464976E+02
 21
1.24496313E+02
  0
LINE
  8
0
 62
7
 10
-1.87464977E+02
 20
1.19796313E+02
 11
-1.87984977E+02
 21
1.19496313E+02
  0
LINE
  8
0
 62
7
 10
-1.95964977E+02
 20
1.19796316E+02
 11
-1.87464977E+02
 21
1.19796313E+02
  0
LINE
  8
0
 62
7
 10
-1.95444977E+02
 20
1.19496315E+02
 11
-1.87984977E+02
 21
1.19496313E+02
  0
LINE
  8
0
 62
7
 10
-1.95964977E+02
 20
1.19796316E+02
 11
-1.95444977E+02
 21
1.19496315E+02
  0
LINE
  8
0
 62
7
 10
-1.95964977E+02
 20
1.19796316E+02
 11
-1.95964976E+02
 21
1.24496316E+02
  0
LINE
  8
0
 62
7
 10
-1.95964947E+02
 20
1.95496270E+02
 11
-1.95964945E+02
 21
1.90796270E+02
  0
LINE
  8
0
 62
7
 10
-1.95964947E+02
 20
1.95496270E+02
 11
-1.95444947E+02
 21
1.95796270E+02
  0
LINE
  8
0
 62
7
 10
-1.87464947E+02
 20
1.95496273E+02
 11
-1.95964947E+02
 21
1.95496270E+02
  0
LINE
  8
0
 62
7
 10
-1.87984947E+02
 20
1.95796273E+02
 11
-1.95444947E+02
 21
1.95796270E+02
  0
LINE
  8
0
 62
7
 10
-1.87464947E+02
 20
1.95496273E+02
 11
-1.87984947E+02
 21
1.95796273E+02
  0
LINE
  8
0
 62
7
 10
-1.87464947E+02
 20
1.95496273E+02
 11
-1.87464945E+02
 21
1.90796273E+02
  0
LINE
  8
0
 62
7
 10
-2.51964947E+02
 20
1.95496270E+02
 11
-2.51964945E+02
 21
1.90796270E+02
  0
LINE
  8
0
 62
7
 10
-2.51964947E+02
 20
1.95496270E+02
 11
-2.51444947E+02
 21
1.95796270E+02
  0
LINE
  8
0
 62
7
 10
-2.43464947E+02
 20
1.95496273E+02
 11
-2.51964947E+02
 21
1.95496270E+02
  0
LINE
  8
0
 62
7
 10
-2.43984947E+02
 20
1.95796273E+02
 11
-2.51444947E+02
 21
1.95796270E+02
  0
LINE
  8
0
 62
7
 10
-2.43464947E+02
 20
1.95496273E+02
 11
-2.43984947E+02
 21
1.95796273E+02
  0
LINE
  8
0
 62
7
 10
-2.43464947E+02
 20
1.95496273E+02
 11
-2.43464945E+02
 21
1.90796273E+02
  0
LINE
  8
0
 62
7
 10
-2.43464947E+02
 20
1.19796313E+02
 11
-2.43464945E+02
 21
1.24496313E+02
  0
LINE
  8
0
 62
7
 10
-2.43464947E+02
 20
1.19796313E+02
 11
-2.43984947E+02
 21
1.19496313E+02
  0
LINE
  8
0
 62
7
 10
-2.51964947E+02
 20
1.19796316E+02
 11
-2.43464947E+02
 21
1.19796313E+02
  0
LINE
  8
0
 62
7
 10
-2.51444947E+02
 20
1.19496315E+02
 11
-2.43984947E+02
 21
1.19496313E+02
  0
LINE
  8
0
 62
7
 10
-2.51964947E+02
 20
1.19796316E+02
 11
-2.51444947E+02
 21
1.19496315E+02
  0
LINE
  8
0
 62
7
 10
-2.51964947E+02
 20
1.19796316E+02
 11
-2.51964945E+02
 21
1.24496316E+02
  0
POLYLINE
  8
0
 62
7
 66
1
  0
VERTEX
  8
0
 62
7
 10
-3.31752092E+02
 20
4.47134493E+01
  0
VERTEX
  8
0
 62
7
 10
-3.31532589E+02
 20
4.39503079E+01
  0
VERTEX
  8
0
 62
7
 10
-3.31331154E+02
 20
4.31817300E+01
  0
VERTEX
  8
0
 62
7
 10
-3.31148136E+02
 20
4.24081829E+01
  0
VERTEX
  8
0
 62
7
 10
-3.30983886E+02
 20
4.16301335E+01
  0
VERTEX
  8
0
 62
7
 10
-3.30838753E+02
 20
4.08480490E+01
  0
VERTEX
  8
0
 62
7
 10
-3.30713088E+02
 20
4.00623966E+01
  0
VERTEX
  8
0
 62
7
 10
-3.30607239E+02
 20
3.92736432E+01
  0
VERTEX
  8
0
 62
7
 10
-3.30521557E+02
 20
3.84822562E+01
  0
VERTEX
  8
0
 62
7
 10
-3.30456391E+02
 20
3.76887025E+01
  0
VERTEX
  8
0
 62
7
 10
-3.30412092E+02
 20
3.68934493E+01
  0
VERTEX
  8
0
 62
7
 10
-3.30386386E+02
 20
3.58824161E+01
  0
VERTEX
  8
0
 62
7
 10
-3.30394522E+02
 20
3.48706869E+01
  0
VERTEX
  8
0
 62
7
 10
-3.30435868E+02
 20
3.38594421E+01
  0
VERTEX
  8
0
 62
7
 10
-3.30509791E+02
 20
3.28498622E+01
  0
VERTEX
  8
0
 62
7
 10
-3.30615661E+02
 20
3.18431276E+01
  0
VERTEX
  8
0
 62
7
 10
-3.30752846E+02
 20
3.08404187E+01
  0
VERTEX
  8
0
 62
7
 10
-3.30920713E+02
 20
2.98429160E+01
  0
VERTEX
  8
0
 62
7
 10
-3.31118631E+02
 20
2.88517999E+01
  0
VERTEX
  8
0
 62
7
 10
-3.31345968E+02
 20
2.78682509E+01
  0
VERTEX
  8
0
 62
7
 10
-3.31602092E+02
 20
2.68934493E+01
  0
SEQEND
  8
0
  0
POLYLINE
  8
0
 62
7
 66
1
  0
VERTEX
  8
0
 62
7
 10
-1.75752092E+02
 20
4.47134493E+01
  0
VERTEX
  8
0
 62
7
 10
-1.75532589E+02
 20
4.39503079E+01
  0
VERTEX
  8
0
 62
7
 10
-1.75331154E+02
 20
4.31817300E+01
  0
VERTEX
  8
0
 62
7
 10
-1.75148136E+02
 20
4.24081829E+01
  0
VERTEX
  8
0
 62
7
 10
-1.74983886E+02
 20
4.16301335E+01
  0
VERTEX
  8
0
 62
7
 10
-1.74838753E+02
 20
4.08480490E+01
  0
VERTEX
  8
0
 62
7
 10
-1.74713088E+02
 20
4.00623966E+01
  0
VERTEX
  8
0
 62
7
 10
-1.74607239E+02
 20
3.92736432E+01
  0
VERTEX
  8
0
 62
7
 10
-1.74521557E+02
 20
3.84822562E+01
  0
VERTEX
  8
0
 62
7
 10
-1.74456391E+02
 20
3.76887025E+01
  0
VERTEX
  8
0
 62
7
 10
-1.74412092E+02
 20
3.68934493E+01
  0
VERTEX
  8
0
 62
7
 10
-1.74386386E+02
 20
3.58824161E+01
  0
VERTEX
  8
0
 62
7
 10
-1.74394522E+02
 20
3.48706869E+01
  0
VERTEX
  8
0
 62
7
 10
-1.74435868E+02
 20
3.38594421E+01
  0
VERTEX
  8
0
 62
7
 10
-1.74509791E+02
 20
3.28498622E+01
  0
VERTEX
  8
0
 62
7
 10
-1.74615661E+02
 20
3.18431276E+01
  0
VERTEX
  8
0
 62
7
 10
-1.74752846E+02
 20
3.08404187E+01
  0
VERTEX
  8
0
 62
7
 10
-1.74920713E+02
 20
2.98429160E+01
  0
VERTEX
  8
0
 62
7
 10
-1.75118631E+02
 20
2.88517999E+01
  0
VERTEX
  8
0
 62
7
 10
-1.75345968E+02
 20
2.78682509E+01
  0
VERTEX
  8
0
 62
7
 10
-1.75602092E+02
 20
2.68934493E+01
  0
SEQEND
  8
0
  0
LINE
  8
0
 62
7
 10
-1.89820923E+01
 20
5.67934493E+01
 11
5.69679077E+01
 21
5.67934493E+01
  0
LINE
  8
0
 62
7
 10
-2.00320923E+01
 20
5.77934493E+01
 11
-1.89820923E+01
 21
5.67934493E+01
  0
LINE
  8
0
 62
7
 10
5.80179077E+01
 20
5.77934493E+01
 11
5.69679077E+01
 21
5.67934493E+01
  0
LINE
  8
0
 62
7
 10
-2.00320923E+01
 20
5.77934493E+01
 11
5.80179077E+01
 21
5.77934493E+01
  0
LINE
  8
0
 62
7
 10
-2.60020923E+01
 20
1.16793449E+02
 11
6.39979077E+01
 21
1.16793449E+02
  0
LINE
  8
0
 62
7
 10
-2.05020923E+01
 20
1.81793449E+02
 11
5.84979077E+01
 21
1.81793449E+02
  0
LINE
  8
0
 62
7
 10
-2.50020923E+01
 20
1.31793449E+02
 11
-5.50209227E+00
 21
1.31793449E+02
  0
LINE
  8
0
 62
7
 10
-6.00209227E+00
 20
1.80293449E+02
 11
-6.00209227E+00
 21
1.31793449E+02
  0
LINE
  8
0
 62
7
 10
4.39979077E+01
 20
1.80293449E+02
 11
4.39979077E+01
 21
1.31793449E+02
  0
LINE
  8
0
 62
7
 10
6.39979077E+01
 20
1.30793449E+02
 11
6.39979077E+01
 21
1.16793449E+02
  0
LINE
  8
0
 62
7
 10
-2.60020923E+01
 20
1.30793449E+02
 11
-2.60020923E+01
 21
1.02793449E+02
  0
LINE
  8
0
 62
7
 10
-4.50209227E+00
 20
1.81793449E+02
 11
-6.00209227E+00
 21
1.80293449E+02
  0
LINE
  8
0
  6
CENTER
 62
2
 10
-3.01220923E+01
 20
1.56793449E+02
 11
8.61379077E+01
 21
1.56793449E+02
  0
LINE
  8
0
  6
CENTER
 62
2
 10
5.59979077E+01
 20
1.34793449E+02
 11
5.59979077E+01
 21
1.21293449E+02
  0
LINE
  8
0
  6
CENTER
 62
2
 10
-1.80020923E+01
 20
1.34793449E+02
 11
-1.80020923E+01
 21
1.21293449E+02
  0
LINE
  8
0
 62
7
 10
-2.50020923E+01
 20
1.24293449E+02
 11
-1.15020923E+01
 21
1.24293449E+02
  0
LINE
  8
0
 62
7
 10
4.94979077E+01
 20
1.24293449E+02
 11
6.29979077E+01
 21
1.24293449E+02
  0
LINE
  8
0
 62
7
 10
-1.10020923E+01
 20
1.30793449E+02
 11
-1.10020923E+01
 21
1.24793449E+02
  0
LINE
  8
0
 62
7
 10
4.89979077E+01
 20
1.30793449E+02
 11
4.89979077E+01
 21
1.24793449E+02
  0
LINE
  8
0
  6
CENTER
 62
2
 10
3.79979077E+01
 20
2.12943449E+02
 11
3.79979077E+01
 21
1.78793449E+02
  0
LINE
  8
0
 62
7
 10
2.44979077E+01
 20
1.87893449E+02
 11
2.44979077E+01
 21
1.82793449E+02
  0
LINE
  8
0
 62
7
 10
5.19979077E+01
 20
1.87893449E+02
 11
2.39979077E+01
 21
1.87893449E+02
  0
LINE
  8
0
 62
7
 10
2.39979077E+01
 20
1.94893449E+02
 11
2.39979077E+01
 21
1.87893449E+02
  0
LINE
  8
0
 62
7
 10
5.19979077E+01
 20
1.95793449E+02
 11
5.19979077E+01
 21
1.81793449E+02
  0
LINE
  8
0
 62
7
 10
2.49979077E+01
 20
1.95893449E+02
 11
2.39979077E+01
 21
1.94893449E+02
  0
LINE
  8
0
 62
7
 10
5.19979077E+01
 20
1.94893449E+02
 11
5.09979077E+01
 21
1.95893449E+02
  0
LINE
  8
0
 62
7
 10
5.09979077E+01
 20
1.95893449E+02
 11
2.49979077E+01
 21
1.95893449E+02
  0
LINE
  8
0
 62
7
 10
3.07979077E+01
 20
1.96793449E+02
 11
3.07979077E+01
 21
1.95893449E+02
  0
LINE
  8
0
 62
7
 10
4.51979077E+01
 20
1.96793449E+02
 11
4.51979077E+01
 21
1.95893449E+02
  0
LINE
  8
0
 62
7
 10
3.09979077E+01
 20
1.96793449E+02
 11
3.10479077E+01
 21
2.03043449E+02
  0
LINE
  8
0
 62
7
 10
4.49979077E+01
 20
1.96793449E+02
 11
4.49479077E+01
 21
2.03043449E+02
  0
LINE
  8
0
 62
7
 10
4.51979077E+01
 20
1.96793449E+02
 11
3.07979077E+01
 21
1.96793449E+02
  0
LINE
  8
0
 62
7
 10
3.64979077E+01
 20
1.89893449E+02
 11
3.23379077E+01
 21
1.89893449E+02
  0
LINE
  8
0
 62
7
 10
3.63579077E+01
 20
1.90183449E+02
 11
3.27179077E+01
 21
1.90183449E+02
  0
LINE
  8
0
 62
7
 10
2.40779077E+01
 20
1.94893449E+02
 11
2.40779077E+01
 21
1.89893449E+02
  0
LINE
  8
0
 62
7
 10
2.45979077E+01
 20
1.95393449E+02
 11
2.45979077E+01
 21
1.90183449E+02
  0
LINE
  8
0
 62
7
 10
2.51879077E+01
 20
1.94893449E+02
 11
2.51879077E+01
 21
1.89893449E+02
  0
LINE
  8
0
 62
7
 10
2.66879077E+01
 20
1.94893449E+02
 11
2.66879077E+01
 21
1.89893449E+02
  0
LINE
  8
0
 62
7
 10
2.72079077E+01
 20
1.95393449E+02
 11
2.72079077E+01
 21
1.90183449E+02
  0
LINE
  8
0
 62
7
 10
2.97379077E+01
 20
1.94893449E+02
 11
2.97379077E+01
 21
1.89893449E+02
  0
LINE
  8
0
 62
7
 10
3.23379077E+01
 20
1.94893449E+02
 11
3.23379077E+01
 21
1.89893449E+02
  0
LINE
  8
0
 62
7
 10
3.27179077E+01
 20
1.95393449E+02
 11
3.27179077E+01
 21
1.90183449E+02
  0
LINE
  8
0
 62
7
 10
3.63579077E+01
 20
1.95393449E+02
 11
3.63579077E+01
 21
1.90183449E+02
  0
LINE
  8
0
 62
7
 10
3.64979077E+01
 20
1.94893449E+02
 11
3.64979077E+01
 21
1.89893449E+02
  0
LINE
  8
0
 62
7
 10
3.94979077E+01
 20
1.94893449E+02
 11
3.64979077E+01
 21
1.94893449E+02
  0
LINE
  8
0
 62
7
 10
3.63579077E+01
 20
1.95393449E+02
 11
3.27179077E+01
 21
1.95393449E+02
  0
LINE
  8
0
 62
7
 10
3.23379077E+01
 20
1.94893449E+02
 11
2.97379077E+01
 21
1.94893449E+02
  0
LINE
  8
0
 62
7
 10
2.66879077E+01
 20
1.94893449E+02
 11
2.51879077E+01
 21
1.94893449E+02
  0
LINE
  8
0
 62
7
 10
2.97379077E+01
 20
1.90183449E+02
 11
2.72079077E+01
 21
1.90183449E+02
  0
LINE
  8
0
 62
7
 10
2.51879077E+01
 20
1.90183449E+02
 11
2.45979077E+01
 21
1.90183449E+02
  0
LINE
  8
0
 62
7
 10
2.98779077E+01
 20
1.95393449E+02
 11
2.72079077E+01
 21
1.95393449E+02
  0
LINE
  8
0
 62
7
 10
3.64979077E+01
 20
1.94893449E+02
 11
3.63579077E+01
 21
1.95393449E+02
  0
LINE
  8
0
 62
7
 10
3.63579077E+01
 20
1.90183449E+02
 11
3.64979077E+01
 21
1.89893449E+02
  0
LINE
  8
0
 62
7
 10
3.23379077E+01
 20
1.94893449E+02
 11
3.27179077E+01
 21
1.95393449E+02
  0
LINE
  8
0
 62
7
 10
3.27179077E+01
 20
1.90183449E+02
 11
3.23379077E+01
 21
1.89893449E+02
  0
LINE
  8
0
 62
7
 10
2.97379077E+01
 20
1.94893449E+02
 11
2.98779077E+01
 21
1.95393449E+02
  0
LINE
  8
0
 62
7
 10
2.72079077E+01
 20
1.90183449E+02
 11
2.66879077E+01
 21
1.89893449E+02
  0
LINE
  8
0
 62
7
 10
2.51879077E+01
 20
1.94893449E+02
 11
2.55679077E+01
 21
1.95393449E+02
  0
LINE
  8
0
 62
7
 10
2.66879077E+01
 20
1.94893449E+02
 11
2.72079077E+01
 21
1.95393449E+02
  0
LINE
  8
0
 62
7
 10
2.55679077E+01
 20
1.95393449E+02
 11
2.45979077E+01
 21
1.95393449E+02
  0
LINE
  8
0
 62
7
 10
2.97379077E+01
 20
1.89893449E+02
 11
2.66879077E+01
 21
1.89893449E+02
  0
LINE
  8
0
 62
7
 10
2.51579077E+01
 20
1.89893449E+02
 11
2.40779077E+01
 21
1.89893449E+02
  0
LINE
  8
0
 62
7
 10
2.45979077E+01
 20
1.90183449E+02
 11
2.40779077E+01
 21
1.89893449E+02
  0
LINE
  8
0
 62
7
 10
2.40779077E+01
 20
1.94893449E+02
 11
2.39979077E+01
 21
1.94893449E+02
  0
LINE
  8
0
 62
7
 10
2.40779077E+01
 20
1.94893449E+02
 11
2.45979077E+01
 21
1.95393449E+02
  0
LINE
  8
0
 62
7
 10
3.94979077E+01
 20
1.89893449E+02
 11
4.36579077E+01
 21
1.89893449E+02
  0
LINE
  8
0
 62
7
 10
3.96379077E+01
 20
1.90183449E+02
 11
4.32779077E+01
 21
1.90183449E+02
  0
LINE
  8
0
 62
7
 10
5.19179077E+01
 20
1.94893449E+02
 11
5.19179077E+01
 21
1.89893449E+02
  0
LINE
  8
0
 62
7
 10
5.13979077E+01
 20
1.95393449E+02
 11
5.13979077E+01
 21
1.90183449E+02
  0
LINE
  8
0
 62
7
 10
5.07979077E+01
 20
1.94893449E+02
 11
5.07979077E+01
 21
1.89893449E+02
  0
LINE
  8
0
 62
7
 10
4.92979077E+01
 20
1.94893449E+02
 11
4.92979077E+01
 21
1.89893449E+02
  0
LINE
  8
0
 62
7
 10
4.87779077E+01
 20
1.95393449E+02
 11
4.87779077E+01
 21
1.90183449E+02
  0
LINE
  8
0
 62
7
 10
4.62579077E+01
 20
1.94893449E+02
 11
4.62579077E+01
 21
1.89893449E+02
  0
LINE
  8
0
 62
7
 10
4.36579077E+01
 20
1.94893449E+02
 11
4.36579077E+01
 21
1.89893449E+02
  0
LINE
  8
0
 62
7
 10
4.32779077E+01
 20
1.95393449E+02
 11
4.32779077E+01
 21
1.90183449E+02
  0
LINE
  8
0
 62
7
 10
3.96379077E+01
 20
1.95393449E+02
 11
3.96379077E+01
 21
1.90183449E+02
  0
LINE
  8
0
 62
7
 10
3.94979077E+01
 20
1.94893449E+02
 11
3.94979077E+01
 21
1.89893449E+02
  0
LINE
  8
0
 62
7
 10
3.96379077E+01
 20
1.95393449E+02
 11
4.32779077E+01
 21
1.95393449E+02
  0
LINE
  8
0
 62
7
 10
4.36579077E+01
 20
1.94893449E+02
 11
4.62579077E+01
 21
1.94893449E+02
  0
LINE
  8
0
 62
7
 10
4.92979077E+01
 20
1.94893449E+02
 11
5.07979077E+01
 21
1.94893449E+02
  0
LINE
  8
0
 62
7
 10
4.62579077E+01
 20
1.90183449E+02
 11
4.87779077E+01
 21
1.90183449E+02
  0
LINE
  8
0
 62
7
 10
5.07979077E+01
 20
1.90183449E+02
 11
5.13979077E+01
 21
1.90183449E+02
  0
LINE
  8
0
 62
7
 10
4.61179077E+01
 20
1.95393449E+02
 11
4.87779077E+01
 21
1.95393449E+02
  0
LINE
  8
0
 62
7
 10
3.94979077E+01
 20
1.94893449E+02
 11
3.96379077E+01
 21
1.95393449E+02
  0
LINE
  8
0
 62
7
 10
3.96379077E+01
 20
1.90183449E+02
 11
3.94979077E+01
 21
1.89893449E+02
  0
LINE
  8
0
 62
7
 10
4.36579077E+01
 20
1.94893449E+02
 11
4.32779077E+01
 21
1.95393449E+02
  0
LINE
  8
0
 62
7
 10
4.32779077E+01
 20
1.90183449E+02
 11
4.36579077E+01
 21
1.89893449E+02
  0
LINE
  8
0
 62
7
 10
4.62479077E+01
 20
1.94893449E+02
 11
4.61179077E+01
 21
1.95393449E+02
  0
LINE
  8
0
 62
7
 10
4.87779077E+01
 20
1.90183449E+02
 11
4.92979077E+01
 21
1.89893449E+02
  0
LINE
  8
0
 62
7
 10
5.07979077E+01
 20
1.94893449E+02
 11
5.04179077E+01
 21
1.95393449E+02
  0
LINE
  8
0
 62
7
 10
4.92979077E+01
 20
1.94893449E+02
 11
4.87779077E+01
 21
1.95393449E+02
  0
LINE
  8
0
 62
7
 10
5.04179077E+01
 20
1.95393449E+02
 11
5.13979077E+01
 21
1.95393449E+02
  0
LINE
  8
0
 62
7
 10
4.62579077E+01
 20
1.89893449E+02
 11
4.92979077E+01
 21
1.89893449E+02
  0
LINE
  8
0
 62
7
 10
5.08279077E+01
 20
1.89893449E+02
 11
5.19179077E+01
 21
1.89893449E+02
  0
LINE
  8
0
 62
7
 10
5.13979077E+01
 20
1.90183449E+02
 11
5.19179077E+01
 21
1.89893449E+02
  0
LINE
  8
0
 62
7
 10
5.19179077E+01
 20
1.94893449E+02
 11
5.19979077E+01
 21
1.94893449E+02
  0
LINE
  8
0
 62
7
 10
5.19179077E+01
 20
1.94893449E+02
 11
5.13979077E+01
 21
1.95393449E+02
  0
LINE
  8
0
 62
7
 10
5.14979077E+01
 20
1.87893449E+02
 11
5.14979077E+01
 21
1.82793449E+02
  0
LINE
  8
0
 62
7
 10
-3.14209227E+00
 20
1.89293449E+02
 11
-3.00209227E+00
 21
1.89293449E+02
  0
LINE
  8
0
 62
7
 10
-3.14209227E+00
 20
1.89293449E+02
 11
-3.69209227E+00
 21
1.89793449E+02
  0
LINE
  8
0
 62
7
 10
-4.39209227E+00
 20
1.83793449E+02
 11
-3.14209227E+00
 21
1.83793449E+02
  0
LINE
  8
0
 62
7
 10
-9.50209227E+00
 20
1.89293449E+02
 11
-1.25020923E+01
 21
1.89293449E+02
  0
LINE
  8
0
 62
7
 10
-3.14209227E+00
 20
1.83793449E+02
 11
-3.69209227E+00
 21
1.84143449E+02
  0
LINE
  8
0
 62
7
 10
-6.99209227E+00
 20
1.84143449E+02
 11
-9.36209227E+00
 21
1.84143449E+02
  0
LINE
  8
0
 62
7
 10
-3.50209227E+00
 20
1.89793449E+02
 11
-1.85020923E+01
 21
1.89793449E+02
  0
LINE
  8
0
 62
7
 10
-3.00209227E+00
 20
1.89293449E+02
 11
-3.00209227E+00
 21
1.81793449E+02
  0
LINE
  8
0
 62
7
 10
-1.90020923E+01
 20
1.89293449E+02
 11
-1.90020923E+01
 21
1.81793449E+02
  0
LINE
  8
0
 62
7
 10
-3.50209227E+00
 20
1.89793449E+02
 11
-3.00209227E+00
 21
1.89293449E+02
  0
LINE
  8
0
 62
7
 10
-1.90020923E+01
 20
1.89293449E+02
 11
-1.85020923E+01
 21
1.89793449E+02
  0
LINE
  8
0
  6
CENTER
 62
2
 10
-1.10020923E+01
 20
1.92793449E+02
 11
-1.10020923E+01
 21
1.78793449E+02
  0
LINE
  8
0
 62
7
 10
-1.25020923E+01
 20
1.83793449E+02
 11
-1.55020923E+01
 21
1.83793449E+02
  0
LINE
  8
0
 62
7
 10
-1.55020923E+01
 20
1.89293449E+02
 11
-1.76220923E+01
 21
1.89293449E+02
  0
LINE
  8
0
 62
7
 10
-1.88620923E+01
 20
1.89293449E+02
 11
-1.88620923E+01
 21
1.83793449E+02
  0
LINE
  8
0
 62
7
 10
-1.83220923E+01
 20
1.89793449E+02
 11
-1.83220923E+01
 21
1.84143449E+02
  0
LINE
  8
0
 62
7
 10
-1.76220923E+01
 20
1.89293449E+02
 11
-1.76220923E+01
 21
1.83793449E+02
  0
LINE
  8
0
 62
7
 10
-1.55020923E+01
 20
1.89293449E+02
 11
-1.55020923E+01
 21
1.83793449E+02
  0
LINE
  8
0
 62
7
 10
-1.50120923E+01
 20
1.89793449E+02
 11
-1.50120923E+01
 21
1.84143449E+02
  0
LINE
  8
0
 62
7
 10
-1.26520923E+01
 20
1.89793449E+02
 11
-1.26520923E+01
 21
1.84143449E+02
  0
LINE
  8
0
 62
7
 10
-1.25020923E+01
 20
1.89293449E+02
 11
-1.25020923E+01
 21
1.83793449E+02
  0
LINE
  8
0
 62
7
 10
-1.83220923E+01
 20
1.84143449E+02
 11
-1.76220923E+01
 21
1.84143449E+02
  0
LINE
  8
0
 62
7
 10
-1.25020923E+01
 20
1.89293449E+02
 11
-1.26520923E+01
 21
1.89793449E+02
  0
LINE
  8
0
 62
7
 10
-1.25020923E+01
 20
1.83793449E+02
 11
-1.26520923E+01
 21
1.84143449E+02
  0
LINE
  8
0
 62
7
 10
-1.50120923E+01
 20
1.84143449E+02
 11
-1.55020923E+01
 21
1.83793449E+02
  0
LINE
  8
0
 62
7
 10
-1.55020923E+01
 20
1.89293449E+02
 11
-1.50120923E+01
 21
1.89793449E+02
  0
LINE
  8
0
 62
7
 10
-1.76220923E+01
 20
1.89293449E+02
 11
-1.73420923E+01
 21
1.89793449E+02
  0
LINE
  8
0
 62
7
 10
-1.88620923E+01
 20
1.83793449E+02
 11
-1.83220923E+01
 21
1.84143449E+02
  0
LINE
  8
0
 62
7
 10
-1.88620923E+01
 20
1.89293449E+02
 11
-1.83220923E+01
 21
1.89793449E+02
  0
LINE
  8
0
 62
7
 10
-1.88620923E+01
 20
1.89293449E+02
 11
-1.90020923E+01
 21
1.89293449E+02
  0
LINE
  8
0
 62
7
 10
-1.50120923E+01
 20
1.84143449E+02
 11
-1.26520923E+01
 21
1.84143449E+02
  0
LINE
  8
0
 62
7
 10
-1.76220923E+01
 20
1.83793449E+02
 11
-1.88620923E+01
 21
1.83793449E+02
  0
LINE
  8
0
 62
7
 10
-9.50209227E+00
 20
1.83793449E+02
 11
-6.51209227E+00
 21
1.83793449E+02
  0
LINE
  8
0
 62
7
 10
-6.51209227E+00
 20
1.89293449E+02
 11
-4.39209227E+00
 21
1.89293449E+02
  0
LINE
  8
0
 62
7
 10
-3.14209227E+00
 20
1.89293449E+02
 11
-3.14209227E+00
 21
1.83793449E+02
  0
LINE
  8
0
 62
7
 10
-3.69209227E+00
 20
1.89793449E+02
 11
-3.69209227E+00
 21
1.84143449E+02
  0
LINE
  8
0
 62
7
 10
-4.39209227E+00
 20
1.89293449E+02
 11
-4.39209227E+00
 21
1.83793449E+02
  0
LINE
  8
0
 62
7
 10
-6.51209227E+00
 20
1.89293449E+02
 11
-6.51209227E+00
 21
1.83793449E+02
  0
LINE
  8
0
 62
7
 10
-6.99209227E+00
 20
1.89793449E+02
 11
-6.99209227E+00
 21
1.84143449E+02
  0
LINE
  8
0
 62
7
 10
-9.36209227E+00
 20
1.89793449E+02
 11
-9.36209227E+00
 21
1.84143449E+02
  0
LINE
  8
0
 62
7
 10
-9.50209227E+00
 20
1.89293449E+02
 11
-9.50209227E+00
 21
1.83793449E+02
  0
LINE
  8
0
 62
7
 10
-3.69209227E+00
 20
1.84143449E+02
 11
-4.39209227E+00
 21
1.84143449E+02
  0
LINE
  8
0
 62
7
 10
-9.50209227E+00
 20
1.89293449E+02
 11
-9.36209227E+00
 21
1.89793449E+02
  0
LINE
  8
0
 62
7
 10
-9.50209227E+00
 20
1.83793449E+02
 11
-9.36209227E+00
 21
1.84143449E+02
  0
LINE
  8
0
 62
7
 10
-6.99209227E+00
 20
1.84143449E+02
 11
-6.51209227E+00
 21
1.83793449E+02
  0
LINE
  8
0
 62
7
 10
-6.51209227E+00
 20
1.89293449E+02
 11
-6.99209227E+00
 21
1.89793449E+02
  0
LINE
  8
0
 62
7
 10
-4.39209227E+00
 20
1.89293449E+02
 11
-4.67209227E+00
 21
1.89793449E+02
  0
LINE
  8
0
 62
7
 10
4.39979077E+01
 20
1.80293449E+02
 11
4.24979077E+01
 21
1.81793449E+02
  0
LINE
  8
0
 62
7
 10
-2.20020923E+01
 20
1.80293449E+02
 11
5.99979077E+01
 21
1.80293449E+02
  0
LINE
  8
0
 62
7
 10
-4.50209227E+00
 20
1.81793449E+02
 11
-4.50209227E+00
 21
1.30793449E+02
  0
LINE
  8
0
 62
7
 10
4.24979077E+01
 20
1.81793449E+02
 11
4.24979077E+01
 21
1.30793449E+02
  0
LINE
  8
0
 62
7
 10
4.34979077E+01
 20
1.31793449E+02
 11
6.29979077E+01
 21
1.31793449E+02
  0
LINE
  8
0
  6
CENTER
 62
2
 10
1.89979077E+01
 20
2.04933449E+02
 11
1.89979077E+01
 21
-6.59465507E+01
  0
LINE
  8
0
 62
7
 10
-2.20020923E+01
 20
1.80293449E+02
 11
-2.39620923E+01
 21
1.32753449E+02
  0
LINE
  8
0
 62
7
 10
-1.18920923E+01
 20
1.80293449E+02
 11
-1.49220923E+01
 21
1.31793449E+02
  0
LINE
  8
0
 62
7
 10
4.98879077E+01
 20
1.80293449E+02
 11
5.29179077E+01
 21
1.31793449E+02
  0
LINE
  8
0
 62
7
 10
5.99979077E+01
 20
1.80293449E+02
 11
6.19579077E+01
 21
1.32753449E+02
  0
LINE
  8
0
 62
7
 10
5.99979077E+01
 20
1.80293449E+02
 11
5.84979077E+01
 21
1.81793449E+02
  0
LINE
  8
0
 62
7
 10
-2.20020923E+01
 20
1.80293449E+02
 11
-2.05020923E+01
 21
1.81793449E+02
  0
LINE
  8
0
 62
7
 10
-1.11020923E+01
 20
1.81793449E+02
 11
-1.18920923E+01
 21
1.80293449E+02
  0
LINE
  8
0
 62
7
 10
4.90979077E+01
 20
1.81793449E+02
 11
4.98879077E+01
 21
1.80293449E+02
  0
LINE
  8
0
 62
7
 10
1.49979077E+01
 20
1.82793449E+02
 11
2.29979077E+01
 21
1.82793449E+02
  0
LINE
  8
0
 62
7
 10
2.29979077E+01
 20
1.82793449E+02
 11
2.29979077E+01
 21
1.81793449E+02
  0
LINE
  8
0
 62
7
 10
1.49979077E+01
 20
1.82793449E+02
 11
1.49979077E+01
 21
1.81793449E+02
  0
LINE
  8
0
 62
7
 10
3.69979077E+01
 20
1.82793449E+02
 11
3.69979077E+01
 21
1.81793449E+02
  0
LINE
  8
0
 62
7
 10
3.89979077E+01
 20
1.82793449E+02
 11
3.89979077E+01
 21
1.81793449E+02
  0
LINE
  8
0
 62
7
 10
3.69979077E+01
 20
1.82793449E+02
 11
3.89979077E+01
 21
1.82793449E+02
  0
LINE
  8
0
 62
7
 10
1.89979077E+01
 20
1.82793449E+02
 11
1.89979077E+01
 21
1.81793449E+02
  0
LINE
  8
0
 62
7
 10
6.39979077E+01
 20
1.16793449E+02
 11
6.39979077E+01
 21
1.02793449E+02
  0
LINE
  8
0
 62
7
 10
-2.50020923E+01
 20
1.01793449E+02
 11
6.29979077E+01
 21
1.01793449E+02
  0
LINE
  8
0
 62
7
 10
5.80179077E+01
 20
5.77934493E+01
 11
5.91479077E+01
 21
1.00823449E+02
  0
LINE
  8
0
 62
7
 10
6.20979077E+01
 20
1.25793449E+02
 11
6.20979077E+01
 21
1.24293449E+02
  0
LINE
  8
0
 62
7
 10
4.98979077E+01
 20
1.25793449E+02
 11
4.98979077E+01
 21
1.24293449E+02
  0
LINE
  8
0
 62
7
 10
6.20979077E+01
 20
1.25793449E+02
 11
4.98979077E+01
 21
1.25793449E+02
  0
LINE
  8
0
 62
7
 10
6.09979077E+01
 20
1.31193449E+02
 11
6.09979077E+01
 21
1.25793449E+02
  0
LINE
  8
0
 62
7
 10
5.09979077E+01
 20
1.31193449E+02
 11
5.09979077E+01
 21
1.25793449E+02
  0
LINE
  8
0
 62
7
 10
5.09979077E+01
 20
1.31193449E+02
 11
5.15979077E+01
 21
1.31793449E+02
  0
LINE
  8
0
 62
7
 10
6.09979077E+01
 20
1.31193449E+02
 11
6.03979077E+01
 21
1.31793449E+02
  0
LINE
  8
0
 62
7
 10
5.09979077E+01
 20
1.31193449E+02
 11
6.09979077E+01
 21
1.31193449E+02
  0
LINE
  8
0
 62
7
 10
-2.30020923E+01
 20
1.31193449E+02
 11
-2.30020923E+01
 21
1.25793449E+02
  0
LINE
  8
0
 62
7
 10
-1.30020923E+01
 20
1.31193449E+02
 11
-1.30020923E+01
 21
1.25793449E+02
  0
LINE
  8
0
 62
7
 10
-1.19020923E+01
 20
1.25793449E+02
 11
-2.41020923E+01
 21
1.25793449E+02
  0
LINE
  8
0
 62
7
 10
-1.19020923E+01
 20
1.25793449E+02
 11
-1.19020923E+01
 21
1.24293449E+02
  0
LINE
  8
0
 62
7
 10
-2.41020923E+01
 20
1.25793449E+02
 11
-2.41020923E+01
 21
1.24293449E+02
  0
LINE
  8
0
 62
7
 10
-2.30020923E+01
 20
1.31193449E+02
 11
-1.30020923E+01
 21
1.31193449E+02
  0
LINE
  8
0
 62
7
 10
-2.30020923E+01
 20
1.31193449E+02
 11
-2.24020923E+01
 21
1.31793449E+02
  0
LINE
  8
0
 62
7
 10
-1.30020923E+01
 20
1.31193449E+02
 11
-1.36020923E+01
 21
1.31793449E+02
  0
LINE
  8
0
 62
7
 10
-2.00320923E+01
 20
5.77934493E+01
 11
-2.11620923E+01
 21
1.00823449E+02
  0
LINE
  8
0
 62
7
 10
4.99979077E+01
 20
1.97793449E+02
 11
4.49879077E+01
 21
1.97793449E+02
  0
LINE
  8
0
 62
7
 10
-1.40020923E+01
 20
1.95793449E+02
 11
-1.40020923E+01
 21
1.89793449E+02
  0
LINE
  8
0
 62
7
 10
-1.32520923E+01
 20
1.90793449E+02
 11
-4.00209227E+00
 21
1.90793449E+02
  0
LINE
  8
0
  6
CENTER
 62
2
 10
-9.00209227E+00
 20
1.89793449E+02
 11
-9.00209227E+00
 21
1.98793449E+02
  0
LINE
  8
0
 62
7
 10
-4.00209227E+00
 20
1.90793449E+02
 11
-4.00209227E+00
 21
1.95793449E+02
  0
LINE
  8
0
  6
CENTER
 62
2
 10
4.69979077E+01
 20
1.89793449E+02
 11
4.69979077E+01
 21
1.98793449E+02
  0
LINE
  8
0
 62
7
 10
3.10079077E+01
 20
1.97793449E+02
 11
-1.20020923E+01
 21
1.97793449E+02
  0
LINE
  8
0
 62
7
 10
7.84979077E+01
 20
1.41793449E+02
 11
6.15779077E+01
 21
1.41793449E+02
  0
LINE
  8
0
 62
7
 10
7.84979077E+01
 20
1.95793449E+02
 11
6.92879077E+01
 21
1.95793449E+02
  0
LINE
  8
0
 62
7
 10
7.89979077E+01
 20
1.95293449E+02
 11
7.89979077E+01
 21
1.42293449E+02
  0
LINE
  8
0
 62
7
 10
6.39979077E+01
 20
1.71793449E+02
 11
6.03479077E+01
 21
1.71793449E+02
  0
LINE
  8
0
 62
7
 10
6.88479077E+01
 20
1.95543449E+02
 11
5.98479077E+01
 21
1.79943449E+02
  0
LINE
  8
0
 62
7
 10
6.89979077E+01
 20
1.95703449E+02
 11
6.89979077E+01
 21
1.76793449E+02
  0
LINE
  8
0
 62
7
 10
6.89979077E+01
 20
1.76793449E+02
 11
6.39979077E+01
 21
1.71793449E+02
  0
ARC
  8
0
 62
7
 10
-5.49994532E+00
 20
1.30795596E+02
 40
9.97855364E-01
 50
3.59876725E+02
 51
9.01232755E+01
  0
ARC
  8
0
 62
7
 10
6.29971237E+01
 20
1.02794233E+02
 40
1.00078431E+00
 50
2.70000000E+02
 51
3.59955115E+02
  0
ARC
  8
0
 62
7
 10
4.34971128E+01
 20
1.30794244E+02
 40
9.99205373E-01
 50
9.00000002E+01
 51
1.80045583E+02
  0
ARC
  8
0
 62
7
 10
-2.21561467E+01
 20
1.00799115E+02
 40
9.94352235E-01
 50
1.40232103E+00
 51
9.03425934E+01
  0
ARC
  8
0
 62
7
 10
2.34971770E+01
 20
1.82794180E+02
 40
1.00073098E+00
 50
2.70000000E+02
 51
3.59958164E+02
  0
ARC
  8
0
 62
7
 10
6.01481361E+01
 20
1.00792750E+02
 40
1.00069935E+00
 50
9.00000002E+01
 51
1.78242012E+02
  0
CIRCLE
  8
0
 62
7
 10
1.89993036E+01
 20
1.56796272E+02
 40
1.20585012E+01
  0
ARC
  8
0
 62
7
 10
-2.49999448E+01
 20
1.02795597E+02
 40
1.00214979E+00
 50
1.80122778E+02
 51
2.69877222E+02
  0
CIRCLE
  8
0
 62
2
 10
1.89993036E+01
 20
1.56796272E+02
 40
1.32205000E+01
  0
CIRCLE
  8
0
 62
7
 10
1.89993036E+01
 20
1.56796333E+02
 40
2.10000000E+01
  0
ARC
  8
0
 62
7
 10
3.79979077E+01
 20
2.02996345E+02
 40
6.95015963E+00
 50
3.88323357E-01
 51
1.79611677E+02
  0
ARC
  8
0
 62
7
 10
-2.50028337E+01
 20
1.30794191E+02
 40
9.99258851E-01
 50
9.00000002E+01
 51
1.80042512E+02
  0
ARC
  8
0
 62
7
 10
-2.49622391E+01
 20
1.32794436E+02
 40
1.00098633E+00
 50
2.70000000E+02
 51
3.57653315E+02
  0
ARC
  8
0
 62
7
 10
6.29999936E+01
 20
1.30795535E+02
 40
9.97916316E-01
 50
3.59880239E+02
 51
9.01197610E+01
  0
ARC
  8
0
 62
7
 10
6.29592821E+01
 20
1.32795714E+02
 40
1.00226593E+00
 50
1.82416847E+02
 51
2.69921431E+02
  0
ARC
  8
0
 62
7
 10
6.29999783E+01
 20
1.23295520E+02
 40
9.97931531E-01
 50
3.59881117E+02
 51
9.01188838E+01
  0
ARC
  8
0
 62
7
 10
4.79999936E+01
 20
1.30795535E+02
 40
9.97916316E-01
 50
3.59880239E+02
 51
9.01197610E+01
  0
ARC
  8
0
 62
7
 10
-1.00028337E+01
 20
1.30794191E+02
 40
9.99258851E-01
 50
9.00000002E+01
 51
1.80042512E+02
  0
ARC
  8
0
 62
7
 10
-2.50028185E+01
 20
1.23294175E+02
 40
9.99274066E-01
 50
9.00000002E+01
 51
1.80041638E+02
  0
ARC
  8
0
 62
7
 10
-1.15028330E+01
 20
1.24794190E+02
 40
5.00741242E-01
 50
2.70000000E+02
 51
3.59915248E+02
  0
ARC
  8
0
 62
7
 10
4.94999945E+01
 20
1.24795536E+02
 40
5.02091154E-01
 50
1.80238137E+02
 51
2.69761864E+02
  0
ARC
  8
0
 62
7
 10
5.24999790E+01
 20
1.82795520E+02
 40
1.00207337E+00
 50
1.80118427E+02
 51
2.69881573E+02
  0
ARC
  8
0
 62
7
 10
-1.20028348E+01
 20
1.95794192E+02
 40
1.99925757E+00
 50
9.00000002E+01
 51
1.80021281E+02
  0
ARC
  8
0
 62
7
 10
4.99999938E+01
 20
1.95795535E+02
 40
1.99791507E+00
 50
3.59940178E+02
 51
9.00598227E+01
  0
ARC
  8
0
 62
7
 10
-1.20014537E+01
 20
1.88795895E+02
 40
1.99755476E+00
 50
9.00000002E+01
 51
1.50040489E+02
  0
ARC
  8
0
 62
7
 10
-2.00283484E+00
 20
1.95794192E+02
 40
1.99925757E+00
 50
9.00000002E+01
 51
1.80021281E+02
  0
ARC
  8
0
 62
7
 10
7.84999628E+01
 20
1.95295504E+02
 40
4.97949164E-01
 50
3.59763535E+02
 51
9.02364650E+01
  0
ARC
  8
0
 62
7
 10
7.84971369E+01
 20
1.42294220E+02
 40
5.00771421E-01
 50
2.70000000E+02
 51
3.59911806E+02
  0
ARC
  8
0
 62
7
 10
6.92815056E+01
 20
1.95292517E+02
 40
5.00973191E-01
 50
8.92677773E+01
 51
1.49941124E+02
  0
LINE
  8
0
 62
4
 10
1.14179077E+01
 20
-4.38965507E+01
 11
2.65679077E+01
 21
-4.38965507E+01
  0
LINE
  8
0
 62
4
 10
1.09179077E+01
 20
-4.33965507E+01
 11
1.09179077E+01
 21
-4.23965507E+01
  0
LINE
  8
0
 62
4
 10
2.70679077E+01
 20
-4.33965507E+01
 11
2.70679077E+01
 21
-4.23965507E+01
  0
LINE
  8
0
 62
4
 10
2.65679077E+01
 20
-4.38965507E+01
 11
2.70679077E+01
 21
-4.33965507E+01
  0
LINE
  8
0
 62
4
 10
1.14179077E+01
 20
-4.38965507E+01
 11
1.09179077E+01
 21
-4.33965507E+01
  0
LINE
  8
0
 62
4
 10
2.57479077E+01
 20
-5.86965507E+01
 11
1.22479077E+01
 21
-5.86965507E+01
  0
LINE
  8
0
 62
4
 10
2.67479077E+01
 20
-4.56965507E+01
 11
2.67479077E+01
 21
-5.76965507E+01
  0
LINE
  8
0
 62
4
 10
1.12479077E+01
 20
-4.56965507E+01
 11
1.12479077E+01
 21
-5.76965507E+01
  0
LINE
  8
0
 62
4
 10
2.67479077E+01
 20
-5.76965507E+01
 11
2.57479077E+01
 21
-5.86965507E+01
  0
LINE
  8
0
 62
4
 10
1.22479077E+01
 20
-5.86965507E+01
 11
1.12479077E+01
 21
-5.76965507E+01
  0
LINE
  8
0
 62
4
 10
2.62479077E+01
 20
-4.51965507E+01
 11
1.17479077E+01
 21
-4.51965507E+01
  0
LINE
  8
0
 62
4
 10
2.62479077E+01
 20
-4.51965507E+01
 11
2.67479077E+01
 21
-4.56965507E+01
  0
LINE
  8
0
 62
4
 10
1.17479077E+01
 20
-4.51965507E+01
 11
1.12479077E+01
 21
-4.56965507E+01
  0
LINE
  8
0
 62
4
 10
2.49979077E+01
 20
-4.38965507E+01
 11
2.49979077E+01
 21
-4.51965507E+01
  0
LINE
  8
0
 62
4
 10
1.29979077E+01
 20
-4.38965507E+01
 11
1.29979077E+01
 21
-4.51965507E+01
  0
LINE
  8
0
 62
6
 10
1.37479077E+01
 20
-4.38965507E+01
 11
1.37479077E+01
 21
-4.51965507E+01
  0
LINE
  8
0
 62
6
 10
2.42479077E+01
 20
-4.38965507E+01
 11
2.42479077E+01
 21
-4.51965507E+01
  0
LINE
  8
0
 62
4
 10
1.74979077E+01
 20
-4.81965507E+01
 11
1.74979077E+01
 21
-5.76965507E+01
  0
LINE
  8
0
 62
4
 10
2.04979077E+01
 20
-4.81965507E+01
 11
2.04979077E+01
 21
-5.76965507E+01
  0
LINE
  8
0
 62
4
 10
2.08379077E+01
 20
-4.84765507E+01
 11
2.08379077E+01
 21
-5.81965507E+01
  0
LINE
  8
0
 62
4
 10
1.71579077E+01
 20
-4.84765507E+01
 11
1.71579077E+01
 21
-5.81965507E+01
  0
LINE
  8
0
 62
4
 10
1.53379077E+01
 20
-4.84765507E+01
 11
1.53379077E+01
 21
-5.81965507E+01
  0
LINE
  8
0
 62
4
 10
1.46779077E+01
 20
-4.81965507E+01
 11
1.46779077E+01
 21
-5.76965507E+01
  0
LINE
  8
0
 62
4
 10
1.25579077E+01
 20
-4.81965507E+01
 11
1.25579077E+01
 21
-5.76965507E+01
  0
LINE
  8
0
 62
4
 10
1.19879077E+01
 20
-4.84765507E+01
 11
1.19879077E+01
 21
-5.81965507E+01
  0
LINE
  8
0
 62
4
 10
1.13879077E+01
 20
-4.81965507E+01
 11
1.13879077E+01
 21
-5.76965507E+01
  0
LINE
  8
0
 62
4
 10
2.26479077E+01
 20
-4.84765507E+01
 11
2.26479077E+01
 21
-5.81965507E+01
  0
LINE
  8
0
 62
4
 10
2.33079077E+01
 20
-4.81965507E+01
 11
2.33079077E+01
 21
-5.76965507E+01
  0
LINE
  8
0
 62
4
 10
2.54279077E+01
 20
-4.81965507E+01
 11
2.54279077E+01
 21
-5.76965507E+01
  0
LINE
  8
0
 62
4
 10
2.60079077E+01
 20
-4.84765507E+01
 11
2.60079077E+01
 21
-5.81965507E+01
  0
LINE
  8
0
 62
4
 10
2.65979077E+01
 20
-4.81965507E+01
 11
2.65979077E+01
 21
-5.76965507E+01
  0
LINE
  8
0
 62
4
 10
2.65979077E+01
 20
-4.81965507E+01
 11
2.54279077E+01
 21
-4.81965507E+01
  0
LINE
  8
0
 62
4
 10
2.60079077E+01
 20
-4.84765507E+01
 11
2.54279077E+01
 21
-4.84765507E+01
  0
LINE
  8
0
 62
4
 10
2.67479077E+01
 20
-5.76965507E+01
 11
2.65979077E+01
 21
-5.76965507E+01
  0
LINE
  8
0
 62
4
 10
1.74979077E+01
 20
-4.81965507E+01
 11
1.46779077E+01
 21
-4.81965507E+01
  0
LINE
  8
0
 62
4
 10
1.71579077E+01
 20
-4.84765507E+01
 11
1.53379077E+01
 21
-4.84765507E+01
  0
LINE
  8
0
 62
4
 10
2.33079077E+01
 20
-4.81965507E+01
 11
2.04979077E+01
 21
-4.81965507E+01
  0
LINE
  8
0
 62
4
 10
2.26479077E+01
 20
-4.84765507E+01
 11
2.08379077E+01
 21
-4.84765507E+01
  0
LINE
  8
0
 62
4
 10
1.25579077E+01
 20
-4.81965507E+01
 11
1.13879077E+01
 21
-4.81965507E+01
  0
LINE
  8
0
 62
4
 10
1.25579077E+01
 20
-4.84765507E+01
 11
1.19879077E+01
 21
-4.84765507E+01
  0
LINE
  8
0
 62
4
 10
2.04979077E+01
 20
-5.76965507E+01
 11
1.74979077E+01
 21
-5.76965507E+01
  0
LINE
  8
0
 62
4
 10
1.46779077E+01
 20
-5.76965507E+01
 11
1.25579077E+01
 21
-5.76965507E+01
  0
LINE
  8
0
 62
4
 10
1.13879077E+01
 20
-5.76965507E+01
 11
1.12479077E+01
 21
-5.76965507E+01
  0
LINE
  8
0
 62
4
 10
2.54279077E+01
 20
-5.76965507E+01
 11
2.33079077E+01
 21
-5.76965507E+01
  0
LINE
  8
0
 62
4
 10
2.26479077E+01
 20
-5.81965507E+01
 11
2.08379077E+01
 21
-5.81965507E+01
  0
LINE
  8
0
 62
4
 10
2.60079077E+01
 20
-5.81965507E+01
 11
2.65979077E+01
 21
-5.76965507E+01
  0
LINE
  8
0
 62
4
 10
2.26479077E+01
 20
-5.81965507E+01
 11
2.33079077E+01
 21
-5.76965507E+01
  0
LINE
  8
0
 62
4
 10
2.08379077E+01
 20
-5.81965507E+01
 11
2.04979077E+01
 21
-5.76965507E+01
  0
LINE
  8
0
 62
4
 10
1.74979077E+01
 20
-5.76965507E+01
 11
1.71579077E+01
 21
-5.81965507E+01
  0
LINE
  8
0
 62
4
 10
1.53379077E+01
 20
-5.81965507E+01
 11
1.46779077E+01
 21
-5.76965507E+01
  0
LINE
  8
0
 62
4
 10
1.19879077E+01
 20
-5.81965507E+01
 11
1.13879077E+01
 21
-5.76965507E+01
  0
LINE
  8
0
 62
4
 10
1.19779077E+01
 20
-4.84765507E+01
 11
1.13879077E+01
 21
-4.81965507E+01
  0
LINE
  8
0
 62
4
 10
1.53379077E+01
 20
-4.84765507E+01
 11
1.46779077E+01
 21
-4.81965507E+01
  0
LINE
  8
0
 62
4
 10
1.71579077E+01
 20
-4.84765507E+01
 11
1.74979077E+01
 21
-4.81965507E+01
  0
LINE
  8
0
 62
4
 10
2.08379077E+01
 20
-4.84765507E+01
 11
2.04979077E+01
 21
-4.81965507E+01
  0
LINE
  8
0
 62
4
 10
2.26479077E+01
 20
-4.84765507E+01
 11
2.33079077E+01
 21
-4.81965507E+01
  0
LINE
  8
0
 62
4
 10
2.60079077E+01
 20
-4.84765507E+01
 11
2.65979077E+01
 21
-4.81965507E+01
  0
LINE
  8
0
 62
4
 10
2.54279077E+01
 20
-5.76965507E+01
 11
2.52579077E+01
 21
-5.81965507E+01
  0
LINE
  8
0
 62
4
 10
1.25579077E+01
 20
-5.76965507E+01
 11
1.27379077E+01
 21
-5.81965507E+01
  0
LINE
  8
0
 62
4
 10
1.71579077E+01
 20
-5.81965507E+01
 11
1.53379077E+01
 21
-5.81965507E+01
  0
LINE
  8
0
 62
4
 10
2.60079077E+01
 20
-5.81965507E+01
 11
2.52579077E+01
 21
-5.81965507E+01
  0
LINE
  8
0
 62
4
 10
1.27379077E+01
 20
-5.81965507E+01
 11
1.19879077E+01
 21
-5.81965507E+01
  0
LINE
  8
0
 62
4
 10
2.67479077E+01
 20
-4.56965507E+01
 11
1.12479077E+01
 21
-4.56965507E+01
  0
LINE
  8
0
 62
7
 10
3.74079077E+01
 20
-4.23965507E+01
 11
5.77907730E-01
 21
-4.23965507E+01
  0
LINE
  8
0
 62
7
 10
3.89479077E+01
 20
-2.48965507E+01
 11
4.58579077E+01
 21
-2.48965507E+01
  0
LINE
  8
0
 62
7
 10
3.89479077E+01
 20
1.10934493E+01
 11
4.58579077E+01
 21
1.10934493E+01
  0
LINE
  8
0
 62
7
 10
3.89479077E+01
 20
1.70934493E+01
 11
4.58579077E+01
 21
1.70934493E+01
  0
LINE
  8
0
 62
7
 10
4.58579077E+01
 20
5.10934493E+01
 11
3.89479077E+01
 21
5.10934493E+01
  0
LINE
  8
0
 62
7
 10
-1.44220923E+01
 20
-2.75265507E+01
 11
-1.51520923E+01
 21
5.67934493E+01
  0
LINE
  8
0
 62
7
 10
5.24079077E+01
 20
-2.75265507E+01
 11
5.31479077E+01
 21
5.67934493E+01
  0
LINE
  8
0
 62
7
 10
4.40279077E+01
 20
5.05934493E+01
 11
3.89479077E+01
 21
5.05934493E+01
  0
LINE
  8
0
 62
7
 10
3.89479077E+01
 20
1.05934493E+01
 11
4.40279077E+01
 21
1.05934493E+01
  0
LINE
  8
0
 62
7
 10
3.89479077E+01
 20
1.75934493E+01
 11
4.40279077E+01
 21
1.75934493E+01
  0
LINE
  8
0
 62
7
 10
3.89479077E+01
 20
-2.43965507E+01
 11
4.40279077E+01
 21
-2.43965507E+01
  0
LINE
  8
0
 62
7
 10
4.68579077E+01
 20
1.00934493E+01
 11
4.68579077E+01
 21
-2.38965507E+01
  0
LINE
  8
0
 62
7
 10
4.50279077E+01
 20
9.59344925E+00
 11
4.50279077E+01
 21
-2.33965507E+01
  0
LINE
  8
0
 62
7
 10
3.79479077E+01
 20
1.00934493E+01
 11
3.79479077E+01
 21
-2.38965507E+01
  0
LINE
  8
0
 62
7
 10
3.85679077E+01
 20
-2.53965507E+01
 11
4.61179077E+01
 21
-2.53965507E+01
  0
LINE
  8
0
 62
7
 10
3.85679077E+01
 20
-2.58965507E+01
 11
4.67079077E+01
 21
-2.58965507E+01
  0
LINE
  8
0
 62
7
 10
4.61179077E+01
 20
5.15934493E+01
 11
3.85679077E+01
 21
5.15934493E+01
  0
LINE
  8
0
 62
7
 10
4.67079077E+01
 20
5.20934493E+01
 11
3.85679077E+01
 21
5.20934493E+01
  0
LINE
  8
0
 62
7
 10
3.75679077E+01
 20
5.10934493E+01
 11
3.75679077E+01
 21
-2.48965507E+01
  0
LINE
  8
0
 62
7
 10
3.79479077E+01
 20
5.00934493E+01
 11
3.79479077E+01
 21
1.80934493E+01
  0
LINE
  8
0
 62
7
 10
4.50279077E+01
 20
4.95934493E+01
 11
4.50279077E+01
 21
1.85934493E+01
  0
LINE
  8
0
 62
7
 10
4.68579077E+01
 20
5.00934493E+01
 11
4.68579077E+01
 21
1.80934493E+01
  0
LINE
  8
0
 62
7
 10
4.71179077E+01
 20
5.05934493E+01
 11
4.71179077E+01
 21
-2.43965507E+01
  0
LINE
  8
0
 62
7
 10
4.77079077E+01
 20
5.10934493E+01
 11
4.77079077E+01
 21
-2.48965507E+01
  0
LINE
  8
0
 62
7
 10
-9.62092270E-01
 20
-2.48965507E+01
 11
-7.87209227E+00
 21
-2.48965507E+01
  0
LINE
  8
0
 62
7
 10
-9.62092270E-01
 20
1.10934493E+01
 11
-7.87209227E+00
 21
1.10934493E+01
  0
LINE
  8
0
 62
7
 10
-9.62092270E-01
 20
1.70934493E+01
 11
-7.87209227E+00
 21
1.70934493E+01
  0
LINE
  8
0
 62
7
 10
-7.87209227E+00
 20
5.10934493E+01
 11
-9.62092270E-01
 21
5.10934493E+01
  0
LINE
  8
0
 62
7
 10
-6.03209227E+00
 20
5.05934493E+01
 11
-9.62092270E-01
 21
5.05934493E+01
  0
LINE
  8
0
 62
7
 10
-9.62092270E-01
 20
1.05934493E+01
 11
-6.03209227E+00
 21
1.05934493E+01
  0
LINE
  8
0
 62
7
 10
-9.62092270E-01
 20
1.75934493E+01
 11
-6.03209227E+00
 21
1.75934493E+01
  0
LINE
  8
0
 62
7
 10
-9.62092270E-01
 20
-2.43965507E+01
 11
-6.03209227E+00
 21
-2.43965507E+01
  0
LINE
  8
0
 62
7
 10
-8.87209227E+00
 20
1.00934493E+01
 11
-8.87209227E+00
 21
-2.38965507E+01
  0
LINE
  8
0
 62
7
 10
-7.03209227E+00
 20
9.59344925E+00
 11
-7.03209227E+00
 21
-2.33965507E+01
  0
LINE
  8
0
 62
7
 10
3.79077302E-02
 20
1.00934493E+01
 11
3.79077302E-02
 21
-2.38965507E+01
  0
LINE
  8
0
 62
7
 10
-5.82092270E-01
 20
-2.53965507E+01
 11
-8.12209227E+00
 21
-2.53965507E+01
  0
LINE
  8
0
 62
7
 10
-5.82092270E-01
 20
-2.58965507E+01
 11
-8.72209227E+00
 21
-2.58965507E+01
  0
LINE
  8
0
 62
7
 10
-8.12209227E+00
 20
5.15934493E+01
 11
-5.82092270E-01
 21
5.15934493E+01
  0
LINE
  8
0
 62
7
 10
-8.72209227E+00
 20
5.20934493E+01
 11
-5.82092270E-01
 21
5.20934493E+01
  0
LINE
  8
0
 62
7
 10
4.17907730E-01
 20
5.10934493E+01
 11
4.17907730E-01
 21
-2.48965507E+01
  0
LINE
  8
0
 62
7
 10
3.79077302E-02
 20
5.00934493E+01
 11
3.79077302E-02
 21
1.80934493E+01
  0
LINE
  8
0
 62
7
 10
-7.03209227E+00
 20
4.95934493E+01
 11
-7.03209227E+00
 21
1.85934493E+01
  0
LINE
  8
0
 62
7
 10
-8.87209227E+00
 20
5.00934493E+01
 11
-8.87209227E+00
 21
1.80934493E+01
  0
LINE
  8
0
 62
7
 10
-9.12209227E+00
 20
5.05934493E+01
 11
-9.12209227E+00
 21
-2.43965507E+01
  0
LINE
  8
0
 62
7
 10
-9.72209227E+00
 20
5.10934493E+01
 11
-9.72209227E+00
 21
-2.48965507E+01
  0
LINE
  8
0
 62
4
 10
1.09179077E+01
 20
-4.33965507E+01
 11
2.70679077E+01
 21
-4.33965507E+01
  0
ARC
  8
0
 62
7
 10
3.74152783E+01
 20
-2.74034175E+01
 40
1.49931351E+01
 50
2.69971834E+02
 51
3.59529445E+02
  0
ARC
  8
0
 62
7
 10
5.76886438E-01
 20
-2.73970127E+01
 40
1.49995381E+01
 50
1.80494820E+02
 51
2.70003901E+02
  0
ARC
  8
0
 62
7
 10
4.40290320E+01
 20
9.59457350E+00
 40
9.98876389E-01
 50
3.59935513E+02
 51
9.00644872E+01
  0
ARC
  8
0
 62
7
 10
3.89506634E+01
 20
9.59069356E+00
 40
1.00275948E+00
 50
9.01574553E+01
 51
1.79842545E+02
  0
ARC
  8
0
 62
7
 10
3.89506634E+01
 20
1.00906936E+01
 40
1.00275948E+00
 50
9.01574553E+01
 51
1.79842545E+02
  0
ARC
  8
0
 62
7
 10
3.89485715E+01
 20
-2.33958870E+01
 40
1.00066396E+00
 50
1.80038005E+02
 51
2.70000000E+02
  0
ARC
  8
0
 62
7
 10
3.89485715E+01
 20
-2.38958870E+01
 40
1.00066396E+00
 50
1.80038005E+02
 51
2.70000000E+02
  0
ARC
  8
0
 62
7
 10
3.85667869E+01
 20
-2.43976716E+01
 40
9.98879778E-01
 50
1.79935708E+02
 51
2.70064292E+02
  0
ARC
  8
0
 62
7
 10
3.85667869E+01
 20
-2.48976716E+01
 40
9.98879778E-01
 50
1.79935708E+02
 51
2.70064292E+02
  0
ARC
  8
0
 62
7
 10
4.40311321E+01
 20
-2.33997751E+01
 40
9.96780879E-01
 50
2.69814662E+02
 51
1.85337816E-01
  0
ARC
  8
0
 62
7
 10
4.58612697E+01
 20
1.00968113E+01
 40
9.96643662E-01
 50
3.59806722E+02
 51
9.01932778E+01
  0
ARC
  8
0
 62
7
 10
4.58633745E+01
 20
-2.39020176E+01
 40
9.94548214E-01
 50
2.69685056E+02
 51
3.14943774E-01
  0
ARC
  8
0
 62
7
 10
4.61219111E+01
 20
-2.44005542E+01
 40
9.96004642E-01
 50
2.69769701E+02
 51
2.30298905E-01
  0
ARC
  8
0
 62
7
 10
4.67154998E+01
 20
-2.49041428E+01
 40
9.92436998E-01
 50
2.69561689E+02
 51
4.38311108E-01
  0
ARC
  8
0
 62
7
 10
3.89506634E+01
 20
4.95906936E+01
 40
1.00275948E+00
 50
9.01574553E+01
 51
1.79842545E+02
  0
ARC
  8
0
 62
7
 10
3.89506634E+01
 20
5.00906936E+01
 40
1.00275948E+00
 50
9.01574553E+01
 51
1.79842545E+02
  0
ARC
  8
0
 62
7
 10
3.85688826E+01
 20
5.05924744E+01
 40
1.00097531E+00
 50
9.00000002E+01
 51
1.79944201E+02
  0
ARC
  8
0
 62
7
 10
3.85688826E+01
 20
5.10924744E+01
 40
1.00097531E+00
 50
9.00000002E+01
 51
1.79944201E+02
  0
ARC
  8
0
 62
7
 10
4.40290320E+01
 20
4.95945735E+01
 40
9.98876389E-01
 50
3.59935513E+02
 51
9.00644872E+01
  0
ARC
  8
0
 62
7
 10
4.58612697E+01
 20
5.00968113E+01
 40
9.96643662E-01
 50
3.59806722E+02
 51
9.01932778E+01
  0
ARC
  8
0
 62
7
 10
4.61198094E+01
 20
5.05953509E+01
 40
9.98100135E-01
 50
3.59890835E+02
 51
9.01091653E+01
  0
ARC
  8
0
 62
7
 10
4.67133905E+01
 20
5.10989320E+01
 40
9.94532347E-01
 50
3.59684132E+02
 51
9.03158678E+01
  0
ARC
  8
0
 62
7
 10
3.89535377E+01
 20
1.85990792E+01
 40
1.00564573E+00
 50
1.80320764E+02
 51
2.69679235E+02
  0
ARC
  8
0
 62
7
 10
3.89535377E+01
 20
1.80990792E+01
 40
1.00564573E+00
 50
1.80320764E+02
 51
2.69679235E+02
  0
ARC
  8
0
 62
7
 10
4.40261465E+01
 20
1.85952104E+01
 40
1.00176274E+00
 50
2.70100732E+02
 51
3.59899268E+02
  0
ARC
  8
0
 62
7
 10
4.58583778E+01
 20
1.80929791E+01
 40
9.99529993E-01
 50
2.70000000E+02
 51
2.69483916E-02
  0
ARC
  8
0
 62
7
 10
-6.03193966E+00
 20
9.59329664E+00
 40
1.00015263E+00
 50
9.00000002E+01
 51
1.79991257E+02
  0
ARC
  8
0
 62
7
 10
-9.58520422E-01
 20
9.59702110E+00
 40
9.96434554E-01
 50
3.59794615E+02
 51
9.02053844E+01
  0
ARC
  8
0
 62
7
 10
-9.58520422E-01
 20
1.00970211E+01
 40
9.96434554E-01
 50
3.59794615E+02
 51
9.02053844E+01
  0
ARC
  8
0
 62
7
 10
-9.56415178E-01
 20
-2.34022278E+01
 40
9.94339115E-01
 50
2.69672873E+02
 51
3.27127010E-01
  0
ARC
  8
0
 62
7
 10
-9.56415178E-01
 20
-2.39022278E+01
 40
9.94339115E-01
 50
2.69672873E+02
 51
3.27127010E-01
  0
ARC
  8
0
 62
7
 10
-5.74664651E-01
 20
-2.44039784E+01
 40
9.92600172E-01
 50
2.69571252E+02
 51
4.28747860E-01
  0
ARC
  8
0
 62
7
 10
-5.74664651E-01
 20
-2.49039784E+01
 40
9.92600172E-01
 50
2.69571252E+02
 51
4.28747860E-01
  0
ARC
  8
0
 62
7
 10
-6.03403707E+00
 20
-2.33984955E+01
 40
9.98057099E-01
 50
1.79888354E+02
 51
2.70111645E+02
  0
ARC
  8
0
 62
7
 10
-7.86905634E+00
 20
1.00904133E+01
 40
1.00304052E+00
 50
9.01734190E+01
 51
1.79826581E+02
  0
ARC
  8
0
 62
7
 10
-7.87114771E+00
 20
-2.38956062E+01
 40
1.00094501E+00
 50
1.80054069E+02
 51
2.70000000E+02
  0
ARC
  8
0
 62
7
 10
-8.12472517E+00
 20
-2.43991836E+01
 40
9.97370579E-01
 50
1.79848748E+02
 51
2.70151252E+02
  0
ARC
  8
0
 62
7
 10
-8.72337858E+00
 20
-2.48978371E+01
 40
9.98714521E-01
 50
1.79926205E+02
 51
2.70073795E+02
  0
ARC
  8
0
 62
7
 10
-9.58520422E-01
 20
4.95970211E+01
 40
9.96434554E-01
 50
3.59794615E+02
 51
9.02053844E+01
  0
ARC
  8
0
 62
7
 10
-9.58520422E-01
 20
5.00970211E+01
 40
9.96434554E-01
 50
3.59794615E+02
 51
9.02053844E+01
  0
ARC
  8
0
 62
7
 10
-5.76773580E-01
 20
5.05987679E+01
 40
9.94695530E-01
 50
3.59693635E+02
 51
9.03063653E+01
  0
ARC
  8
0
 62
7
 10
-5.76773580E-01
 20
5.10987679E+01
 40
9.94695530E-01
 50
3.59693635E+02
 51
9.03063653E+01
  0
ARC
  8
0
 62
7
 10
-6.03193966E+00
 20
4.95932966E+01
 40
1.00015263E+00
 50
9.00000002E+01
 51
1.79991257E+02
  0
ARC
  8
0
 62
7
 10
-7.86905634E+00
 20
5.00904133E+01
 40
1.00304052E+00
 50
9.01734190E+01
 51
1.79826581E+02
  0
ARC
  8
0
 62
7
 10
-8.12262631E+00
 20
5.05939833E+01
 40
9.99466099E-01
 50
9.00000002E+01
 51
1.80030615E+02
  0
ARC
  8
0
 62
7
 10
-8.72128255E+00
 20
5.10926395E+01
 40
1.00081005E+00
 50
9.00000002E+01
 51
1.79953644E+02
  0
ARC
  8
0
 62
7
 10
-9.61412920E-01
 20
1.85927699E+01
 40
9.99320881E-01
 50
2.70000000E+02
 51
3.89503461E-02
  0
ARC
  8
0
 62
7
 10
-9.61412920E-01
 20
1.80927699E+01
 40
9.99320881E-01
 50
2.70000000E+02
 51
3.89503461E-02
  0
ARC
  8
0
 62
7
 10
-6.02905790E+00
 20
1.85964836E+01
 40
1.00303896E+00
 50
1.80173330E+02
 51
2.69826670E+02
  0
ARC
  8
0
 62
7
 10
-7.86618287E+00
 20
1.80993587E+01
 40
1.00592676E+00
 50
1.80336591E+02
 51
2.69663409E+02
  0
LINE
  8
0
 62
7
 10
-1.32506979E+01
 20
1.95496331E+02
 11
-1.32506964E+01
 21
1.90796331E+02
  0
LINE
  8
0
 62
7
 10
-1.32506979E+01
 20
1.95496331E+02
 11
-1.27306980E+01
 21
1.95796331E+02
  0
LINE
  8
0
 62
7
 10
-4.75069787E+00
 20
1.95496334E+02
 11
-1.32506979E+01
 21
1.95496331E+02
  0
LINE
  8
0
 62
7
 10
-5.27069797E+00
 20
1.95796334E+02
 11
-1.27306980E+01
 21
1.95796331E+02
  0
LINE
  8
0
 62
7
 10
-4.75069787E+00
 20
1.95496334E+02
 11
-5.27069797E+00
 21
1.95796334E+02
  0
LINE
  8
0
 62
7
 10
-4.75069787E+00
 20
1.95496334E+02
 11
-4.75069640E+00
 21
1.90796334E+02
  0
LINE
  8
0
  6
CENTER
 62
2
 10
6.14979077E+01
 20
1.86303449E+02
 11
8.64979077E+01
 21
1.86303449E+02
  0
LINE
  8
0
 62
4
 10
1.76008200E+02
 20
-4.38965507E+01
 11
1.91158200E+02
 21
-4.38965507E+01
  0
LINE
  8
0
 62
4
 10
1.75508200E+02
 20
-4.33965507E+01
 11
1.75508200E+02
 21
-4.23965507E+01
  0
LINE
  8
0
 62
4
 10
1.91658200E+02
 20
-4.33965507E+01
 11
1.91658200E+02
 21
-4.23965507E+01
  0
LINE
  8
0
 62
4
 10
1.91158200E+02
 20
-4.38965507E+01
 11
1.91658200E+02
 21
-4.33965507E+01
  0
LINE
  8
0
 62
4
 10
1.76008200E+02
 20
-4.38965507E+01
 11
1.75508200E+02
 21
-4.33965507E+01
  0
LINE
  8
0
 62
4
 10
1.90338200E+02
 20
-5.86865507E+01
 11
1.76838200E+02
 21
-5.86865507E+01
  0
LINE
  8
0
 62
4
 10
1.91338200E+02
 20
-4.56865507E+01
 11
1.91338200E+02
 21
-5.76865507E+01
  0
LINE
  8
0
 62
4
 10
1.75838200E+02
 20
-4.56865507E+01
 11
1.75838200E+02
 21
-5.76865507E+01
  0
LINE
  8
0
 62
4
 10
1.91338200E+02
 20
-5.76865507E+01
 11
1.90338200E+02
 21
-5.86865507E+01
  0
LINE
  8
0
 62
4
 10
1.76838200E+02
 20
-5.86865507E+01
 11
1.75838200E+02
 21
-5.76865507E+01
  0
LINE
  8
0
 62
4
 10
1.90838200E+02
 20
-4.51865507E+01
 11
1.76338200E+02
 21
-4.51865507E+01
  0
LINE
  8
0
 62
4
 10
1.90838200E+02
 20
-4.51865507E+01
 11
1.91338200E+02
 21
-4.56865507E+01
  0
LINE
  8
0
 62
4
 10
1.76338200E+02
 20
-4.51865507E+01
 11
1.75838200E+02
 21
-4.56865507E+01
  0
LINE
  8
0
 62
4
 10
1.89588200E+02
 20
-4.38965507E+01
 11
1.89588200E+02
 21
-4.51865507E+01
  0
LINE
  8
0
 62
4
 10
1.77588200E+02
 20
-4.38965507E+01
 11
1.77588200E+02
 21
-4.51865507E+01
  0
LINE
  8
0
 62
6
 10
1.78338200E+02
 20
-4.38965507E+01
 11
1.78338200E+02
 21
-4.51865507E+01
  0
LINE
  8
0
 62
6
 10
1.88838200E+02
 20
-4.38965507E+01
 11
1.88838200E+02
 21
-4.51865507E+01
  0
LINE
  8
0
 62
4
 10
1.82088200E+02
 20
-4.81865507E+01
 11
1.82088200E+02
 21
-5.76865507E+01
  0
LINE
  8
0
 62
4
 10
1.85088200E+02
 20
-4.81865507E+01
 11
1.85088200E+02
 21
-5.76865507E+01
  0
LINE
  8
0
 62
4
 10
1.85428200E+02
 20
-4.84765507E+01
 11
1.85428200E+02
 21
-5.81865507E+01
  0
LINE
  8
0
 62
4
 10
1.81748200E+02
 20
-4.84765507E+01
 11
1.81748200E+02
 21
-5.81865507E+01
  0
LINE
  8
0
 62
4
 10
1.79928200E+02
 20
-4.84765507E+01
 11
1.79928200E+02
 21
-5.81865507E+01
  0
LINE
  8
0
 62
4
 10
1.79268200E+02
 20
-4.81865507E+01
 11
1.79268200E+02
 21
-5.76865507E+01
  0
LINE
  8
0
 62
4
 10
1.77148200E+02
 20
-4.81865507E+01
 11
1.77148200E+02
 21
-5.76865507E+01
  0
LINE
  8
0
 62
4
 10
1.76578200E+02
 20
-4.84765507E+01
 11
1.76578200E+02
 21
-5.81865507E+01
  0
LINE
  8
0
 62
4
 10
1.75978200E+02
 20
-4.81865507E+01
 11
1.75978200E+02
 21
-5.76865507E+01
  0
LINE
  8
0
 62
4
 10
1.87238200E+02
 20
-4.84765507E+01
 11
1.87238200E+02
 21
-5.81865507E+01
  0
LINE
  8
0
 62
4
 10
1.87898200E+02
 20
-4.81865507E+01
 11
1.87898200E+02
 21
-5.76865507E+01
  0
LINE
  8
0
 62
4
 10
1.90028200E+02
 20
-4.81865507E+01
 11
1.90028200E+02
 21
-5.76865507E+01
  0
LINE
  8
0
 62
4
 10
1.90598200E+02
 20
-4.84765507E+01
 11
1.90598200E+02
 21
-5.81865507E+01
  0
LINE
  8
0
 62
4
 10
1.91188200E+02
 20
-4.81865507E+01
 11
1.91188200E+02
 21
-5.76865507E+01
  0
LINE
  8
0
 62
4
 10
1.91188200E+02
 20
-4.81865507E+01
 11
1.90028200E+02
 21
-4.81865507E+01
  0
LINE
  8
0
 62
4
 10
1.90598200E+02
 20
-4.84765507E+01
 11
1.90028200E+02
 21
-4.84765507E+01
  0
LINE
  8
0
 62
4
 10
1.91338200E+02
 20
-5.76865507E+01
 11
1.91188200E+02
 21
-5.76865507E+01
  0
LINE
  8
0
 62
4
 10
1.82088200E+02
 20
-4.81865507E+01
 11
1.79268200E+02
 21
-4.81865507E+01
  0
LINE
  8
0
 62
4
 10
1.81748200E+02
 20
-4.84765507E+01
 11
1.79928200E+02
 21
-4.84765507E+01
  0
LINE
  8
0
 62
4
 10
1.87898200E+02
 20
-4.81865507E+01
 11
1.85088200E+02
 21
-4.81865507E+01
  0
LINE
  8
0
 62
4
 10
1.87238200E+02
 20
-4.84765507E+01
 11
1.85428200E+02
 21
-4.84765507E+01
  0
LINE
  8
0
 62
4
 10
1.77148200E+02
 20
-4.81865507E+01
 11
1.75978200E+02
 21
-4.81865507E+01
  0
LINE
  8
0
 62
4
 10
1.77148200E+02
 20
-4.84765507E+01
 11
1.76578200E+02
 21
-4.84765507E+01
  0
LINE
  8
0
 62
4
 10
1.85088200E+02
 20
-5.76865507E+01
 11
1.82088200E+02
 21
-5.76865507E+01
  0
LINE
  8
0
 62
4
 10
1.79268200E+02
 20
-5.76865507E+01
 11
1.77148200E+02
 21
-5.76865507E+01
  0
LINE
  8
0
 62
4
 10
1.75978200E+02
 20
-5.76865507E+01
 11
1.75838200E+02
 21
-5.76865507E+01
  0
LINE
  8
0
 62
4
 10
1.90028200E+02
 20
-5.76865507E+01
 11
1.87898200E+02
 21
-5.76865507E+01
  0
LINE
  8
0
 62
4
 10
1.87238200E+02
 20
-5.81865507E+01
 11
1.85428200E+02
 21
-5.81865507E+01
  0
LINE
  8
0
 62
4
 10
1.90598200E+02
 20
-5.81865507E+01
 11
1.91188200E+02
 21
-5.76865507E+01
  0
LINE
  8
0
 62
4
 10
1.87238200E+02
 20
-5.81865507E+01
 11
1.87898200E+02
 21
-5.76865507E+01
  0
LINE
  8
0
 62
4
 10
1.85428200E+02
 20
-5.81865507E+01
 11
1.85088200E+02
 21
-5.76865507E+01
  0
LINE
  8
0
 62
4
 10
1.82088200E+02
 20
-5.76865507E+01
 11
1.81748200E+02
 21
-5.81865507E+01
  0
LINE
  8
0
 62
4
 10
1.79928200E+02
 20
-5.81865507E+01
 11
1.79268200E+02
 21
-5.76865507E+01
  0
LINE
  8
0
 62
4
 10
1.76578200E+02
 20
-5.81865507E+01
 11
1.75978200E+02
 21
-5.76865507E+01
  0
LINE
  8
0
 62
4
 10
1.76578200E+02
 20
-4.84765507E+01
 11
1.75978200E+02
 21
-4.81865507E+01
  0
LINE
  8
0
 62
4
 10
1.79928200E+02
 20
-4.84765507E+01
 11
1.79268200E+02
 21
-4.81865507E+01
  0
LINE
  8
0
 62
4
 10
1.81748200E+02
 20
-4.84765507E+01
 11
1.82088200E+02
 21
-4.81865507E+01
  0
LINE
  8
0
 62
4
 10
1.85428200E+02
 20
-4.84765507E+01
 11
1.85088200E+02
 21
-4.81865507E+01
  0
LINE
  8
0
 62
4
 10
1.87238200E+02
 20
-4.84765507E+01
 11
1.87898200E+02
 21
-4.81865507E+01
  0
LINE
  8
0
 62
4
 10
1.90598200E+02
 20
-4.84765507E+01
 11
1.91188200E+02
 21
-4.81865507E+01
  0
LINE
  8
0
 62
4
 10
1.90028200E+02
 20
-5.76865507E+01
 11
1.89848200E+02
 21
-5.81865507E+01
  0
LINE
  8
0
 62
4
 10
1.77148200E+02
 20
-5.76865507E+01
 11
1.77328200E+02
 21
-5.81865507E+01
  0
LINE
  8
0
 62
4
 10
1.81748200E+02
 20
-5.81865507E+01
 11
1.79928200E+02
 21
-5.81865507E+01
  0
LINE
  8
0
 62
4
 10
1.90598200E+02
 20
-5.81865507E+01
 11
1.89848200E+02
 21
-5.81865507E+01
  0
LINE
  8
0
 62
4
 10
1.77328200E+02
 20
-5.81865507E+01
 11
1.76578200E+02
 21
-5.81865507E+01
  0
LINE
  8
0
 62
4
 10
1.91338200E+02
 20
-4.56865507E+01
 11
1.75838200E+02
 21
-4.56865507E+01
  0
LINE
  8
0
 62
4
 10
1.89588200E+02
 20
-6.01865507E+01
 11
1.77588200E+02
 21
-6.01865507E+01
  0
LINE
  8
0
 62
4
 10
1.90088200E+02
 20
-5.96865507E+01
 11
1.90088200E+02
 21
-5.86865507E+01
  0
LINE
  8
0
 62
4
 10
1.77088200E+02
 20
-5.96865507E+01
 11
1.77088200E+02
 21
-5.86865507E+01
  0
LINE
  8
0
 62
4
 10
1.77088200E+02
 20
-5.96865507E+01
 11
1.77588200E+02
 21
-6.01865507E+01
  0
LINE
  8
0
 62
4
 10
1.89588200E+02
 20
-6.01865507E+01
 11
1.90088200E+02
 21
-5.96865507E+01
  0
LINE
  8
0
 62
4
 10
1.86418200E+02
 20
-6.71865507E+01
 11
1.80758200E+02
 21
-6.71865507E+01
  0
LINE
  8
0
 62
4
 10
1.80338200E+02
 20
-6.47865507E+01
 11
1.80338200E+02
 21
-6.45865507E+01
  0
LINE
  8
0
 62
4
 10
1.86838200E+02
 20
-6.47865507E+01
 11
1.86838200E+02
 21
-6.45865507E+01
  0
LINE
  8
0
 62
4
 10
1.86838200E+02
 20
-6.45865507E+01
 11
1.80338200E+02
 21
-6.45865507E+01
  0
LINE
  8
0
 62
4
 10
1.86838200E+02
 20
-6.19865507E+01
 11
1.80338200E+02
 21
-6.19865507E+01
  0
LINE
  8
0
 62
4
 10
1.86838200E+02
 20
-6.21865507E+01
 11
1.80338200E+02
 21
-6.21865507E+01
  0
LINE
  8
0
 62
4
 10
1.86838200E+02
 20
-6.47865507E+01
 11
1.80338200E+02
 21
-6.47865507E+01
  0
LINE
  8
0
 62
4
 10
1.80338200E+02
 20
-6.21865507E+01
 11
1.80338200E+02
 21
-6.19865507E+01
  0
LINE
  8
0
 62
4
 10
1.86838200E+02
 20
-6.21865507E+01
 11
1.86838200E+02
 21
-6.19865507E+01
  0
LINE
  8
0
 62
4
 10
1.80338200E+02
 20
-6.21865507E+01
 11
1.80758200E+02
 21
-6.45865507E+01
  0
LINE
  8
0
 62
4
 10
1.80338200E+02
 20
-6.47865507E+01
 11
1.80758200E+02
 21
-6.71865507E+01
  0
LINE
  8
0
 62
4
 10
1.86838200E+02
 20
-6.47865507E+01
 11
1.86418200E+02
 21
-6.71865507E+01
  0
LINE
  8
0
 62
4
 10
1.86838200E+02
 20
-6.21865507E+01
 11
1.86418200E+02
 21
-6.45865507E+01
  0
LINE
  8
0
 62
4
 10
1.86438200E+02
 20
-6.19865507E+01
 11
1.86438200E+02
 21
-6.01865507E+01
  0
LINE
  8
0
 62
4
 10
1.80738200E+02
 20
-6.19865507E+01
 11
1.80738200E+02
 21
-6.01865507E+01
  0
LINE
  8
0
 62
4
 10
1.77088200E+02
 20
-5.96865507E+01
 11
1.90088200E+02
 21
-5.96865507E+01
  0
LINE
  8
0
 62
4
 10
1.75508200E+02
 20
-4.33965507E+01
 11
1.91658200E+02
 21
-4.33965507E+01
  0
CIRCLE
  8
0
 62
4
 10
-3.27616742E+02
 20
-1.72997652E+02
 40
1.75000003E+01
  0
CIRCLE
  8
0
 62
4
 10
-3.27616742E+02
 20
-1.72997652E+02
 40
2.07500000E+01
  0
CIRCLE
  8
0
 62
4
 10
-3.27616742E+02
 20
-1.72997652E+02
 40
2.12500000E+01
  0
LINE
  8
0
  6
CENTER
 62
2
 10
-3.27616742E+02
 20
-1.28997652E+02
 11
-3.27616742E+02
 21
-2.21754796E+02
  0
LINE
  8
0
  6
CENTER
 62
2
 10
-2.87555918E+02
 20
-1.72997652E+02
 11
-3.77688172E+02
 21
-1.72997652E+02
  0
LINE
  8
0
 62
4
 10
-3.39026743E+02
 20
-1.76697653E+02
 11
-3.29076742E+02
 21
-1.72687652E+02
  0
LINE
  8
0
 62
4
 10
-3.39026743E+02
 20
-1.76697653E+02
 11
-3.28616742E+02
 21
-1.74107652E+02
  0
LINE
  8
0
 62
4
 10
-3.26776742E+02
 20
-1.71757652E+02
 11
-3.23366742E+02
 21
-1.70377652E+02
  0
LINE
  8
0
 62
4
 10
-3.26206742E+02
 20
-1.73507652E+02
 11
-3.22636742E+02
 21
-1.72617652E+02
  0
LINE
  8
0
 62
4
 10
-3.21916742E+02
 20
-1.71147652E+02
 11
-3.22636742E+02
 21
-1.72617652E+02
  0
LINE
  8
0
 62
4
 10
-3.23366742E+02
 20
-1.70377652E+02
 11
-3.21916742E+02
 21
-1.71147652E+02
  0
ARC
  8
0
 62
4
 10
-3.27613597E+02
 20
-1.72996867E+02
 40
1.49671067E+00
 50
2.27914952E+02
 51
3.40045629E+02
  0
ARC
  8
0
 62
4
 10
-3.27613846E+02
 20
-1.72996483E+02
 40
1.49513991E+00
 50
5.59523004E+01
 51
1.68079377E+02
  0
LINE
  8
0
  6
CENTER
 62
2
 10
-1.88331025E+02
 20
-1.72997652E+02
 11
-2.73856837E+02
 21
-1.72997652E+02
  0
LINE
  8
0
 62
6
 10
-2.34839396E+02
 20
-1.65997652E+02
 11
-2.30354867E+02
 21
-1.74368773E+02
  0
LINE
  8
0
 62
6
 10
-2.34839396E+02
 20
-1.79997652E+02
 11
-2.30232584E+02
 21
-1.71398269E+02
  0
LINE
  8
0
 62
4
 10
-2.34839396E+02
 20
-1.65997652E+02
 11
-2.30010263E+02
 21
-1.65997652E+02
  0
LINE
  8
0
 62
4
 10
-2.34839396E+02
 20
-1.79997652E+02
 11
-2.30586585E+02
 21
-1.79997652E+02
  0
ARC
  8
0
 62
4
 10
-2.36839395E+02
 20
-1.53997651E+02
 40
1.99999847E+00
 50
3.59999956E+02
 51
9.00000002E+01
  0
ARC
  8
0
 62
4
 10
-2.36839395E+02
 20
-1.91997654E+02
 40
1.99999847E+00
 50
2.70000000E+02
 51
4.37132276E-05
  0
LINE
  8
0
 62
4
 10
-2.34839396E+02
 20
-1.53997652E+02
 11
-2.34839396E+02
 21
-1.91997652E+02
  0
LINE
  8
0
 62
4
 10
-2.61339396E+02
 20
-1.52747652E+02
 11
-2.61339396E+02
 21
-1.93247652E+02
  0
LINE
  8
0
 62
4
 10
-2.58339396E+02
 20
-1.51747652E+02
 11
-2.58339396E+02
 21
-1.94247652E+02
  0
LINE
  8
0
 62
4
 10
-2.60339396E+02
 20
-1.51747652E+02
 11
-2.60339396E+02
 21
-1.94247652E+02
  0
LINE
  8
0
 62
4
 10
-2.61339396E+02
 20
-1.52747652E+02
 11
-2.60339396E+02
 21
-1.51747652E+02
  0
LINE
  8
0
 62
4
 10
-2.60339396E+02
 20
-1.51747652E+02
 11
-2.58339396E+02
 21
-1.51747652E+02
  0
LINE
  8
0
 62
4
 10
-2.61339396E+02
 20
-1.93247652E+02
 11
-2.60339396E+02
 21
-1.94247652E+02
  0
LINE
  8
0
 62
4
 10
-2.60339396E+02
 20
-1.94247652E+02
 11
-2.58339396E+02
 21
-1.94247652E+02
  0
LINE
  8
0
 62
4
 10
-2.58339396E+02
 20
-1.93997652E+02
 11
-2.36839396E+02
 21
-1.93997652E+02
  0
LINE
  8
0
 62
4
 10
-2.58339396E+02
 20
-1.51997652E+02
 11
-2.36839396E+02
 21
-1.51997652E+02
  0
LINE
  8
0
  6
CENTER
 62
2
 10
-1.88331025E+02
 20
-1.24854794E+02
 11
-1.88331025E+02
 21
-2.33369082E+02
  0
LINE
  8
0
  6
CENTER
 62
6
 10
-8.68453106E+01
 20
-1.92997653E+02
 11
-7.98453105E+01
 21
-1.92997653E+02
  0
LINE
  8
0
  6
CENTER
 62
6
 10
-4.68453099E+01
 20
-1.52997652E+02
 11
-3.98453098E+01
 21
-1.52997652E+02
  0
LINE
  8
0
  6
CENTER
 62
6
 10
-8.68453106E+01
 20
-1.52997652E+02
 11
-7.98453105E+01
 21
-1.52997652E+02
  0
CIRCLE
  8
0
 62
4
 10
-4.33453098E+01
 20
-1.53006247E+02
 40
2.25000004E+00
  0
CIRCLE
  8
0
 62
6
 10
-4.33453098E+01
 20
-1.53006247E+02
 40
2.00000003E+00
  0
CIRCLE
  8
0
 62
4
 10
-4.33453098E+01
 20
-1.53006247E+02
 40
1.62099936E+00
  0
CIRCLE
  8
0
 62
4
 10
-6.33453102E+01
 20
-1.72997652E+02
 40
2.25000004E+01
  0
CIRCLE
  8
0
 62
4
 10
-4.33394069E+01
 20
-1.53018591E+02
 40
1.62099977E+00
  0
CIRCLE
  8
0
 62
4
 10
-4.33394069E+01
 20
-1.53018591E+02
 40
1.99999949E+00
  0
CIRCLE
  8
0
 62
4
 10
-4.33394069E+01
 20
-1.53018591E+02
 40
2.24999977E+00
  0
LINE
  8
0
  6
CENTER
 62
6
 10
-8.68453106E+01
 20
-1.53006247E+02
 11
-7.98453105E+01
 21
-1.53006247E+02
  0
LINE
  8
0
  6
CENTER
 62
6
 10
-4.68453099E+01
 20
-1.53006247E+02
 11
-3.98453098E+01
 21
-1.53006247E+02
  0
LINE
  8
0
  6
CENTER
 62
6
 10
-8.68453106E+01
 20
-1.93006248E+02
 11
-7.98453105E+01
 21
-1.93006248E+02
  0
LINE
  8
0
  6
CENTER
 62
2
 10
-6.33453102E+01
 20
-1.28997652E+02
 11
-6.33453102E+01
 21
-2.21754796E+02
  0
LINE
  8
0
  6
CENTER
 62
2
 10
-2.32844846E+01
 20
-1.72997652E+02
 11
-1.03419152E+02
 21
-1.72997652E+02
  0
CIRCLE
  8
0
 62
4
 10
-8.33393640E+01
 20
-1.93018613E+02
 40
2.24999977E+00
  0
CIRCLE
  8
0
 62
6
 10
-8.33393640E+01
 20
-1.93018613E+02
 40
1.99999949E+00
  0
CIRCLE
  8
0
 62
4
 10
-8.33393640E+01
 20
-1.93018613E+02
 40
1.62099977E+00
  0
CIRCLE
  8
0
 62
4
 10
-8.33393640E+01
 20
-1.53018591E+02
 40
2.24999977E+00
  0
LINE
  8
0
 62
4
 10
-6.18448793E+01
 20
-1.71007425E+02
 11
-5.69448794E+01
 21
-1.68397425E+02
  0
LINE
  8
0
 62
4
 10
-5.69448794E+01
 20
-1.68397425E+02
 11
-5.57048795E+01
 21
-1.69277425E+02
  0
LINE
  8
0
 62
4
 10
-5.57048795E+01
 20
-1.69277425E+02
 11
-5.57748795E+01
 21
-1.70787425E+02
  0
INSERT
  8
0
  2
PP1
  6
BYBLOCK
 62
0
 10
0.00000000E+00
 20
0.00000000E+00
 41
1.00000000E+00
 42
1.00000000E+00
 50
0.00000000E+00
  0
LINE
  8
0
 62
4
 10
-7.76978712E+01
 20
-1.70731416E+02
 11
-6.65135237E+01
 21
-1.71504274E+02
  0
ARC
  8
0
 62
4
 10
-7.91221444E+01
 20
-1.80693654E+02
 40
4.45083175E-01
 50
1.17096987E+02
 51
2.94881480E+02
  0
ARC
  8
0
 62
4
 10
-7.77364131E+01
 20
-1.71223610E+02
 40
4.93700752E-01
 50
8.55225138E+01
 51
2.60461526E+02
  0
ARC
  8
0
 62
4
 10
-6.33431288E+01
 20
-1.72979390E+02
 40
3.49676562E+00
 50
2.21827547E+02
 51
6.17427376E+00
  0
LINE
  8
0
 62
4
 10
-7.93248790E+01
 20
-1.80297424E+02
 11
-6.58348793E+01
 21
-1.73117425E+02
  0
LINE
  8
0
 62
4
 10
-7.89348790E+01
 20
-1.81097424E+02
 11
-6.49748793E+01
 21
-1.74877425E+02
  0
LINE
  8
0
 62
4
 10
-6.08448794E+01
 20
-1.73037425E+02
 11
-5.57748795E+01
 21
-1.70787425E+02
  0
CIRCLE
  8
0
 62
4
 10
-6.33453102E+01
 20
-1.72997652E+02
 40
2.49244851E+00
  0
CIRCLE
  8
0
 62
4
 10
-6.33453102E+01
 20
-1.72997652E+02
 40
1.99999996E+00
  0
LINE
  8
0
 62
4
 10
-7.78182242E+01
 20
-1.71710485E+02
 11
-6.68390186E+01
 21
-1.73651836E+02
  0
CIRCLE
  8
0
 62
4
 10
-8.33453105E+01
 20
-1.53006247E+02
 40
2.25000004E+00
  0
CIRCLE
  8
0
 62
4
 10
-8.33453105E+01
 20
-1.93006248E+02
 40
1.62099936E+00
  0
CIRCLE
  8
0
 62
4
 10
-8.33453105E+01
 20
-1.93006248E+02
 40
2.00000003E+00
  0
CIRCLE
  8
0
 62
4
 10
-8.33453105E+01
 20
-1.93006248E+02
 40
2.25000004E+00
  0
LINE
  8
0
  6
CENTER
 62
6
 10
-8.33453105E+01
 20
-1.89497653E+02
 11
-8.33453105E+01
 21
-1.96506248E+02
  0
LINE
  8
0
  6
CENTER
 62
6
 10
-8.33453105E+01
 20
-1.49497652E+02
 11
-8.33453105E+01
 21
-1.56506247E+02
  0
LINE
  8
0
  6
CENTER
 62
6
 10
-4.33453098E+01
 20
-1.49497652E+02
 11
-4.33453098E+01
 21
-1.56506247E+02
  0
ARC
  8
0
 62
4
 10
-6.33431288E+01
 20
-1.72979390E+02
 40
3.49676562E+00
 50
4.52784072E+01
 51
1.55048472E+02
  0
LINE
  8
0
 62
4
 10
-3.70953097E+01
 20
-1.51747652E+02
 11
-3.70953097E+01
 21
-1.94247653E+02
  0
LINE
  8
0
 62
4
 10
-8.95953106E+01
 20
-1.51747652E+02
 11
-8.95953106E+01
 21
-1.94247653E+02
  0
LINE
  8
0
 62
4
 10
-4.20953097E+01
 20
-1.99247652E+02
 11
-8.45953106E+01
 21
-1.99247652E+02
  0
LINE
  8
0
 62
4
 10
-4.20953097E+01
 20
-1.46747652E+02
 11
-8.45953106E+01
 21
-1.46747652E+02
  0
ARC
  8
0
 62
4
 10
-4.20953097E+01
 20
-1.51747652E+02
 40
5.00000000E+00
 50
0.00000000E+00
 51
9.00000002E+01
  0
ARC
  8
0
 62
4
 10
-8.45953106E+01
 20
-1.51747652E+02
 40
5.00000000E+00
 50
9.00000002E+01
 51
1.80000000E+02
  0
ARC
  8
0
 62
4
 10
-8.45953106E+01
 20
-1.94247652E+02
 40
5.00000000E+00
 50
1.80000000E+02
 51
2.70000000E+02
  0
ARC
  8
0
 62
4
 10
-4.20953097E+01
 20
-1.94247652E+02
 40
5.00000000E+00
 50
2.70000000E+02
 51
0.00000000E+00
  0
ARC
  8
0
 62
4
 10
3.14459667E+01
 20
-1.97253214E+02
 40
1.99444708E+00
 50
2.69840254E+02
 51
1.59746172E-01
  0
ARC
  8
0
 62
4
 10
3.14407579E+01
 20
-1.48747300E+02
 40
1.99964816E+00
 50
3.59989917E+02
 51
9.00000002E+01
  0
LINE
  8
0
  6
CENTER
 62
2
 10
8.09404068E+01
 20
-1.72997652E+02
 11
-9.76485716E+00
 21
-1.72997652E+02
  0
LINE
  8
0
 62
4
 10
1.44040547E+00
 20
-1.46747652E+02
 11
3.14404060E+01
 21
-1.46747652E+02
  0
LINE
  8
0
 62
4
 10
1.44040547E+00
 20
-1.99247653E+02
 11
3.14404060E+01
 21
-1.99247653E+02
  0
LINE
  8
0
 62
4
 10
-1.55959458E+00
 20
-1.49747652E+02
 11
-1.55959458E+00
 21
-1.96247653E+02
  0
LINE
  8
0
  6
PHANTOM
 62
6
 10
1.40404057E+01
 20
-2.07247653E+02
 11
1.40404057E+01
 21
-2.29747653E+02
  0
LINE
  8
0
  6
PHANTOM
 62
6
 10
2.88404059E+01
 20
-2.07247653E+02
 11
2.88404059E+01
 21
-2.29747653E+02
  0
LINE
  8
0
  6
PHANTOM
 62
6
 10
2.83404059E+01
 20
-2.30247653E+02
 11
1.45404057E+01
 21
-2.30247653E+02
  0
LINE
  8
0
  6
PHANTOM
 62
6
 10
1.86404058E+01
 20
-2.31419082E+02
 11
1.86404058E+01
 21
-2.30747653E+02
  0
LINE
  8
0
  6
PHANTOM
 62
6
 10
2.42404059E+01
 20
-2.31419082E+02
 11
2.42404059E+01
 21
-2.30747653E+02
  0
LINE
  8
0
  6
PHANTOM
 62
6
 10
1.81975486E+01
 20
-2.30747653E+02
 11
2.46975487E+01
 21
-2.30747653E+02
  0
LINE
  8
0
  6
PHANTOM
 62
6
 10
1.81975486E+01
 20
-2.30747653E+02
 11
1.81975486E+01
 21
-2.30247653E+02
  0
LINE
  8
0
  6
PHANTOM
 62
6
 10
2.46975487E+01
 20
-2.30747653E+02
 11
2.46975487E+01
 21
-2.30247653E+02
  0
LINE
  8
0
  6
PHANTOM
 62
6
 10
1.40404057E+01
 20
-2.07747653E+02
 11
2.88404059E+01
 21
-2.07747653E+02
  0
LINE
  8
0
 62
4
 10
3.04404060E+01
 20
-1.46747652E+02
 11
3.04404060E+01
 21
-1.99247653E+02
  0
LINE
  8
0
  6
PHANTOM
 62
6
 10
1.34404057E+01
 20
-1.99247653E+02
 11
1.34404057E+01
 21
-2.07247653E+02
  0
LINE
  8
0
  6
PHANTOM
 62
6
 10
1.34404057E+01
 20
-2.07247653E+02
 11
2.94404059E+01
 21
-2.07247653E+02
  0
LINE
  8
0
  6
PHANTOM
 62
6
 10
2.94404059E+01
 20
-1.99247653E+02
 11
2.94404059E+01
 21
-2.07247653E+02
  0
LINE
  8
0
  6
PHANTOM
 62
6
 10
1.34404057E+01
 20
-2.00247653E+02
 11
2.94404059E+01
 21
-2.00247653E+02
  0
LINE
  8
0
  6
PHANTOM
 62
6
 10
2.24404058E+01
 20
-2.00247653E+02
 11
2.24404058E+01
 21
-2.11976225E+02
  0
LINE
  8
0
  6
PHANTOM
 62
6
 10
2.04404058E+01
 20
-2.00247653E+02
 11
2.04404058E+01
 21
-2.12519082E+02
  0
LINE
  8
0
 62
6
 10
1.79404057E+01
 20
-2.13190510E+02
 11
2.49404059E+01
 21
-2.11304796E+02
  0
LINE
  8
0
 62
6
 10
1.79404057E+01
 20
-2.14219082E+02
 11
2.49404059E+01
 21
-2.12347653E+02
  0
LINE
  8
0
  6
PHANTOM
 62
6
 10
2.04404058E+01
 20
-2.20247653E+02
 11
2.24404058E+01
 21
-2.20247653E+02
  0
LINE
  8
0
  6
PHANTOM
 62
6
 10
2.24404058E+01
 20
-2.13019082E+02
 11
2.24404058E+01
 21
-2.20247653E+02
  0
LINE
  8
0
  6
PHANTOM
 62
6
 10
2.04404058E+01
 20
-2.13547653E+02
 11
2.04404058E+01
 21
-2.20247653E+02
  0
LINE
  8
0
  6
PHANTOM
 62
6
 10
2.09404058E+01
 20
-2.25247653E+02
 11
2.19404058E+01
 21
-2.25247653E+02
  0
LINE
  8
0
  6
PHANTOM
 62
6
 10
2.19404058E+01
 20
-2.20247653E+02
 11
2.19404058E+01
 21
-2.25247653E+02
  0
LINE
  8
0
  6
PHANTOM
 62
6
 10
2.09404058E+01
 20
-2.20247653E+02
 11
2.09404058E+01
 21
-2.25247653E+02
  0
LINE
  8
0
  6
PHANTOM
 62
6
 10
1.89404058E+01
 20
-2.00247653E+02
 11
1.89404058E+01
 21
-2.12919082E+02
  0
LINE
  8
0
  6
PHANTOM
 62
6
 10
2.39404058E+01
 20
-2.00247653E+02
 11
2.39404058E+01
 21
-2.11576225E+02
  0
LINE
  8
0
  6
PHANTOM
 62
6
 10
1.79975486E+01
 20
-2.18833368E+02
 11
1.94118343E+01
 21
-2.20247653E+02
  0
LINE
  8
0
  6
PHANTOM
 62
6
 10
1.48118343E+01
 20
-2.22719082E+02
 11
1.55118343E+01
 21
-2.23419082E+02
  0
LINE
  8
0
  6
PHANTOM
 62
6
 10
1.55118343E+01
 20
-2.23419082E+02
 11
1.90546915E+01
 21
-2.19890510E+02
  0
LINE
  8
0
  6
PHANTOM
 62
6
 10
1.48118343E+01
 20
-2.22719082E+02
 11
1.83404058E+01
 21
-2.19176225E+02
  0
LINE
  8
0
  6
PHANTOM
 62
6
 10
2.48832630E+01
 20
-2.18833368E+02
 11
2.34689773E+01
 21
-2.20247653E+02
  0
LINE
  8
0
  6
PHANTOM
 62
6
 10
2.80689773E+01
 20
-2.22719082E+02
 11
2.45404059E+01
 21
-2.19176225E+02
  0
LINE
  8
0
  6
PHANTOM
 62
6
 10
2.80689773E+01
 20
-2.22719082E+02
 11
2.73689773E+01
 21
-2.23419082E+02
  0
LINE
  8
0
  6
PHANTOM
 62
6
 10
2.73689773E+01
 20
-2.23419082E+02
 11
2.38261201E+01
 21
-2.19890510E+02
  0
LINE
  8
0
  6
PHANTOM
 62
6
 10
1.89404058E+01
 20
-2.13947653E+02
 11
1.89404058E+01
 21
-2.16247653E+02
  0
LINE
  8
0
  6
PHANTOM
 62
6
 10
2.39404058E+01
 20
-2.12619082E+02
 11
2.39404058E+01
 21
-2.16247653E+02
  0
ARC
  8
0
 62
4
 10
1.44598802E+00
 20
-1.49753235E+02
 40
3.00558779E+00
 50
9.01064208E+01
 51
1.79893579E+02
  0
ARC
  8
0
 62
4
 10
1.44077032E+00
 20
-1.96247288E+02
 40
3.00036492E+00
 50
1.80006968E+02
 51
2.70000000E+02
  0
ARC
  8
0
  6
PHANTOM
 62
6
 10
2.83459788E+01
 20
-2.29753226E+02
 40
4.94458585E-01
 50
2.69354230E+02
 51
6.45769679E-01
  0
ARC
  8
0
  6
PHANTOM
 62
6
 10
1.45407975E+01
 20
-2.29747262E+02
 40
5.00391979E-01
 50
1.80044864E+02
 51
2.70000000E+02
  0
ARC
  8
0
  6
PHANTOM
 62
6
 10
2.14404058E+01
 20
-2.27652837E+02
 40
4.99770997E+00
 50
2.40550664E+02
 51
2.99449337E+02
  0
ARC
  8
0
  6
PHANTOM
 62
6
 10
1.93103423E+01
 20
-2.31420130E+02
 40
6.69937344E-01
 50
1.79910404E+02
 51
2.40776094E+02
  0
ARC
  8
0
  6
PHANTOM
 62
6
 10
2.35793229E+01
 20
-2.31425312E+02
 40
6.61112338E-01
 50
2.98773551E+02
 51
5.39950887E-01
  0
ARC
  8
0
  6
PHANTOM
 62
6
 10
1.49453343E+01
 20
-2.16255646E+02
 40
3.99507945E+00
 50
3.19817522E+02
 51
1.14631132E-01
  0
ARC
  8
0
  6
PHANTOM
 62
6
 10
1.49492971E+01
 20
-2.16248267E+02
 40
5.99243935E+00
 50
3.18132875E+02
 51
3.36396673E+02
  0
ARC
  8
0
  6
PHANTOM
 62
6
 10
2.79459507E+01
 20
-2.16251827E+02
 40
4.00554706E+00
 50
1.79940296E+02
 51
2.20127550E+02
  0
ARC
  8
0
  6
PHANTOM
 62
6
 10
2.79399191E+01
 20
-2.16242864E+02
 40
6.00230429E+00
 50
2.03618464E+02
 51
2.21851988E+02
  0
LINE
  8
0
 62
4
 10
3.89689775E+01
 20
-1.72990510E+02
 11
3.34404060E+01
 21
-1.72990510E+02
  0
LINE
  8
0
 62
4
 10
3.86832632E+01
 20
-1.79990510E+02
 11
3.34404060E+01
 21
-1.79990510E+02
  0
LINE
  8
0
 62
4
 10
3.92546918E+01
 20
-1.65990509E+02
 11
3.34404060E+01
 21
-1.65990509E+02
  0
LINE
  8
0
 62
4
 10
3.34404060E+01
 20
-1.48747652E+02
 11
3.34404060E+01
 21
-1.97247653E+02
  0
LINE
  8
0
  6
CENTER
 62
2
 10
8.09404068E+01
 20
-1.26997652E+02
 11
8.09404068E+01
 21
-2.33369082E+02
  0
LINE
  8
0
  6
CENTER
 62
2
 10
2.09244637E+02
 20
-1.27711937E+02
 11
2.09244637E+02
 21
-2.21754796E+02
  0
LINE
  8
0
 62
4
 10
1.95994637E+02
 20
-1.58497652E+02
 11
2.22494637E+02
 21
-1.58497652E+02
  0
LINE
  8
0
 62
4
 10
2.11094637E+02
 20
-2.08400153E+02
 11
2.11094637E+02
 21
-1.92997652E+02
  0
LINE
  8
0
 62
4
 10
2.07394637E+02
 20
-2.07052296E+02
 11
2.07394637E+02
 21
-1.92997652E+02
  0
LINE
  8
0
 62
4
 10
1.95994637E+02
 20
-1.87497652E+02
 11
2.22494637E+02
 21
-1.87497652E+02
  0
LINE
  8
0
 62
4
 10
1.94994637E+02
 20
-1.62847652E+02
 11
2.23494637E+02
 21
-1.62847652E+02
  0
LINE
  8
0
 62
4
 10
1.94994637E+02
 20
-1.63347652E+02
 11
2.23494637E+02
 21
-1.63347652E+02
  0
LINE
  8
0
  6
CENTER
 62
2
 10
2.49305461E+02
 20
-1.72997652E+02
 11
1.69544636E+02
 21
-1.72997652E+02
  0
LINE
  8
0
 62
4
 10
2.23744637E+02
 20
-1.57997652E+02
 11
1.94744637E+02
 21
-1.57997652E+02
  0
LINE
  8
0
 62
4
 10
1.94744637E+02
 20
-1.87997652E+02
 11
2.23744637E+02
 21
-1.87997652E+02
  0
ARC
  8
0
 62
4
 10
2.22494637E+02
 20
-1.59497652E+02
 40
1.00000000E+00
 50
0.00000000E+00
 51
9.00000002E+01
  0
LINE
  8
0
 62
4
 10
2.04844637E+02
 20
-1.92497652E+02
 11
2.04844637E+02
 21
-1.87997652E+02
  0
LINE
  8
0
 62
4
 10
2.13644637E+02
 20
-1.92497652E+02
 11
2.13644637E+02
 21
-1.87997652E+02
  0
LINE
  8
0
 62
6
 10
2.05344637E+02
 20
-1.88497652E+02
 11
2.05344637E+02
 21
-1.87997652E+02
  0
LINE
  8
0
 62
6
 10
2.13144637E+02
 20
-1.88497652E+02
 11
2.13144637E+02
 21
-1.87997652E+02
  0
LINE
  8
0
 62
4
 10
2.04844637E+02
 20
-1.88497652E+02
 11
2.13644637E+02
 21
-1.88497652E+02
  0
LINE
  8
0
 62
4
 10
2.22144637E+02
 20
-1.74347652E+02
 11
2.22144637E+02
 21
-1.63347652E+02
  0
LINE
  8
0
 62
4
 10
1.96344637E+02
 20
-1.74347652E+02
 11
1.96344637E+02
 21
-1.63347652E+02
  0
ARC
  8
0
 62
4
 10
2.22494637E+02
 20
-1.86497652E+02
 40
1.00000000E+00
 50
2.70000000E+02
 51
0.00000000E+00
  0
LINE
  8
0
 62
4
 10
2.23494637E+02
 20
-1.86497652E+02
 11
2.23494637E+02
 21
-1.59497652E+02
  0
LINE
  8
0
 62
4
 10
1.98369637E+02
 20
-1.83747652E+02
 11
2.02119637E+02
 21
-1.83747652E+02
  0
ARC
  8
0
 62
4
 10
2.16244637E+02
 20
-1.82747652E+02
 40
1.00000000E+00
 50
1.80000000E+02
 51
2.70000000E+02
  0
ARC
  8
0
 62
4
 10
2.16244637E+02
 20
-1.80997652E+02
 40
1.00000000E+00
 50
9.00000002E+01
 51
1.80000000E+02
  0
ARC
  8
0
 62
4
 10
2.20244637E+02
 20
-1.82747652E+02
 40
1.00000000E+00
 50
2.70000000E+02
 51
0.00000000E+00
  0
ARC
  8
0
 62
4
 10
2.20244637E+02
 20
-1.80997652E+02
 40
1.00000000E+00
 50
0.00000000E+00
 51
9.00000002E+01
  0
LINE
  8
0
 62
4
 10
2.21244637E+02
 20
-1.82747652E+02
 11
2.21244637E+02
 21
-1.80997652E+02
  0
LINE
  8
0
 62
4
 10
2.15244637E+02
 20
-1.82747652E+02
 11
2.15244637E+02
 21
-1.80997652E+02
  0
LINE
  8
0
 62
4
 10
2.16244637E+02
 20
-1.79997652E+02
 11
2.20244637E+02
 21
-1.79997652E+02
  0
LINE
  8
0
 62
4
 10
2.11119637E+02
 20
-1.80247652E+02
 11
2.09244637E+02
 21
-1.83747652E+02
  0
LINE
  8
0
 62
4
 10
2.07369637E+02
 20
-1.80247652E+02
 11
2.09244637E+02
 21
-1.83747652E+02
  0
LINE
  8
0
 62
4
 10
2.02119637E+02
 20
-1.83747652E+02
 11
2.00244637E+02
 21
-1.80247652E+02
  0
LINE
  8
0
 62
4
 10
2.00244637E+02
 20
-1.80247652E+02
 11
1.98369637E+02
 21
-1.83747652E+02
  0
LINE
  8
0
 62
4
 10
2.07369637E+02
 20
-1.80247652E+02
 11
2.11119637E+02
 21
-1.80247652E+02
  0
LINE
  8
0
 62
4
 10
2.16244637E+02
 20
-1.83747652E+02
 11
2.20244637E+02
 21
-1.83747652E+02
  0
LINE
  8
0
 62
4
 10
1.96344637E+02
 20
-1.74347652E+02
 11
2.22144637E+02
 21
-1.74347652E+02
  0
ARC
  8
0
 62
4
 10
2.13144637E+02
 20
-1.92497652E+02
 40
5.00000000E-01
 50
2.70000000E+02
 51
0.00000000E+00
  0
ARC
  8
0
 62
4
 10
2.05344637E+02
 20
-1.92497652E+02
 40
5.00000000E-01
 50
1.80000000E+02
 51
2.70000000E+02
  0
LINE
  8
0
 62
6
 10
2.13144637E+02
 20
-1.92997652E+02
 11
2.13144637E+02
 21
-1.91997652E+02
  0
LINE
  8
0
 62
6
 10
2.05344637E+02
 20
-1.92997652E+02
 11
2.05344637E+02
 21
-1.91997652E+02
  0
LINE
  8
0
 62
4
 10
2.04844637E+02
 20
-1.91997652E+02
 11
2.13644637E+02
 21
-1.91997652E+02
  0
LINE
  8
0
 62
4
 10
2.05344637E+02
 20
-1.92997652E+02
 11
2.13144637E+02
 21
-1.92997652E+02
  0
ARC
  8
0
 62
4
 10
1.95994637E+02
 20
-1.59497652E+02
 40
1.00000000E+00
 50
9.00000002E+01
 51
1.80000000E+02
  0
ARC
  8
0
 62
4
 10
1.95994637E+02
 20
-1.86497652E+02
 40
1.00000000E+00
 50
1.80000000E+02
 51
2.70000000E+02
  0
LINE
  8
0
 62
4
 10
1.94994637E+02
 20
-1.86497652E+02
 11
1.94994637E+02
 21
-1.59497652E+02
  0
LINE
  8
0
 62
4
 10
1.94244637E+02
 20
-1.87497652E+02
 11
1.94244637E+02
 21
-1.58497652E+02
  0
ARC
  8
0
 62
4
 10
1.94744637E+02
 20
-1.87497652E+02
 40
5.00000000E-01
 50
1.80000000E+02
 51
2.70000000E+02
  0
ARC
  8
0
 62
4
 10
1.94744637E+02
 20
-1.58497652E+02
 40
5.00000000E-01
 50
9.00000002E+01
 51
1.80000000E+02
  0
ARC
  8
0
 62
4
 10
2.23744637E+02
 20
-1.58497652E+02
 40
5.00000000E-01
 50
0.00000000E+00
 51
9.00000002E+01
  0
ARC
  8
0
 62
4
 10
2.23744637E+02
 20
-1.87497652E+02
 40
5.00000000E-01
 50
2.70000000E+02
 51
0.00000000E+00
  0
LINE
  8
0
 62
4
 10
2.24244637E+02
 20
-1.87497652E+02
 11
2.24244637E+02
 21
-1.58497652E+02
  0
LINE
  8
0
 62
4
 10
2.10987494E+02
 20
-2.10511939E+02
 11
2.10987494E+02
 21
-2.22140510E+02
  0
LINE
  8
0
 62
4
 10
2.07501780E+02
 20
-2.09226224E+02
 11
2.07501780E+02
 21
-2.21397653E+02
  0
LINE
  8
0
 62
6
 10
2.05244637E+02
 20
-2.06283367E+02
 11
2.13244637E+02
 21
-2.09197653E+02
  0
LINE
  8
0
 62
6
 10
2.05244637E+02
 20
-2.08411939E+02
 11
2.13244637E+02
 21
-2.11326225E+02
  0
LINE
  8
0
 62
4
 10
2.92030352E+02
 20
-1.57997652E+02
 11
3.02180443E+02
 21
-1.57997652E+02
  0
LINE
  8
0
 62
4
 10
2.92030352E+02
 20
-1.87997652E+02
 11
3.00945467E+02
 21
-1.87997652E+02
  0
LINE
  8
0
  6
CENTER
 62
2
 10
3.43530353E+02
 20
-1.72997652E+02
 11
2.66588536E+02
 21
-1.72997652E+02
  0
ARC
  8
0
 62
4
 10
2.92030352E+02
 20
-1.87497652E+02
 40
5.00000000E-01
 50
1.80000000E+02
 51
2.70000000E+02
  0
ARC
  8
0
 62
4
 10
2.92030352E+02
 20
-1.58497652E+02
 40
5.00000000E-01
 50
9.00000002E+01
 51
1.80000000E+02
  0
LINE
  8
0
 62
4
 10
2.91530352E+02
 20
-1.87497652E+02
 11
2.91530352E+02
 21
-1.58497652E+02
  0
LINE
  8
0
  6
CENTER
 62
2
 10
3.43530353E+02
 20
-1.24854794E+02
 11
3.43530353E+02
 21
-2.33369082E+02
  0
LINE
  8
0
 62
7
 10
1.94744637E+02
 20
-1.87997653E+02
 11
1.70856882E+02
 21
-1.87997653E+02
  0
LINE
  8
0
 62
7
 10
1.94744637E+02
 20
-1.57997652E+02
 11
1.66877334E+02
 21
-1.57997652E+02
  0
LINE
  8
0
 62
2
 10
1.49950585E+02
 20
-3.38337917E+00
 11
2.17053784E+02
 21
-2.13636271E+01
  0
TEXT
  8
0
 62
7
 10
1.45496161E+02
 20
-8.30042431E+01
 40
6.30000019E+00
  1
-E,-A,-F,-NE,-NA,-NF
 41
1.00000000E+00
  7
MONOTXT
  0
TEXT
  8
0
 62
7
 10
2.54924556E+02
 20
-2.67900000E+02
 40
6.30000019E+00
  1
-GS2
 41
1.00000000E+00
  7
MONOTXT
  0
TEXT
  8
0
 62
7
 10
-7.12753810E+01
 20
-2.67900000E+02
 40
6.30000019E+00
  1
-GS1A,-GS1B,-GS1C,-GS1D
 41
1.00000000E+00
  7
MONOTXT
  0
TEXT
  8
0
 62
7
 10
-2.77775314E+02
 20
-2.67900000E+02
 40
6.30000019E+00
  1
-G1A
 41
1.00000000E+00
  7
MONOTXT
  0
TEXT
  8
0
 62
7
 10
-7.84823738E+01
 20
1.60789155E+02
 40
6.30000019E+00
  1
OUT
 41
1.00000000E+00
  7
MONOTXT
  0
TEXT
  8
0
 62
7
 10
-3.88350281E+02
 20
-1.05566667E+02
 40
6.30000019E+00
  1
PRESSURE GAUGE
 41
1.04477612E+00
  7
MONOTXT
  0
LINE
  8
0
 62
7
 10
-2.49250000E+02
 20
2.76250000E+02
 11
-2.49250000E+02
 21
2.56250000E+02
  0
TEXT
  8
0
 62
7
 10
-3.61150282E+02
 20
2.58100000E+02
 40
6.30000019E+00
  1
CONBINATIONS
 41
1.00000000E+00
  7
MONOTXT
  0
LINE
  8
0
 62
7
 10
-3.99250000E+02
 20
2.56250000E+02
 11
-2.49250000E+02
 21
2.56250000E+02
  0
TEXT
  8
0
 62
7
 10
-3.95800283E+02
 20
2.68100000E+02
 40
6.30000019E+00
  1
F.R.L.LARGE FLOW SERIES
 41
1.05504587E+00
  7
MONOTXT
  0
LINE
  8
0
 62
7
 10
-3.99250000E+02
 20
-9.24166667E+01
 11
3.99799805E+02
 21
-9.24166667E+01
  0
TEXT
  8
0
 62
7
 10
-3.74892373E+02
 20
1.60789155E+02
 40
6.30000019E+00
  1
IN
 41
1.00000000E+00
  7
MONOTXT
  0
LINE
  8
0
  6
CENTER
 62
2
 10
1.83588200E+02
 20
-8.92655075E+00
 11
1.83588200E+02
 21
-7.12047033E+01
  0
LINE
  8
0
 62
7
 10
2.01998200E+02
 20
-4.23965507E+01
 11
1.65168200E+02
 21
-4.23965507E+01
  0
LINE
  8
0
 62
7
 10
2.03548200E+02
 20
-2.48965507E+01
 11
2.10448200E+02
 21
-2.48965507E+01
  0
LINE
  8
0
 62
7
 10
1.50168200E+02
 20
-2.75265507E+01
 11
1.49965086E+02
 21
-3.38726457E+00
  0
LINE
  8
0
 62
7
 10
2.16998200E+02
 20
-2.75265507E+01
 11
2.17054044E+02
 21
-2.13636968E+01
  0
LINE
  8
0
 62
7
 10
2.03548200E+02
 20
-2.43965507E+01
 11
2.08618200E+02
 21
-2.43965507E+01
  0
LINE
  8
0
 62
7
 10
2.11448200E+02
 20
-1.98616152E+01
 11
2.11448200E+02
 21
-2.38965507E+01
  0
LINE
  8
0
 62
7
 10
2.09618200E+02
 20
-1.93712682E+01
 11
2.09618200E+02
 21
-2.33965507E+01
  0
LINE
  8
0
 62
7
 10
2.02548200E+02
 20
-1.74768674E+01
 11
2.02548200E+02
 21
-2.38965507E+01
  0
LINE
  8
0
 62
7
 10
2.03158200E+02
 20
-2.53965507E+01
 11
2.10708200E+02
 21
-2.53965507E+01
  0
LINE
  8
0
 62
7
 10
2.03158200E+02
 20
-2.58965507E+01
 11
2.11308200E+02
 21
-2.58965507E+01
  0
LINE
  8
0
 62
7
 10
2.02158200E+02
 20
-1.73723672E+01
 11
2.02158200E+02
 21
-2.48965507E+01
  0
LINE
  8
0
 62
7
 10
2.11708200E+02
 20
-1.99312820E+01
 11
2.11708200E+02
 21
-2.43965507E+01
  0
LINE
  8
0
 62
7
 10
2.12308200E+02
 20
-2.00920515E+01
 11
2.12308200E+02
 21
-2.48965507E+01
  0
LINE
  8
0
 62
7
 10
1.63628200E+02
 20
-2.48965507E+01
 11
1.56728200E+02
 21
-2.48965507E+01
  0
LINE
  8
0
 62
7
 10
1.63628200E+02
 20
-2.43965507E+01
 11
1.58558200E+02
 21
-2.43965507E+01
  0
LINE
  8
0
 62
7
 10
1.55728200E+02
 20
-4.93148624E+00
 11
1.55728200E+02
 21
-2.38965507E+01
  0
LINE
  8
0
 62
7
 10
1.57558200E+02
 20
-5.42183326E+00
 11
1.57558200E+02
 21
-2.33965507E+01
  0
LINE
  8
0
 62
7
 10
1.64628200E+02
 20
-7.31623405E+00
 11
1.64628200E+02
 21
-2.38965507E+01
  0
LINE
  8
0
 62
7
 10
1.64008200E+02
 20
-2.53965507E+01
 11
1.56468200E+02
 21
-2.53965507E+01
  0
LINE
  8
0
 62
7
 10
1.64008200E+02
 20
-2.58965507E+01
 11
1.55868200E+02
 21
-2.58965507E+01
  0
LINE
  8
0
 62
7
 10
1.65008200E+02
 20
-7.41805474E+00
 11
1.65008200E+02
 21
-2.48965507E+01
  0
LINE
  8
0
 62
7
 10
1.55468200E+02
 20
-4.86181945E+00
 11
1.55468200E+02
 21
-2.43965507E+01
  0
LINE
  8
0
 62
7
 10
1.54868200E+02
 20
-4.70104993E+00
 11
1.54868200E+02
 21
-2.48965507E+01
  0
ARC
  8
0
 62
7
 10
2.01999938E+02
 20
-2.73977363E+01
 40
1.49988146E+01
 50
2.69993359E+02
 51
3.59507920E+02
  0
ARC
  8
0
 62
7
 10
1.65165762E+02
 20
-2.73984419E+01
 40
1.49981091E+01
 50
1.80489408E+02
 51
2.70009314E+02
  0
ARC
  8
0
 62
7
 10
2.03542399E+02
 20
-2.34023512E+01
 40
9.94216466E-01
 50
1.79665723E+02
 51
2.70334277E+02
  0
ARC
  8
0
 62
7
 10
2.03542399E+02
 20
-2.39023512E+01
 40
9.94216466E-01
 50
1.79665723E+02
 51
2.70334277E+02
  0
ARC
  8
0
 62
7
 10
2.03155623E+02
 20
-2.43991279E+01
 40
9.97426164E-01
 50
1.79851958E+02
 51
2.70148042E+02
  0
ARC
  8
0
 62
7
 10
2.03155623E+02
 20
-2.48991279E+01
 40
9.97426164E-01
 50
1.79851958E+02
 51
2.70148042E+02
  0
ARC
  8
0
 62
7
 10
2.08615778E+02
 20
-2.33941287E+01
 40
1.00242502E+00
 50
2.70138440E+02
 51
3.59861560E+02
  0
ARC
  8
0
 62
7
 10
2.10448023E+02
 20
-2.38963743E+01
 40
1.00017647E+00
 50
2.70000000E+02
 51
3.59989892E+02
  0
ARC
  8
0
 62
7
 10
2.10706558E+02
 20
-2.43949088E+01
 40
1.00164327E+00
 50
2.70093921E+02
 51
3.59906079E+02
  0
ARC
  8
0
 62
7
 10
2.11305134E+02
 20
-2.48934854E+01
 40
1.00307001E+00
 50
2.70175093E+02
 51
3.59824907E+02
  0
ARC
  8
0
 62
7
 10
1.63628203E+02
 20
-2.33965543E+01
 40
9.99996479E-01
 50
2.70000000E+02
 51
2.01734585E-04
  0
ARC
  8
0
 62
7
 10
1.63628203E+02
 20
-2.38965543E+01
 40
9.99996479E-01
 50
2.70000000E+02
 51
2.01734585E-04
  0
ARC
  8
0
 62
7
 10
1.64009956E+02
 20
-2.43983073E+01
 40
9.98244967E-01
 50
2.69899178E+02
 51
1.00821524E-01
  0
ARC
  8
0
 62
7
 10
1.64009956E+02
 20
-2.48983073E+01
 40
9.98244967E-01
 50
2.69899178E+02
 51
1.00821524E-01
  0
ARC
  8
0
 62
7
 10
1.58554796E+02
 20
-2.33999548E+01
 40
9.96601718E-01
 50
1.79804294E+02
 51
2.70195706E+02
  0
ARC
  8
0
 62
7
 10
1.56722669E+02
 20
-2.39020810E+01
 40
9.94485161E-01
 50
1.79681383E+02
 51
2.70318617E+02
  0
ARC
  8
0
 62
7
 10
1.56464111E+02
 20
-2.44006391E+01
 40
9.95920079E-01
 50
1.79764797E+02
 51
2.70235203E+02
  0
ARC
  8
0
 62
7
 10
1.55865450E+02
 20
-2.48993001E+01
 40
9.97254469E-01
 50
1.79842042E+02
 51
2.70157958E+02
  0
POLYLINE
  8
0
 62
2
 66
1
  0
VERTEX
  8
0
 62
2
 10
-8.73501864E+01
 20
-2.23950872E+02
  0
VERTEX
  8
0
 62
2
 10
-8.61229270E+01
 20
-2.23416875E+02
  0
VERTEX
  8
0
 62
2
 10
-8.48813386E+01
 20
-2.22915194E+02
  0
VERTEX
  8
0
 62
2
 10
-8.36270733E+01
 20
-2.22449670E+02
  0
VERTEX
  8
0
 62
2
 10
-8.23617829E+01
 20
-2.22024148E+02
  0
VERTEX
  8
0
 62
2
 10
-8.10871194E+01
 20
-2.21642469E+02
  0
VERTEX
  8
0
 62
2
 10
-7.98047348E+01
 20
-2.21308476E+02
  0
VERTEX
  8
0
 62
2
 10
-7.85162811E+01
 20
-2.21026013E+02
  0
VERTEX
  8
0
 62
2
 10
-7.72234102E+01
 20
-2.20798921E+02
  0
VERTEX
  8
0
 62
2
 10
-7.59277740E+01
 20
-2.20631044E+02
  0
VERTEX
  8
0
 62
2
 10
-7.46310247E+01
 20
-2.20526225E+02
  0
VERTEX
  8
0
 62
2
 10
-7.23306718E+01
 20
-2.20497837E+02
  0
VERTEX
  8
0
 62
2
 10
-7.00311863E+01
 20
-2.20645360E+02
  0
VERTEX
  8
0
 62
2
 10
-6.77316769E+01
 20
-2.20934477E+02
  0
VERTEX
  8
0
 62
2
 10
-6.54312526E+01
 20
-2.21330875E+02
  0
VERTEX
  8
0
 62
2
 10
-6.31290224E+01
 20
-2.21800238E+02
  0
VERTEX
  8
0
 62
2
 10
-6.08240953E+01
 20
-2.22308251E+02
  0
VERTEX
  8
0
 62
2
 10
-5.85155801E+01
 20
-2.22820600E+02
  0
VERTEX
  8
0
 62
2
 10
-5.62025858E+01
 20
-2.23302969E+02
  0
VERTEX
  8
0
 62
2
 10
-5.38842213E+01
 20
-2.23721045E+02
  0
VERTEX
  8
0
 62
2
 10
-5.15595957E+01
 20
-2.24040510E+02
  0
VERTEX
  8
0
 62
2
 10
-5.03415104E+01
 20
-2.24157795E+02
  0
VERTEX
  8
0
 62
2
 10
-4.91219321E+01
 20
-2.24240150E+02
  0
VERTEX
  8
0
 62
2
 10
-4.79011815E+01
 20
-2.24289146E+02
  0
VERTEX
  8
0
 62
2
 10
-4.66795791E+01
 20
-2.24306359E+02
  0
VERTEX
  8
0
 62
2
 10
-4.54574457E+01
 20
-2.24293359E+02
  0
VERTEX
  8
0
 62
2
 10
-4.42351019E+01
 20
-2.24251721E+02
  0
VERTEX
  8
0
 62
2
 10
-4.30128682E+01
 20
-2.24183016E+02
  0
VERTEX
  8
0
 62
2
 10
-4.17910655E+01
 20
-2.24088819E+02
  0
VERTEX
  8
0
 62
2
 10
-4.05700142E+01
 20
-2.23970702E+02
  0
VERTEX
  8
0
 62
2
 10
-3.93500351E+01
 20
-2.23830238E+02
  0
SEQEND
  8
0
  0
POLYLINE
  8
0
 62
2
 66
1
  0
VERTEX
  8
0
 62
2
 10
4.08811407E+01
 20
-2.32734277E+02
  0
VERTEX
  8
0
 62
2
 10
4.19534493E+01
 20
-2.32446873E+02
  0
VERTEX
  8
0
 62
2
 10
4.30308155E+01
 20
-2.32190052E+02
  0
VERTEX
  8
0
 62
2
 10
4.41121203E+01
 20
-2.31966586E+02
  0
VERTEX
  8
0
 62
2
 10
4.51962448E+01
 20
-2.31779247E+02
  0
VERTEX
  8
0
 62
2
 10
4.62820702E+01
 20
-2.31630806E+02
  0
VERTEX
  8
0
 62
2
 10
4.73684775E+01
 20
-2.31524035E+02
  0
VERTEX
  8
0
 62
2
 10
4.84543480E+01
 20
-2.31461706E+02
  0
VERTEX
  8
0
 62
2
 10
4.95385627E+01
 20
-2.31446589E+02
  0
VERTEX
  8
0
 62
2
 10
5.06200027E+01
 20
-2.31481458E+02
  0
VERTEX
  8
0
 62
2
 10
5.16975492E+01
 20
-2.31569082E+02
  0
VERTEX
  8
0
 62
2
 10
5.35503715E+01
 20
-2.31844882E+02
  0
VERTEX
  8
0
 62
2
 10
5.53909003E+01
 20
-2.32250611E+02
  0
VERTEX
  8
0
 62
2
 10
5.72219629E+01
 20
-2.32750157E+02
  0
VERTEX
  8
0
 62
2
 10
5.90463865E+01
 20
-2.33307409E+02
  0
VERTEX
  8
0
 62
2
 10
6.08669983E+01
 20
-2.33886256E+02
  0
VERTEX
  8
0
 62
2
 10
6.26866257E+01
 20
-2.34450586E+02
  0
VERTEX
  8
0
 62
2
 10
6.45080958E+01
 20
-2.34964288E+02
  0
VERTEX
  8
0
 62
2
 10
6.63342360E+01
 20
-2.35391251E+02
  0
VERTEX
  8
0
 62
2
 10
6.81678733E+01
 20
-2.35695362E+02
  0
VERTEX
  8
0
 62
2
 10
7.00118352E+01
 20
-2.35840511E+02
  0
VERTEX
  8
0
 62
2
 10
7.11142926E+01
 20
-2.35838458E+02
  0
VERTEX
  8
0
 62
2
 10
7.22193869E+01
 20
-2.35771168E+02
  0
VERTEX
  8
0
 62
2
 10
7.33252925E+01
 20
-2.35642646E+02
  0
VERTEX
  8
0
 62
2
 10
7.44301835E+01
 20
-2.35456900E+02
  0
VERTEX
  8
0
 62
2
 10
7.55322341E+01
 20
-2.35217936E+02
  0
VERTEX
  8
0
 62
2
 10
7.66296187E+01
 20
-2.34929761E+02
  0
VERTEX
  8
0
 62
2
 10
7.77205114E+01
 20
-2.34596382E+02
  0
VERTEX
  8
0
 62
2
 10
7.88030864E+01
 20
-2.34221806E+02
  0
VERTEX
  8
0
 62
2
 10
7.98755180E+01
 20
-2.33810040E+02
  0
VERTEX
  8
0
 62
2
 10
8.09359804E+01
 20
-2.33365091E+02
  0
SEQEND
  8
0
  0
POLYLINE
  8
0
 62
2
 66
1
  0
VERTEX
  8
0
 62
2
 10
-1.03032519E+02
 20
-1.48009149E+02
  0
VERTEX
  8
0
 62
2
 10
-1.03546971E+02
 20
-1.49343411E+02
  0
VERTEX
  8
0
 62
2
 10
-1.04025777E+02
 20
-1.50693391E+02
  0
VERTEX
  8
0
 62
2
 10
-1.04462992E+02
 20
-1.52056671E+02
  0
VERTEX
  8
0
 62
2
 10
-1.04852671E+02
 20
-1.53430837E+02
  0
VERTEX
  8
0
 62
2
 10
-1.05188869E+02
 20
-1.54813470E+02
  0
VERTEX
  8
0
 62
2
 10
-1.05465643E+02
 20
-1.56202155E+02
  0
VERTEX
  8
0
 62
2
 10
-1.05677047E+02
 20
-1.57594475E+02
  0
VERTEX
  8
0
 62
2
 10
-1.05817137E+02
 20
-1.58988014E+02
  0
VERTEX
  8
0
 62
2
 10
-1.05879968E+02
 20
-1.60380354E+02
  0
VERTEX
  8
0
 62
2
 10
-1.05859597E+02
 20
-1.61769081E+02
  0
VERTEX
  8
0
 62
2
 10
-1.05672058E+02
 20
-1.63828064E+02
  0
VERTEX
  8
0
 62
2
 10
-1.05325707E+02
 20
-1.65876186E+02
  0
VERTEX
  8
0
 62
2
 10
-1.04859059E+02
 20
-1.67916177E+02
  0
VERTEX
  8
0
 62
2
 10
-1.04310631E+02
 20
-1.69950765E+02
  0
VERTEX
  8
0
 62
2
 10
-1.03718940E+02
 20
-1.71982679E+02
  0
VERTEX
  8
0
 62
2
 10
-1.03122501E+02
 20
-1.74014648E+02
  0
VERTEX
  8
0
 62
2
 10
-1.02559831E+02
 20
-1.76049400E+02
  0
VERTEX
  8
0
 62
2
 10
-1.02069446E+02
 20
-1.78089666E+02
  0
VERTEX
  8
0
 62
2
 10
-1.01689862E+02
 20
-1.80138174E+02
  0
VERTEX
  8
0
 62
2
 10
-1.01459597E+02
 20
-1.82197653E+02
  0
VERTEX
  8
0
 62
2
 10
-1.01404015E+02
 20
-1.83793348E+02
  0
VERTEX
  8
0
 62
2
 10
-1.01452335E+02
 20
-1.85394172E+02
  0
VERTEX
  8
0
 62
2
 10
-1.01597074E+02
 20
-1.86996991E+02
  0
VERTEX
  8
0
 62
2
 10
-1.01830751E+02
 20
-1.88598670E+02
  0
VERTEX
  8
0
 62
2
 10
-1.02145884E+02
 20
-1.90196077E+02
  0
VERTEX
  8
0
 62
2
 10
-1.02534992E+02
 20
-1.91786077E+02
  0
VERTEX
  8
0
 62
2
 10
-1.02990592E+02
 20
-1.93365537E+02
  0
VERTEX
  8
0
 62
2
 10
-1.03505204E+02
 20
-1.94931324E+02
  0
VERTEX
  8
0
 62
2
 10
-1.04071345E+02
 20
-1.96480303E+02
  0
VERTEX
  8
0
 62
2
 10
-1.04681535E+02
 20
-1.98009341E+02
  0
SEQEND
  8
0
  0
POLYLINE
  8
0
 62
2
 66
1
  0
VERTEX
  8
0
 62
2
 10
-2.24928693E+01
 20
-1.47009006E+02
  0
VERTEX
  8
0
 62
2
 10
-2.30688967E+01
 20
-1.48430686E+02
  0
VERTEX
  8
0
 62
2
 10
-2.36080025E+01
 20
-1.49872473E+02
  0
VERTEX
  8
0
 62
2
 10
-2.41028956E+01
 20
-1.51331354E+02
  0
VERTEX
  8
0
 62
2
 10
-2.45462849E+01
 20
-1.52804316E+02
  0
VERTEX
  8
0
 62
2
 10
-2.49308793E+01
 20
-1.54288347E+02
  0
VERTEX
  8
0
 62
2
 10
-2.52493876E+01
 20
-1.55780434E+02
  0
VERTEX
  8
0
 62
2
 10
-2.54945187E+01
 20
-1.57277563E+02
  0
VERTEX
  8
0
 62
2
 10
-2.56589816E+01
 20
-1.58776722E+02
  0
VERTEX
  8
0
 62
2
 10
-2.57354851E+01
 20
-1.60274899E+02
  0
VERTEX
  8
0
 62
2
 10
-2.57167381E+01
 20
-1.61769081E+02
  0
VERTEX
  8
0
 62
2
 10
-2.55295999E+01
 20
-1.63828058E+02
  0
VERTEX
  8
0
 62
2
 10
-2.51843353E+01
 20
-1.65876166E+02
  0
VERTEX
  8
0
 62
2
 10
-2.47192888E+01
 20
-1.67916138E+02
  0
VERTEX
  8
0
 62
2
 10
-2.41728052E+01
 20
-1.69950707E+02
  0
VERTEX
  8
0
 62
2
 10
-2.35832291E+01
 20
-1.71982604E+02
  0
VERTEX
  8
0
 62
2
 10
-2.29889052E+01
 20
-1.74014562E+02
  0
VERTEX
  8
0
 62
2
 10
-2.24281780E+01
 20
-1.76049313E+02
  0
VERTEX
  8
0
 62
2
 10
-2.19393923E+01
 20
-1.78089590E+02
  0
VERTEX
  8
0
 62
2
 10
-2.15608927E+01
 20
-1.80138126E+02
  0
VERTEX
  8
0
 62
2
 10
-2.13310237E+01
 20
-1.82197653E+02
  0
VERTEX
  8
0
 62
2
 10
-2.12751818E+01
 20
-1.83793348E+02
  0
VERTEX
  8
0
 62
2
 10
-2.13227781E+01
 20
-1.85394172E+02
  0
VERTEX
  8
0
 62
2
 10
-2.14664195E+01
 20
-1.86996991E+02
  0
VERTEX
  8
0
 62
2
 10
-2.16987127E+01
 20
-1.88598670E+02
  0
VERTEX
  8
0
 62
2
 10
-2.20122644E+01
 20
-1.90196077E+02
  0
VERTEX
  8
0
 62
2
 10
-2.23996814E+01
 20
-1.91786077E+02
  0
VERTEX
  8
0
 62
2
 10
-2.28535705E+01
 20
-1.93365537E+02
  0
VERTEX
  8
0
 62
2
 10
-2.33665383E+01
 20
-1.94931324E+02
  0
VERTEX
  8
0
 62
2
 10
-2.39311916E+01
 20
-1.96480303E+02
  0
VERTEX
  8
0
 62
2
 10
-2.45401372E+01
 20
-1.98009341E+02
  0
SEQEND
  8
0
  0
POLYLINE
  8
0
 62
2
 66
1
  0
VERTEX
  8
0
 62
2
 10
-3.67316813E+02
 20
-1.48009252E+02
  0
VERTEX
  8
0
 62
2
 10
-3.67830024E+02
 20
-1.49343595E+02
  0
VERTEX
  8
0
 62
2
 10
-3.68307338E+02
 20
-1.50693664E+02
  0
VERTEX
  8
0
 62
2
 10
-3.68742902E+02
 20
-1.52057030E+02
  0
VERTEX
  8
0
 62
2
 10
-3.69130860E+02
 20
-1.53431268E+02
  0
VERTEX
  8
0
 62
2
 10
-3.69465358E+02
 20
-1.54813951E+02
  0
VERTEX
  8
0
 62
2
 10
-3.69740541E+02
 20
-1.56202650E+02
  0
VERTEX
  8
0
 62
2
 10
-3.69950554E+02
 20
-1.57594940E+02
  0
VERTEX
  8
0
 62
2
 10
-3.70089543E+02
 20
-1.58988393E+02
  0
VERTEX
  8
0
 62
2
 10
-3.70151653E+02
 20
-1.60380582E+02
  0
VERTEX
  8
0
 62
2
 10
-3.70131029E+02
 20
-1.61769081E+02
  0
VERTEX
  8
0
 62
2
 10
-3.69943490E+02
 20
-1.63828068E+02
  0
VERTEX
  8
0
 62
2
 10
-3.69597139E+02
 20
-1.65876193E+02
  0
VERTEX
  8
0
 62
2
 10
-3.69130491E+02
 20
-1.67916185E+02
  0
VERTEX
  8
0
 62
2
 10
-3.68582063E+02
 20
-1.69950772E+02
  0
VERTEX
  8
0
 62
2
 10
-3.67990371E+02
 20
-1.71982686E+02
  0
VERTEX
  8
0
 62
2
 10
-3.67393932E+02
 20
-1.74014653E+02
  0
VERTEX
  8
0
 62
2
 10
-3.66831262E+02
 20
-1.76049404E+02
  0
VERTEX
  8
0
 62
2
 10
-3.66340878E+02
 20
-1.78089669E+02
  0
VERTEX
  8
0
 62
2
 10
-3.65961294E+02
 20
-1.80138175E+02
  0
VERTEX
  8
0
 62
2
 10
-3.65731029E+02
 20
-1.82197653E+02
  0
VERTEX
  8
0
 62
2
 10
-3.65675448E+02
 20
-1.83793348E+02
  0
VERTEX
  8
0
 62
2
 10
-3.65723767E+02
 20
-1.85394172E+02
  0
VERTEX
  8
0
 62
2
 10
-3.65868507E+02
 20
-1.86996990E+02
  0
VERTEX
  8
0
 62
2
 10
-3.66102184E+02
 20
-1.88598669E+02
  0
VERTEX
  8
0
 62
2
 10
-3.66417317E+02
 20
-1.90196076E+02
  0
VERTEX
  8
0
 62
2
 10
-3.66806424E+02
 20
-1.91786077E+02
  0
VERTEX
  8
0
 62
2
 10
-3.67262025E+02
 20
-1.93365537E+02
  0
VERTEX
  8
0
 62
2
 10
-3.67776636E+02
 20
-1.94931323E+02
  0
VERTEX
  8
0
 62
2
 10
-3.68342778E+02
 20
-1.96480303E+02
  0
VERTEX
  8
0
 62
2
 10
-3.68952967E+02
 20
-1.98009341E+02
  0
SEQEND
  8
0
  0
POLYLINE
  8
0
 62
2
 66
1
  0
VERTEX
  8
0
 62
2
 10
-2.87173958E+02
 20
-1.48009177E+02
  0
VERTEX
  8
0
 62
2
 10
-2.87687171E+02
 20
-1.49343461E+02
  0
VERTEX
  8
0
 62
2
 10
-2.88164489E+02
 20
-1.50693464E+02
  0
VERTEX
  8
0
 62
2
 10
-2.88600055E+02
 20
-1.52056768E+02
  0
VERTEX
  8
0
 62
2
 10
-2.88988016E+02
 20
-1.53430953E+02
  0
VERTEX
  8
0
 62
2
 10
-2.89322516E+02
 20
-1.54813599E+02
  0
VERTEX
  8
0
 62
2
 10
-2.89597699E+02
 20
-1.56202288E+02
  0
VERTEX
  8
0
 62
2
 10
-2.89807711E+02
 20
-1.57594600E+02
  0
VERTEX
  8
0
 62
2
 10
-2.89946697E+02
 20
-1.58988116E+02
  0
VERTEX
  8
0
 62
2
 10
-2.90008802E+02
 20
-1.60380416E+02
  0
VERTEX
  8
0
 62
2
 10
-2.89988170E+02
 20
-1.61769081E+02
  0
VERTEX
  8
0
 62
2
 10
-2.89801032E+02
 20
-1.63828060E+02
  0
VERTEX
  8
0
 62
2
 10
-2.89455767E+02
 20
-1.65876170E+02
  0
VERTEX
  8
0
 62
2
 10
-2.88990721E+02
 20
-1.67916143E+02
  0
VERTEX
  8
0
 62
2
 10
-2.88444237E+02
 20
-1.69950711E+02
  0
VERTEX
  8
0
 62
2
 10
-2.87854661E+02
 20
-1.71982608E+02
  0
VERTEX
  8
0
 62
2
 10
-2.87260337E+02
 20
-1.74014566E+02
  0
VERTEX
  8
0
 62
2
 10
-2.86699610E+02
 20
-1.76049316E+02
  0
VERTEX
  8
0
 62
2
 10
-2.86210824E+02
 20
-1.78089593E+02
  0
VERTEX
  8
0
 62
2
 10
-2.85832325E+02
 20
-1.80138127E+02
  0
VERTEX
  8
0
 62
2
 10
-2.85602456E+02
 20
-1.82197653E+02
  0
VERTEX
  8
0
 62
2
 10
-2.85546614E+02
 20
-1.83793347E+02
  0
VERTEX
  8
0
 62
2
 10
-2.85594210E+02
 20
-1.85394171E+02
  0
VERTEX
  8
0
 62
2
 10
-2.85737852E+02
 20
-1.86996989E+02
  0
VERTEX
  8
0
 62
2
 10
-2.85970145E+02
 20
-1.88598668E+02
  0
VERTEX
  8
0
 62
2
 10
-2.86283697E+02
 20
-1.90196075E+02
  0
VERTEX
  8
0
 62
2
 10
-2.86671114E+02
 20
-1.91786075E+02
  0
VERTEX
  8
0
 62
2
 10
-2.87125003E+02
 20
-1.93365536E+02
  0
VERTEX
  8
0
 62
2
 10
-2.87637971E+02
 20
-1.94931323E+02
  0
VERTEX
  8
0
 62
2
 10
-2.88202624E+02
 20
-1.96480302E+02
  0
VERTEX
  8
0
 62
2
 10
-2.88811569E+02
 20
-1.98009340E+02
  0
SEQEND
  8
0
  0
POLYLINE
  8
0
 62
2
 66
1
  0
VERTEX
  8
0
 62
2
 10
-3.51621627E+02
 20
-2.23950872E+02
  0
VERTEX
  8
0
 62
2
 10
-3.50394372E+02
 20
-2.23416876E+02
  0
VERTEX
  8
0
 62
2
 10
-3.49152788E+02
 20
-2.22915195E+02
  0
VERTEX
  8
0
 62
2
 10
-3.47898526E+02
 20
-2.22449672E+02
  0
VERTEX
  8
0
 62
2
 10
-3.46633239E+02
 20
-2.22024149E+02
  0
VERTEX
  8
0
 62
2
 10
-3.45358578E+02
 20
-2.21642470E+02
  0
VERTEX
  8
0
 62
2
 10
-3.44076193E+02
 20
-2.21308478E+02
  0
VERTEX
  8
0
 62
2
 10
-3.42787737E+02
 20
-2.21026014E+02
  0
VERTEX
  8
0
 62
2
 10
-3.41494862E+02
 20
-2.20798922E+02
  0
VERTEX
  8
0
 62
2
 10
-3.40199218E+02
 20
-2.20631045E+02
  0
VERTEX
  8
0
 62
2
 10
-3.38902457E+02
 20
-2.20526225E+02
  0
VERTEX
  8
0
 62
2
 10
-3.36602083E+02
 20
-2.20497836E+02
  0
VERTEX
  8
0
 62
2
 10
-3.34302580E+02
 20
-2.20645359E+02
  0
VERTEX
  8
0
 62
2
 10
-3.32003059E+02
 20
-2.20934477E+02
  0
VERTEX
  8
0
 62
2
 10
-3.29702627E+02
 20
-2.21330876E+02
  0
VERTEX
  8
0
 62
2
 10
-3.27400394E+02
 20
-2.21800240E+02
  0
VERTEX
  8
0
 62
2
 10
-3.25095469E+02
 20
-2.22308254E+02
  0
VERTEX
  8
0
 62
2
 10
-3.22786961E+02
 20
-2.22820603E+02
  0
VERTEX
  8
0
 62
2
 10
-3.20473978E+02
 20
-2.23302972E+02
  0
VERTEX
  8
0
 62
2
 10
-3.18155631E+02
 20
-2.23721047E+02
  0
VERTEX
  8
0
 62
2
 10
-3.15831028E+02
 20
-2.24040510E+02
  0
VERTEX
  8
0
 62
2
 10
-3.14612954E+02
 20
-2.24157794E+02
  0
VERTEX
  8
0
 62
2
 10
-3.13393385E+02
 20
-2.24240147E+02
  0
VERTEX
  8
0
 62
2
 10
-3.12172642E+02
 20
-2.24289143E+02
  0
VERTEX
  8
0
 62
2
 10
-3.10951045E+02
 20
-2.24306355E+02
  0
VERTEX
  8
0
 62
2
 10
-3.09728915E+02
 20
-2.24293355E+02
  0
VERTEX
  8
0
 62
2
 10
-3.08506573E+02
 20
-2.24251716E+02
  0
VERTEX
  8
0
 62
2
 10
-3.07284339E+02
 20
-2.24183012E+02
  0
VERTEX
  8
0
 62
2
 10
-3.06062536E+02
 20
-2.24088815E+02
  0
VERTEX
  8
0
 62
2
 10
-3.04841483E+02
 20
-2.23970698E+02
  0
VERTEX
  8
0
 62
2
 10
-3.03621501E+02
 20
-2.23830234E+02
  0
SEQEND
  8
0
  0
POLYLINE
  8
0
 62
2
 66
1
  0
VERTEX
  8
0
 62
2
 10
-2.28390291E+02
 20
-2.32734277E+02
  0
VERTEX
  8
0
 62
2
 10
-2.27317982E+02
 20
-2.32446873E+02
  0
VERTEX
  8
0
 62
2
 10
-2.26240616E+02
 20
-2.32190052E+02
  0
VERTEX
  8
0
 62
2
 10
-2.25159311E+02
 20
-2.31966586E+02
  0
VERTEX
  8
0
 62
2
 10
-2.24075187E+02
 20
-2.31779247E+02
  0
VERTEX
  8
0
 62
2
 10
-2.22989361E+02
 20
-2.31630806E+02
  0
VERTEX
  8
0
 62
2
 10
-2.21902954E+02
 20
-2.31524035E+02
  0
VERTEX
  8
0
 62
2
 10
-2.20817084E+02
 20
-2.31461706E+02
  0
VERTEX
  8
0
 62
2
 10
-2.19732869E+02
 20
-2.31446589E+02
  0
VERTEX
  8
0
 62
2
 10
-2.18651429E+02
 20
-2.31481458E+02
  0
VERTEX
  8
0
 62
2
 10
-2.17573883E+02
 20
-2.31569082E+02
  0
VERTEX
  8
0
 62
2
 10
-2.15721063E+02
 20
-2.31844882E+02
  0
VERTEX
  8
0
 62
2
 10
-2.13880538E+02
 20
-2.32250610E+02
  0
VERTEX
  8
0
 62
2
 10
-2.12049481E+02
 20
-2.32750157E+02
  0
VERTEX
  8
0
 62
2
 10
-2.10225063E+02
 20
-2.33307409E+02
  0
VERTEX
  8
0
 62
2
 10
-2.08404457E+02
 20
-2.33886256E+02
  0
VERTEX
  8
0
 62
2
 10
-2.06584832E+02
 20
-2.34450586E+02
  0
VERTEX
  8
0
 62
2
 10
-2.04763363E+02
 20
-2.34964288E+02
  0
VERTEX
  8
0
 62
2
 10
-2.02937219E+02
 20
-2.35391250E+02
  0
VERTEX
  8
0
 62
2
 10
-2.01103573E+02
 20
-2.35695362E+02
  0
VERTEX
  8
0
 62
2
 10
-1.99259597E+02
 20
-2.35840511E+02
  0
VERTEX
  8
0
 62
2
 10
-1.98157130E+02
 20
-2.35838459E+02
  0
VERTEX
  8
0
 62
2
 10
-1.97052030E+02
 20
-2.35771168E+02
  0
VERTEX
  8
0
 62
2
 10
-1.95946120E+02
 20
-2.35642647E+02
  0
VERTEX
  8
0
 62
2
 10
-1.94841226E+02
 20
-2.35456900E+02
  0
VERTEX
  8
0
 62
2
 10
-1.93739175E+02
 20
-2.35217936E+02
  0
VERTEX
  8
0
 62
2
 10
-1.92641791E+02
 20
-2.34929761E+02
  0
VERTEX
  8
0
 62
2
 10
-1.91550900E+02
 20
-2.34596382E+02
  0
VERTEX
  8
0
 62
2
 10
-1.90468328E+02
 20
-2.34221806E+02
  0
VERTEX
  8
0
 62
2
 10
-1.89395900E+02
 20
-2.33810040E+02
  0
VERTEX
  8
0
 62
2
 10
-1.88335441E+02
 20
-2.33365091E+02
  0
SEQEND
  8
0
  0
POLYLINE
  8
0
 62
2
 66
1
  0
VERTEX
  8
0
 62
2
 10
1.69558848E+02
 20
-1.48009176E+02
  0
VERTEX
  8
0
 62
2
 10
1.69045635E+02
 20
-1.49343459E+02
  0
VERTEX
  8
0
 62
2
 10
1.68568317E+02
 20
-1.50693462E+02
  0
VERTEX
  8
0
 62
2
 10
1.68132751E+02
 20
-1.52056765E+02
  0
VERTEX
  8
0
 62
2
 10
1.67744790E+02
 20
-1.53430949E+02
  0
VERTEX
  8
0
 62
2
 10
1.67410290E+02
 20
-1.54813595E+02
  0
VERTEX
  8
0
 62
2
 10
1.67135107E+02
 20
-1.56202284E+02
  0
VERTEX
  8
0
 62
2
 10
1.66925095E+02
 20
-1.57594596E+02
  0
VERTEX
  8
0
 62
2
 10
1.66786109E+02
 20
-1.58988113E+02
  0
VERTEX
  8
0
 62
2
 10
1.66724004E+02
 20
-1.60380414E+02
  0
VERTEX
  8
0
 62
2
 10
1.66744636E+02
 20
-1.61769081E+02
  0
VERTEX
  8
0
 62
2
 10
1.66931777E+02
 20
-1.63828094E+02
  0
VERTEX
  8
0
 62
2
 10
1.67277047E+02
 20
-1.65876287E+02
  0
VERTEX
  8
0
 62
2
 10
1.67742101E+02
 20
-1.67916370E+02
  0
VERTEX
  8
0
 62
2
 10
1.68288593E+02
 20
-1.69951055E+02
  0
VERTEX
  8
0
 62
2
 10
1.68878176E+02
 20
-1.71983054E+02
  0
VERTEX
  8
0
 62
2
 10
1.69472505E+02
 20
-1.74015078E+02
  0
VERTEX
  8
0
 62
2
 10
1.70033232E+02
 20
-1.76049838E+02
  0
VERTEX
  8
0
 62
2
 10
1.70522013E+02
 20
-1.78090046E+02
  0
VERTEX
  8
0
 62
2
 10
1.70900501E+02
 20
-1.80138414E+02
  0
VERTEX
  8
0
 62
2
 10
1.71130350E+02
 20
-1.82197653E+02
  0
VERTEX
  8
0
 62
2
 10
1.71185932E+02
 20
-1.83793349E+02
  0
VERTEX
  8
0
 62
2
 10
1.71137612E+02
 20
-1.85394173E+02
  0
VERTEX
  8
0
 62
2
 10
1.70992873E+02
 20
-1.86996992E+02
  0
VERTEX
  8
0
 62
2
 10
1.70759196E+02
 20
-1.88598672E+02
  0
VERTEX
  8
0
 62
2
 10
1.70444062E+02
 20
-1.90196079E+02
  0
VERTEX
  8
0
 62
2
 10
1.70054955E+02
 20
-1.91786079E+02
  0
VERTEX
  8
0
 62
2
 10
1.69599354E+02
 20
-1.93365539E+02
  0
VERTEX
  8
0
 62
2
 10
1.69084743E+02
 20
-1.94931325E+02
  0
VERTEX
  8
0
 62
2
 10
1.68518601E+02
 20
-1.96480304E+02
  0
VERTEX
  8
0
 62
2
 10
1.67908412E+02
 20
-1.98009342E+02
  0
SEQEND
  8
0
  0
POLYLINE
  8
0
 62
2
 66
1
  0
VERTEX
  8
0
 62
2
 10
2.49687421E+02
 20
-1.48009177E+02
  0
VERTEX
  8
0
 62
2
 10
2.49174208E+02
 20
-1.49343460E+02
  0
VERTEX
  8
0
 62
2
 10
2.48696890E+02
 20
-1.50693463E+02
  0
VERTEX
  8
0
 62
2
 10
2.48261323E+02
 20
-1.52056766E+02
  0
VERTEX
  8
0
 62
2
 10
2.47873363E+02
 20
-1.53430951E+02
  0
VERTEX
  8
0
 62
2
 10
2.47538863E+02
 20
-1.54813597E+02
  0
VERTEX
  8
0
 62
2
 10
2.47263680E+02
 20
-1.56202286E+02
  0
VERTEX
  8
0
 62
2
 10
2.47053668E+02
 20
-1.57594598E+02
  0
VERTEX
  8
0
 62
2
 10
2.46914682E+02
 20
-1.58988114E+02
  0
VERTEX
  8
0
 62
2
 10
2.46852577E+02
 20
-1.60380415E+02
  0
VERTEX
  8
0
 62
2
 10
2.46873209E+02
 20
-1.61769081E+02
  0
VERTEX
  8
0
 62
2
 10
2.47060347E+02
 20
-1.63828061E+02
  0
VERTEX
  8
0
 62
2
 10
2.47405612E+02
 20
-1.65876172E+02
  0
VERTEX
  8
0
 62
2
 10
2.47870658E+02
 20
-1.67916145E+02
  0
VERTEX
  8
0
 62
2
 10
2.48417142E+02
 20
-1.69950713E+02
  0
VERTEX
  8
0
 62
2
 10
2.49006718E+02
 20
-1.71982609E+02
  0
VERTEX
  8
0
 62
2
 10
2.49601042E+02
 20
-1.74014566E+02
  0
VERTEX
  8
0
 62
2
 10
2.50161769E+02
 20
-1.76049316E+02
  0
VERTEX
  8
0
 62
2
 10
2.50650555E+02
 20
-1.78089592E+02
  0
VERTEX
  8
0
 62
2
 10
2.51029054E+02
 20
-1.80138127E+02
  0
VERTEX
  8
0
 62
2
 10
2.51258923E+02
 20
-1.82197653E+02
  0
VERTEX
  8
0
 62
2
 10
2.51314765E+02
 20
-1.83793348E+02
  0
VERTEX
  8
0
 62
2
 10
2.51267169E+02
 20
-1.85394172E+02
  0
VERTEX
  8
0
 62
2
 10
2.51123527E+02
 20
-1.86996991E+02
  0
VERTEX
  8
0
 62
2
 10
2.50891234E+02
 20
-1.88598670E+02
  0
VERTEX
  8
0
 62
2
 10
2.50577682E+02
 20
-1.90196077E+02
  0
VERTEX
  8
0
 62
2
 10
2.50190265E+02
 20
-1.91786077E+02
  0
VERTEX
  8
0
 62
2
 10
2.49736376E+02
 20
-1.93365537E+02
  0
VERTEX
  8
0
 62
2
 10
2.49223408E+02
 20
-1.94931324E+02
  0
VERTEX
  8
0
 62
2
 10
2.48658755E+02
 20
-1.96480303E+02
  0
VERTEX
  8
0
 62
2
 10
2.48049810E+02
 20
-1.98009341E+02
  0
SEQEND
  8
0
  0
POLYLINE
  8
0
 62
2
 66
1
  0
VERTEX
  8
0
 62
2
 10
1.85239762E+02
 20
-2.23950872E+02
  0
VERTEX
  8
0
 62
2
 10
1.86467022E+02
 20
-2.23416875E+02
  0
VERTEX
  8
0
 62
2
 10
1.87708611E+02
 20
-2.22915194E+02
  0
VERTEX
  8
0
 62
2
 10
1.88962877E+02
 20
-2.22449670E+02
  0
VERTEX
  8
0
 62
2
 10
1.90228168E+02
 20
-2.22024148E+02
  0
VERTEX
  8
0
 62
2
 10
1.91502832E+02
 20
-2.21642469E+02
  0
VERTEX
  8
0
 62
2
 10
1.92785217E+02
 20
-2.21308476E+02
  0
VERTEX
  8
0
 62
2
 10
1.94073670E+02
 20
-2.21026012E+02
  0
VERTEX
  8
0
 62
2
 10
1.95366540E+02
 20
-2.20798921E+02
  0
VERTEX
  8
0
 62
2
 10
1.96662175E+02
 20
-2.20631044E+02
  0
VERTEX
  8
0
 62
2
 10
1.97958922E+02
 20
-2.20526225E+02
  0
VERTEX
  8
0
 62
2
 10
2.00259272E+02
 20
-2.20497837E+02
  0
VERTEX
  8
0
 62
2
 10
2.02558756E+02
 20
-2.20645360E+02
  0
VERTEX
  8
0
 62
2
 10
2.04858266E+02
 20
-2.20934478E+02
  0
VERTEX
  8
0
 62
2
 10
2.07158692E+02
 20
-2.21330875E+02
  0
VERTEX
  8
0
 62
2
 10
2.09460924E+02
 20
-2.21800238E+02
  0
VERTEX
  8
0
 62
2
 10
2.11765854E+02
 20
-2.22308252E+02
  0
VERTEX
  8
0
 62
2
 10
2.14074370E+02
 20
-2.22820600E+02
  0
VERTEX
  8
0
 62
2
 10
2.16387365E+02
 20
-2.23302970E+02
  0
VERTEX
  8
0
 62
2
 10
2.18705729E+02
 20
-2.23721045E+02
  0
VERTEX
  8
0
 62
2
 10
2.21030351E+02
 20
-2.24040510E+02
  0
VERTEX
  8
0
 62
2
 10
2.22248435E+02
 20
-2.24157795E+02
  0
VERTEX
  8
0
 62
2
 10
2.23468011E+02
 20
-2.24240149E+02
  0
VERTEX
  8
0
 62
2
 10
2.24688761E+02
 20
-2.24289146E+02
  0
VERTEX
  8
0
 62
2
 10
2.25910362E+02
 20
-2.24306358E+02
  0
VERTEX
  8
0
 62
2
 10
2.27132495E+02
 20
-2.24293359E+02
  0
VERTEX
  8
0
 62
2
 10
2.28354838E+02
 20
-2.24251720E+02
  0
VERTEX
  8
0
 62
2
 10
2.29577072E+02
 20
-2.24183016E+02
  0
VERTEX
  8
0
 62
2
 10
2.30798875E+02
 20
-2.24088819E+02
  0
VERTEX
  8
0
 62
2
 10
2.32019926E+02
 20
-2.23970702E+02
  0
VERTEX
  8
0
 62
2
 10
2.33239906E+02
 20
-2.23830238E+02
  0
SEQEND
  8
0
  0
POLYLINE
  8
0
 62
2
 66
1
  0
VERTEX
  8
0
 62
2
 10
3.03471086E+02
 20
-2.32734276E+02
  0
VERTEX
  8
0
 62
2
 10
3.04543394E+02
 20
-2.32446872E+02
  0
VERTEX
  8
0
 62
2
 10
3.05620760E+02
 20
-2.32190052E+02
  0
VERTEX
  8
0
 62
2
 10
3.06702065E+02
 20
-2.31966586E+02
  0
VERTEX
  8
0
 62
2
 10
3.07786189E+02
 20
-2.31779247E+02
  0
VERTEX
  8
0
 62
2
 10
3.08872014E+02
 20
-2.31630806E+02
  0
VERTEX
  8
0
 62
2
 10
3.09958422E+02
 20
-2.31524035E+02
  0
VERTEX
  8
0
 62
2
 10
3.11044293E+02
 20
-2.31461706E+02
  0
VERTEX
  8
0
 62
2
 10
3.12128508E+02
 20
-2.31446589E+02
  0
VERTEX
  8
0
 62
2
 10
3.13209948E+02
 20
-2.31481457E+02
  0
VERTEX
  8
0
 62
2
 10
3.14287496E+02
 20
-2.31569082E+02
  0
VERTEX
  8
0
 62
2
 10
3.16140319E+02
 20
-2.31844882E+02
  0
VERTEX
  8
0
 62
2
 10
3.17980848E+02
 20
-2.32250611E+02
  0
VERTEX
  8
0
 62
2
 10
3.19811911E+02
 20
-2.32750157E+02
  0
VERTEX
  8
0
 62
2
 10
3.21636334E+02
 20
-2.33307410E+02
  0
VERTEX
  8
0
 62
2
 10
3.23456945E+02
 20
-2.33886256E+02
  0
VERTEX
  8
0
 62
2
 10
3.25276571E+02
 20
-2.34450587E+02
  0
VERTEX
  8
0
 62
2
 10
3.27098041E+02
 20
-2.34964288E+02
  0
VERTEX
  8
0
 62
2
 10
3.28924181E+02
 20
-2.35391251E+02
  0
VERTEX
  8
0
 62
2
 10
3.30757819E+02
 20
-2.35695362E+02
  0
VERTEX
  8
0
 62
2
 10
3.32601782E+02
 20
-2.35840511E+02
  0
VERTEX
  8
0
 62
2
 10
3.33704240E+02
 20
-2.35838458E+02
  0
VERTEX
  8
0
 62
2
 10
3.34809335E+02
 20
-2.35771168E+02
  0
VERTEX
  8
0
 62
2
 10
3.35915241E+02
 20
-2.35642646E+02
  0
VERTEX
  8
0
 62
2
 10
3.37020132E+02
 20
-2.35456900E+02
  0
VERTEX
  8
0
 62
2
 10
3.38122183E+02
 20
-2.35217936E+02
  0
VERTEX
  8
0
 62
2
 10
3.39219568E+02
 20
-2.34929761E+02
  0
VERTEX
  8
0
 62
2
 10
3.40310460E+02
 20
-2.34596382E+02
  0
VERTEX
  8
0
 62
2
 10
3.41393035E+02
 20
-2.34221806E+02
  0
VERTEX
  8
0
 62
2
 10
3.42465466E+02
 20
-2.33810040E+02
  0
VERTEX
  8
0
 62
2
 10
3.43525929E+02
 20
-2.33365091E+02
  0
SEQEND
  8
0
  0
LINE
  8
0
 62
7
 10
-9.63453107E+01
 20
-1.98297653E+02
 11
-8.75310249E+01
 21
-1.98297653E+02
  0
LINE
  8
0
 62
7
 10
-3.23453096E+01
 20
-1.31997652E+02
 11
-9.43453107E+01
 21
-1.31997652E+02
  0
LINE
  8
0
 62
7
 10
-9.63453107E+01
 20
-1.33997652E+02
 11
-9.63453107E+01
 21
-1.57997652E+02
  0
LINE
  8
0
 62
7
 10
-3.03453096E+01
 20
-1.33997652E+02
 11
-3.03453096E+01
 21
-1.57997652E+02
  0
LINE
  8
0
 62
7
 10
-3.03453096E+01
 20
-1.98297653E+02
 11
-3.03453096E+01
 21
-2.10297653E+02
  0
LINE
  8
0
 62
7
 10
-9.63453107E+01
 20
-1.98297653E+02
 11
-9.63453107E+01
 21
-2.10297653E+02
  0
LINE
  8
0
 62
7
 10
-3.23453096E+01
 20
-2.12297653E+02
 11
-9.43453107E+01
 21
-2.12297653E+02
  0
LINE
  8
0
 62
7
 10
-9.56024536E+01
 20
-2.05297653E+02
 11
-8.63453106E+01
 21
-2.05297653E+02
  0
LINE
  8
0
 62
7
 10
-8.63453106E+01
 20
-2.05297653E+02
 11
-8.63453106E+01
 21
-2.10297653E+02
  0
LINE
  8
0
  6
CENTER
 62
2
 10
-9.13453107E+01
 20
-2.04297653E+02
 11
-9.13453107E+01
 21
-2.13297653E+02
  0
LINE
  8
0
 62
7
 10
-9.56024536E+01
 20
-1.38997652E+02
 11
-8.63453106E+01
 21
-1.38997652E+02
  0
LINE
  8
0
  6
CENTER
 62
2
 10
-9.13453107E+01
 20
-1.39997652E+02
 11
-9.13453107E+01
 21
-1.30997652E+02
  0
LINE
  8
0
 62
7
 10
-8.63453106E+01
 20
-1.38997652E+02
 11
-8.63453106E+01
 21
-1.33997652E+02
  0
LINE
  8
0
 62
7
 10
-4.03453098E+01
 20
-2.05297653E+02
 11
-4.03453098E+01
 21
-2.10297653E+02
  0
LINE
  8
0
 62
7
 10
-3.10881668E+01
 20
-2.05297653E+02
 11
-4.03453098E+01
 21
-2.05297653E+02
  0
LINE
  8
0
  6
CENTER
 62
2
 10
-3.53453097E+01
 20
-2.04297653E+02
 11
-3.53453097E+01
 21
-2.13297653E+02
  0
LINE
  8
0
 62
7
 10
-3.10881668E+01
 20
-1.38997652E+02
 11
-4.03453098E+01
 21
-1.38997652E+02
  0
LINE
  8
0
  6
CENTER
 62
2
 10
-3.53453097E+01
 20
-1.39997652E+02
 11
-3.53453097E+01
 21
-1.30997652E+02
  0
LINE
  8
0
 62
7
 10
-4.03453098E+01
 20
-1.38997652E+02
 11
-4.03453098E+01
 21
-1.33997652E+02
  0
LINE
  8
0
 62
7
 10
-9.63453107E+01
 20
-1.47997652E+02
 11
-8.79024535E+01
 21
-1.47997652E+02
  0
LINE
  8
0
 62
7
 10
-9.63453107E+01
 20
-1.97997653E+02
 11
-8.79024535E+01
 21
-1.97997653E+02
  0
LINE
  8
0
 62
7
 10
-9.53453107E+01
 20
-1.97997653E+02
 11
-9.53453107E+01
 21
-1.98297653E+02
  0
LINE
  8
0
 62
7
 10
-3.13453096E+01
 20
-1.97997653E+02
 11
-3.13453096E+01
 21
-1.98297653E+02
  0
LINE
  8
0
 62
7
 10
-9.63453107E+01
 20
-1.87997653E+02
 11
-9.63453107E+01
 21
-1.97997653E+02
  0
LINE
  8
0
 62
7
 10
-3.03453096E+01
 20
-1.87997653E+02
 11
-3.03453096E+01
 21
-1.97997653E+02
  0
LINE
  8
0
 62
7
 10
-2.55881667E+01
 20
-1.57997652E+02
 11
-3.70881669E+01
 21
-1.57997652E+02
  0
LINE
  8
0
 62
7
 10
-2.16024523E+01
 20
-1.87997653E+02
 11
-3.70881669E+01
 21
-1.87997653E+02
  0
LINE
  8
0
 62
7
 10
-3.87881211E+01
 20
-1.47997652E+02
 11
-3.03453096E+01
 21
-1.47997652E+02
  0
LINE
  8
0
 62
7
 10
-8.96024535E+01
 20
-1.57997652E+02
 11
-1.05716739E+02
 21
-1.57997652E+02
  0
LINE
  8
0
 62
7
 10
-8.96024535E+01
 20
-1.87997653E+02
 11
-1.01731025E+02
 21
-1.87997653E+02
  0
LINE
  8
0
 62
7
 10
-3.87881669E+01
 20
-1.97997653E+02
 11
-3.03453096E+01
 21
-1.97997653E+02
  0
LINE
  8
0
 62
7
 10
-3.91595955E+01
 20
-1.98297653E+02
 11
-3.03453096E+01
 21
-1.98297653E+02
  0
LINE
  8
0
 62
7
 10
-9.08595964E+01
 20
-1.71554795E+02
 11
-9.08595964E+01
 21
-1.74454795E+02
  0
LINE
  8
0
 62
7
 10
-9.08595964E+01
 20
-1.71554795E+02
 11
-8.96024535E+01
 21
-1.70826224E+02
  0
LINE
  8
0
 62
7
 10
-9.08595964E+01
 20
-1.74454795E+02
 11
-8.96024535E+01
 21
-1.75183367E+02
  0
LINE
  8
0
 62
7
 10
-3.58310240E+01
 20
-1.71554795E+02
 11
-3.58310240E+01
 21
-1.74454795E+02
  0
LINE
  8
0
 62
7
 10
-3.70881669E+01
 20
-1.75183367E+02
 11
-3.58310240E+01
 21
-1.74454795E+02
  0
LINE
  8
0
 62
7
 10
-3.70881669E+01
 20
-1.70826224E+02
 11
-3.58310240E+01
 21
-1.71554795E+02
  0
LINE
  8
0
 62
7
 10
3.59404061E+01
 20
-2.12997653E+02
 11
8.09404068E+01
 21
-2.12997653E+02
  0
LINE
  8
0
 62
7
 10
4.14404061E+01
 20
-1.47997652E+02
 11
8.09404068E+01
 21
-1.47997652E+02
  0
LINE
  8
0
 62
7
 10
3.69404061E+01
 20
-1.97997653E+02
 11
5.64404064E+01
 21
-1.97997653E+02
  0
LINE
  8
0
 62
7
 10
5.59404064E+01
 20
-1.49497652E+02
 11
5.59404064E+01
 21
-1.97997653E+02
  0
LINE
  8
0
 62
7
 10
3.59404061E+01
 20
-1.98997653E+02
 11
3.59404061E+01
 21
-2.26997653E+02
  0
LINE
  8
0
 62
7
 10
5.74404064E+01
 20
-1.47997652E+02
 11
5.59404064E+01
 21
-1.49497652E+02
  0
LINE
  8
0
  6
CENTER
 62
2
 10
4.39404062E+01
 20
-1.94997653E+02
 11
4.39404062E+01
 21
-2.08497653E+02
  0
LINE
  8
0
 62
7
 10
3.69404061E+01
 20
-2.05497653E+02
 11
5.04404063E+01
 21
-2.05497653E+02
  0
LINE
  8
0
 62
7
 10
5.09404063E+01
 20
-1.98997653E+02
 11
5.09404063E+01
 21
-2.04997653E+02
  0
LINE
  8
0
 62
7
 10
5.87975493E+01
 20
-1.40497652E+02
 11
5.89404064E+01
 21
-1.40497652E+02
  0
LINE
  8
0
 62
7
 10
5.87975493E+01
 20
-1.40497652E+02
 11
5.82546921E+01
 21
-1.39997652E+02
  0
LINE
  8
0
 62
7
 10
5.75546921E+01
 20
-1.45997652E+02
 11
5.87975493E+01
 21
-1.45997652E+02
  0
LINE
  8
0
 62
7
 10
5.24404063E+01
 20
-1.40497652E+02
 11
4.94404063E+01
 21
-1.40497652E+02
  0
LINE
  8
0
 62
7
 10
5.87975493E+01
 20
-1.45997652E+02
 11
5.82546921E+01
 21
-1.45654795E+02
  0
LINE
  8
0
 62
7
 10
5.49546921E+01
 20
-1.45654795E+02
 11
5.25832635E+01
 21
-1.45654795E+02
  0
LINE
  8
0
 62
7
 10
5.84404064E+01
 20
-1.39997652E+02
 11
4.34404062E+01
 21
-1.39997652E+02
  0
LINE
  8
0
 62
7
 10
5.89404064E+01
 20
-1.40497652E+02
 11
5.89404064E+01
 21
-1.47997652E+02
  0
LINE
  8
0
 62
7
 10
4.29404062E+01
 20
-1.40497652E+02
 11
4.29404062E+01
 21
-1.47997652E+02
  0
LINE
  8
0
 62
7
 10
5.84404064E+01
 20
-1.39997652E+02
 11
5.89404064E+01
 21
-1.40497652E+02
  0
LINE
  8
0
 62
7
 10
4.29404062E+01
 20
-1.40497652E+02
 11
4.34404062E+01
 21
-1.39997652E+02
  0
LINE
  8
0
  6
CENTER
 62
2
 10
5.09404063E+01
 20
-1.36997652E+02
 11
5.09404063E+01
 21
-1.50997652E+02
  0
LINE
  8
0
 62
7
 10
4.94404063E+01
 20
-1.45997652E+02
 11
4.64404062E+01
 21
-1.45997652E+02
  0
LINE
  8
0
 62
7
 10
4.64404062E+01
 20
-1.40497652E+02
 11
4.43261205E+01
 21
-1.40497652E+02
  0
LINE
  8
0
 62
7
 10
4.30832633E+01
 20
-1.40497652E+02
 11
4.30832633E+01
 21
-1.45997652E+02
  0
LINE
  8
0
 62
7
 10
4.36261205E+01
 20
-1.39997652E+02
 11
4.36261205E+01
 21
-1.45654795E+02
  0
LINE
  8
0
 62
7
 10
4.43261205E+01
 20
-1.40497652E+02
 11
4.43261205E+01
 21
-1.45997652E+02
  0
LINE
  8
0
 62
7
 10
4.64404062E+01
 20
-1.40497652E+02
 11
4.64404062E+01
 21
-1.45997652E+02
  0
LINE
  8
0
 62
7
 10
4.69261205E+01
 20
-1.39997652E+02
 11
4.69261205E+01
 21
-1.45654795E+02
  0
LINE
  8
0
 62
7
 10
4.92975491E+01
 20
-1.39997652E+02
 11
4.92975491E+01
 21
-1.45654795E+02
  0
LINE
  8
0
 62
7
 10
4.94404063E+01
 20
-1.40497652E+02
 11
4.94404063E+01
 21
-1.45997652E+02
  0
LINE
  8
0
 62
7
 10
4.36261205E+01
 20
-1.45654795E+02
 11
4.43261205E+01
 21
-1.45654795E+02
  0
LINE
  8
0
 62
7
 10
4.94404063E+01
 20
-1.40497652E+02
 11
4.92975491E+01
 21
-1.39997652E+02
  0
LINE
  8
0
 62
7
 10
4.94404063E+01
 20
-1.45997652E+02
 11
4.92975491E+01
 21
-1.45654795E+02
  0
LINE
  8
0
 62
7
 10
4.69261205E+01
 20
-1.45654795E+02
 11
4.64404062E+01
 21
-1.45997652E+02
  0
LINE
  8
0
 62
7
 10
4.64404062E+01
 20
-1.40497652E+02
 11
4.69261205E+01
 21
-1.39997652E+02
  0
LINE
  8
0
 62
7
 10
4.43261205E+01
 20
-1.40497652E+02
 11
4.45975491E+01
 21
-1.39997652E+02
  0
LINE
  8
0
 62
7
 10
4.30832633E+01
 20
-1.45997652E+02
 11
4.36261205E+01
 21
-1.45654795E+02
  0
LINE
  8
0
 62
7
 10
4.30832633E+01
 20
-1.40497652E+02
 11
4.36261205E+01
 21
-1.39997652E+02
  0
LINE
  8
0
 62
7
 10
4.30832633E+01
 20
-1.40497652E+02
 11
4.29404062E+01
 21
-1.40497652E+02
  0
LINE
  8
0
 62
7
 10
4.69261205E+01
 20
-1.45654795E+02
 11
4.92975491E+01
 21
-1.45654795E+02
  0
LINE
  8
0
 62
7
 10
4.43261205E+01
 20
-1.45997652E+02
 11
4.30832633E+01
 21
-1.45997652E+02
  0
LINE
  8
0
 62
7
 10
5.24404063E+01
 20
-1.45997652E+02
 11
5.54404064E+01
 21
-1.45997652E+02
  0
LINE
  8
0
 62
7
 10
5.54404064E+01
 20
-1.40497652E+02
 11
5.75546921E+01
 21
-1.40497652E+02
  0
LINE
  8
0
 62
7
 10
5.87975493E+01
 20
-1.40497652E+02
 11
5.87975493E+01
 21
-1.45997652E+02
  0
LINE
  8
0
 62
7
 10
5.82546921E+01
 20
-1.39997652E+02
 11
5.82546921E+01
 21
-1.45654795E+02
  0
LINE
  8
0
 62
7
 10
5.75546921E+01
 20
-1.40497652E+02
 11
5.75546921E+01
 21
-1.45997652E+02
  0
LINE
  8
0
 62
7
 10
5.54404064E+01
 20
-1.40497652E+02
 11
5.54404064E+01
 21
-1.45997652E+02
  0
LINE
  8
0
 62
7
 10
5.49546921E+01
 20
-1.39997652E+02
 11
5.49546921E+01
 21
-1.45654795E+02
  0
LINE
  8
0
 62
7
 10
5.25832635E+01
 20
-1.39997652E+02
 11
5.25832635E+01
 21
-1.45654795E+02
  0
LINE
  8
0
 62
7
 10
5.24404063E+01
 20
-1.40497652E+02
 11
5.24404063E+01
 21
-1.45997652E+02
  0
LINE
  8
0
 62
7
 10
5.82546921E+01
 20
-1.45654795E+02
 11
5.75546921E+01
 21
-1.45654795E+02
  0
LINE
  8
0
 62
7
 10
5.24404063E+01
 20
-1.40497652E+02
 11
5.25832635E+01
 21
-1.39997652E+02
  0
LINE
  8
0
 62
7
 10
5.24404063E+01
 20
-1.45997652E+02
 11
5.25832635E+01
 21
-1.45654795E+02
  0
LINE
  8
0
 62
7
 10
5.49546921E+01
 20
-1.45654795E+02
 11
5.54404064E+01
 21
-1.45997652E+02
  0
LINE
  8
0
 62
7
 10
5.54404064E+01
 20
-1.40497652E+02
 11
5.49546921E+01
 21
-1.39997652E+02
  0
LINE
  8
0
 62
7
 10
5.75546921E+01
 20
-1.40497652E+02
 11
5.72832636E+01
 21
-1.39997652E+02
  0
LINE
  8
0
 62
7
 10
3.99404061E+01
 20
-1.49497652E+02
 11
8.09404068E+01
 21
-1.49497652E+02
  0
LINE
  8
0
 62
7
 10
5.74404064E+01
 20
-1.47997652E+02
 11
5.74404064E+01
 21
-1.98997653E+02
  0
LINE
  8
0
 62
7
 10
3.99404061E+01
 20
-1.49497652E+02
 11
3.79832632E+01
 21
-1.97040510E+02
  0
LINE
  8
0
 62
7
 10
5.00546920E+01
 20
-1.49497652E+02
 11
4.70261205E+01
 21
-1.97997653E+02
  0
LINE
  8
0
 62
7
 10
3.99404061E+01
 20
-1.49497652E+02
 11
4.14404061E+01
 21
-1.48011938E+02
  0
LINE
  8
0
 62
7
 10
5.08404063E+01
 20
-1.47997652E+02
 11
5.00546920E+01
 21
-1.49497652E+02
  0
LINE
  8
0
 62
7
 10
7.69404068E+01
 20
-1.46997652E+02
 11
8.09404068E+01
 21
-1.46997652E+02
  0
LINE
  8
0
 62
7
 10
7.69404068E+01
 20
-1.46997652E+02
 11
7.69404068E+01
 21
-1.47997652E+02
  0
LINE
  8
0
 62
7
 10
8.09404068E+01
 20
-1.46997652E+02
 11
8.09404068E+01
 21
-1.47997652E+02
  0
LINE
  8
0
 62
7
 10
3.89404061E+01
 20
-1.98597653E+02
 11
3.89404061E+01
 21
-2.03997653E+02
  0
LINE
  8
0
 62
7
 10
4.89404063E+01
 20
-1.98597653E+02
 11
4.89404063E+01
 21
-2.03997653E+02
  0
LINE
  8
0
 62
7
 10
5.00404063E+01
 20
-2.03997653E+02
 11
3.78404061E+01
 21
-2.03997653E+02
  0
LINE
  8
0
 62
7
 10
5.00404063E+01
 20
-2.03997653E+02
 11
5.00404063E+01
 21
-2.05497653E+02
  0
LINE
  8
0
 62
7
 10
3.78404061E+01
 20
-2.03997653E+02
 11
3.78404061E+01
 21
-2.05497653E+02
  0
LINE
  8
0
 62
7
 10
3.89404061E+01
 20
-1.98597653E+02
 11
4.89404063E+01
 21
-1.98597653E+02
  0
LINE
  8
0
 62
7
 10
3.89404061E+01
 20
-1.98597653E+02
 11
3.95404061E+01
 21
-1.97997653E+02
  0
LINE
  8
0
 62
7
 10
4.89404063E+01
 20
-1.98597653E+02
 11
4.83404063E+01
 21
-1.97997653E+02
  0
LINE
  8
0
 62
7
 10
4.79404063E+01
 20
-1.33997652E+02
 11
4.79404063E+01
 21
-1.39997652E+02
  0
LINE
  8
0
 62
7
 10
4.86975491E+01
 20
-1.38997652E+02
 11
5.79404064E+01
 21
-1.38997652E+02
  0
LINE
  8
0
  6
CENTER
 62
2
 10
5.29404063E+01
 20
-1.39997652E+02
 11
5.29404063E+01
 21
-1.30997652E+02
  0
LINE
  8
0
 62
7
 10
5.79404064E+01
 20
-1.38997652E+02
 11
5.79404064E+01
 21
-1.33997652E+02
  0
LINE
  8
0
 62
7
 10
8.09404068E+01
 20
-1.31997652E+02
 11
4.99404063E+01
 21
-1.31997652E+02
  0
LINE
  8
0
 62
7
 10
3.69404061E+01
 20
-2.27997653E+02
 11
8.09404068E+01
 21
-2.27997653E+02
  0
LINE
  8
0
 62
7
 10
-8.73453106E+01
 20
-2.12297653E+02
 11
-8.73453106E+01
 21
-2.23940510E+02
  0
LINE
  8
0
 62
7
 10
-3.93453098E+01
 20
-2.12297653E+02
 11
-3.93453098E+01
 21
-2.23840510E+02
  0
LINE
  8
0
 62
7
 10
-3.93453098E+01
 20
-2.14297653E+02
 11
-8.73453106E+01
 21
-2.14297653E+02
  0
LINE
  8
0
 62
7
 10
4.08832633E+01
 20
-2.32726225E+02
 11
4.07832633E+01
 21
-2.28983368E+02
  0
LINE
  8
0
 62
7
 10
-1.03045311E+02
 20
-1.47997652E+02
 11
-9.78453108E+01
 21
-1.47997652E+02
  0
LINE
  8
0
 62
7
 10
-9.63453107E+01
 20
-1.49497652E+02
 11
-1.03631025E+02
 21
-1.49497652E+02
  0
LINE
  8
0
 62
7
 10
-9.78453108E+01
 20
-1.48011938E+02
 11
-9.63453107E+01
 21
-1.49511938E+02
  0
LINE
  8
0
 62
7
 10
-9.78453108E+01
 20
-1.47997652E+02
 11
-9.78453108E+01
 21
-1.57997652E+02
  0
LINE
  8
0
 62
7
 10
-9.78453108E+01
 20
-1.87997653E+02
 11
-9.78453108E+01
 21
-1.97997653E+02
  0
LINE
  8
0
 62
7
 10
-1.04673882E+02
 20
-1.97997653E+02
 11
-9.73453108E+01
 21
-1.97997653E+02
  0
LINE
  8
0
 62
7
 10
-2.88453096E+01
 20
-1.87997653E+02
 11
-2.88453096E+01
 21
-1.98069081E+02
  0
LINE
  8
0
 62
7
 10
-2.93453096E+01
 20
-1.97997653E+02
 11
-2.45453095E+01
 21
-1.97997653E+02
  0
LINE
  8
0
 62
7
 10
-2.53453095E+01
 20
-1.46997652E+02
 11
-2.24881666E+01
 21
-1.46997652E+02
  0
LINE
  8
0
 62
7
 10
-2.53453095E+01
 20
-1.46997652E+02
 11
-2.53453095E+01
 21
-1.47997652E+02
  0
LINE
  8
0
 62
7
 10
-2.88453096E+01
 20
-1.47997652E+02
 11
-2.29024523E+01
 21
-1.47997652E+02
  0
LINE
  8
0
 62
7
 10
-2.88453096E+01
 20
-1.47997652E+02
 11
-2.88453096E+01
 21
-1.57997652E+02
  0
LINE
  8
0
 62
7
 10
-3.03453096E+01
 20
-1.49497652E+02
 11
-2.88453096E+01
 21
-1.47997652E+02
  0
LINE
  8
0
 62
7
 10
-2.34738809E+01
 20
-1.49497652E+02
 11
-3.03453096E+01
 21
-1.49497652E+02
  0
ARC
  8
0
 62
7
 10
-9.43361410E+01
 20
-1.34006821E+02
 40
2.00919062E+00
 50
9.02614907E+01
 51
1.79738509E+02
  0
ARC
  8
0
 62
7
 10
-3.23485729E+01
 20
-1.34000915E+02
 40
2.00326596E+00
 50
9.33332446E-02
 51
8.99066665E+01
  0
ARC
  8
0
 62
7
 10
-3.23361796E+01
 20
-2.10306783E+02
 40
1.99089094E+00
 50
2.69737247E+02
 51
2.62753555E-01
  0
ARC
  8
0
 62
7
 10
-9.43484977E+01
 20
-2.10300840E+02
 40
1.99681561E+00
 50
1.79908555E+02
 51
2.70091445E+02
  0
ARC
  8
0
 62
7
 10
-9.43485020E+01
 20
-2.03300844E+02
 40
1.99681128E+00
 50
1.79908430E+02
 51
2.70091570E+02
  0
ARC
  8
0
 62
7
 10
-8.43484975E+01
 20
-2.10300840E+02
 40
1.99681561E+00
 50
1.79908555E+02
 51
2.70091445E+02
  0
ARC
  8
0
 62
7
 10
-9.43361454E+01
 20
-1.41006817E+02
 40
2.00918624E+00
 50
9.02613669E+01
 51
1.79738633E+02
  0
ARC
  8
0
 62
7
 10
-8.43361409E+01
 20
-1.34006821E+02
 40
2.00919062E+00
 50
9.02614907E+01
 51
1.79738509E+02
  0
ARC
  8
0
 62
7
 10
-4.23361798E+01
 20
-2.10306783E+02
 40
1.99089094E+00
 50
2.69737247E+02
 51
2.62753555E-01
  0
ARC
  8
0
 62
7
 10
-3.23361753E+01
 20
-2.03306787E+02
 40
1.99088661E+00
 50
2.69737121E+02
 51
2.62879393E-01
  0
ARC
  8
0
 62
7
 10
-3.23485685E+01
 20
-1.41000911E+02
 40
2.00326157E+00
 50
9.32081863E-02
 51
8.99067920E+01
  0
ARC
  8
0
 62
7
 10
-4.23485731E+01
 20
-1.34000915E+02
 40
2.00326596E+00
 50
9.33332446E-02
 51
8.99066665E+01
  0
ARC
  8
0
 62
7
 10
-3.83394073E+01
 20
-1.73004795E+02
 40
5.49437018E+00
 50
2.83163545E+02
 51
7.68364553E+01
  0
ARC
  8
0
 62
7
 10
-8.83394071E+01
 20
-1.73004795E+02
 40
5.49707079E+00
 50
1.03283365E+02
 51
2.56716635E+02
  0
ARC
  8
0
 62
7
 10
-8.83394069E+01
 20
-1.73004795E+02
 40
4.99794158E+00
 50
1.04638132E+02
 51
2.55361868E+02
  0
ARC
  8
0
 62
7
 10
-8.83394065E+01
 20
-1.73004795E+02
 40
3.97053334E+00
 50
1.08548369E+02
 51
2.51451632E+02
  0
ARC
  8
0
 62
7
 10
-8.83394056E+01
 20
-1.73004795E+02
 40
2.90984156E+00
 50
1.15725540E+02
 51
2.44274460E+02
  0
ARC
  8
0
 62
7
 10
-3.83394075E+01
 20
-1.73004795E+02
 40
4.99497112E+00
 50
2.84507105E+02
 51
7.54928944E+01
  0
ARC
  8
0
 62
7
 10
-3.83394079E+01
 20
-1.73004795E+02
 40
3.96679359E+00
 50
2.88386703E+02
 51
7.16132975E+01
  0
ARC
  8
0
 62
7
 10
-3.83394088E+01
 20
-1.73004795E+02
 40
2.90473653E+00
 50
2.95515749E+02
 51
6.44842513E+01
  0
ARC
  8
0
 62
7
 10
5.64371724E+01
 20
-1.99000887E+02
 40
1.00323921E+00
 50
1.84695305E-01
 51
8.98153049E+01
  0
ARC
  8
0
 62
7
 10
8.09404068E+01
 20
-1.73004795E+02
 40
1.20642874E+01
 50
9.00000002E+01
 51
2.70000000E+02
  0
ARC
  8
0
 62
7
 10
3.69372774E+01
 20
-2.27000782E+02
 40
9.96876305E-01
 50
1.79820181E+02
 51
2.70179819E+02
  0
ARC
  8
0
 62
2
 10
8.09404068E+01
 20
-1.73004795E+02
 40
1.32214301E+01
 50
9.00000002E+01
 51
2.70000000E+02
  0
ARC
  8
0
 62
7
 10
8.09404068E+01
 20
-1.72997652E+02
 40
2.10000012E+01
 50
9.00000002E+01
 51
2.70000000E+02
  0
ARC
  8
0
 62
7
 10
3.69495412E+01
 20
-1.99006788E+02
 40
1.00917650E+00
 50
9.05186525E+01
 51
1.79481348E+02
  0
ARC
  8
0
 62
7
 10
3.69915512E+01
 20
-1.97005352E+02
 40
9.92334993E-01
 50
2.69521458E+02
 51
3.57969639E+02
  0
ARC
  8
0
 62
7
 10
5.19495415E+01
 20
-1.99006788E+02
 40
1.00917650E+00
 50
9.05186525E+01
 51
1.79481348E+02
  0
ARC
  8
0
 62
7
 10
3.69495412E+01
 20
-2.06506788E+02
 40
1.00917650E+00
 50
9.05186525E+01
 51
1.79481348E+02
  0
ARC
  8
0
 62
7
 10
5.04495218E+01
 20
-2.05006768E+02
 40
4.90969163E-01
 50
2.68936169E+02
 51
1.06383083E+00
  0
ARC
  8
0
 62
7
 10
4.99495432E+01
 20
-1.34006789E+02
 40
2.00915773E+00
 50
9.02605613E+01
 51
1.79739439E+02
  0
ARC
  8
0
 62
7
 10
4.99498397E+01
 20
-1.41007938E+02
 40
2.01030804E+00
 50
9.02688618E+01
 51
1.49830966E+02
  0
ARC
  8
0
 62
7
 10
5.99495434E+01
 20
-1.34006789E+02
 40
2.00915773E+00
 50
9.02605613E+01
 51
1.79739439E+02
  0
ARC
  8
0
 62
7
 10
3.97822701E+01
 20
-2.28998764E+02
 40
1.00111158E+00
 50
8.81226220E-01
 51
9.00000002E+01
  0
ARC
  8
0
 62
7
 10
-9.73485290E+01
 20
-1.99000871E+02
 40
1.00322344E+00
 50
1.83800626E-01
 51
8.98161993E+01
  0
ARC
  8
0
 62
7
 10
-2.93362246E+01
 20
-1.99006738E+02
 40
1.00912587E+00
 50
9.05158289E+01
 51
1.79484171E+02
  0
LINE
  8
0
 62
7
 10
-3.70045314E+02
 20
-1.57997652E+02
 11
-3.42668735E+02
 21
-1.57997652E+02
  0
LINE
  8
0
 62
7
 10
-2.96616742E+02
 20
-1.31997652E+02
 11
-3.58616743E+02
 21
-1.31997652E+02
  0
LINE
  8
0
 62
7
 10
-3.60616743E+02
 20
-1.33997652E+02
 11
-3.60616743E+02
 21
-1.57997652E+02
  0
LINE
  8
0
 62
7
 10
-2.94616742E+02
 20
-1.33997652E+02
 11
-2.94616742E+02
 21
-1.57997652E+02
  0
LINE
  8
0
 62
7
 10
-2.94616742E+02
 20
-1.98297653E+02
 11
-2.94616742E+02
 21
-2.10297653E+02
  0
LINE
  8
0
 62
7
 10
-3.60616743E+02
 20
-1.98297653E+02
 11
-3.60616743E+02
 21
-2.10297653E+02
  0
LINE
  8
0
 62
7
 10
-2.96616742E+02
 20
-2.12297653E+02
 11
-3.58616743E+02
 21
-2.12297653E+02
  0
LINE
  8
0
 62
7
 10
-3.59873886E+02
 20
-2.05297653E+02
 11
-3.50616743E+02
 21
-2.05297653E+02
  0
LINE
  8
0
 62
7
 10
-3.50616743E+02
 20
-2.05297653E+02
 11
-3.50616743E+02
 21
-2.10297653E+02
  0
LINE
  8
0
  6
CENTER
 62
2
 10
-3.55616743E+02
 20
-2.04297653E+02
 11
-3.55616743E+02
 21
-2.13297653E+02
  0
LINE
  8
0
 62
7
 10
-3.59873886E+02
 20
-1.38997652E+02
 11
-3.50616743E+02
 21
-1.38997652E+02
  0
LINE
  8
0
  6
CENTER
 62
2
 10
-3.55616743E+02
 20
-1.39997652E+02
 11
-3.55616743E+02
 21
-1.30997652E+02
  0
LINE
  8
0
 62
7
 10
-3.50616743E+02
 20
-1.38997652E+02
 11
-3.50616743E+02
 21
-1.33997652E+02
  0
LINE
  8
0
 62
7
 10
-3.04616742E+02
 20
-2.05297653E+02
 11
-3.04616742E+02
 21
-2.10297653E+02
  0
LINE
  8
0
 62
7
 10
-2.95373885E+02
 20
-2.05297653E+02
 11
-3.04616742E+02
 21
-2.05297653E+02
  0
LINE
  8
0
  6
CENTER
 62
2
 10
-2.99616742E+02
 20
-2.04297653E+02
 11
-2.99616742E+02
 21
-2.13297653E+02
  0
LINE
  8
0
 62
7
 10
-2.95373885E+02
 20
-1.38997652E+02
 11
-3.04616742E+02
 21
-1.38997652E+02
  0
LINE
  8
0
  6
CENTER
 62
2
 10
-2.99616742E+02
 20
-1.39997652E+02
 11
-2.99616742E+02
 21
-1.30997652E+02
  0
LINE
  8
0
 62
7
 10
-3.04616742E+02
 20
-1.38997652E+02
 11
-3.04616742E+02
 21
-1.33997652E+02
  0
LINE
  8
0
 62
7
 10
-3.60616743E+02
 20
-1.47997652E+02
 11
-2.87173884E+02
 21
-1.47997652E+02
  0
LINE
  8
0
 62
7
 10
-3.60616743E+02
 20
-1.97997653E+02
 11
-2.88816742E+02
 21
-1.97997653E+02
  0
LINE
  8
0
 62
7
 10
-3.59616743E+02
 20
-1.97997653E+02
 11
-3.59616743E+02
 21
-1.98297653E+02
  0
LINE
  8
0
 62
7
 10
-2.95616742E+02
 20
-1.97997653E+02
 11
-2.95616742E+02
 21
-1.98297653E+02
  0
LINE
  8
0
 62
7
 10
-3.60616743E+02
 20
-1.87997653E+02
 11
-3.60616743E+02
 21
-1.97997653E+02
  0
LINE
  8
0
 62
7
 10
-2.94616742E+02
 20
-1.87997653E+02
 11
-2.94616742E+02
 21
-1.97997653E+02
  0
LINE
  8
0
 62
7
 10
-3.03616742E+02
 20
-2.14297653E+02
 11
-3.51616743E+02
 21
-2.14297653E+02
  0
LINE
  8
0
 62
7
 10
-3.62116743E+02
 20
-1.48011938E+02
 11
-3.60616743E+02
 21
-1.49511938E+02
  0
LINE
  8
0
 62
7
 10
-3.62116743E+02
 20
-1.47997652E+02
 11
-3.62116743E+02
 21
-1.57997652E+02
  0
LINE
  8
0
 62
7
 10
-3.62116743E+02
 20
-1.87997653E+02
 11
-3.62116743E+02
 21
-1.97997653E+02
  0
LINE
  8
0
 62
7
 10
-3.60616743E+02
 20
-1.98297653E+02
 11
-2.94616742E+02
 21
-1.98297653E+02
  0
ARC
  8
0
 62
7
 10
-3.58614703E+02
 20
-1.33999692E+02
 40
2.00204125E+00
 50
9.00583869E+01
 51
1.79941613E+02
  0
ARC
  8
0
 62
7
 10
-2.96627095E+02
 20
-1.34008005E+02
 40
2.01038016E+00
 50
2.95074788E-01
 51
8.97049252E+01
  0
ARC
  8
0
 62
7
 10
-2.96614746E+02
 20
-2.10299649E+02
 40
1.99800534E+00
 50
2.69942771E+02
 51
5.72294753E-02
  0
ARC
  8
0
 62
7
 10
-3.58627103E+02
 20
-2.10308014E+02
 40
1.98966642E+00
 50
1.79701648E+02
 51
2.70298352E+02
  0
ARC
  8
0
 62
7
 10
-3.58627108E+02
 20
-2.03308018E+02
 40
1.98966209E+00
 50
1.79701522E+02
 51
2.70298478E+02
  0
ARC
  8
0
 62
7
 10
-3.48627103E+02
 20
-2.10308014E+02
 40
1.98966642E+00
 50
1.79701648E+02
 51
2.70298352E+02
  0
ARC
  8
0
 62
7
 10
-3.58614707E+02
 20
-1.40999688E+02
 40
2.00203686E+00
 50
9.00582620E+01
 51
1.79941738E+02
  0
ARC
  8
0
 62
7
 10
-3.48614702E+02
 20
-1.33999692E+02
 40
2.00204125E+00
 50
9.00583869E+01
 51
1.79941613E+02
  0
ARC
  8
0
 62
7
 10
-3.06614746E+02
 20
-2.10299649E+02
 40
1.99800534E+00
 50
2.69942771E+02
 51
5.72294753E-02
  0
ARC
  8
0
 62
7
 10
-2.96614742E+02
 20
-2.03299653E+02
 40
1.99800101E+00
 50
2.69942646E+02
 51
5.73539725E-02
  0
ARC
  8
0
 62
7
 10
-2.96627091E+02
 20
-1.41008001E+02
 40
2.01037577E+00
 50
2.94951054E-01
 51
8.97050490E+01
  0
ARC
  8
0
 62
7
 10
-3.06627095E+02
 20
-1.34008005E+02
 40
2.01038016E+00
 50
2.95074788E-01
 51
8.97049252E+01
  0
ARC
  8
0
 62
7
 10
-3.61627054E+02
 20
-1.99007964E+02
 40
1.01036344E+00
 50
5.84716591E-01
 51
8.94152836E+01
  0
ARC
  8
0
 62
7
 10
-3.52616764E+02
 20
-1.72997644E+02
 40
5.49999928E+00
 50
4.22101828E+01
 51
3.17789750E+02
  0
CIRCLE
  8
0
 62
7
 10
-3.52616742E+02
 20
-1.72997652E+02
 40
2.89829731E+00
  0
ARC
  8
0
 62
7
 10
-3.52616742E+02
 20
-1.72997652E+02
 40
3.96076870E+00
 50
1.72553325E+01
 51
3.42744664E+02
  0
ARC
  8
0
 62
7
 10
-3.52616742E+02
 20
-1.72997652E+02
 40
5.00000000E+00
 50
3.74626511E+01
 51
3.22537349E+02
  0
LINE
  8
0
 62
7
 10
-3.55126742E+02
 20
-1.74437652E+02
 11
-3.52616742E+02
 21
-1.75887652E+02
  0
LINE
  8
0
 62
7
 10
-3.55126742E+02
 20
-1.71557652E+02
 11
-3.52616742E+02
 21
-1.70107652E+02
  0
ARC
  8
0
 62
7
 10
-3.02616742E+02
 20
-1.72997652E+02
 40
5.00000000E+00
 50
2.17462651E+02
 51
1.42537349E+02
  0
ARC
  8
0
 62
7
 10
-3.02616742E+02
 20
-1.72997652E+02
 40
3.96076870E+00
 50
1.97255336E+02
 51
1.62744668E+02
  0
ARC
  8
0
 62
7
 10
-3.02616764E+02
 20
-1.72997644E+02
 40
5.49999928E+00
 50
2.22210816E+02
 51
1.37789251E+02
  0
LINE
  8
0
 62
7
 10
-3.05126742E+02
 20
-1.71557652E+02
 11
-3.05126742E+02
 21
-1.74437652E+02
  0
LINE
  8
0
 62
7
 10
-3.00106742E+02
 20
-1.71557652E+02
 11
-3.00106742E+02
 21
-1.74437652E+02
  0
LINE
  8
0
 62
7
 10
-3.05126742E+02
 20
-1.71557652E+02
 11
-3.02616742E+02
 21
-1.70107652E+02
  0
LINE
  8
0
 62
7
 10
-3.02616742E+02
 20
-1.75887652E+02
 11
-3.00106742E+02
 21
-1.74437652E+02
  0
LINE
  8
0
 62
7
 10
-3.02616742E+02
 20
-1.70107652E+02
 11
-3.00106742E+02
 21
-1.71557652E+02
  0
LINE
  8
0
 62
7
 10
-3.05126742E+02
 20
-1.74437652E+02
 11
-3.02616742E+02
 21
-1.75887652E+02
  0
CIRCLE
  8
0
 62
7
 10
-3.02616742E+02
 20
-1.72997652E+02
 40
2.89829731E+00
  0
LINE
  8
0
 62
7
 10
-3.50106742E+02
 20
-1.71557652E+02
 11
-3.50106742E+02
 21
-1.74437652E+02
  0
LINE
  8
0
 62
7
 10
-3.52616742E+02
 20
-1.75887652E+02
 11
-3.50106742E+02
 21
-1.74437652E+02
  0
LINE
  8
0
 62
7
 10
-3.52616742E+02
 20
-1.70107652E+02
 11
-3.50106742E+02
 21
-1.71557652E+02
  0
LINE
  8
0
  6
CENTER
 62
2
 10
-3.52616742E+02
 20
-1.65497652E+02
 11
-3.52616742E+02
 21
-1.80497653E+02
  0
LINE
  8
0
  6
CENTER
 62
2
 10
-3.02616742E+02
 20
-1.65497652E+02
 11
-3.02616742E+02
 21
-1.80497653E+02
  0
LINE
  8
0
 62
7
 10
-3.12564749E+02
 20
-1.57997652E+02
 11
-2.89859599E+02
 21
-1.57997652E+02
  0
LINE
  8
0
 62
7
 10
-3.12564749E+02
 20
-1.87997653E+02
 11
-2.85873884E+02
 21
-1.87997653E+02
  0
LINE
  8
0
 62
7
 10
-3.66002457E+02
 20
-1.87997653E+02
 11
-3.42668735E+02
 21
-1.87997653E+02
  0
LINE
  8
0
 62
7
 10
-3.68959600E+02
 20
-1.97997653E+02
 11
-3.61616743E+02
 21
-1.97997653E+02
  0
LINE
  8
0
 62
7
 10
-3.60616743E+02
 20
-1.49497652E+02
 11
-3.67902457E+02
 21
-1.49497652E+02
  0
LINE
  8
0
 62
7
 10
-3.67316743E+02
 20
-1.47997652E+02
 11
-3.62116743E+02
 21
-1.47997652E+02
  0
LINE
  8
0
 62
7
 10
-3.03616742E+02
 20
-2.12297653E+02
 11
-3.03616742E+02
 21
-2.23840510E+02
  0
LINE
  8
0
 62
7
 10
-3.51616743E+02
 20
-2.12297653E+02
 11
-3.51616743E+02
 21
-2.23940510E+02
  0
ARC
  8
0
 62
7
 10
-2.29496136E+02
 20
-2.29005840E+02
 40
1.00821764E+00
 50
1.27715416E+00
 51
8.95472312E+01
  0
ARC
  8
0
 62
7
 10
-2.09328986E+02
 20
-1.33999692E+02
 40
2.00204102E+00
 50
9.00583806E+01
 51
1.79941619E+02
  0
ARC
  8
0
 62
7
 10
-2.19325127E+02
 20
-1.41001828E+02
 40
2.00418492E+00
 50
9.01686377E+01
 51
1.49931190E+02
  0
ARC
  8
0
 62
7
 10
-2.19328986E+02
 20
-1.33999692E+02
 40
2.00204102E+00
 50
9.00583806E+01
 51
1.79941619E+02
  0
ARC
  8
0
 62
7
 10
-2.18829150E+02
 20
-2.04999529E+02
 40
4.98127513E-01
 50
2.69784214E+02
 51
2.15785674E-01
  0
ARC
  8
0
 62
7
 10
-2.32328942E+02
 20
-2.06499737E+02
 40
1.00208605E+00
 50
9.01191485E+01
 51
1.79880852E+02
  0
ARC
  8
0
 62
7
 10
-2.17328942E+02
 20
-1.98999737E+02
 40
1.00208605E+00
 50
9.01191485E+01
 51
1.79880852E+02
  0
ARC
  8
0
 62
7
 10
-2.32286793E+02
 20
-1.96998131E+02
 40
9.99523084E-01
 50
2.69921137E+02
 51
3.57569960E+02
  0
ARC
  8
0
 62
7
 10
-2.32328942E+02
 20
-1.98999737E+02
 40
1.00208605E+00
 50
9.01191485E+01
 51
1.79880852E+02
  0
ARC
  8
0
 62
7
 10
-1.88331025E+02
 20
-1.72997652E+02
 40
2.10000020E+01
 50
9.00000002E+01
 51
2.70000000E+02
  0
ARC
  8
0
 62
2
 10
-1.88331025E+02
 20
-1.73004795E+02
 40
1.32214315E+01
 50
9.00000002E+01
 51
2.70000000E+02
  0
ARC
  8
0
 62
7
 10
-2.32341326E+02
 20
-2.27007954E+02
 40
9.89753365E-01
 50
1.79403719E+02
 51
2.70596281E+02
  0
ARC
  8
0
 62
7
 10
-1.88331025E+02
 20
-1.73004795E+02
 40
1.20642888E+01
 50
9.00000002E+01
 51
2.70000000E+02
  0
ARC
  8
0
 62
7
 10
-2.12841363E+02
 20
-1.99007990E+02
 40
1.01038990E+00
 50
5.86186657E-01
 51
8.94138134E+01
  0
LINE
  8
0
 62
7
 10
-2.28388169E+02
 20
-2.32726225E+02
 11
-2.28488169E+02
 21
-2.28983368E+02
  0
LINE
  8
0
 62
7
 10
-1.88331025E+02
 20
-1.31997652E+02
 11
-2.19331026E+02
 21
-1.31997652E+02
  0
LINE
  8
0
 62
7
 10
-2.11331026E+02
 20
-1.38997652E+02
 11
-2.11331026E+02
 21
-1.33997652E+02
  0
LINE
  8
0
  6
CENTER
 62
2
 10
-2.16331026E+02
 20
-1.39997652E+02
 11
-2.16331026E+02
 21
-1.30997652E+02
  0
LINE
  8
0
 62
7
 10
-2.20588169E+02
 20
-1.38997652E+02
 11
-2.11331026E+02
 21
-1.38997652E+02
  0
LINE
  8
0
 62
7
 10
-2.21331026E+02
 20
-1.33997652E+02
 11
-2.21331026E+02
 21
-1.39997652E+02
  0
LINE
  8
0
 62
7
 10
-2.20331026E+02
 20
-1.98597653E+02
 11
-2.20931026E+02
 21
-1.97997653E+02
  0
LINE
  8
0
 62
7
 10
-2.30331026E+02
 20
-1.98597653E+02
 11
-2.29731026E+02
 21
-1.97997653E+02
  0
LINE
  8
0
 62
7
 10
-2.30331026E+02
 20
-1.98597653E+02
 11
-2.20331026E+02
 21
-1.98597653E+02
  0
LINE
  8
0
 62
7
 10
-2.31431026E+02
 20
-2.03997653E+02
 11
-2.31431026E+02
 21
-2.05497653E+02
  0
LINE
  8
0
 62
7
 10
-2.19231026E+02
 20
-2.03997653E+02
 11
-2.19231026E+02
 21
-2.05497653E+02
  0
LINE
  8
0
 62
7
 10
-2.19231026E+02
 20
-2.03997653E+02
 11
-2.31431026E+02
 21
-2.03997653E+02
  0
LINE
  8
0
 62
7
 10
-2.20331026E+02
 20
-1.98597653E+02
 11
-2.20331026E+02
 21
-2.03997653E+02
  0
LINE
  8
0
 62
7
 10
-2.30331026E+02
 20
-1.98597653E+02
 11
-2.30331026E+02
 21
-2.03997653E+02
  0
LINE
  8
0
 62
7
 10
-2.32331026E+02
 20
-2.27997653E+02
 11
-1.88331025E+02
 21
-2.27997653E+02
  0
LINE
  8
0
 62
7
 10
-1.88331025E+02
 20
-1.46997652E+02
 11
-1.88331025E+02
 21
-1.47997652E+02
  0
LINE
  8
0
 62
7
 10
-1.92331026E+02
 20
-1.46997652E+02
 11
-1.92331026E+02
 21
-1.47997652E+02
  0
LINE
  8
0
 62
7
 10
-1.92331026E+02
 20
-1.46997652E+02
 11
-1.88331025E+02
 21
-1.46997652E+02
  0
LINE
  8
0
 62
7
 10
-2.18431026E+02
 20
-1.47997652E+02
 11
-2.19216740E+02
 21
-1.49497652E+02
  0
LINE
  8
0
 62
7
 10
-2.29331026E+02
 20
-1.49497652E+02
 11
-2.27831026E+02
 21
-1.47997652E+02
  0
LINE
  8
0
 62
7
 10
-2.19216740E+02
 20
-1.49497652E+02
 11
-2.22259597E+02
 21
-1.97997653E+02
  0
LINE
  8
0
 62
7
 10
-2.29331026E+02
 20
-1.49497652E+02
 11
-2.31288169E+02
 21
-1.97040510E+02
  0
LINE
  8
0
 62
7
 10
-2.11831026E+02
 20
-1.47997652E+02
 11
-2.11831026E+02
 21
-1.98997653E+02
  0
LINE
  8
0
 62
7
 10
-2.29331026E+02
 20
-1.49497652E+02
 11
-1.88331025E+02
 21
-1.49497652E+02
  0
LINE
  8
0
 62
7
 10
-2.11716740E+02
 20
-1.40497652E+02
 11
-2.11988169E+02
 21
-1.39997652E+02
  0
LINE
  8
0
 62
7
 10
-2.13831026E+02
 20
-1.40497652E+02
 11
-2.14316740E+02
 21
-1.39997652E+02
  0
LINE
  8
0
 62
7
 10
-2.14316740E+02
 20
-1.45654795E+02
 11
-2.13831026E+02
 21
-1.45997652E+02
  0
LINE
  8
0
 62
7
 10
-2.16831026E+02
 20
-1.45997652E+02
 11
-2.16688169E+02
 21
-1.45654795E+02
  0
LINE
  8
0
 62
7
 10
-2.16831026E+02
 20
-1.40497652E+02
 11
-2.16688169E+02
 21
-1.39997652E+02
  0
LINE
  8
0
 62
7
 10
-2.11016740E+02
 20
-1.45654795E+02
 11
-2.11716740E+02
 21
-1.45654795E+02
  0
LINE
  8
0
 62
7
 10
-2.16831026E+02
 20
-1.40497652E+02
 11
-2.16831026E+02
 21
-1.45997652E+02
  0
LINE
  8
0
 62
7
 10
-2.16688169E+02
 20
-1.39997652E+02
 11
-2.16688169E+02
 21
-1.45654795E+02
  0
LINE
  8
0
 62
7
 10
-2.14316740E+02
 20
-1.39997652E+02
 11
-2.14316740E+02
 21
-1.45654795E+02
  0
LINE
  8
0
 62
7
 10
-2.13831026E+02
 20
-1.40497652E+02
 11
-2.13831026E+02
 21
-1.45997652E+02
  0
LINE
  8
0
 62
7
 10
-2.11716740E+02
 20
-1.40497652E+02
 11
-2.11716740E+02
 21
-1.45997652E+02
  0
LINE
  8
0
 62
7
 10
-2.11016740E+02
 20
-1.39997652E+02
 11
-2.11016740E+02
 21
-1.45654795E+02
  0
LINE
  8
0
 62
7
 10
-2.10473883E+02
 20
-1.40497652E+02
 11
-2.10473883E+02
 21
-1.45997652E+02
  0
LINE
  8
0
 62
7
 10
-2.13831026E+02
 20
-1.40497652E+02
 11
-2.11716740E+02
 21
-1.40497652E+02
  0
LINE
  8
0
 62
7
 10
-2.16831026E+02
 20
-1.45997652E+02
 11
-2.13831026E+02
 21
-1.45997652E+02
  0
LINE
  8
0
 62
7
 10
-2.24945312E+02
 20
-1.45997652E+02
 11
-2.26188169E+02
 21
-1.45997652E+02
  0
LINE
  8
0
 62
7
 10
-2.22345312E+02
 20
-1.45654795E+02
 11
-2.19973883E+02
 21
-1.45654795E+02
  0
LINE
  8
0
 62
7
 10
-2.26188169E+02
 20
-1.40497652E+02
 11
-2.26331026E+02
 21
-1.40497652E+02
  0
LINE
  8
0
 62
7
 10
-2.26188169E+02
 20
-1.40497652E+02
 11
-2.25645312E+02
 21
-1.39997652E+02
  0
LINE
  8
0
 62
7
 10
-2.26188169E+02
 20
-1.45997652E+02
 11
-2.25645312E+02
 21
-1.45654795E+02
  0
LINE
  8
0
 62
7
 10
-2.24945312E+02
 20
-1.40497652E+02
 11
-2.24673883E+02
 21
-1.39997652E+02
  0
LINE
  8
0
 62
7
 10
-2.22831026E+02
 20
-1.40497652E+02
 11
-2.22345312E+02
 21
-1.39997652E+02
  0
LINE
  8
0
 62
7
 10
-2.22345312E+02
 20
-1.45654795E+02
 11
-2.22831026E+02
 21
-1.45997652E+02
  0
LINE
  8
0
 62
7
 10
-2.19831026E+02
 20
-1.45997652E+02
 11
-2.19973883E+02
 21
-1.45654795E+02
  0
LINE
  8
0
 62
7
 10
-2.19831026E+02
 20
-1.40497652E+02
 11
-2.19973883E+02
 21
-1.39997652E+02
  0
LINE
  8
0
 62
7
 10
-2.25645312E+02
 20
-1.45654795E+02
 11
-2.24945312E+02
 21
-1.45654795E+02
  0
LINE
  8
0
 62
7
 10
-2.19831026E+02
 20
-1.40497652E+02
 11
-2.19831026E+02
 21
-1.45997652E+02
  0
LINE
  8
0
 62
7
 10
-2.19973883E+02
 20
-1.39997652E+02
 11
-2.19973883E+02
 21
-1.45654795E+02
  0
LINE
  8
0
 62
7
 10
-2.22345312E+02
 20
-1.39997652E+02
 11
-2.22345312E+02
 21
-1.45654795E+02
  0
LINE
  8
0
 62
7
 10
-2.22831026E+02
 20
-1.40497652E+02
 11
-2.22831026E+02
 21
-1.45997652E+02
  0
LINE
  8
0
 62
7
 10
-2.24945312E+02
 20
-1.40497652E+02
 11
-2.24945312E+02
 21
-1.45997652E+02
  0
LINE
  8
0
 62
7
 10
-2.25645312E+02
 20
-1.39997652E+02
 11
-2.25645312E+02
 21
-1.45654795E+02
  0
LINE
  8
0
 62
7
 10
-2.26188169E+02
 20
-1.40497652E+02
 11
-2.26188169E+02
 21
-1.45997652E+02
  0
LINE
  8
0
 62
7
 10
-2.22831026E+02
 20
-1.40497652E+02
 11
-2.24945312E+02
 21
-1.40497652E+02
  0
LINE
  8
0
 62
7
 10
-2.19831026E+02
 20
-1.45997652E+02
 11
-2.22831026E+02
 21
-1.45997652E+02
  0
LINE
  8
0
  6
CENTER
 62
2
 10
-2.18331026E+02
 20
-1.36997652E+02
 11
-2.18331026E+02
 21
-1.50997652E+02
  0
LINE
  8
0
 62
7
 10
-2.26331026E+02
 20
-1.40497652E+02
 11
-2.25831026E+02
 21
-1.39997652E+02
  0
LINE
  8
0
 62
7
 10
-2.10831026E+02
 20
-1.39997652E+02
 11
-2.10331026E+02
 21
-1.40497652E+02
  0
LINE
  8
0
 62
7
 10
-2.26331026E+02
 20
-1.40497652E+02
 11
-2.26331026E+02
 21
-1.47997652E+02
  0
LINE
  8
0
 62
7
 10
-2.10331026E+02
 20
-1.40497652E+02
 11
-2.10331026E+02
 21
-1.47997652E+02
  0
LINE
  8
0
 62
7
 10
-2.10831026E+02
 20
-1.39997652E+02
 11
-2.25831026E+02
 21
-1.39997652E+02
  0
LINE
  8
0
 62
7
 10
-2.14316740E+02
 20
-1.45654795E+02
 11
-2.16688169E+02
 21
-1.45654795E+02
  0
LINE
  8
0
 62
7
 10
-2.10473883E+02
 20
-1.45997652E+02
 11
-2.11016740E+02
 21
-1.45654795E+02
  0
LINE
  8
0
 62
7
 10
-2.16831026E+02
 20
-1.40497652E+02
 11
-2.19831026E+02
 21
-1.40497652E+02
  0
LINE
  8
0
 62
7
 10
-2.11716740E+02
 20
-1.45997652E+02
 11
-2.10473883E+02
 21
-1.45997652E+02
  0
LINE
  8
0
 62
7
 10
-2.10473883E+02
 20
-1.40497652E+02
 11
-2.11016740E+02
 21
-1.39997652E+02
  0
LINE
  8
0
 62
7
 10
-2.10473883E+02
 20
-1.40497652E+02
 11
-2.10331026E+02
 21
-1.40497652E+02
  0
LINE
  8
0
 62
7
 10
-2.18331026E+02
 20
-1.98997653E+02
 11
-2.18331026E+02
 21
-2.04997653E+02
  0
LINE
  8
0
 62
7
 10
-2.32331026E+02
 20
-2.05497653E+02
 11
-2.18831026E+02
 21
-2.05497653E+02
  0
LINE
  8
0
  6
CENTER
 62
2
 10
-2.25331026E+02
 20
-1.94997653E+02
 11
-2.25331026E+02
 21
-2.08497653E+02
  0
LINE
  8
0
 62
7
 10
-2.11831026E+02
 20
-1.47997652E+02
 11
-2.13331026E+02
 21
-1.49497652E+02
  0
LINE
  8
0
 62
7
 10
-2.33331026E+02
 20
-1.98997653E+02
 11
-2.33331026E+02
 21
-2.26997653E+02
  0
LINE
  8
0
 62
7
 10
-2.13331026E+02
 20
-1.49497652E+02
 11
-2.13331026E+02
 21
-1.97997653E+02
  0
LINE
  8
0
 62
7
 10
-2.32331026E+02
 20
-1.97997653E+02
 11
-2.12831026E+02
 21
-1.97997653E+02
  0
LINE
  8
0
 62
7
 10
-2.27831026E+02
 20
-1.47997652E+02
 11
-1.88331025E+02
 21
-1.47997652E+02
  0
LINE
  8
0
 62
7
 10
-2.33331026E+02
 20
-2.12997653E+02
 11
-1.88331025E+02
 21
-2.12997653E+02
  0
LINE
  8
0
 62
7
 10
1.74744636E+02
 20
-1.47997652E+02
 11
1.76244636E+02
 21
-1.49497652E+02
  0
LINE
  8
0
 62
7
 10
1.74744636E+02
 20
-1.47997652E+02
 11
1.74744636E+02
 21
-1.57997652E+02
  0
LINE
  8
0
 62
7
 10
1.74744636E+02
 20
-1.87997653E+02
 11
1.74744636E+02
 21
-1.97997653E+02
  0
LINE
  8
0
 62
7
 10
1.76244636E+02
 20
-1.98297653E+02
 11
2.07394637E+02
 21
-1.98297653E+02
  0
LINE
  8
0
 62
7
 10
2.40244637E+02
 20
-1.31997652E+02
 11
1.78244636E+02
 21
-1.31997652E+02
  0
LINE
  8
0
 62
7
 10
1.76244636E+02
 20
-1.33997652E+02
 11
1.76244636E+02
 21
-1.57997652E+02
  0
LINE
  8
0
 62
7
 10
2.42244637E+02
 20
-1.33997652E+02
 11
2.42244637E+02
 21
-1.57997652E+02
  0
LINE
  8
0
 62
7
 10
2.42244637E+02
 20
-1.98297653E+02
 11
2.42244637E+02
 21
-2.10297653E+02
  0
LINE
  8
0
 62
7
 10
1.76244636E+02
 20
-1.98297653E+02
 11
1.76244636E+02
 21
-2.10297653E+02
  0
LINE
  8
0
 62
7
 10
2.40244637E+02
 20
-2.12297653E+02
 11
2.10987494E+02
 21
-2.12297653E+02
  0
LINE
  8
0
 62
7
 10
1.77001779E+02
 20
-2.05297653E+02
 11
1.86244636E+02
 21
-2.05297653E+02
  0
LINE
  8
0
 62
7
 10
1.86244636E+02
 20
-2.05297653E+02
 11
1.86244636E+02
 21
-2.10297653E+02
  0
LINE
  8
0
  6
CENTER
 62
2
 10
1.81244636E+02
 20
-2.04297653E+02
 11
1.81244636E+02
 21
-2.13297653E+02
  0
LINE
  8
0
 62
7
 10
1.77001779E+02
 20
-1.38997652E+02
 11
1.86244636E+02
 21
-1.38997652E+02
  0
LINE
  8
0
  6
CENTER
 62
2
 10
1.81244636E+02
 20
-1.39997652E+02
 11
1.81244636E+02
 21
-1.30997652E+02
  0
LINE
  8
0
 62
7
 10
1.86244636E+02
 20
-1.38997652E+02
 11
1.86244636E+02
 21
-1.33997652E+02
  0
LINE
  8
0
 62
7
 10
2.32244637E+02
 20
-2.05297653E+02
 11
2.32244637E+02
 21
-2.10297653E+02
  0
LINE
  8
0
 62
7
 10
2.41501780E+02
 20
-2.05297653E+02
 11
2.32244637E+02
 21
-2.05297653E+02
  0
LINE
  8
0
  6
CENTER
 62
2
 10
2.37244637E+02
 20
-2.04297653E+02
 11
2.37244637E+02
 21
-2.13297653E+02
  0
LINE
  8
0
 62
7
 10
2.41501780E+02
 20
-1.38997652E+02
 11
2.32244637E+02
 21
-1.38997652E+02
  0
LINE
  8
0
  6
CENTER
 62
2
 10
2.37244637E+02
 20
-1.39997652E+02
 11
2.37244637E+02
 21
-1.30997652E+02
  0
LINE
  8
0
 62
7
 10
2.32244637E+02
 20
-1.38997652E+02
 11
2.32244637E+02
 21
-1.33997652E+02
  0
LINE
  8
0
 62
7
 10
1.76244636E+02
 20
-1.47997652E+02
 11
2.49687495E+02
 21
-1.47997652E+02
  0
LINE
  8
0
 62
7
 10
1.76244636E+02
 20
-1.97997653E+02
 11
2.07394637E+02
 21
-1.97997653E+02
  0
LINE
  8
0
 62
7
 10
1.77244636E+02
 20
-1.97997653E+02
 11
1.77244636E+02
 21
-1.98297653E+02
  0
LINE
  8
0
 62
7
 10
2.41244637E+02
 20
-1.97997653E+02
 11
2.41244637E+02
 21
-1.98297653E+02
  0
LINE
  8
0
 62
7
 10
1.76244636E+02
 20
-1.87997653E+02
 11
1.76244636E+02
 21
-1.97997653E+02
  0
LINE
  8
0
 62
7
 10
2.42244637E+02
 20
-1.87997653E+02
 11
2.42244637E+02
 21
-1.97997653E+02
  0
LINE
  8
0
  6
CENTER
 62
2
 10
2.34244637E+02
 20
-1.65497652E+02
 11
2.34244637E+02
 21
-1.80497653E+02
  0
LINE
  8
0
  6
CENTER
 62
2
 10
1.84244636E+02
 20
-1.65497652E+02
 11
1.84244636E+02
 21
-1.80497653E+02
  0
LINE
  8
0
 62
7
 10
2.11094637E+02
 20
-1.97997653E+02
 11
2.48044637E+02
 21
-1.97997653E+02
  0
LINE
  8
0
 62
7
 10
2.11094637E+02
 20
-1.98297653E+02
 11
2.42244637E+02
 21
-1.98297653E+02
  0
LINE
  8
0
 62
7
 10
2.07501780E+02
 20
-2.12297653E+02
 11
1.78244636E+02
 21
-2.12297653E+02
  0
LINE
  8
0
 62
7
 10
2.33244637E+02
 20
-2.14297653E+02
 11
2.10987494E+02
 21
-2.14297653E+02
  0
LINE
  8
0
 62
7
 10
2.07501780E+02
 20
-2.14297653E+02
 11
1.85244636E+02
 21
-2.14297653E+02
  0
ARC
  8
0
 62
7
 10
1.75241407E+02
 20
-1.99000882E+02
 40
1.00323447E+00
 50
1.84426735E-01
 51
8.98155731E+01
  0
ARC
  8
0
 62
7
 10
1.78253817E+02
 20
-1.34006832E+02
 40
2.00920152E+00
 50
9.02617989E+01
 51
1.79738201E+02
  0
ARC
  8
0
 62
7
 10
2.40241320E+02
 20
-1.34000969E+02
 40
2.00332019E+00
 50
9.48793632E-02
 51
8.99051207E+01
  0
ARC
  8
0
 62
7
 10
2.40253713E+02
 20
-2.10306728E+02
 40
1.99094531E+00
 50
2.69738826E+02
 51
2.61174508E-01
  0
ARC
  8
0
 62
7
 10
1.78241460E+02
 20
-2.10300829E+02
 40
1.99682665E+00
 50
1.79908872E+02
 51
2.70091128E+02
  0
ARC
  8
0
 62
7
 10
1.78241456E+02
 20
-2.03300833E+02
 40
1.99682231E+00
 50
1.79908748E+02
 51
2.70091253E+02
  0
ARC
  8
0
 62
7
 10
1.88241460E+02
 20
-2.10300829E+02
 40
1.99682665E+00
 50
1.79908872E+02
 51
2.70091128E+02
  0
ARC
  8
0
 62
7
 10
1.78253812E+02
 20
-1.41006828E+02
 40
2.00919713E+00
 50
9.02616746E+01
 51
1.79738325E+02
  0
ARC
  8
0
 62
7
 10
1.88253817E+02
 20
-1.34006832E+02
 40
2.00920152E+00
 50
9.02617989E+01
 51
1.79738201E+02
  0
ARC
  8
0
 62
7
 10
2.30253712E+02
 20
-2.10306728E+02
 40
1.99094531E+00
 50
2.69738826E+02
 51
2.61174508E-01
  0
ARC
  8
0
 62
7
 10
2.40253717E+02
 20
-2.03306733E+02
 40
1.99094098E+00
 50
2.69738700E+02
 51
2.61300335E-01
  0
ARC
  8
0
 62
7
 10
2.40241324E+02
 20
-1.41000965E+02
 40
2.00331581E+00
 50
9.47543163E-02
 51
8.99052456E+01
  0
ARC
  8
0
 62
7
 10
2.30241320E+02
 20
-1.34000969E+02
 40
2.00332019E+00
 50
9.48793632E-02
 51
8.99051207E+01
  0
ARC
  8
0
 62
7
 10
1.92741385E+02
 20
-1.59000904E+02
 40
1.00325694E+00
 50
1.85701645E-01
 51
8.98142983E+01
  0
ARC
  8
0
 62
7
 10
1.92753788E+02
 20
-1.87006804E+02
 40
9.90891222E-01
 50
2.69470856E+02
 51
5.29143937E-01
  0
ARC
  8
0
 62
7
 10
2.25753798E+02
 20
-1.59006814E+02
 40
1.00920295E+00
 50
9.05201273E+01
 51
1.79479873E+02
  0
ARC
  8
0
 62
7
 10
2.25741469E+02
 20
-1.87000821E+02
 40
9.96837232E-01
 50
1.79817921E+02
 51
2.70182079E+02
  0
CIRCLE
  8
0
 62
7
 10
2.34250497E+02
 20
-1.73009996E+02
 40
5.49999928E+00
  0
CIRCLE
  8
0
 62
7
 10
1.84250626E+02
 20
-1.73009996E+02
 40
5.49999928E+00
  0
LINE
  8
0
 62
7
 10
1.93744636E+02
 20
-1.58997652E+02
 11
1.93744636E+02
 21
-1.86997653E+02
  0
LINE
  8
0
 62
7
 10
2.24744637E+02
 20
-1.58997652E+02
 11
2.24744637E+02
 21
-1.86997653E+02
  0
ARC
  8
0
 62
7
 10
2.25744630E+02
 20
-1.86997659E+02
 40
9.99993478E-01
 50
1.79999625E+02
 51
2.70000000E+02
  0
ARC
  8
0
 62
7
 10
1.92744621E+02
 20
-1.86997637E+02
 40
1.00001528E+00
 50
2.70000000E+02
 51
3.59999126E+02
  0
LINE
  8
0
 62
7
 10
2.47005907E+02
 20
-1.57997652E+02
 11
2.23744637E+02
 21
-1.57997652E+02
  0
LINE
  8
0
 62
7
 10
2.50988373E+02
 20
-1.87997653E+02
 11
2.23744637E+02
 21
-1.87997653E+02
  0
LINE
  8
0
 62
7
 10
1.67916065E+02
 20
-1.97997653E+02
 11
1.75244636E+02
 21
-1.97997653E+02
  0
LINE
  8
0
 62
7
 10
2.33244637E+02
 20
-2.12297653E+02
 11
2.33244637E+02
 21
-2.23840510E+02
  0
LINE
  8
0
 62
7
 10
1.85244636E+02
 20
-2.12297653E+02
 11
1.85244636E+02
 21
-2.23940510E+02
  0
LINE
  8
0
 62
7
 10
1.76244636E+02
 20
-1.49497652E+02
 11
1.68958922E+02
 21
-1.49497652E+02
  0
LINE
  8
0
 62
7
 10
1.69544636E+02
 20
-1.47997652E+02
 11
1.74744636E+02
 21
-1.47997652E+02
  0
ARC
  8
0
 62
7
 10
3.22539490E+02
 20
-1.34006789E+02
 40
2.00915773E+00
 50
9.02605613E+01
 51
1.79739439E+02
  0
ARC
  8
0
 62
7
 10
3.12539796E+02
 20
-1.41007954E+02
 40
2.01032443E+00
 50
9.02691293E+01
 51
1.49830698E+02
  0
ARC
  8
0
 62
7
 10
3.12539490E+02
 20
-1.34006789E+02
 40
2.00915773E+00
 50
9.02605613E+01
 51
1.79739439E+02
  0
ARC
  8
0
 62
7
 10
3.13039490E+02
 20
-2.05006790E+02
 40
4.90947638E-01
 50
2.68933562E+02
 51
1.06643803E+00
  0
ARC
  8
0
 62
7
 10
2.99539488E+02
 20
-2.06506788E+02
 40
1.00917650E+00
 50
9.05186525E+01
 51
1.79481348E+02
  0
ARC
  8
0
 62
7
 10
3.14539488E+02
 20
-1.99006788E+02
 40
1.00917650E+00
 50
9.05186525E+01
 51
1.79481348E+02
  0
ARC
  8
0
 62
7
 10
2.99581498E+02
 20
-1.97005352E+02
 40
9.92334993E-01
 50
2.69521458E+02
 51
3.57969639E+02
  0
ARC
  8
0
 62
7
 10
2.99539488E+02
 20
-1.99006788E+02
 40
1.00917650E+00
 50
9.05186525E+01
 51
1.79481348E+02
  0
ARC
  8
0
 62
7
 10
3.43530353E+02
 20
-1.72997652E+02
 40
2.10000012E+01
 50
9.00000002E+01
 51
2.70000000E+02
  0
ARC
  8
0
 62
2
 10
3.43530353E+02
 20
-1.73004795E+02
 40
1.32214301E+01
 50
9.00000002E+01
 51
2.70000000E+02
  0
ARC
  8
0
 62
7
 10
2.99527224E+02
 20
-2.27000782E+02
 40
9.96876504E-01
 50
1.79820192E+02
 51
2.70179807E+02
  0
ARC
  8
0
 62
7
 10
3.43530353E+02
 20
-1.73004795E+02
 40
1.20642874E+01
 50
9.00000002E+01
 51
2.70000000E+02
  0
ARC
  8
0
 62
7
 10
3.19027130E+02
 20
-1.99000876E+02
 40
1.00322837E+00
 50
1.84080530E-01
 51
8.98159197E+01
  0
ARC
  8
0
 62
7
 10
3.02372216E+02
 20
-2.28998765E+02
 40
1.00111199E+00
 50
8.81249259E-01
 51
9.00000002E+01
  0
LINE
  8
0
 62
7
 10
2.99530353E+02
 20
-2.27997653E+02
 11
3.43530353E+02
 21
-2.27997653E+02
  0
LINE
  8
0
 62
7
 10
3.43530353E+02
 20
-1.31997652E+02
 11
3.12530353E+02
 21
-1.31997652E+02
  0
LINE
  8
0
 62
7
 10
3.20530353E+02
 20
-1.38997652E+02
 11
3.20530353E+02
 21
-1.33997652E+02
  0
LINE
  8
0
  6
CENTER
 62
2
 10
3.15530353E+02
 20
-1.39997652E+02
 11
3.15530353E+02
 21
-1.30997652E+02
  0
LINE
  8
0
 62
7
 10
3.11287496E+02
 20
-1.38997652E+02
 11
3.20530353E+02
 21
-1.38997652E+02
  0
LINE
  8
0
 62
7
 10
3.10530353E+02
 20
-1.33997652E+02
 11
3.10530353E+02
 21
-1.39997652E+02
  0
LINE
  8
0
 62
7
 10
3.11530353E+02
 20
-1.98597653E+02
 11
3.10930353E+02
 21
-1.97997653E+02
  0
LINE
  8
0
 62
7
 10
3.01530353E+02
 20
-1.98597653E+02
 11
3.02130353E+02
 21
-1.97997653E+02
  0
LINE
  8
0
 62
7
 10
3.01530353E+02
 20
-1.98597653E+02
 11
3.11530353E+02
 21
-1.98597653E+02
  0
LINE
  8
0
 62
7
 10
3.00430353E+02
 20
-2.03997653E+02
 11
3.00430353E+02
 21
-2.05497653E+02
  0
LINE
  8
0
 62
7
 10
3.12630353E+02
 20
-2.03997653E+02
 11
3.12630353E+02
 21
-2.05497653E+02
  0
LINE
  8
0
 62
7
 10
3.12630353E+02
 20
-2.03997653E+02
 11
3.00430353E+02
 21
-2.03997653E+02
  0
LINE
  8
0
 62
7
 10
3.11530353E+02
 20
-1.98597653E+02
 11
3.11530353E+02
 21
-2.03997653E+02
  0
LINE
  8
0
 62
7
 10
3.01530353E+02
 20
-1.98597653E+02
 11
3.01530353E+02
 21
-2.03997653E+02
  0
LINE
  8
0
 62
7
 10
2.98530353E+02
 20
-2.12997653E+02
 11
2.98530353E+02
 21
-2.26997653E+02
  0
LINE
  8
0
 62
7
 10
3.43530353E+02
 20
-1.46997652E+02
 11
3.43530353E+02
 21
-1.47997652E+02
  0
LINE
  8
0
 62
7
 10
3.39530353E+02
 20
-1.46997652E+02
 11
3.39530353E+02
 21
-1.47997652E+02
  0
LINE
  8
0
 62
7
 10
3.39530353E+02
 20
-1.46997652E+02
 11
3.43530353E+02
 21
-1.46997652E+02
  0
LINE
  8
0
 62
7
 10
3.13430353E+02
 20
-1.47997652E+02
 11
3.12644638E+02
 21
-1.49497652E+02
  0
LINE
  8
0
 62
7
 10
3.02530353E+02
 20
-1.49497652E+02
 11
3.04030353E+02
 21
-1.48011938E+02
  0
LINE
  8
0
 62
7
 10
3.12644638E+02
 20
-1.49497652E+02
 11
3.09616067E+02
 21
-1.97997653E+02
  0
LINE
  8
0
 62
7
 10
3.02530353E+02
 20
-1.49497652E+02
 11
3.00573210E+02
 21
-1.97040510E+02
  0
LINE
  8
0
 62
7
 10
3.20030353E+02
 20
-1.47997652E+02
 11
3.20030353E+02
 21
-1.98997653E+02
  0
LINE
  8
0
 62
7
 10
3.02530353E+02
 20
-1.49497652E+02
 11
3.43530353E+02
 21
-1.49497652E+02
  0
LINE
  8
0
 62
7
 10
3.20144639E+02
 20
-1.40497652E+02
 11
3.19873210E+02
 21
-1.39997652E+02
  0
LINE
  8
0
 62
7
 10
3.18030353E+02
 20
-1.40497652E+02
 11
3.17544639E+02
 21
-1.39997652E+02
  0
LINE
  8
0
 62
7
 10
3.17544639E+02
 20
-1.45654795E+02
 11
3.18030353E+02
 21
-1.45997652E+02
  0
LINE
  8
0
 62
7
 10
3.15030353E+02
 20
-1.45997652E+02
 11
3.15173210E+02
 21
-1.45654795E+02
  0
LINE
  8
0
 62
7
 10
3.15030353E+02
 20
-1.40497652E+02
 11
3.15173210E+02
 21
-1.39997652E+02
  0
LINE
  8
0
 62
7
 10
3.20844639E+02
 20
-1.45654795E+02
 11
3.20144639E+02
 21
-1.45654795E+02
  0
LINE
  8
0
 62
7
 10
3.15030353E+02
 20
-1.40497652E+02
 11
3.15030353E+02
 21
-1.45997652E+02
  0
LINE
  8
0
 62
7
 10
3.15173210E+02
 20
-1.39997652E+02
 11
3.15173210E+02
 21
-1.45654795E+02
  0
LINE
  8
0
 62
7
 10
3.17544639E+02
 20
-1.39997652E+02
 11
3.17544639E+02
 21
-1.45654795E+02
  0
LINE
  8
0
 62
7
 10
3.18030353E+02
 20
-1.40497652E+02
 11
3.18030353E+02
 21
-1.45997652E+02
  0
LINE
  8
0
 62
7
 10
3.20144639E+02
 20
-1.40497652E+02
 11
3.20144639E+02
 21
-1.45997652E+02
  0
LINE
  8
0
 62
7
 10
3.20844639E+02
 20
-1.39997652E+02
 11
3.20844639E+02
 21
-1.45654795E+02
  0
LINE
  8
0
 62
7
 10
3.21387496E+02
 20
-1.40497652E+02
 11
3.21387496E+02
 21
-1.45997652E+02
  0
LINE
  8
0
 62
7
 10
3.18030353E+02
 20
-1.40497652E+02
 11
3.20144639E+02
 21
-1.40497652E+02
  0
LINE
  8
0
 62
7
 10
3.15030353E+02
 20
-1.45997652E+02
 11
3.18030353E+02
 21
-1.45997652E+02
  0
LINE
  8
0
 62
7
 10
3.06916067E+02
 20
-1.45997652E+02
 11
3.05673210E+02
 21
-1.45997652E+02
  0
LINE
  8
0
 62
7
 10
3.09516067E+02
 20
-1.45654795E+02
 11
3.11887496E+02
 21
-1.45654795E+02
  0
LINE
  8
0
 62
7
 10
3.05673210E+02
 20
-1.40497652E+02
 11
3.05530353E+02
 21
-1.40497652E+02
  0
LINE
  8
0
 62
7
 10
3.05673210E+02
 20
-1.40497652E+02
 11
3.06216067E+02
 21
-1.39997652E+02
  0
LINE
  8
0
 62
7
 10
3.05673210E+02
 20
-1.45997652E+02
 11
3.06216067E+02
 21
-1.45654795E+02
  0
LINE
  8
0
 62
7
 10
3.06916067E+02
 20
-1.40497652E+02
 11
3.07187496E+02
 21
-1.39997652E+02
  0
LINE
  8
0
 62
7
 10
3.09030353E+02
 20
-1.40497652E+02
 11
3.09516067E+02
 21
-1.39997652E+02
  0
LINE
  8
0
 62
7
 10
3.09516067E+02
 20
-1.45654795E+02
 11
3.09030353E+02
 21
-1.45997652E+02
  0
LINE
  8
0
 62
7
 10
3.12030353E+02
 20
-1.45997652E+02
 11
3.11887496E+02
 21
-1.45654795E+02
  0
LINE
  8
0
 62
7
 10
3.12030353E+02
 20
-1.40497652E+02
 11
3.11887496E+02
 21
-1.39997652E+02
  0
LINE
  8
0
 62
7
 10
3.06216067E+02
 20
-1.45654795E+02
 11
3.06916067E+02
 21
-1.45654795E+02
  0
LINE
  8
0
 62
7
 10
3.12030353E+02
 20
-1.40497652E+02
 11
3.12030353E+02
 21
-1.45997652E+02
  0
LINE
  8
0
 62
7
 10
3.11887496E+02
 20
-1.39997652E+02
 11
3.11887496E+02
 21
-1.45654795E+02
  0
LINE
  8
0
 62
7
 10
3.09516067E+02
 20
-1.39997652E+02
 11
3.09516067E+02
 21
-1.45654795E+02
  0
LINE
  8
0
 62
7
 10
3.09030353E+02
 20
-1.40497652E+02
 11
3.09030353E+02
 21
-1.45997652E+02
  0
LINE
  8
0
 62
7
 10
3.06916067E+02
 20
-1.40497652E+02
 11
3.06916067E+02
 21
-1.45997652E+02
  0
LINE
  8
0
 62
7
 10
3.06216067E+02
 20
-1.39997652E+02
 11
3.06216067E+02
 21
-1.45654795E+02
  0
LINE
  8
0
 62
7
 10
3.05673210E+02
 20
-1.40497652E+02
 11
3.05673210E+02
 21
-1.45997652E+02
  0
LINE
  8
0
 62
7
 10
3.09030353E+02
 20
-1.40497652E+02
 11
3.06916067E+02
 21
-1.40497652E+02
  0
LINE
  8
0
 62
7
 10
3.12030353E+02
 20
-1.45997652E+02
 11
3.09030353E+02
 21
-1.45997652E+02
  0
LINE
  8
0
  6
CENTER
 62
2
 10
3.13530353E+02
 20
-1.36997652E+02
 11
3.13530353E+02
 21
-1.50997652E+02
  0
LINE
  8
0
 62
7
 10
3.05530353E+02
 20
-1.40497652E+02
 11
3.06030353E+02
 21
-1.39997652E+02
  0
LINE
  8
0
 62
7
 10
3.21030353E+02
 20
-1.39997652E+02
 11
3.21530353E+02
 21
-1.40497652E+02
  0
LINE
  8
0
 62
7
 10
3.05530353E+02
 20
-1.40497652E+02
 11
3.05530353E+02
 21
-1.47997652E+02
  0
LINE
  8
0
 62
7
 10
3.21530353E+02
 20
-1.40497652E+02
 11
3.21530353E+02
 21
-1.47997652E+02
  0
LINE
  8
0
 62
7
 10
3.21030353E+02
 20
-1.39997652E+02
 11
3.06030353E+02
 21
-1.39997652E+02
  0
LINE
  8
0
 62
7
 10
3.17544639E+02
 20
-1.45654795E+02
 11
3.15173210E+02
 21
-1.45654795E+02
  0
LINE
  8
0
 62
7
 10
3.21387496E+02
 20
-1.45997652E+02
 11
3.20844639E+02
 21
-1.45654795E+02
  0
LINE
  8
0
 62
7
 10
3.15030353E+02
 20
-1.40497652E+02
 11
3.12030353E+02
 21
-1.40497652E+02
  0
LINE
  8
0
 62
7
 10
3.20144639E+02
 20
-1.45997652E+02
 11
3.21387496E+02
 21
-1.45997652E+02
  0
LINE
  8
0
 62
7
 10
3.21387496E+02
 20
-1.40497652E+02
 11
3.20844639E+02
 21
-1.39997652E+02
  0
LINE
  8
0
 62
7
 10
3.21387496E+02
 20
-1.40497652E+02
 11
3.21530353E+02
 21
-1.40497652E+02
  0
LINE
  8
0
 62
7
 10
3.13530353E+02
 20
-1.98997653E+02
 11
3.13530353E+02
 21
-2.04997653E+02
  0
LINE
  8
0
 62
7
 10
2.99530353E+02
 20
-2.05497653E+02
 11
3.13030353E+02
 21
-2.05497653E+02
  0
LINE
  8
0
  6
CENTER
 62
2
 10
3.06530353E+02
 20
-1.94997653E+02
 11
3.06530353E+02
 21
-2.08497653E+02
  0
LINE
  8
0
 62
7
 10
3.20030353E+02
 20
-1.47997652E+02
 11
3.18530353E+02
 21
-1.49497652E+02
  0
LINE
  8
0
 62
7
 10
2.98530353E+02
 20
-1.98997653E+02
 11
2.98530353E+02
 21
-2.12997653E+02
  0
LINE
  8
0
 62
7
 10
3.18530353E+02
 20
-1.49497652E+02
 11
3.18530353E+02
 21
-1.97997653E+02
  0
LINE
  8
0
 62
7
 10
2.99530353E+02
 20
-1.97997653E+02
 11
3.19030353E+02
 21
-1.97997653E+02
  0
LINE
  8
0
 62
7
 10
3.04030353E+02
 20
-1.47997652E+02
 11
3.43530353E+02
 21
-1.47997652E+02
  0
LINE
  8
0
 62
7
 10
2.98530353E+02
 20
-2.12997653E+02
 11
3.43530353E+02
 21
-2.12997653E+02
  0
LINE
  8
0
 62
7
 10
3.03473210E+02
 20
-2.32726225E+02
 11
3.03373210E+02
 21
-2.28983368E+02
  0
LINE
  8
0
 62
7
 10
-2.12089375E+02
 20
-1.34309990E+02
 11
-2.12089374E+02
 21
-1.39009990E+02
  0
LINE
  8
0
 62
7
 10
-2.12089375E+02
 20
-1.34309990E+02
 11
-2.12609375E+02
 21
-1.34009990E+02
  0
LINE
  8
0
 62
7
 10
-2.12609375E+02
 20
-1.34009990E+02
 11
-2.20069375E+02
 21
-1.34009993E+02
  0
LINE
  8
0
 62
7
 10
-2.12089375E+02
 20
-1.34309990E+02
 11
-2.20589375E+02
 21
-1.34309993E+02
  0
LINE
  8
0
 62
7
 10
-2.20589375E+02
 20
-1.34309993E+02
 11
-2.20069375E+02
 21
-1.34009993E+02
  0
LINE
  8
0
 62
7
 10
-2.20589375E+02
 20
-1.34309993E+02
 11
-2.20589374E+02
 21
-1.39009993E+02
  0
LINE
  8
0
 62
7
 10
3.19786267E+02
 20
-1.34309990E+02
 11
3.19786269E+02
 21
-1.39009990E+02
  0
LINE
  8
0
 62
7
 10
3.19786267E+02
 20
-1.34309990E+02
 11
3.19266267E+02
 21
-1.34009990E+02
  0
LINE
  8
0
 62
7
 10
3.19266267E+02
 20
-1.34009990E+02
 11
3.11806267E+02
 21
-1.34009993E+02
  0
LINE
  8
0
 62
7
 10
3.19786267E+02
 20
-1.34309990E+02
 11
3.11286267E+02
 21
-1.34309993E+02
  0
LINE
  8
0
 62
7
 10
3.11286267E+02
 20
-1.34309993E+02
 11
3.11806267E+02
 21
-1.34009993E+02
  0
LINE
  8
0
 62
7
 10
3.11286267E+02
 20
-1.34309993E+02
 11
3.11286269E+02
 21
-1.39009993E+02
  0
CIRCLE
  8
0
 62
7
 10
2.34250497E+02
 20
-1.73009996E+02
 40
2.89829731E+00
  0
CIRCLE
  8
0
 62
7
 10
2.34250497E+02
 20
-1.73009996E+02
 40
3.96076870E+00
  0
CIRCLE
  8
0
 62
7
 10
2.34250497E+02
 20
-1.73009996E+02
 40
5.00000000E+00
  0
LINE
  8
0
 62
7
 10
2.31740497E+02
 20
-1.74449996E+02
 11
2.34250497E+02
 21
-1.75899996E+02
  0
LINE
  8
0
 62
7
 10
2.34250497E+02
 20
-1.70119996E+02
 11
2.36760497E+02
 21
-1.71569996E+02
  0
LINE
  8
0
 62
7
 10
2.34250497E+02
 20
-1.75899996E+02
 11
2.36760497E+02
 21
-1.74449996E+02
  0
LINE
  8
0
 62
7
 10
2.31740497E+02
 20
-1.71569996E+02
 11
2.34250497E+02
 21
-1.70119996E+02
  0
LINE
  8
0
 62
7
 10
2.36760497E+02
 20
-1.71569996E+02
 11
2.36760497E+02
 21
-1.74449996E+02
  0
LINE
  8
0
 62
7
 10
2.31740497E+02
 20
-1.71569996E+02
 11
2.31740497E+02
 21
-1.74449996E+02
  0
CIRCLE
  8
0
 62
7
 10
1.84250626E+02
 20
-1.73009996E+02
 40
2.89829731E+00
  0
CIRCLE
  8
0
 62
7
 10
1.84250626E+02
 20
-1.73009996E+02
 40
3.96076870E+00
  0
CIRCLE
  8
0
 62
7
 10
1.84250626E+02
 20
-1.73009996E+02
 40
5.00000000E+00
  0
LINE
  8
0
 62
7
 10
1.81740626E+02
 20
-1.74449996E+02
 11
1.84250626E+02
 21
-1.75899996E+02
  0
LINE
  8
0
 62
7
 10
1.84250626E+02
 20
-1.70119996E+02
 11
1.86760626E+02
 21
-1.71569996E+02
  0
LINE
  8
0
 62
7
 10
1.84250626E+02
 20
-1.75899996E+02
 11
1.86760626E+02
 21
-1.74449996E+02
  0
LINE
  8
0
 62
7
 10
1.81740626E+02
 20
-1.71569996E+02
 11
1.84250626E+02
 21
-1.70119996E+02
  0
LINE
  8
0
 62
7
 10
1.86760626E+02
 20
-1.71569996E+02
 11
1.86760626E+02
 21
-1.74449996E+02
  0
LINE
  8
0
 62
7
 10
1.81740626E+02
 20
-1.71569996E+02
 11
1.81740626E+02
 21
-1.74449996E+02
  0
LINE
  8
0
 62
7
 10
1.85500573E+02
 20
-2.10010021E+02
 11
1.85500574E+02
 21
-2.05310021E+02
  0
LINE
  8
0
 62
7
 10
1.85500573E+02
 20
-2.10010021E+02
 11
1.84980573E+02
 21
-2.10310021E+02
  0
LINE
  8
0
 62
7
 10
1.77000573E+02
 20
-2.10010018E+02
 11
1.85500573E+02
 21
-2.10010021E+02
  0
LINE
  8
0
 62
7
 10
1.77520573E+02
 20
-2.10310018E+02
 11
1.84980573E+02
 21
-2.10310021E+02
  0
LINE
  8
0
 62
7
 10
1.77000573E+02
 20
-2.10010018E+02
 11
1.77520573E+02
 21
-2.10310018E+02
  0
LINE
  8
0
 62
7
 10
1.77000573E+02
 20
-2.10010018E+02
 11
1.77000574E+02
 21
-2.05310018E+02
  0
LINE
  8
0
 62
7
 10
2.41500286E+02
 20
-2.10010021E+02
 11
2.41500287E+02
 21
-2.05310021E+02
  0
LINE
  8
0
 62
7
 10
2.41500286E+02
 20
-2.10010021E+02
 11
2.40980286E+02
 21
-2.10310021E+02
  0
LINE
  8
0
 62
7
 10
2.33000286E+02
 20
-2.10010018E+02
 11
2.41500286E+02
 21
-2.10010021E+02
  0
LINE
  8
0
 62
7
 10
2.33520286E+02
 20
-2.10310018E+02
 11
2.40980286E+02
 21
-2.10310021E+02
  0
LINE
  8
0
 62
7
 10
2.33000286E+02
 20
-2.10010018E+02
 11
2.33520286E+02
 21
-2.10310018E+02
  0
LINE
  8
0
 62
7
 10
2.33000286E+02
 20
-2.10010018E+02
 11
2.33000287E+02
 21
-2.05310018E+02
  0
LINE
  8
0
 62
7
 10
2.33000286E+02
 20
-1.34310036E+02
 11
2.33000287E+02
 21
-1.39010036E+02
  0
LINE
  8
0
 62
7
 10
2.33000286E+02
 20
-1.34310036E+02
 11
2.33520286E+02
 21
-1.34010036E+02
  0
LINE
  8
0
 62
7
 10
2.41500286E+02
 20
-1.34310034E+02
 11
2.33000286E+02
 21
-1.34310036E+02
  0
LINE
  8
0
 62
7
 10
2.40980286E+02
 20
-1.34010034E+02
 11
2.33520286E+02
 21
-1.34010036E+02
  0
LINE
  8
0
 62
7
 10
2.41500286E+02
 20
-1.34310034E+02
 11
2.40980286E+02
 21
-1.34010034E+02
  0
LINE
  8
0
 62
7
 10
2.41500286E+02
 20
-1.34310034E+02
 11
2.41500287E+02
 21
-1.39010034E+02
  0
LINE
  8
0
 62
7
 10
1.77000573E+02
 20
-1.34310036E+02
 11
1.77000574E+02
 21
-1.39010036E+02
  0
LINE
  8
0
 62
7
 10
1.77000573E+02
 20
-1.34310036E+02
 11
1.77520573E+02
 21
-1.34010036E+02
  0
LINE
  8
0
 62
7
 10
1.85500573E+02
 20
-1.34310034E+02
 11
1.77000573E+02
 21
-1.34310036E+02
  0
LINE
  8
0
 62
7
 10
1.84980573E+02
 20
-1.34010034E+02
 11
1.77520573E+02
 21
-1.34010036E+02
  0
LINE
  8
0
 62
7
 10
1.85500573E+02
 20
-1.34310034E+02
 11
1.84980573E+02
 21
-1.34010034E+02
  0
LINE
  8
0
 62
7
 10
1.85500573E+02
 20
-1.34310034E+02
 11
1.85500574E+02
 21
-1.39010034E+02
  0
LINE
  8
0
 62
7
 10
-3.51375136E+02
 20
-2.10010021E+02
 11
-3.51375134E+02
 21
-2.05310021E+02
  0
LINE
  8
0
 62
7
 10
-3.51375136E+02
 20
-2.10010021E+02
 11
-3.51895136E+02
 21
-2.10310021E+02
  0
LINE
  8
0
 62
7
 10
-3.59875136E+02
 20
-2.10010018E+02
 11
-3.51375136E+02
 21
-2.10010021E+02
  0
LINE
  8
0
 62
7
 10
-3.59355136E+02
 20
-2.10310018E+02
 11
-3.51895136E+02
 21
-2.10310021E+02
  0
LINE
  8
0
 62
7
 10
-3.59875136E+02
 20
-2.10010018E+02
 11
-3.59355136E+02
 21
-2.10310018E+02
  0
LINE
  8
0
 62
7
 10
-3.59875136E+02
 20
-2.10010018E+02
 11
-3.59875134E+02
 21
-2.05310018E+02
  0
LINE
  8
0
 62
7
 10
-2.95375030E+02
 20
-2.10010021E+02
 11
-2.95375029E+02
 21
-2.05310021E+02
  0
LINE
  8
0
 62
7
 10
-2.95375030E+02
 20
-2.10010021E+02
 11
-2.95895030E+02
 21
-2.10310021E+02
  0
LINE
  8
0
 62
7
 10
-3.03875030E+02
 20
-2.10010018E+02
 11
-2.95375030E+02
 21
-2.10010021E+02
  0
LINE
  8
0
 62
7
 10
-3.03355030E+02
 20
-2.10310018E+02
 11
-2.95895030E+02
 21
-2.10310021E+02
  0
LINE
  8
0
 62
7
 10
-3.03875030E+02
 20
-2.10010018E+02
 11
-3.03355030E+02
 21
-2.10310018E+02
  0
LINE
  8
0
 62
7
 10
-3.03875030E+02
 20
-2.10010018E+02
 11
-3.03875029E+02
 21
-2.05310018E+02
  0
LINE
  8
0
 62
7
 10
-3.03875030E+02
 20
-1.34310036E+02
 11
-3.03875029E+02
 21
-1.39010036E+02
  0
LINE
  8
0
 62
7
 10
-3.03875030E+02
 20
-1.34310036E+02
 11
-3.03355030E+02
 21
-1.34010036E+02
  0
LINE
  8
0
 62
7
 10
-2.95375030E+02
 20
-1.34310034E+02
 11
-3.03875030E+02
 21
-1.34310036E+02
  0
LINE
  8
0
 62
7
 10
-2.95895030E+02
 20
-1.34010034E+02
 11
-3.03355030E+02
 21
-1.34010036E+02
  0
LINE
  8
0
 62
7
 10
-2.95375030E+02
 20
-1.34310034E+02
 11
-2.95895030E+02
 21
-1.34010034E+02
  0
LINE
  8
0
 62
7
 10
-2.95375030E+02
 20
-1.34310034E+02
 11
-2.95375029E+02
 21
-1.39010034E+02
  0
LINE
  8
0
 62
7
 10
-3.59875136E+02
 20
-1.34310036E+02
 11
-3.59875134E+02
 21
-1.39010036E+02
  0
LINE
  8
0
 62
7
 10
-3.59875136E+02
 20
-1.34310036E+02
 11
-3.59355136E+02
 21
-1.34010036E+02
  0
LINE
  8
0
 62
7
 10
-3.51375136E+02
 20
-1.34310034E+02
 11
-3.59875136E+02
 21
-1.34310036E+02
  0
LINE
  8
0
 62
7
 10
-3.51895136E+02
 20
-1.34010034E+02
 11
-3.59355136E+02
 21
-1.34010036E+02
  0
LINE
  8
0
 62
7
 10
-3.51375136E+02
 20
-1.34310034E+02
 11
-3.51895136E+02
 21
-1.34010034E+02
  0
LINE
  8
0
 62
7
 10
-3.51375136E+02
 20
-1.34310034E+02
 11
-3.51375134E+02
 21
-1.39010034E+02
  0
LINE
  8
0
 62
7
 10
4.86963427E+01
 20
-1.34309993E+02
 11
4.86963442E+01
 21
-1.39009993E+02
  0
LINE
  8
0
 62
7
 10
4.86963427E+01
 20
-1.34309993E+02
 11
4.92163426E+01
 21
-1.34009993E+02
  0
LINE
  8
0
 62
7
 10
5.71963427E+01
 20
-1.34309990E+02
 11
4.86963427E+01
 21
-1.34309993E+02
  0
LINE
  8
0
 62
7
 10
5.66763426E+01
 20
-1.34009990E+02
 11
4.92163426E+01
 21
-1.34009993E+02
  0
LINE
  8
0
 62
7
 10
5.71963427E+01
 20
-1.34309990E+02
 11
5.66763426E+01
 21
-1.34009990E+02
  0
LINE
  8
0
 62
7
 10
5.71963427E+01
 20
-1.34309990E+02
 11
5.71963442E+01
 21
-1.39009990E+02
  0
LINE
  8
0
 62
7
 10
-8.70893743E+01
 20
-2.10009999E+02
 11
-8.70893728E+01
 21
-2.05309999E+02
  0
LINE
  8
0
 62
7
 10
-8.70893743E+01
 20
-2.10009999E+02
 11
-8.76093744E+01
 21
-2.10309999E+02
  0
LINE
  8
0
 62
7
 10
-9.55893743E+01
 20
-2.10009996E+02
 11
-8.70893743E+01
 21
-2.10009999E+02
  0
LINE
  8
0
 62
7
 10
-9.50693744E+01
 20
-2.10309997E+02
 11
-8.76093744E+01
 21
-2.10309999E+02
  0
LINE
  8
0
 62
7
 10
-9.55893743E+01
 20
-2.10009996E+02
 11
-9.50693744E+01
 21
-2.10309997E+02
  0
LINE
  8
0
 62
7
 10
-9.55893743E+01
 20
-2.10009996E+02
 11
-9.55893728E+01
 21
-2.05309996E+02
  0
LINE
  8
0
 62
7
 10
-3.10893995E+01
 20
-2.10009999E+02
 11
-3.10893980E+01
 21
-2.05309999E+02
  0
LINE
  8
0
 62
7
 10
-3.10893995E+01
 20
-2.10009999E+02
 11
-3.16093996E+01
 21
-2.10309999E+02
  0
LINE
  8
0
 62
7
 10
-3.95893995E+01
 20
-2.10009996E+02
 11
-3.10893995E+01
 21
-2.10009999E+02
  0
LINE
  8
0
 62
7
 10
-3.90693996E+01
 20
-2.10309997E+02
 11
-3.16093996E+01
 21
-2.10309999E+02
  0
LINE
  8
0
 62
7
 10
-3.95893995E+01
 20
-2.10009996E+02
 11
-3.90693996E+01
 21
-2.10309997E+02
  0
LINE
  8
0
 62
7
 10
-3.95893995E+01
 20
-2.10009996E+02
 11
-3.95893980E+01
 21
-2.05309996E+02
  0
LINE
  8
0
 62
7
 10
-3.95893995E+01
 20
-1.34310015E+02
 11
-3.95893980E+01
 21
-1.39010015E+02
  0
LINE
  8
0
 62
7
 10
-3.95893995E+01
 20
-1.34310015E+02
 11
-3.90693996E+01
 21
-1.34010014E+02
  0
LINE
  8
0
 62
7
 10
-3.10893995E+01
 20
-1.34310012E+02
 11
-3.95893995E+01
 21
-1.34310015E+02
  0
LINE
  8
0
 62
7
 10
-3.16093996E+01
 20
-1.34010012E+02
 11
-3.90693996E+01
 21
-1.34010014E+02
  0
LINE
  8
0
 62
7
 10
-3.10893995E+01
 20
-1.34310012E+02
 11
-3.16093996E+01
 21
-1.34010012E+02
  0
LINE
  8
0
 62
7
 10
-3.10893995E+01
 20
-1.34310012E+02
 11
-3.10893980E+01
 21
-1.39010012E+02
  0
LINE
  8
0
 62
7
 10
-9.55893743E+01
 20
-1.34310015E+02
 11
-9.55893728E+01
 21
-1.39010015E+02
  0
LINE
  8
0
 62
7
 10
-9.55893743E+01
 20
-1.34310015E+02
 11
-9.50693744E+01
 21
-1.34010014E+02
  0
LINE
  8
0
 62
7
 10
-8.70893743E+01
 20
-1.34310012E+02
 11
-9.55893743E+01
 21
-1.34310015E+02
  0
LINE
  8
0
 62
7
 10
-8.76093744E+01
 20
-1.34010012E+02
 11
-9.50693744E+01
 21
-1.34010014E+02
  0
LINE
  8
0
 62
7
 10
-8.70893743E+01
 20
-1.34310012E+02
 11
-8.76093744E+01
 21
-1.34010012E+02
  0
LINE
  8
0
 62
7
 10
-8.70893743E+01
 20
-1.34310012E+02
 11
-8.70893728E+01
 21
-1.39010012E+02
  0
LINE
  8
0
 62
7
 10
2.79799927E+02
 20
-2.56750000E+02
 11
3.99799805E+02
 21
-2.56750000E+02
  0
LINE
  8
0
 62
7
 10
2.79799927E+02
 20
-2.56750000E+02
 11
2.79799927E+02
 21
-2.76750000E+02
  0
TEXT
  8
0
 62
7
 10
2.87585240E+02
 20
-2.71250000E+02
 40
9.00000000E+00
  1
KOGANEI CORP.
 41
1.04838710E+00
  7
MONOTXT
  0
TEXT
  8
0
 62
7
 10
3.15499645E+02
 20
2.63100000E+02
 40
6.30000019E+00
  1
Ver. 1.0
 41
1.08108108E+00
  7
MONOTXT
  0
LINE
  8
0
 62
7
 10
2.79799927E+02
 20
2.56250000E+02
 11
3.99799805E+02
 21
2.56250000E+02
  0
LINE
  8
0
 62
7
 10
2.79799927E+02
 20
2.76250000E+02
 11
2.79799927E+02
 21
2.56250000E+02
  0
TEXT
  8
0
 62
7
 10
-3.85600562E+02
 20
2.38100000E+02
 40
6.30000019E+00
  1
MODEL:CN900-06-G1B
 41
1.00000000E+00
  7
MONOTXT
  0
LINE
  8
0
 62
7
 10
-3.99250000E+02
 20
-2.76750000E+02
 11
3.99799805E+02
 21
-2.76750000E+02
  0
LINE
  8
0
 62
7
 10
-3.99250000E+02
 20
2.76250000E+02
 11
3.99799805E+02
 21
2.76250000E+02
  0
LINE
  8
0
 62
7
 10
-3.99250000E+02
 20
2.76250000E+02
 11
-3.99250000E+02
 21
-2.76750000E+02
  0
LINE
  8
0
 62
7
 10
3.99799805E+02
 20
2.76250000E+02
 11
3.99799805E+02
 21
-2.76750000E+02
  0
ENDSEC
  0
EOF
