  0
SECTION
  2
HEADER
  9
$ACADVER
  1
AC1012
  9
$DWGCODEPAGE
  3
dos932
  9
$INSBASE
 10
0.0
 20
0.0
 30
0.0
  9
$EXTMIN
 10
-138.40000000000001
 20
-94.799999999999997
 30
0.0
  9
$EXTMAX
 10
138.34999999999999
 20
94.5
 30
0.0
  9
$LIMMIN
 10
-138.40000000000001
 20
-94.799999999999997
  9
$LIMMAX
 10
138.34999999999999
 20
94.5
  9
$ORTHOMODE
 70
               0
  9
$REGENMODE
 70
               1
  9
$FILLMODE
 70
               1
  9
$QTEXTMODE
 70
               0
  9
$MIRRTEXT
 70
               1
  9
$DRAGMODE
 70
               2
  9
$LTSCALE
 40
1.0
  9
$OSMODE
 70
               0
  9
$ATTMODE
 70
               1
  9
$TEXTSIZE
 40
3.2000000476837158
  9
$TRACEWID
 40
0.05
  9
$TEXTSTYLE
  7
MX_NOTE_STANDARD
  9
$CLAYER
  8
0
  9
$CELTYPE
  6
CONTINUOUS
  9
$CECOLOR
 62
             256
  9
$CELTSCALE
 40
1.0
  9
$DELOBJ
 70
               1
  9
$DISPSILH
 70
               0
  9
$DIMSCALE
 40
1.0
  9
$DIMASZ
 40
2.5
  9
$DIMEXO
 40
1.5
  9
$DIMDLI
 40
3.75
  9
$DIMRND
 40
0.0
  9
$DIMDLE
 40
0.0
  9
$DIMEXE
 40
1.5
  9
$DIMTP
 40
0.0
  9
$DIMTM
 40
0.0
  9
$DIMTXT
 40
3.2000000476837158
  9
$DIMCEN
 40
2.5
  9
$DIMTSZ
 40
0.0
  9
$DIMTOL
 70
               0
  9
$DIMLIM
 70
               0
  9
$DIMTIH
 70
               0
  9
$DIMTOH
 70
               0
  9
$DIMSE1
 70
               0
  9
$DIMSE2
 70
               0
  9
$DIMTAD
 70
               1
  9
$DIMZIN
 70
               8
  9
$DIMBLK
  1

  9
$DIMASO
 70
               1
  9
$DIMSHO
 70
               1
  9
$DIMPOST
  1

  9
$DIMAPOST
  1

  9
$DIMALT
 70
               0
  9
$DIMALTD
 70
               4
  9
$DIMALTF
 40
0.0394
  9
$DIMLFAC
 40
1.0
  9
$DIMTOFL
 70
               1
  9
$DIMTVP
 40
0.0
  9
$DIMTIX
 70
               0
  9
$DIMSOXD
 70
               0
  9
$DIMSAH
 70
               0
  9
$DIMBLK1
  1

  9
$DIMBLK2
  1

  9
$DIMSTYLE
  2
MXDIMSTYLE
  9
$DIMCLRD
 70
               0
  9
$DIMCLRE
 70
               0
  9
$DIMCLRT
 70
               0
  9
$DIMTFAC
 40
1.0
  9
$DIMGAP
 40
1.0
  9
$DIMJUST
 70
               0
  9
$DIMSD1
 70
               0
  9
$DIMSD2
 70
               0
  9
$DIMTOLJ
 70
               1
  9
$DIMTZIN
 70
               0
  9
$DIMALTZ
 70
               0
  9
$DIMALTTZ
 70
               0
  9
$DIMFIT
 70
               3
  9
$DIMUPT
 70
               1
  9
$DIMUNIT
 70
               2
  9
$DIMDEC
 70
               4
  9
$DIMTDEC
 70
               4
  9
$DIMALTU
 70
               8
  9
$DIMALTTD
 70
               4
  9
$DIMTXSTY
  7
MX_NOTE_STANDARD
  9
$DIMAUNIT
 70
               0
  9
$LUNITS
 70
               2
  9
$LUPREC
 70
               4
  9
$SKETCHINC
 40
0.1
  9
$FILLETRAD
 40
0.0
  9
$AUNITS
 70
               0
  9
$AUPREC
 70
               0
  9
$MENU
  1
acad
  9
$ELEVATION
 40
0.0
  9
$PELEVATION
 40
0.0
  9
$THICKNESS
 40
0.0
  9
$LIMCHECK
 70
               0
  9
$BLIPMODE
 70
               1
  9
$CHAMFERA
 40
0.0
  9
$CHAMFERB
 40
0.0
  9
$CHAMFERC
 40
0.0
  9
$CHAMFERD
 40
0.0
  9
$SKPOLY
 70
               0
  9
$TDCREATE
 40
2452220.696354167
  9
$TDUPDATE
 40
2452220.696354167
  9
$TDINDWG
 40
0.0000000000
  9
$TDUSRTIMER
 40
0.0000000000
  9
$USRTIMER
 70
               1
  9
$ANGBASE
 50
0.0
  9
$ANGDIR
 70
               0
  9
$PDMODE
 70
               0
  9
$PDSIZE
 40
0.0
  9
$PLINEWID
 40
0.0
  9
$COORDS
 70
               1
  9
$SPLFRAME
 70
               0
  9
$SPLINETYPE
 70
               6
  9
$SPLINESEGS
 70
               8
  9
$ATTDIA
 70
               0
  9
$ATTREQ
 70
               1
  9
$HANDLING
 70
               1
  9
$HANDSEED
  5
13E
  9
$SURFTAB1
 70
               6
  9
$SURFTAB2
 70
               6
  9
$SURFTYPE
 70
               6
  9
$SURFU
 70
               6
  9
$SURFV
 70
               6
  9
$UCSNAME
  2

  9
$UCSORG
 10
0.0
 20
0.0
 30
0.0
  9
$UCSXDIR
 10
1.0
 20
0.0
 30
0.0
  9
$UCSYDIR
 10
0.0
 20
1.0
 30
0.0
  9
$PUCSNAME
  2

  9
$PUCSORG
 10
0.0
 20
0.0
 30
0.0
  9
$PUCSXDIR
 10
1.0
 20
0.0
 30
0.0
  9
$PUCSYDIR
 10
0.0
 20
1.0
 30
0.0
  9
$USERI1
 70
               0
  9
$USERI2
 70
               0
  9
$USERI3
 70
               0
  9
$USERI4
 70
               0
  9
$USERI5
 70
               0
  9
$USERR1
 40
0.0
  9
$USERR2
 40
0.0
  9
$USERR3
 40
0.0
  9
$USERR4
 40
0.0
  9
$USERR5
 40
0.0
  9
$WORLDVIEW
 70
               1
  9
$SHADEDGE
 70
               3
  9
$SHADEDIF
 70
              70
  9
$TILEMODE
 70
               1
  9
$MAXACTVP
 70
              16
  9
$PINSBASE
 10
0.0
 20
0.0
 30
0.0
  9
$PLIMCHECK
 70
               0
  9
$PEXTMIN
 10
1.0000000000000000E+20
 20
1.0000000000000000E+20
 30
1.0000000000000000E+20
  9
$PEXTMAX
 10
-1.0000000000000000E+20
 20
-1.0000000000000000E+20
 30
-1.0000000000000000E+20
  9
$PLIMMIN
 10
0.0
 20
0.0
  9
$PLIMMAX
 10
12.0
 20
9.0
  9
$UNITMODE
 70
               0
  9
$VISRETAIN
 70
               0
  9
$PLINEGEN
 70
               1
  9
$PSLTSCALE
 70
               0
  9
$TREEDEPTH
 70
            3020
  9
$PICKSTYLE
 70
               1
  9
$CMLSTYLE
  2
Standard
  9
$CMLJUST
 70
               0
  9
$CMLSCALE
 40
1.0
  9
$SAVEIMAGES
 70
               0
  0
ENDSEC
  0
SECTION
  2
CLASSES
  0
CLASS
  1
LWPOLYLINE
  2
AcDbPolyline
  3
"AutoCAD"
 90
        0
280
               0
281
               1
  0
CLASS
  1
IMAGE
  2
AcDbRasterImage
  3
ISM
 90
      127
280
               0
281
               1
  0
CLASS
  1
OLE2FRAME
  2
AcDbOle2Frame
  3
""
 90
        0
280
               0
281
               1
  0
CLASS
  1
HATCH
  2
AcDbHatch
  3
"ACAD_SEDONA"
 90
        0
280
               0
281
               1
  0
CLASS
  1
DICTIONARYVAR
  2
AcDbDictionaryVar
  3
"AutoCAD"
 90
        0
280
               0
281
               0
  0
CLASS
  1
RASTERVARIABLES
  2
AcDbRasterVariables
  3
ISM
 90
        0
280
               0
281
               0
  0
CLASS
  1
IMAGEDEF
  2
AcDbRasterImageDef
  3
ISM
 90
        0
280
               0
281
               0
  0
CLASS
  1
IMAGEDEF_REACTOR
  2
AcDbRasterImageDefReactor
  3
ISM
 90
        1
280
               0
281
               0
  0
CLASS
  1
IDBUFFER
  2
AcDbIdBuffer
  3
"Acad"
 90
        0
280
               0
281
               0
  0
CLASS
  1
SPATIAL_FILTER
  2
AcDbSpatialFilter
  3
"Acad"
 90
        0
280
               0
281
               0
  0
CLASS
  1
XRECORD
  2
AcDbXrecord
  3
"<Built In>"
 90
        0
280
               0
281
               0
  0
CLASS
  1
SORTENTSTABLE
  2
AcDbSortentsTable
  3
"AutoCAD"
 90
        0
280
               0
281
               0
  0
CLASS
  1
LAYER_INDEX
  2
AcDbLayerIndex
  3
"Acad"
 90
        0
280
               0
281
               0
  0
CLASS
  1
SPATIAL_INDEX
  2
AcDbSpatialIndex
  3
"Acad"
 90
        0
280
               0
281
               0
  0
CLASS
  1
OBJECT_PTR
  2
CAseDLPNTableRecord
  3
"ASE-LPNTableRecord"
 90
        1
280
               0
281
               0
  0
CLASS
  1
LAYOUT
  2
AcDbLayout
  3
"AutoCAD 2000"
 90
        1
280
               0
281
               0
  0
CLASS
  1
PLOTSETTINGS
  2
AcDbPlotSettings
  3
"AutoCAD 2000"
 90
        1
280
               0
281
               0
  0
CLASS
  1
ACDBDICTIONARYWDFLT
  2
AcDbDictionaryWithDefault
  3
"AutoCAD 2000"
 90
        1
280
               0
281
               0
  0
CLASS
  1
ACDBPLACEHOLDER
  2
AcDbPlaceHolder
  3
"AutoCAD 2000"
 90
        1
280
               0
281
               0
  0
CLASS
  1
VBA_PROJECT
  2
AcDbVbaProject
  3
"acadvba"
 90
        1
280
               0
281
               0
  0
CLASS
  1
WIPEOUT
  2
AcDbWipeout
  3
WipeOut|AutoCAD Express Tool|expresstools@autodesk.com
 90
      127
280
               0
281
               1
  0
CLASS
  1
WIPEOUTVARIABLES
  2
AcDbWipeoutVariables
  3
WipeOut|AutoCAD Express Tool|expresstools@autodesk.com
 90
        0
280
               0
281
               0
  0
CLASS
  1
RTEXT
  2
RText
  3
RText|AutoCAD Express Tool|expresstools@autodesk.com
 90
        0
280
               0
281
               1
  0
CLASS
  1
ARCALIGNEDTEXT
  2
AcDbArcAlignedText
  3
ATEXT|AutoCAD Express Tool|expresstools@autodesk.com
 90
        0
280
               0
281
               1
  0
ENDSEC
  0
SECTION
  2
TABLES
  0
TABLE
  2
VPORT
  5
7
100
AcDbSymbolTable
 70
               1
  0
VPORT
  5
15
100
AcDbSymbolTableRecord
100
AcDbViewportTableRecord
  2
*ACTIVE
 70
               0
 10
0.0
 20
0.0
 11
1.0
 21
1.0
 12
-0.0250000000000057
 22
-0.1499999999999915
 13
0.0
 23
0.0
 14
1.0
 24
1.0
 15
0.0
 25
0.0
 16
0.0
 26
0.0
 36
1.0
 17
0.0
 27
0.0
 37
0.0
 40
191.19300000000001
 41
1.7320508075688772
 42
50.0
 43
0.0
 44
0.0
 50
0.0
 51
0.0
 71
               0
 72
             100
 73
               1
 74
               1
 75
               0
 76
               0
 77
               0
 78
               0
  0
ENDTAB
  0
TABLE
  2
LTYPE
  5
4
100
AcDbSymbolTable
 70
               4
  0
LTYPE
  5
11
100
AcDbSymbolTableRecord
100
AcDbLinetypeTableRecord
  2
BYBLOCK
 70
              64
  3

 72
              65
 73
               0
 40
0.0
  0
LTYPE
  5
12
100
AcDbSymbolTableRecord
100
AcDbLinetypeTableRecord
  2
BYLAYER
 70
              64
  3

 72
              65
 73
               0
 40
0.0
  0
LTYPE
  5
13
100
AcDbSymbolTableRecord
100
AcDbLinetypeTableRecord
  2
CONTINUOUS
 70
              64
  3
Solid line
 72
              65
 73
               0
 40
0.0
  0
LTYPE
  5
2A
100
AcDbSymbolTableRecord
100
AcDbLinetypeTableRecord
  2
CENTER
 70
              64
  3
Center ____ _ ____ _ ____ _ ____ _ ____ _ ____
 72
              65
 73
               4
 40
50.800000000000004
 49
31.75
 74
               0
 49
-6.3499999999999996
 74
               0
 49
6.3499999999999996
 74
               0
 49
-6.3499999999999996
 74
               0
  0
ENDTAB
  0
TABLE
  2
LAYER
  5
2
100
AcDbSymbolTable
 70
               2
  0
LAYER
  5
14
100
AcDbSymbolTableRecord
100
AcDbLayerTableRecord
  2
0
 70
               0
 62
               7
  6
CONTINUOUS
  0
LAYER
  5
1D
100
AcDbSymbolTableRecord
100
AcDbLayerTableRecord
  2
DEFPOINTS
 70
               0
 62
               7
  6
CONTINUOUS
  0
ENDTAB
  0
TABLE
  2
STYLE
  5
3
100
AcDbSymbolTable
 70
               1
  0
STYLE
  5
17
100
AcDbSymbolTableRecord
100
AcDbTextStyleTableRecord
  2
MX_NOTE_STANDARD
 70
               0
 40
3.2000000476837158
 41
1.0
 50
0.0
 71
               0
 42
3.2000000476837158
  3
txt.shx
  4
extfont.shx
  0
ENDTAB
  0
TABLE
  2
VIEW
  5
5
100
AcDbSymbolTable
 70
               0
  0
ENDTAB
  0
TABLE
  2
UCS
  5
6
100
AcDbSymbolTable
 70
               0
  0
ENDTAB
  0
TABLE
  2
APPID
  5
8
100
AcDbSymbolTable
 70
               1
  0
APPID
  5
16
100
AcDbSymbolTableRecord
100
AcDbRegAppTableRecord
  2
ACAD
 70
               0
  0
ENDTAB
  0
TABLE
  2
DIMSTYLE
  5
9
100
AcDbSymbolTable
 70
               1
  0
DIMSTYLE
105
18
100
AcDbSymbolTableRecord
100
AcDbDimStyleTableRecord
  2
MXDIMSTYLE
 70
               0
  3

  4

  5

  6

  7

 40
1.0
 41
2.5
 42
1.5
 43
3.75
 44
1.5
 45
0.0
 46
0.0
 47
0.0
 48
0.0
 71
               0
 72
               0
 73
               0
 74
               0
 75
               0
 76
               0
 77
               1
 78
               8
140
3.2000000476837158
141
2.5
142
0.0
143
0.0394
144
1.0
145
0.0
146
1.0
147
1.0
170
               0
171
               4
172
               1
173
               0
174
               0
175
               0
176
               0
177
               0
178
               0
270
               2
271
               4
272
               4
273
               8
274
               4
275
               0
280
               0
281
               0
282
               0
283
               1
284
               0
285
               0
286
               0
287
               3
288
               1
340
17
  0
ENDTAB
  0
TABLE
  2
BLOCK_RECORD
  5
1
100
AcDbSymbolTable
 70
               4
  0
BLOCK_RECORD
  5
A
100
AcDbSymbolTableRecord
100
AcDbBlockTableRecord
  2
*MODEL_SPACE
  0
BLOCK_RECORD
  5
B
100
AcDbSymbolTableRecord
100
AcDbBlockTableRecord
  2
*PAPER_SPACE
  0
BLOCK_RECORD
  5
1E
100
AcDbSymbolTableRecord
100
AcDbBlockTableRecord
  2
MS_1
  0
BLOCK_RECORD
  5
1F
100
AcDbSymbolTableRecord
100
AcDbBlockTableRecord
  2
MS_2
  0
BLOCK_RECORD
  5
20
100
AcDbSymbolTableRecord
100
AcDbBlockTableRecord
  2
MS_3
  0
BLOCK_RECORD
  5
21
100
AcDbSymbolTableRecord
100
AcDbBlockTableRecord
  2
MS_4
  0
ENDTAB
  0
ENDSEC
  0
SECTION
  2
BLOCKS
  0
BLOCK
  5
D
100
AcDbEntity
  8
0
100
AcDbBlockBegin
  2
*MODEL_SPACE
 70
               0
 10
0.0
 20
0.0
 30
0.0
  3
*MODEL_SPACE
  1

  0
ENDBLK
  5
E
100
AcDbEntity
  8
0
100
AcDbBlockEnd
  0
BLOCK
  5
F
100
AcDbEntity
 67
               1
  8
0
100
AcDbBlockBegin
  2
*PAPER_SPACE
 70
               0
 10
0.0
 20
0.0
 30
0.0
  3
*PAPER_SPACE
  1

  0
ENDBLK
  5
10
100
AcDbEntity
 67
               1
  8
0
100
AcDbBlockEnd
  0
BLOCK
  5
22
100
AcDbEntity
  8
0
100
AcDbBlockBegin
  2
MS_1
 70
               0
 10
0.0
 20
0.0
 30
0.0
  3
MS_1
  1

  0
LINE
  5
23
100
AcDbEntity
  8
0
  6
CONTINUOUS
 62
               4
100
AcDbLine
 10
12.0
 20
5.0
 30
0.0
 11
12.0
 21
0.0
 31
0.0
  0
LINE
  5
24
100
AcDbEntity
  8
0
  6
CONTINUOUS
 62
               4
100
AcDbLine
 10
7.0
 20
1.6000000000000001
 30
0.0
 11
7.0
 21
0.0
 31
0.0
  0
LINE
  5
25
100
AcDbEntity
  8
0
  6
CONTINUOUS
 62
               4
100
AcDbLine
 10
-7.0
 20
1.6000000000000001
 30
0.0
 11
-7.0
 21
0.0
 31
0.0
  0
LINE
  5
26
100
AcDbEntity
  8
0
  6
CONTINUOUS
 62
               4
100
AcDbLine
 10
-12.0
 20
5.0
 30
0.0
 11
-12.0
 21
0.0
 31
0.0
  0
LINE
  5
27
100
AcDbEntity
  8
0
  6
CONTINUOUS
 62
               4
100
AcDbLine
 10
12.0
 20
0.0
 30
0.0
 11
-12.0
 21
0.0
 31
0.0
  0
LINE
  5
28
100
AcDbEntity
  8
0
  6
CONTINUOUS
 62
               4
100
AcDbLine
 10
12.0
 20
1.6000000000000001
 30
0.0
 11
-12.0
 21
1.6000000000000001
 31
0.0
  0
LINE
  5
29
100
AcDbEntity
  8
0
  6
CONTINUOUS
 62
               4
100
AcDbLine
 10
12.0
 20
5.0
 30
0.0
 11
-12.0
 21
5.0
 31
0.0
  0
LINE
  5
2B
100
AcDbEntity
  8
0
  6
CENTER
 62
             200
100
AcDbLine
 10
0.0
 20
6.3600000000000003
 30
0.0
 11
0.0
 21
-4.4699999999999998
 31
0.0
  0
ENDBLK
  5
2C
100
AcDbEntity
  8
0
100
AcDbBlockEnd
  0
BLOCK
  5
2D
100
AcDbEntity
  8
0
100
AcDbBlockBegin
  2
MS_2
 70
               0
 10
0.0
 20
0.0
 30
0.0
  3
MS_2
  1

  0
LINE
  5
2E
100
AcDbEntity
  8
0
  6
CONTINUOUS
 62
               4
100
AcDbLine
 10
-6.0
 20
0.0
 30
0.0
 11
6.0999999999999996
 21
0.0
 31
0.0
  0
LINE
  5
2F
100
AcDbEntity
  8
0
  6
CONTINUOUS
 62
               4
100
AcDbLine
 10
-6.0
 20
1.6000000000000001
 30
0.0
 11
-6.0
 21
0.0
 31
0.0
  0
LINE
  5
30
100
AcDbEntity
  8
0
  6
CONTINUOUS
 62
               4
100
AcDbLine
 10
-1.0
 20
1.6000000000000001
 30
0.0
 11
-1.0
 21
0.0
 31
0.0
  0
LINE
  5
31
100
AcDbEntity
  8
0
  6
CONTINUOUS
 62
               4
100
AcDbLine
 10
29.0
 20
1.6000000000000001
 30
0.0
 11
29.0
 21
0.0
 31
0.0
  0
LINE
  5
32
100
AcDbEntity
  8
0
  6
CONTINUOUS
 62
               4
100
AcDbLine
 10
21.899999999999999
 20
3.3999999999999999
 30
0.0
 11
21.899999999999999
 21
0.0
 31
0.0
  0
LINE
  5
33
100
AcDbEntity
  8
0
  6
CONTINUOUS
 62
               4
100
AcDbLine
 10
6.0999999999999996
 20
3.3999999999999999
 30
0.0
 11
6.0999999999999996
 21
0.0
 31
0.0
  0
LINE
  5
34
100
AcDbEntity
  8
0
  6
CONTINUOUS
 62
               4
100
AcDbLine
 10
34.0
 20
1.6000000000000001
 30
0.0
 11
34.0
 21
0.0
 31
0.0
  0
LINE
  5
35
100
AcDbEntity
  8
0
  6
CONTINUOUS
 62
               4
100
AcDbLine
 10
-6.0
 20
1.6000000000000001
 30
0.0
 11
4.5
 21
1.6000000000000001
 31
0.0
  0
LINE
  5
36
100
AcDbEntity
  8
0
  6
CONTINUOUS
 62
               4
100
AcDbLine
 10
4.5
 20
5.0
 30
0.0
 11
23.5
 21
5.0
 31
0.0
  0
LINE
  5
37
100
AcDbEntity
  8
0
  6
CONTINUOUS
 62
               4
100
AcDbLine
 10
21.899999999999999
 20
0.0
 30
0.0
 11
34.0
 21
0.0
 31
0.0
  0
LINE
  5
38
100
AcDbEntity
  8
0
  6
CONTINUOUS
 62
               4
100
AcDbLine
 10
23.5
 20
5.0
 30
0.0
 11
23.5
 21
1.6000000000000001
 31
0.0
  0
LINE
  5
39
100
AcDbEntity
  8
0
  6
CONTINUOUS
 62
               4
100
AcDbLine
 10
4.5
 20
5.0
 30
0.0
 11
4.5
 21
1.6000000000000001
 31
0.0
  0
LINE
  5
3A
100
AcDbEntity
  8
0
  6
CONTINUOUS
 62
               4
100
AcDbLine
 10
23.5
 20
1.6000000000000001
 30
0.0
 11
34.0
 21
1.6000000000000001
 31
0.0
  0
LINE
  5
3B
100
AcDbEntity
  8
0
  6
CONTINUOUS
 62
               4
100
AcDbLine
 10
6.0999999999999996
 20
3.3999999999999999
 30
0.0
 11
21.899999999999999
 21
3.3999999999999999
 31
0.0
  0
LINE
  5
3C
100
AcDbEntity
  8
0
  6
CENTER
 62
             200
100
AcDbLine
 10
0.0
 20
5.0
 30
0.0
 11
0.0
 21
-4.4699999999999998
 31
0.0
  0
LINE
  5
3D
100
AcDbEntity
  8
0
  6
CENTER
 62
             200
100
AcDbLine
 10
28.0
 20
5.0
 30
0.0
 11
28.0
 21
-4.4699999999999998
 31
0.0
  0
LINE
  5
3E
100
AcDbEntity
  8
0
  6
CONTINUOUS
 62
               4
100
AcDbLine
 10
6.9500000000000002
 20
2.7999999999999998
 30
0.0
 11
12.050000000000001
 21
2.7999999999999998
 31
0.0
  0
LINE
  5
3F
100
AcDbEntity
  8
0
  6
CONTINUOUS
 62
               4
100
AcDbLine
 10
6.9500000000000002
 20
2.7999999999999998
 30
0.0
 11
6.9500000000000002
 21
3.3999999999999999
 31
0.0
  0
LINE
  5
40
100
AcDbEntity
  8
0
  6
CONTINUOUS
 62
               4
100
AcDbLine
 10
12.050000000000001
 20
2.7999999999999998
 30
0.0
 11
12.050000000000001
 21
3.3999999999999999
 31
0.0
  0
LINE
  5
41
100
AcDbEntity
  8
0
  6
CONTINUOUS
 62
               4
100
AcDbLine
 10
7.25
 20
1.53
 30
0.0
 11
7.25
 21
2.7999999999999998
 31
0.0
  0
LINE
  5
42
100
AcDbEntity
  8
0
  6
CONTINUOUS
 62
               4
100
AcDbLine
 10
11.75
 20
1.53
 30
0.0
 11
11.75
 21
2.7999999999999998
 31
0.0
  0
LINE
  5
43
100
AcDbEntity
  8
0
  6
CONTINUOUS
 62
               4
100
AcDbLine
 10
15.949999999999999
 20
2.7999999999999998
 30
0.0
 11
21.050000000000001
 21
2.7999999999999998
 31
0.0
  0
LINE
  5
44
100
AcDbEntity
  8
0
  6
CONTINUOUS
 62
               4
100
AcDbLine
 10
15.949999999999999
 20
2.7999999999999998
 30
0.0
 11
15.949999999999999
 21
3.3999999999999999
 31
0.0
  0
LINE
  5
45
100
AcDbEntity
  8
0
  6
CONTINUOUS
 62
               4
100
AcDbLine
 10
21.050000000000001
 20
2.7999999999999998
 30
0.0
 11
21.050000000000001
 21
3.3999999999999999
 31
0.0
  0
LINE
  5
46
100
AcDbEntity
  8
0
  6
CONTINUOUS
 62
               4
100
AcDbLine
 10
16.25
 20
1.53
 30
0.0
 11
16.25
 21
2.7999999999999998
 31
0.0
  0
LINE
  5
47
100
AcDbEntity
  8
0
  6
CONTINUOUS
 62
               4
100
AcDbLine
 10
20.75
 20
1.53
 30
0.0
 11
20.75
 21
2.7999999999999998
 31
0.0
  0
ARC
  5
48
100
AcDbEntity
  8
0
  6
CONTINUOUS
 62
               4
100
AcDbCircle
 10
18.5
 20
7.0999984741210938
 30
0.0
 40
6.0072775033047465
100
AcDbArc
 50
248.00376245202008
 51
291.99623754797869
  0
ARC
  5
49
100
AcDbEntity
  8
0
  6
CONTINUOUS
 62
               4
100
AcDbCircle
 10
9.5
 20
7.0999984741210938
 30
0.0
 40
6.0072775033047465
100
AcDbArc
 50
248.00376245202008
 51
291.99623754797869
  0
ENDBLK
  5
4A
100
AcDbEntity
  8
0
100
AcDbBlockEnd
  0
BLOCK
  5
4B
100
AcDbEntity
  8
0
100
AcDbBlockBegin
  2
MS_3
 70
               0
 10
0.0
 20
0.0
 30
0.0
  3
MS_3
  1

  0
LINE
  5
4C
100
AcDbEntity
  8
0
  6
CONTINUOUS
 62
               4
100
AcDbLine
 10
-6.0
 20
0.0
 30
0.0
 11
6.0999999999999996
 21
0.0
 31
0.0
  0
LINE
  5
4D
100
AcDbEntity
  8
0
  6
CONTINUOUS
 62
               4
100
AcDbLine
 10
-6.0
 20
1.6000000000000001
 30
0.0
 11
-6.0
 21
0.0
 31
0.0
  0
LINE
  5
4E
100
AcDbEntity
  8
0
  6
CONTINUOUS
 62
               4
100
AcDbLine
 10
-1.0
 20
1.6000000000000001
 30
0.0
 11
-1.0
 21
0.0
 31
0.0
  0
LINE
  5
4F
100
AcDbEntity
  8
0
  6
CONTINUOUS
 62
               4
100
AcDbLine
 10
29.0
 20
1.6000000000000001
 30
0.0
 11
29.0
 21
0.0
 31
0.0
  0
LINE
  5
50
100
AcDbEntity
  8
0
  6
CONTINUOUS
 62
               4
100
AcDbLine
 10
21.899999999999999
 20
3.3999999999999999
 30
0.0
 11
21.899999999999999
 21
0.0
 31
0.0
  0
LINE
  5
51
100
AcDbEntity
  8
0
  6
CONTINUOUS
 62
               4
100
AcDbLine
 10
6.0999999999999996
 20
3.3999999999999999
 30
0.0
 11
6.0999999999999996
 21
0.0
 31
0.0
  0
LINE
  5
52
100
AcDbEntity
  8
0
  6
CONTINUOUS
 62
               4
100
AcDbLine
 10
34.0
 20
1.6000000000000001
 30
0.0
 11
34.0
 21
0.0
 31
0.0
  0
LINE
  5
53
100
AcDbEntity
  8
0
  6
CONTINUOUS
 62
               4
100
AcDbLine
 10
-6.0
 20
1.6000000000000001
 30
0.0
 11
4.5
 21
1.6000000000000001
 31
0.0
  0
LINE
  5
54
100
AcDbEntity
  8
0
  6
CONTINUOUS
 62
               4
100
AcDbLine
 10
4.5
 20
5.0
 30
0.0
 11
23.5
 21
5.0
 31
0.0
  0
LINE
  5
55
100
AcDbEntity
  8
0
  6
CONTINUOUS
 62
               4
100
AcDbLine
 10
21.899999999999999
 20
0.0
 30
0.0
 11
34.0
 21
0.0
 31
0.0
  0
LINE
  5
56
100
AcDbEntity
  8
0
  6
CONTINUOUS
 62
               4
100
AcDbLine
 10
23.5
 20
5.0
 30
0.0
 11
23.5
 21
1.6000000000000001
 31
0.0
  0
LINE
  5
57
100
AcDbEntity
  8
0
  6
CONTINUOUS
 62
               4
100
AcDbLine
 10
4.5
 20
5.0
 30
0.0
 11
4.5
 21
1.6000000000000001
 31
0.0
  0
LINE
  5
58
100
AcDbEntity
  8
0
  6
CONTINUOUS
 62
               4
100
AcDbLine
 10
23.5
 20
1.6000000000000001
 30
0.0
 11
34.0
 21
1.6000000000000001
 31
0.0
  0
LINE
  5
59
100
AcDbEntity
  8
0
  6
CONTINUOUS
 62
               4
100
AcDbLine
 10
6.0999999999999996
 20
3.3999999999999999
 30
0.0
 11
21.899999999999999
 21
3.3999999999999999
 31
0.0
  0
LINE
  5
5A
100
AcDbEntity
  8
0
  6
CENTER
 62
             200
100
AcDbLine
 10
0.0
 20
5.0
 30
0.0
 11
0.0
 21
-4.4699999999999998
 31
0.0
  0
LINE
  5
5B
100
AcDbEntity
  8
0
  6
CENTER
 62
             200
100
AcDbLine
 10
28.0
 20
5.0
 30
0.0
 11
28.0
 21
-4.4699999999999998
 31
0.0
  0
LINE
  5
5C
100
AcDbEntity
  8
0
  6
CONTINUOUS
 62
               4
100
AcDbLine
 10
6.9500000000000002
 20
2.7999999999999998
 30
0.0
 11
12.050000000000001
 21
2.7999999999999998
 31
0.0
  0
LINE
  5
5D
100
AcDbEntity
  8
0
  6
CONTINUOUS
 62
               4
100
AcDbLine
 10
6.9500000000000002
 20
2.7999999999999998
 30
0.0
 11
6.9500000000000002
 21
3.3999999999999999
 31
0.0
  0
LINE
  5
5E
100
AcDbEntity
  8
0
  6
CONTINUOUS
 62
               4
100
AcDbLine
 10
12.050000000000001
 20
2.7999999999999998
 30
0.0
 11
12.050000000000001
 21
3.3999999999999999
 31
0.0
  0
LINE
  5
5F
100
AcDbEntity
  8
0
  6
CONTINUOUS
 62
               4
100
AcDbLine
 10
7.25
 20
1.53
 30
0.0
 11
7.25
 21
2.7999999999999998
 31
0.0
  0
LINE
  5
60
100
AcDbEntity
  8
0
  6
CONTINUOUS
 62
               4
100
AcDbLine
 10
11.75
 20
1.53
 30
0.0
 11
11.75
 21
2.7999999999999998
 31
0.0
  0
LINE
  5
61
100
AcDbEntity
  8
0
  6
CONTINUOUS
 62
               4
100
AcDbLine
 10
15.949999999999999
 20
2.7999999999999998
 30
0.0
 11
21.050000000000001
 21
2.7999999999999998
 31
0.0
  0
LINE
  5
62
100
AcDbEntity
  8
0
  6
CONTINUOUS
 62
               4
100
AcDbLine
 10
15.949999999999999
 20
2.7999999999999998
 30
0.0
 11
15.949999999999999
 21
3.3999999999999999
 31
0.0
  0
LINE
  5
63
100
AcDbEntity
  8
0
  6
CONTINUOUS
 62
               4
100
AcDbLine
 10
21.050000000000001
 20
2.7999999999999998
 30
0.0
 11
21.050000000000001
 21
3.3999999999999999
 31
0.0
  0
LINE
  5
64
100
AcDbEntity
  8
0
  6
CONTINUOUS
 62
               4
100
AcDbLine
 10
16.25
 20
1.53
 30
0.0
 11
16.25
 21
2.7999999999999998
 31
0.0
  0
LINE
  5
65
100
AcDbEntity
  8
0
  6
CONTINUOUS
 62
               4
100
AcDbLine
 10
20.75
 20
1.53
 30
0.0
 11
20.75
 21
2.7999999999999998
 31
0.0
  0
ARC
  5
66
100
AcDbEntity
  8
0
  6
CONTINUOUS
 62
               4
100
AcDbCircle
 10
18.5
 20
7.0999984741210938
 30
0.0
 40
6.0072775033047465
100
AcDbArc
 50
248.00376245202008
 51
291.99623754797869
  0
ARC
  5
67
100
AcDbEntity
  8
0
  6
CONTINUOUS
 62
               4
100
AcDbCircle
 10
9.5
 20
7.0999984741210938
 30
0.0
 40
6.0072775033047465
100
AcDbArc
 50
248.00376245202008
 51
291.99623754797869
  0
ENDBLK
  5
68
100
AcDbEntity
  8
0
100
AcDbBlockEnd
  0
BLOCK
  5
69
100
AcDbEntity
  8
0
100
AcDbBlockBegin
  2
MS_4
 70
               0
 10
0.0
 20
0.0
 30
0.0
  3
MS_4
  1

  0
LINE
  5
6A
100
AcDbEntity
  8
0
  6
CONTINUOUS
 62
               4
100
AcDbLine
 10
-9.0
 20
15.5
 30
0.0
 11
-12.0
 21
15.5
 31
0.0
  0
LINE
  5
6B
100
AcDbEntity
  8
0
  6
CONTINUOUS
 62
               4
100
AcDbLine
 10
9.0
 20
12.5
 30
0.0
 11
12.0
 21
12.5
 31
0.0
  0
LINE
  5
6C
100
AcDbEntity
  8
0
  6
CONTINUOUS
 62
               4
100
AcDbLine
 10
6.0
 20
9.5
 30
0.0
 11
6.0
 21
6.5
 31
0.0
  0
LINE
  5
6D
100
AcDbEntity
  8
0
  6
CONTINUOUS
 62
               4
100
AcDbLine
 10
-6.0
 20
18.5
 30
0.0
 11
-6.0
 21
21.5
 31
0.0
  0
LINE
  5
6E
100
AcDbEntity
  8
0
  6
CONTINUOUS
 62
               4
100
AcDbLine
 10
11.0
 20
12.5
 30
0.0
 11
11.0
 21
20.5
 31
0.0
  0
LINE
  5
6F
100
AcDbEntity
  8
0
  6
CONTINUOUS
 62
               4
100
AcDbLine
 10
-11.0
 20
7.5
 30
0.0
 11
-11.0
 21
15.5
 31
0.0
  0
LINE
  5
70
100
AcDbEntity
  8
0
  6
CONTINUOUS
 62
               4
100
AcDbLine
 10
6.0
 20
7.5
 30
0.0
 11
-11.0
 21
7.5
 31
0.0
  0
LINE
  5
71
100
AcDbEntity
  8
0
  6
CONTINUOUS
 62
               4
100
AcDbLine
 10
11.0
 20
20.5
 30
0.0
 11
-6.0
 21
20.5
 31
0.0
  0
LINE
  5
72
100
AcDbEntity
  8
0
  6
CONTINUOUS
 62
               4
100
AcDbLine
 10
12.0
 20
6.5
 30
0.0
 11
12.0
 21
21.5
 31
0.0
  0
LINE
  5
73
100
AcDbEntity
  8
0
  6
CONTINUOUS
 62
               4
100
AcDbLine
 10
12.0
 20
6.5
 30
0.0
 11
-12.0
 21
6.5
 31
0.0
  0
LINE
  5
74
100
AcDbEntity
  8
0
  6
CONTINUOUS
 62
               4
100
AcDbLine
 10
12.0
 20
21.5
 30
0.0
 11
-12.0
 21
21.5
 31
0.0
  0
LINE
  5
75
100
AcDbEntity
  8
0
  6
CONTINUOUS
 62
               4
100
AcDbLine
 10
-12.0
 20
6.5
 30
0.0
 11
-12.0
 21
21.5
 31
0.0
  0
LINE
  5
76
100
AcDbEntity
  8
0
  6
CONTINUOUS
 62
               4
100
AcDbLine
 10
8.0800000000000001
 20
10.41
 30
0.0
 11
9.9100000000000001
 21
8.5800000000000001
 31
0.0
  0
LINE
  5
77
100
AcDbEntity
  8
0
  6
CONTINUOUS
 62
               4
100
AcDbLine
 10
9.9100000000000001
 20
10.41
 30
0.0
 11
8.0800000000000001
 21
8.5800000000000001
 31
0.0
  0
LINE
  5
78
100
AcDbEntity
  8
0
  6
CONTINUOUS
 62
               4
100
AcDbLine
 10
-8.0800000000000001
 20
19.41
 30
0.0
 11
-9.9100000000000001
 21
17.579999999999998
 31
0.0
  0
LINE
  5
79
100
AcDbEntity
  8
0
  6
CONTINUOUS
 62
               4
100
AcDbLine
 10
-8.0800000000000001
 20
17.579999999999998
 30
0.0
 11
-9.9100000000000001
 21
19.41
 31
0.0
  0
LINE
  5
7A
100
AcDbEntity
  8
0
  6
CONTINUOUS
 62
               4
100
AcDbLine
 10
7.0
 20
-6.0
 30
0.0
 11
-7.0
 21
-6.0
 31
0.0
  0
LINE
  5
7B
100
AcDbEntity
  8
0
  6
CONTINUOUS
 62
               4
100
AcDbLine
 10
7.0
 20
34.0
 30
0.0
 11
-7.0
 21
34.0
 31
0.0
  0
LINE
  5
7C
100
AcDbEntity
  8
0
  6
CONTINUOUS
 62
               4
100
AcDbLine
 10
12.0
 20
-1.0
 30
0.0
 11
12.0
 21
6.5
 31
0.0
  0
LINE
  5
7D
100
AcDbEntity
  8
0
  6
CONTINUOUS
 62
               4
100
AcDbLine
 10
-12.0
 20
-1.0
 30
0.0
 11
-12.0
 21
6.5
 31
0.0
  0
LINE
  5
7E
100
AcDbEntity
  8
0
  6
CONTINUOUS
 62
               4
100
AcDbLine
 10
7.0
 20
-6.0
 30
0.0
 11
12.0
 21
-1.0
 31
0.0
  0
LINE
  5
7F
100
AcDbEntity
  8
0
  6
CONTINUOUS
 62
               4
100
AcDbLine
 10
12.0
 20
29.0
 30
0.0
 11
7.0
 21
34.0
 31
0.0
  0
LINE
  5
80
100
AcDbEntity
  8
0
  6
CONTINUOUS
 62
               4
100
AcDbLine
 10
-12.0
 20
29.0
 30
0.0
 11
-7.0
 21
34.0
 31
0.0
  0
LINE
  5
81
100
AcDbEntity
  8
0
  6
CONTINUOUS
 62
               4
100
AcDbLine
 10
-12.0
 20
-1.0
 30
0.0
 11
-7.0
 21
-6.0
 31
0.0
  0
LINE
  5
82
100
AcDbEntity
  8
0
  6
CENTER
 62
             200
100
AcDbLine
 10
0.0
 20
-5.0
 30
0.0
 11
0.0
 21
5.0
 31
0.0
  0
LINE
  5
83
100
AcDbEntity
  8
0
  6
CENTER
 62
             200
100
AcDbLine
 10
0.0
 20
23.0
 30
0.0
 11
0.0
 21
33.0
 31
0.0
  0
LINE
  5
84
100
AcDbEntity
  8
0
  6
CENTER
 62
             200
100
AcDbLine
 10
5.0
 20
0.0
 30
0.0
 11
-5.0
 21
0.0
 31
0.0
  0
LINE
  5
85
100
AcDbEntity
  8
0
  6
CENTER
 62
             200
100
AcDbLine
 10
5.0
 20
28.0
 30
0.0
 11
-5.0
 21
28.0
 31
0.0
  0
LINE
  5
86
100
AcDbEntity
  8
0
  6
CONTINUOUS
 62
               4
100
AcDbLine
 10
12.0
 20
23.5
 30
0.0
 11
-12.0
 21
23.5
 31
0.0
  0
LINE
  5
87
100
AcDbEntity
  8
0
  6
CONTINUOUS
 62
               4
100
AcDbLine
 10
12.0
 20
4.5
 30
0.0
 11
-12.0
 21
4.5
 31
0.0
  0
LINE
  5
88
100
AcDbEntity
  8
0
  6
CONTINUOUS
 62
               4
100
AcDbLine
 10
-12.0
 20
21.5
 30
0.0
 11
-12.0
 21
29.0
 31
0.0
  0
LINE
  5
89
100
AcDbEntity
  8
0
  6
CONTINUOUS
 62
               4
100
AcDbLine
 10
12.0
 20
21.5
 30
0.0
 11
12.0
 21
29.0
 31
0.0
  0
ARC
  5
8A
100
AcDbEntity
  8
0
  6
CONTINUOUS
 62
               4
100
AcDbCircle
 10
-8.9999866485601778
 20
18.499986648560178
 30
0.0
 40
2.999986648589887
100
AcDbArc
 50
269.99974500514713
 51
0.00025499485225
  0
ARC
  5
8B
100
AcDbEntity
  8
0
  6
CONTINUOUS
 62
               4
100
AcDbCircle
 10
9.0000119209289924
 20
9.4999880790710076
 30
0.0
 40
3.0000119209526774
100
AcDbArc
 50
90.000227672068164
 51
179.99977232793123
  0
CIRCLE
  5
8C
100
AcDbEntity
  8
0
  6
CONTINUOUS
 62
               4
100
AcDbCircle
 10
-9.0000076293945312
 20
18.499969482421875
 30
0.0
 40
2.5500001907348633
  0
CIRCLE
  5
8D
100
AcDbEntity
  8
0
  6
CONTINUOUS
 62
               4
100
AcDbCircle
 10
8.9999847412109375
 20
9.4999618530273437
 30
0.0
 40
2.5500001907348633
  0
CIRCLE
  5
8E
100
AcDbEntity
  8
0
  6
CONTINUOUS
 62
               4
100
AcDbCircle
 10
-9.0000076293945312
 20
18.499969482421875
 30
0.0
 40
2.25
  0
CIRCLE
  5
8F
100
AcDbEntity
  8
0
  6
CONTINUOUS
 62
               4
100
AcDbCircle
 10
8.9999847412109375
 20
9.4999618530273437
 30
0.0
 40
2.25
  0
CIRCLE
  5
90
100
AcDbEntity
  8
0
  6
CONTINUOUS
 62
               4
100
AcDbCircle
 10
0.0
 20
28.0
 30
0.0
 40
2.25
  0
CIRCLE
  5
91
100
AcDbEntity
  8
0
  6
CONTINUOUS
 62
               4
100
AcDbCircle
 10
0.0
 20
0.0
 30
0.0
 40
2.25
  0
ENDBLK
  5
92
100
AcDbEntity
  8
0
100
AcDbBlockEnd
  0
ENDSEC
  0
SECTION
  2
ENTITIES
  0
LINE
  5
93
100
AcDbEntity
  8
0
  6
CENTER
 62
               2
100
AcDbLine
 10
63.325027465820312
 20
-50.501998901367188
 30
0.0
 11
63.325027465820312
 21
-58.409277930550843
 31
0.0
  0
LINE
  5
94
100
AcDbEntity
  8
0
  6
CENTER
 62
               2
100
AcDbLine
 10
54.325027465820312
 20
-50.501998901367188
 30
0.0
 11
54.325027465820312
 21
-58.501998901367188
 31
0.0
  0
LINE
  5
95
100
AcDbEntity
  8
0
  6
CENTER
 62
               2
100
AcDbLine
 10
58.825027465820312
 20
-3.8719989013671849
 30
0.0
 11
58.825027465820312
 21
-58.501998901367188
 31
0.0
  0
LINE
  5
96
100
AcDbEntity
  8
0
  6
CENTER
 62
               2
100
AcDbLine
 10
-70.925003051757813
 20
-50.501983642578125
 30
0.0
 11
-70.925003051757813
 21
-58.40926267176178
 31
0.0
  0
LINE
  5
97
100
AcDbEntity
  8
0
  6
CENTER
 62
               2
100
AcDbLine
 10
-79.925003051757813
 20
-50.501983642578125
 30
0.0
 11
-79.925003051757813
 21
-58.40926267176178
 31
0.0
  0
LINE
  5
98
100
AcDbEntity
  8
0
  6
CENTER
 62
               2
100
AcDbLine
 10
-75.425003051757813
 20
-4.1819836425781247
 30
0.0
 11
-75.425003051757813
 21
-58.501983642578125
 31
0.0
  0
INSERT
  5
99
100
AcDbEntity
  8
0
100
AcDbBlockReference
  2
MS_4
 10
-0.0249956957995892
 20
40.5411376953125
 30
0.0
  0
INSERT
  5
9A
100
AcDbEntity
  8
0
100
AcDbBlockReference
  2
MS_3
 10
-89.425003051757812
 20
-59.501983642578125
 30
0.0
  0
INSERT
  5
9B
100
AcDbEntity
  8
0
100
AcDbBlockReference
  2
MS_2
 10
44.825027465820313
 20
-59.501998901367188
 30
0.0
  0
INSERT
  5
9C
100
AcDbEntity
  8
0
100
AcDbBlockReference
  2
MS_1
 10
-0.0249946229159832
 20
-59.501983642578125
 30
0.0
  0
LINE
  5
9D
100
AcDbEntity
  8
0
  6
CONTINUOUS
 62
               7
100
AcDbLine
 10
-21.024993896484375
 20
54.091137695312497
 30
0.0
 11
-21.024993896484375
 21
54.991137695312503
 31
0.0
  0
LINE
  5
9E
100
AcDbEntity
  8
0
  6
CONTINUOUS
 62
               7
100
AcDbLine
 10
-13.024993896484375
 20
57.561137695312496
 30
0.0
 11
-13.024993896484375
 21
62.0411376953125
 31
0.0
  0
LINE
  5
9F
100
AcDbEntity
  8
0
  6
CONTINUOUS
 62
               7
100
AcDbLine
 10
-21.024993896484375
 20
56.691137695312499
 30
0.0
 11
-21.024993896484375
 21
62.0411376953125
 31
0.0
  0
LINE
  5
A0
100
AcDbEntity
  8
0
  6
CONTINUOUS
 62
               7
100
AcDbLine
 10
-21.024993896484375
 20
47.0411376953125
 30
0.0
 11
-12.024993896484375
 21
47.0411376953125
 31
0.0
  0
LINE
  5
A1
100
AcDbEntity
  8
0
  6
CONTINUOUS
 62
               7
100
AcDbLine
 10
-21.024993896484375
 20
62.0411376953125
 30
0.0
 11
-12.024993896484375
 21
62.0411376953125
 31
0.0
  0
LINE
  5
A2
100
AcDbEntity
  8
0
  6
CONTINUOUS
 62
               7
100
AcDbLine
 10
-21.024993896484375
 20
47.0411376953125
 30
0.0
 11
-21.024993896484375
 21
52.391137695312501
 31
0.0
  0
LINE
  5
A3
100
AcDbEntity
  8
0
  6
CONTINUOUS
 62
               7
100
AcDbLine
 10
-13.024993896484375
 20
47.0411376953125
 30
0.0
 11
-13.024993896484375
 21
51.561137695312496
 31
0.0
  0
LINE
  5
A4
100
AcDbEntity
  8
0
  6
CONTINUOUS
 62
               4
100
AcDbLine
 10
-12.034993896484375
 20
57.561137695312496
 30
0.0
 11
-14.034993896484375
 21
57.561137695312496
 31
0.0
  0
LINE
  5
A5
100
AcDbEntity
  8
0
  6
CONTINUOUS
 62
               4
100
AcDbLine
 10
-14.034993896484375
 20
51.561137695312496
 30
0.0
 11
-14.034993896484375
 21
57.561137695312496
 31
0.0
  0
LINE
  5
A6
100
AcDbEntity
  8
0
  6
CONTINUOUS
 62
               4
100
AcDbLine
 10
-12.034993896484375
 20
51.561137695312496
 30
0.0
 11
-14.034993896484375
 21
51.561137695312496
 31
0.0
  0
LINE
  5
A7
100
AcDbEntity
  8
0
  6
CONTINUOUS
 62
               4
100
AcDbLine
 10
-17.664993896484376
 20
56.691137695312499
 30
0.0
 11
-14.024993896484375
 21
56.691137695312499
 31
0.0
  0
LINE
  5
A8
100
AcDbEntity
  8
0
  6
CONTINUOUS
 62
               4
100
AcDbLine
 10
-18.124993896484376
 20
54.991137695312503
 30
0.0
 11
-14.024993896484375
 21
54.991137695312503
 31
0.0
  0
LINE
  5
A9
100
AcDbEntity
  8
0
  6
CONTINUOUS
 62
               4
100
AcDbLine
 10
-18.364993896484375
 20
54.091137695312497
 30
0.0
 11
-14.024993896484375
 21
54.091137695312497
 31
0.0
  0
LINE
  5
AA
100
AcDbEntity
  8
0
  6
CONTINUOUS
 62
               4
100
AcDbLine
 10
-18.824993896484376
 20
52.391137695312501
 30
0.0
 11
-14.024993896484375
 21
52.391137695312501
 31
0.0
  0
LINE
  5
AB
100
AcDbEntity
  8
0
  6
CONTINUOUS
 62
             200
100
AcDbLine
 10
-20.904993896484374
 20
50.391137695312501
 30
0.0
 11
-18.684993896484375
 21
58.691137695312499
 31
0.0
  0
LINE
  5
AC
100
AcDbEntity
  8
0
  6
CONTINUOUS
 62
             200
100
AcDbLine
 10
-19.354993896484373
 20
50.391137695312501
 30
0.0
 11
-17.134993896484374
 21
58.691137695312499
 31
0.0
  0
LINE
  5
AD
100
AcDbEntity
  8
0
  6
CONTINUOUS
 62
               4
100
AcDbLine
 10
-34.024993896484375
 20
53.561137695312496
 30
0.0
 11
-34.024993896484375
 21
52.921137695312503
 31
0.0
  0
LINE
  5
AE
100
AcDbEntity
  8
0
  6
CONTINUOUS
 62
               4
100
AcDbLine
 10
-24.024993896484375
 20
54.091137695312497
 30
0.0
 11
-24.024993896484375
 21
52.391137695312501
 31
0.0
  0
LINE
  5
AF
100
AcDbEntity
  8
0
  6
CONTINUOUS
 62
               4
100
AcDbLine
 10
-34.024993896484375
 20
53.561137695312496
 30
0.0
 11
-24.024993896484375
 21
53.561137695312496
 31
0.0
  0
LINE
  5
B0
100
AcDbEntity
  8
0
  6
CONTINUOUS
 62
               4
100
AcDbLine
 10
-34.024993896484375
 20
52.921137695312503
 30
0.0
 11
-24.024993896484375
 21
52.921137695312503
 31
0.0
  0
LINE
  5
B1
100
AcDbEntity
  8
0
  6
CONTINUOUS
 62
               4
100
AcDbLine
 10
-24.024993896484375
 20
54.091137695312497
 30
0.0
 11
-19.914993896484376
 21
54.091137695312497
 31
0.0
  0
LINE
  5
B2
100
AcDbEntity
  8
0
  6
CONTINUOUS
 62
               4
100
AcDbLine
 10
-24.024993896484375
 20
52.391137695312501
 30
0.0
 11
-20.374993896484376
 21
52.391137695312501
 31
0.0
  0
LINE
  5
B3
100
AcDbEntity
  8
0
  6
CONTINUOUS
 62
               4
100
AcDbLine
 10
-34.024993896484375
 20
56.161137695312497
 30
0.0
 11
-34.024993896484375
 21
55.521137695312504
 31
0.0
  0
LINE
  5
B4
100
AcDbEntity
  8
0
  6
CONTINUOUS
 62
               4
100
AcDbLine
 10
-24.024993896484375
 20
56.691137695312499
 30
0.0
 11
-24.024993896484375
 21
54.991137695312503
 31
0.0
  0
LINE
  5
B5
100
AcDbEntity
  8
0
  6
CONTINUOUS
 62
               4
100
AcDbLine
 10
-34.024993896484375
 20
56.161137695312497
 30
0.0
 11
-24.024993896484375
 21
56.161137695312497
 31
0.0
  0
LINE
  5
B6
100
AcDbEntity
  8
0
  6
CONTINUOUS
 62
               4
100
AcDbLine
 10
-34.024993896484375
 20
55.521137695312504
 30
0.0
 11
-24.024993896484375
 21
55.521137695312504
 31
0.0
  0
LINE
  5
B7
100
AcDbEntity
  8
0
  6
CONTINUOUS
 62
               4
100
AcDbLine
 10
-24.024993896484375
 20
56.691137695312499
 30
0.0
 11
-19.224993896484374
 21
56.691137695312499
 31
0.0
  0
LINE
  5
B8
100
AcDbEntity
  8
0
  6
CONTINUOUS
 62
               4
100
AcDbLine
 10
-24.024993896484375
 20
54.991137695312503
 30
0.0
 11
-19.674993896484374
 21
54.991137695312503
 31
0.0
  0
ARC
  5
B9
100
AcDbEntity
  8
0
  6
CONTINUOUS
 62
               4
100
AcDbCircle
 10
-76.72500305175781
 20
-16.501983642578125
 30
0.0
 40
1.7000000000000135
100
AcDbArc
 50
89.999999999999801
 51
269.99999999999937
  0
ARC
  5
BA
100
AcDbEntity
  8
0
  6
CONTINUOUS
 62
               4
100
AcDbCircle
 10
-70.930003051757808
 20
-12.00201416015814
 30
0.0
 40
6.0004977211347637
100
AcDbArc
 50
71.791606583946361
 51
108.20839341605326
  0
ARC
  5
BB
100
AcDbEntity
  8
0
  6
CONTINUOUS
 62
               4
100
AcDbCircle
 10
-79.925003051757813
 20
-12.00201416015625
 30
0.0
 40
5.9980362916874794
100
AcDbArc
 50
67.968098905336589
 51
112.03190109466301
  0
CIRCLE
  5
BC
100
AcDbEntity
  8
0
  6
CONTINUOUS
 62
               4
100
AcDbCircle
 10
-74.125
 20
-16.501983642578125
 30
0.0
 40
0.8499999642372131
  0
CIRCLE
  5
BD
100
AcDbEntity
  8
0
  6
CONTINUOUS
 62
               4
100
AcDbCircle
 10
-76.725006103515625
 20
-16.501983642578125
 30
0.0
 40
0.8499999642372131
  0
ARC
  5
BE
100
AcDbEntity
  8
0
  6
CONTINUOUS
 62
               4
100
AcDbCircle
 10
-74.125003051757815
 20
-16.501983642578125
 30
0.0
 40
1.700000000000174
100
AcDbArc
 50
269.99999999999937
 51
89.999999999999801
  0
CIRCLE
  5
BF
100
AcDbEntity
  8
0
  6
CONTINUOUS
 62
               2
100
AcDbCircle
 10
-75.425003051757813
 20
-46.501983642578125
 30
0.0
 40
2.5
  0
CIRCLE
  5
C0
100
AcDbEntity
  8
0
  6
CONTINUOUS
 62
               7
100
AcDbCircle
 10
-75.425003051757813
 20
-46.501983642578125
 30
0.0
 40
1.75
  0
CIRCLE
  5
C1
100
AcDbEntity
  8
0
  6
CONTINUOUS
 62
               2
100
AcDbCircle
 10
-75.425003051757813
 20
-34.501983642578125
 30
0.0
 40
2.5
  0
CIRCLE
  5
C2
100
AcDbEntity
  8
0
  6
CONTINUOUS
 62
               7
100
AcDbCircle
 10
-75.425003051757813
 20
-34.501983642578125
 30
0.0
 40
1.75
  0
LINE
  5
C3
100
AcDbEntity
  8
0
  6
CONTINUOUS
 62
               4
100
AcDbLine
 10
-76.72500305175781
 20
-18.201983642578128
 30
0.0
 11
-74.125003051757815
 21
-18.201983642578128
 31
0.0
  0
LINE
  5
C4
100
AcDbEntity
  8
0
  6
CONTINUOUS
 62
               4
100
AcDbLine
 10
-76.72500305175781
 20
-14.801983642578122
 30
0.0
 11
-74.125003051757815
 21
-14.801983642578122
 31
0.0
  0
LINE
  5
C5
100
AcDbEntity
  8
0
  6
CONTINUOUS
 62
               4
100
AcDbLine
 10
-81.955003051757814
 20
-6.3619836425781244
 30
0.0
 11
-81.925003051757813
 21
-6.3019836425781222
 31
0.0
  0
LINE
  5
C6
100
AcDbEntity
  8
0
  6
CONTINUOUS
 62
               4
100
AcDbLine
 10
-76.925003051757812
 20
-6.3019836425781222
 30
0.0
 11
-76.925003051757812
 21
-8.3019836425781222
 31
0.0
  0
LINE
  5
C7
100
AcDbEntity
  8
0
  6
CONTINUOUS
 62
               4
100
AcDbLine
 10
-77.675003051757813
 20
-6.4419836425781227
 30
0.0
 11
-77.675003051757813
 21
-7.7019836425781278
 31
0.0
  0
LINE
  5
C8
100
AcDbEntity
  8
0
  6
CONTINUOUS
 62
               4
100
AcDbLine
 10
-77.375003051757815
 20
-7.7019836425781278
 30
0.0
 11
-77.375003051757815
 21
-8.3019836425781222
 31
0.0
  0
LINE
  5
C9
100
AcDbEntity
  8
0
  6
CONTINUOUS
 62
               4
100
AcDbLine
 10
-78.055003051757808
 20
-6.3019836425781222
 30
0.0
 11
-68.925003051757812
 21
-6.3019836425781222
 31
0.0
  0
LINE
  5
CA
100
AcDbEntity
  8
0
  6
CONTINUOUS
 62
               4
100
AcDbLine
 10
-82.175003051757813
 20
-6.4419836425781227
 30
0.0
 11
-82.175003051757813
 21
-7.7019836425781278
 31
0.0
  0
LINE
  5
CB
100
AcDbEntity
  8
0
  6
CONTINUOUS
 62
               4
100
AcDbLine
 10
-82.47500305175781
 20
-7.7019836425781278
 30
0.0
 11
-82.47500305175781
 21
-8.3019836425781222
 31
0.0
  0
LINE
  5
CC
100
AcDbEntity
  8
0
  6
CONTINUOUS
 62
               4
100
AcDbLine
 10
-77.375003051757815
 20
-7.7019836425781278
 30
0.0
 11
-82.47500305175781
 21
-7.7019836425781278
 31
0.0
  0
LINE
  5
CD
100
AcDbEntity
  8
0
  6
CONTINUOUS
 62
               4
100
AcDbLine
 10
-82.925003051757813
 20
-8.3019836425781222
 30
0.0
 11
-82.175003051757813
 21
-6.8019836425781222
 31
0.0
  0
LINE
  5
CE
100
AcDbEntity
  8
0
  6
CONTINUOUS
 62
               4
100
AcDbLine
 10
-67.925003051757812
 20
-8.3019836425781222
 30
0.0
 11
-68.925003051757812
 21
-6.3019836425781222
 31
0.0
  0
LINE
  5
CF
100
AcDbEntity
  8
0
  6
CONTINUOUS
 62
               4
100
AcDbLine
 10
-81.925003051757813
 20
-6.3019836425781222
 30
0.0
 11
-81.805003051757808
 21
-6.3019836425781222
 31
0.0
  0
LINE
  5
D0
100
AcDbEntity
  8
0
  6
CONTINUOUS
 62
               4
100
AcDbLine
 10
-82.925003051757813
 20
-8.3019836425781222
 30
0.0
 11
-67.925003051757812
 21
-8.3019836425781222
 31
0.0
  0
LINE
  5
D1
100
AcDbEntity
  8
0
  6
CONTINUOUS
 62
               4
100
AcDbLine
 10
-67.925003051757812
 20
-8.3019836425781222
 30
0.0
 11
-67.925003051757812
 21
-30.001983642578125
 31
0.0
  0
LINE
  5
D2
100
AcDbEntity
  8
0
  6
CONTINUOUS
 62
               4
100
AcDbLine
 10
-82.925003051757813
 20
-9.3019836425781222
 30
0.0
 11
-67.925003051757812
 21
-9.3019836425781222
 31
0.0
  0
LINE
  5
D3
100
AcDbEntity
  8
0
  6
CONTINUOUS
 62
               4
100
AcDbLine
 10
-82.925003051757813
 20
-8.3019836425781222
 30
0.0
 11
-82.925003051757813
 21
-30.001983642578125
 31
0.0
  0
LINE
  5
D4
100
AcDbEntity
  8
0
  6
CENTER
 62
               2
100
AcDbLine
 10
-79.425003051757813
 20
-46.501983642578125
 30
0.0
 11
-71.425003051757813
 21
-46.501983642578125
 31
0.0
  0
LINE
  5
D5
100
AcDbEntity
  8
0
  6
CENTER
 62
               2
100
AcDbLine
 10
-79.425003051757813
 20
-34.501983642578125
 30
0.0
 11
-71.425003051757813
 21
-34.501983642578125
 31
0.0
  0
LINE
  5
D6
100
AcDbEntity
  8
0
  6
CONTINUOUS
 62
               7
100
AcDbLine
 10
-82.925003051757813
 20
-30.001983642578125
 30
0.0
 11
-67.925003051757812
 21
-30.001983642578125
 31
0.0
  0
LINE
  5
D7
100
AcDbEntity
  8
0
  6
CONTINUOUS
 62
               7
100
AcDbLine
 10
-82.925003051757813
 20
-52.001983642578125
 30
0.0
 11
-67.925003051757812
 21
-52.001983642578125
 31
0.0
  0
LINE
  5
D8
100
AcDbEntity
  8
0
  6
CONTINUOUS
 62
               7
100
AcDbLine
 10
-67.925003051757812
 20
-30.001983642578125
 30
0.0
 11
-67.925003051757812
 21
-54.501983642578125
 31
0.0
  0
LINE
  5
D9
100
AcDbEntity
  8
0
  6
CONTINUOUS
 62
               7
100
AcDbLine
 10
-82.925003051757813
 20
-30.001983642578125
 30
0.0
 11
-82.925003051757813
 21
-54.501983642578125
 31
0.0
  0
ARC
  5
DA
100
AcDbEntity
  8
0
  6
CONTINUOUS
 62
               4
100
AcDbCircle
 10
54.325027465820312
 20
-12.001998901367188
 30
0.0
 40
5.9980221471721187
100
AcDbArc
 50
67.968044227910056
 51
112.03195577208955
  0
ARC
  5
DB
100
AcDbEntity
  8
0
  6
CONTINUOUS
 62
               4
100
AcDbCircle
 10
63.320027465820317
 20
-12.00201416015814
 30
0.0
 40
6.0004977211347637
100
AcDbArc
 50
71.791606583946361
 51
108.20839341605326
  0
CIRCLE
  5
DC
100
AcDbEntity
  8
0
  6
CONTINUOUS
 62
               7
100
AcDbCircle
 10
64.325027465820313
 20
-43.501983642578125
 30
0.0
 40
2.25
  0
CIRCLE
  5
DD
100
AcDbEntity
  8
0
  6
CONTINUOUS
 62
               7
100
AcDbCircle
 10
53.325027465820313
 20
-43.501983642578125
 30
0.0
 40
2.25
  0
CIRCLE
  5
DE
100
AcDbEntity
  8
0
  6
CONTINUOUS
 62
               2
100
AcDbCircle
 10
58.825027465820312
 20
-46.501983642578125
 30
0.0
 40
2.5
  0
CIRCLE
  5
DF
100
AcDbEntity
  8
0
  6
CONTINUOUS
 62
               7
100
AcDbCircle
 10
58.825027465820312
 20
-46.501983642578125
 30
0.0
 40
1.75
  0
ARC
  5
E0
100
AcDbEntity
  8
0
  6
CONTINUOUS
 62
               7
100
AcDbCircle
 10
53.325030326843262
 20
-43.506983642578128
 30
0.0
 40
2.7007844127401186
100
AcDbArc
 50
222.22370172225794
 51
137.77629827774123
  0
ARC
  5
E1
100
AcDbEntity
  8
0
  6
CONTINUOUS
 62
               7
100
AcDbCircle
 10
64.32501220703125
 20
-43.506983642578128
 30
0.0
 40
2.700793593629303
100
AcDbArc
 50
42.223524971458637
 51
317.77647502854052
  0
CIRCLE
  5
E2
100
AcDbEntity
  8
0
  6
CONTINUOUS
 62
               7
100
AcDbCircle
 10
58.825027465820312
 20
-38.001983642578125
 30
0.0
 40
1.5
  0
LINE
  5
E3
100
AcDbEntity
  8
0
  6
CONTINUOUS
 62
               4
100
AcDbLine
 10
52.295027465820311
 20
-6.3619836425781244
 30
0.0
 11
52.325027465820313
 21
-6.3019836425781222
 31
0.0
  0
LINE
  5
E4
100
AcDbEntity
  8
0
  6
CONTINUOUS
 62
               4
100
AcDbLine
 10
51.775027465820315
 20
-7.7019836425781278
 30
0.0
 11
51.775027465820315
 21
-8.3019836425781222
 31
0.0
  0
LINE
  5
E5
100
AcDbEntity
  8
0
  6
CONTINUOUS
 62
               4
100
AcDbLine
 10
56.87502746582031
 20
-7.7019836425781278
 30
0.0
 11
56.87502746582031
 21
-8.3019836425781222
 31
0.0
  0
LINE
  5
E6
100
AcDbEntity
  8
0
  6
CONTINUOUS
 62
               4
100
AcDbLine
 10
56.87502746582031
 20
-7.7019836425781278
 30
0.0
 11
51.775027465820315
 21
-7.7019836425781278
 31
0.0
  0
LINE
  5
E7
100
AcDbEntity
  8
0
  6
CONTINUOUS
 62
               4
100
AcDbLine
 10
51.325027465820313
 20
-9.3019836425781222
 30
0.0
 11
66.325027465820312
 21
-9.3019836425781222
 31
0.0
  0
LINE
  5
E8
100
AcDbEntity
  8
0
  6
CONTINUOUS
 62
               4
100
AcDbLine
 10
51.325027465820313
 20
-8.3019836425781222
 30
0.0
 11
66.325027465820312
 21
-8.3019836425781222
 31
0.0
  0
LINE
  5
E9
100
AcDbEntity
  8
0
  6
CONTINUOUS
 62
               4
100
AcDbLine
 10
66.325027465820312
 20
-8.3019836425781222
 30
0.0
 11
65.325027465820313
 21
-6.3019836425781222
 31
0.0
  0
LINE
  5
EA
100
AcDbEntity
  8
0
  6
CONTINUOUS
 62
               4
100
AcDbLine
 10
56.145027465820313
 20
-6.3019836425781222
 30
0.0
 11
65.325027465820313
 21
-6.3019836425781222
 31
0.0
  0
LINE
  5
EB
100
AcDbEntity
  8
0
  6
CONTINUOUS
 62
               4
100
AcDbLine
 10
56.575027465820312
 20
-6.4419836425781227
 30
0.0
 11
56.575027465820312
 21
-7.7019836425781278
 31
0.0
  0
LINE
  5
EC
100
AcDbEntity
  8
0
  6
CONTINUOUS
 62
               4
100
AcDbLine
 10
52.325027465820313
 20
-6.3019836425781222
 30
0.0
 11
52.44502746582031
 21
-6.3019836425781222
 31
0.0
  0
LINE
  5
ED
100
AcDbEntity
  8
0
  6
CONTINUOUS
 62
               4
100
AcDbLine
 10
52.075027465820312
 20
-6.4419836425781227
 30
0.0
 11
52.075027465820312
 21
-7.7019836425781278
 31
0.0
  0
LINE
  5
EE
100
AcDbEntity
  8
0
  6
CONTINUOUS
 62
               4
100
AcDbLine
 10
51.325027465820313
 20
-8.3019836425781222
 30
0.0
 11
52.075027465820312
 21
-6.8019836425781222
 31
0.0
  0
LINE
  5
EF
100
AcDbEntity
  8
0
  6
CONTINUOUS
 62
               4
100
AcDbLine
 10
57.325027465820313
 20
-6.3019836425781222
 30
0.0
 11
57.325027465820313
 21
-8.3019836425781222
 31
0.0
  0
LINE
  5
F0
100
AcDbEntity
  8
0
  6
CONTINUOUS
 62
               4
100
AcDbLine
 10
66.325027465820312
 20
-8.3019836425781222
 30
0.0
 11
66.325027465820312
 21
-34.501983642578125
 31
0.0
  0
LINE
  5
F1
100
AcDbEntity
  8
0
  6
CONTINUOUS
 62
               4
100
AcDbLine
 10
51.325027465820313
 20
-8.3019836425781222
 30
0.0
 11
51.325027465820313
 21
-34.501983642578125
 31
0.0
  0
LINE
  5
F2
100
AcDbEntity
  8
0
  6
CONTINUOUS
 62
               7
100
AcDbLine
 10
66.325027465820312
 20
-44.541983642578124
 30
0.0
 11
66.325027465820312
 21
-54.501983642578125
 31
0.0
  0
LINE
  5
F3
100
AcDbEntity
  8
0
  6
CONTINUOUS
 62
               7
100
AcDbLine
 10
51.325027465820313
 20
-44.541983642578124
 30
0.0
 11
51.325027465820313
 21
-54.501983642578125
 31
0.0
  0
LINE
  5
F4
100
AcDbEntity
  8
0
  6
CONTINUOUS
 62
               7
100
AcDbLine
 10
63.405027465820311
 20
-44.421983642578127
 30
0.0
 11
65.235027465820309
 21
-42.591983642578128
 31
0.0
  0
LINE
  5
F5
100
AcDbEntity
  8
0
  6
CONTINUOUS
 62
               7
100
AcDbLine
 10
63.405027465820311
 20
-42.591983642578128
 30
0.0
 11
65.235027465820309
 21
-44.421983642578127
 31
0.0
  0
LINE
  5
F6
100
AcDbEntity
  8
0
  6
CONTINUOUS
 62
               7
100
AcDbLine
 10
52.405027465820311
 20
-44.421983642578127
 30
0.0
 11
54.235027465820309
 21
-42.591983642578128
 31
0.0
  0
LINE
  5
F7
100
AcDbEntity
  8
0
  6
CONTINUOUS
 62
               7
100
AcDbLine
 10
52.405027465820311
 20
-42.591983642578128
 30
0.0
 11
54.235027465820309
 21
-44.421983642578127
 31
0.0
  0
LINE
  5
F8
100
AcDbEntity
  8
0
  6
CONTINUOUS
 62
               7
100
AcDbLine
 10
51.325027465820313
 20
-34.501983642578125
 30
0.0
 11
66.325027465820312
 21
-34.501983642578125
 31
0.0
  0
LINE
  5
F9
100
AcDbEntity
  8
0
  6
CENTER
 62
               2
100
AcDbLine
 10
55.325027465820313
 20
-46.501983642578125
 30
0.0
 11
62.325027465820312
 21
-46.501983642578125
 31
0.0
  0
LINE
  5
FA
100
AcDbEntity
  8
0
  6
CENTER
 62
               2
100
AcDbLine
 10
56.325027465820313
 20
-38.001983642578125
 30
0.0
 11
61.325027465820313
 21
-38.001983642578125
 31
0.0
  0
LINE
  5
FB
100
AcDbEntity
  8
0
  6
CONTINUOUS
 62
               7
100
AcDbLine
 10
51.325027465820313
 20
-34.501983642578125
 30
0.0
 11
51.325027465820313
 21
-42.471983642578124
 31
0.0
  0
LINE
  5
FC
100
AcDbEntity
  8
0
  6
CONTINUOUS
 62
               7
100
AcDbLine
 10
66.325027465820312
 20
-34.501983642578125
 30
0.0
 11
66.325027465820312
 21
-42.471983642578124
 31
0.0
  0
LINE
  5
FD
100
AcDbEntity
  8
0
  6
CONTINUOUS
 62
               7
100
AcDbLine
 10
51.325027465820313
 20
-52.001983642578125
 30
0.0
 11
66.325027465820312
 21
-52.001983642578125
 31
0.0
  0
ARC
  5
FE
100
AcDbEntity
  8
0
  6
CONTINUOUS
 62
               4
100
AcDbCircle
 10
-9.0199938964843742
 20
-12.00201416015625
 30
0.0
 40
6.0004977211329713
100
AcDbArc
 50
71.79160658394072
 51
108.20839341605888
  0
ARC
  5
FF
100
AcDbEntity
  8
0
  6
CONTINUOUS
 62
               4
100
AcDbCircle
 10
8.975006103515625
 20
-12.001968383789063
 30
0.0
 40
5.9979938581577832
100
AcDbArc
 50
67.967934872283365
 51
112.03206512771625
  0
ARC
  5
100
100
AcDbEntity
  8
0
  6
CONTINUOUS
 62
               7
100
AcDbCircle
 10
5.2750062942504865
 20
-43.506983642578128
 30
0.0
 40
5.9915209105708636
100
AcDbArc
 50
342.36644367949475
 51
17.633556320504443
  0
LINE
  5
101
100
AcDbEntity
  8
0
  6
CONTINUOUS
 62
               4
100
AcDbLine
 10
10.845006103515624
 20
-6.3019836425781222
 30
0.0
 11
10.975006103515625
 21
-6.3019836425781222
 31
0.0
  0
LINE
  5
102
100
AcDbEntity
  8
0
  6
CONTINUOUS
 62
               4
100
AcDbLine
 10
-11.024993896484375
 20
-6.3019836425781222
 30
0.0
 11
7.0950061035156251
 21
-6.3019836425781222
 31
0.0
  0
LINE
  5
103
100
AcDbEntity
  8
0
  6
CONTINUOUS
 62
               4
100
AcDbLine
 10
-14.024993896484375
 20
-14.801983642578122
 30
0.0
 11
-12.024993896484375
 21
-14.801983642578122
 31
0.0
  0
LINE
  5
104
100
AcDbEntity
  8
0
  6
CONTINUOUS
 62
               4
100
AcDbLine
 10
-14.024993896484375
 20
-14.801983642578122
 30
0.0
 11
-14.024993896484375
 21
-18.201983642578128
 31
0.0
  0
LINE
  5
105
100
AcDbEntity
  8
0
  6
CONTINUOUS
 62
               4
100
AcDbLine
 10
-14.024993896484375
 20
-18.201983642578128
 30
0.0
 11
-12.024993896484375
 21
-18.201983642578128
 31
0.0
  0
LINE
  5
106
100
AcDbEntity
  8
0
  6
CONTINUOUS
 62
               4
100
AcDbLine
 10
10.995006103515625
 20
-6.3619836425781244
 30
0.0
 11
10.975006103515625
 21
-6.3019836425781222
 31
0.0
  0
LINE
  5
107
100
AcDbEntity
  8
0
  6
CONTINUOUS
 62
               4
100
AcDbLine
 10
-18.474993896484374
 20
-17.351983642578126
 30
0.0
 11
-14.024993896484375
 21
-17.351983642578126
 31
0.0
  0
LINE
  5
108
100
AcDbEntity
  8
0
  6
CONTINUOUS
 62
               4
100
AcDbLine
 10
-18.014993896484373
 20
-15.651983642578124
 30
0.0
 11
-14.024993896484375
 21
-15.651983642578124
 31
0.0
  0
LINE
  5
109
100
AcDbEntity
  8
0
  6
CONTINUOUS
 62
             200
100
AcDbLine
 10
-19.004993896484375
 20
-19.351983642578126
 30
0.0
 11
-17.484993896484376
 21
-13.651983642578124
 31
0.0
  0
LINE
  5
10A
100
AcDbEntity
  8
0
  6
CONTINUOUS
 62
             200
100
AcDbLine
 10
-20.564993896484374
 20
-19.351983642578126
 30
0.0
 11
-19.034993896484377
 21
-13.651983642578124
 31
0.0
  0
LINE
  5
10B
100
AcDbEntity
  8
0
  6
CONTINUOUS
 62
               4
100
AcDbLine
 10
-34.024993896484375
 20
-16.181983642578125
 30
0.0
 11
-34.024993896484375
 21
-16.821983642578125
 31
0.0
  0
LINE
  5
10C
100
AcDbEntity
  8
0
  6
CONTINUOUS
 62
               4
100
AcDbLine
 10
-24.024993896484375
 20
-15.651983642578124
 30
0.0
 11
-24.024993896484375
 21
-17.351983642578126
 31
0.0
  0
LINE
  5
10D
100
AcDbEntity
  8
0
  6
CONTINUOUS
 62
               4
100
AcDbLine
 10
-34.024993896484375
 20
-16.181983642578125
 30
0.0
 11
-24.024993896484375
 21
-16.181983642578125
 31
0.0
  0
LINE
  5
10E
100
AcDbEntity
  8
0
  6
CONTINUOUS
 62
               4
100
AcDbLine
 10
-34.024993896484375
 20
-16.821983642578125
 30
0.0
 11
-24.024993896484375
 21
-16.821983642578125
 31
0.0
  0
LINE
  5
10F
100
AcDbEntity
  8
0
  6
CONTINUOUS
 62
               4
100
AcDbLine
 10
-24.024993896484375
 20
-15.651983642578124
 30
0.0
 11
-19.564993896484374
 21
-15.651983642578124
 31
0.0
  0
LINE
  5
110
100
AcDbEntity
  8
0
  6
CONTINUOUS
 62
               4
100
AcDbLine
 10
-24.024993896484375
 20
-17.351983642578126
 30
0.0
 11
-20.024993896484375
 21
-17.351983642578126
 31
0.0
  0
LINE
  5
111
100
AcDbEntity
  8
0
  6
CONTINUOUS
 62
               4
100
AcDbLine
 10
6.725006103515625
 20
-6.4419836425781227
 30
0.0
 11
6.725006103515625
 21
-7.7019836425781278
 31
0.0
  0
LINE
  5
112
100
AcDbEntity
  8
0
  6
CONTINUOUS
 62
               4
100
AcDbLine
 10
11.225006103515625
 20
-6.4419836425781227
 30
0.0
 11
11.225006103515625
 21
-7.7019836425781278
 31
0.0
  0
LINE
  5
113
100
AcDbEntity
  8
0
  6
CONTINUOUS
 62
               4
100
AcDbLine
 10
6.4250061035156252
 20
-7.7019836425781278
 30
0.0
 11
6.4250061035156252
 21
-8.3019836425781222
 31
0.0
  0
LINE
  5
114
100
AcDbEntity
  8
0
  6
CONTINUOUS
 62
               4
100
AcDbLine
 10
11.525006103515626
 20
-7.7019836425781278
 30
0.0
 11
11.525006103515626
 21
-8.3019836425781222
 31
0.0
  0
LINE
  5
115
100
AcDbEntity
  8
0
  6
CONTINUOUS
 62
               4
100
AcDbLine
 10
11.525006103515626
 20
-7.7019836425781278
 30
0.0
 11
6.4250061035156252
 21
-7.7019836425781278
 31
0.0
  0
LINE
  5
116
100
AcDbEntity
  8
0
  6
CONTINUOUS
 62
               4
100
AcDbLine
 10
5.975006103515625
 20
-6.3019836425781222
 30
0.0
 11
5.975006103515625
 21
-8.3019836425781222
 31
0.0
  0
LINE
  5
117
100
AcDbEntity
  8
0
  6
CONTINUOUS
 62
               4
100
AcDbLine
 10
11.975006103515625
 20
-8.3019836425781222
 30
0.0
 11
11.225006103515625
 21
-6.8019836425781222
 31
0.0
  0
LINE
  5
118
100
AcDbEntity
  8
0
  6
CONTINUOUS
 62
               4
100
AcDbLine
 10
-12.024993896484375
 20
-8.3019836425781222
 30
0.0
 11
-11.024993896484375
 21
-6.3019836425781222
 31
0.0
  0
LINE
  5
119
100
AcDbEntity
  8
0
  6
CONTINUOUS
 62
               4
100
AcDbLine
 10
11.975006103515625
 20
-8.3019836425781222
 30
0.0
 11
-12.024993896484375
 21
-8.3019836425781222
 31
0.0
  0
LINE
  5
11A
100
AcDbEntity
  8
0
  6
CONTINUOUS
 62
               4
100
AcDbLine
 10
-12.024993896484375
 20
-8.3019836425781222
 30
0.0
 11
-12.024993896484375
 21
-34.501983642578125
 31
0.0
  0
LINE
  5
11B
100
AcDbEntity
  8
0
  6
CONTINUOUS
 62
               4
100
AcDbLine
 10
11.975006103515625
 20
-8.3019836425781222
 30
0.0
 11
11.975006103515625
 21
-34.501983642578125
 31
0.0
  0
LINE
  5
11C
100
AcDbEntity
  8
0
  6
CONTINUOUS
 62
               4
100
AcDbLine
 10
11.975006103515625
 20
-9.3019836425781222
 30
0.0
 11
-12.024993896484375
 21
-9.3019836425781222
 31
0.0
  0
LINE
  5
11D
100
AcDbEntity
  8
0
  6
CONTINUOUS
 62
               7
100
AcDbLine
 10
-13.024993896484375
 20
-51.501983642578125
 30
0.0
 11
-12.024993896484375
 21
-51.501983642578125
 31
0.0
  0
LINE
  5
11E
100
AcDbEntity
  8
0
  6
CONTINUOUS
 62
               7
100
AcDbLine
 10
-13.024993896484375
 20
-36.501983642578125
 30
0.0
 11
-12.024993896484375
 21
-36.501983642578125
 31
0.0
  0
LINE
  5
11F
100
AcDbEntity
  8
0
  6
CONTINUOUS
 62
               7
100
AcDbLine
 10
9.5750061035156246
 20
-41.691983642578123
 30
0.0
 11
9.5750061035156246
 21
-45.321983642578125
 31
0.0
  0
LINE
  5
120
100
AcDbEntity
  8
0
  6
CONTINUOUS
 62
               7
100
AcDbLine
 10
-12.024993896484375
 20
-34.501983642578125
 30
0.0
 11
11.975006103515625
 21
-34.501983642578125
 31
0.0
  0
LINE
  5
121
100
AcDbEntity
  8
0
  6
CONTINUOUS
 62
               7
100
AcDbLine
 10
-12.024993896484375
 20
-52.001983642578125
 30
0.0
 11
11.975006103515625
 21
-52.001983642578125
 31
0.0
  0
LINE
  5
122
100
AcDbEntity
  8
0
  6
CONTINUOUS
 62
               7
100
AcDbLine
 10
8.975006103515625
 20
-41.691983642578123
 30
0.0
 11
8.975006103515625
 21
-45.321983642578125
 31
0.0
  0
LINE
  5
123
100
AcDbEntity
  8
0
  6
CONTINUOUS
 62
               7
100
AcDbLine
 10
8.975006103515625
 20
-41.691983642578123
 30
0.0
 11
11.975006103515625
 21
-41.691983642578123
 31
0.0
  0
LINE
  5
124
100
AcDbEntity
  8
0
  6
CONTINUOUS
 62
               7
100
AcDbLine
 10
8.975006103515625
 20
-45.321983642578125
 30
0.0
 11
11.975006103515625
 21
-45.321983642578125
 31
0.0
  0
LINE
  5
125
100
AcDbEntity
  8
0
  6
CONTINUOUS
 62
               7
100
AcDbLine
 10
-21.024993896484375
 20
-30.001983642578125
 30
0.0
 11
-13.024993896484375
 21
-30.001983642578125
 31
0.0
  0
LINE
  5
126
100
AcDbEntity
  8
0
  6
CONTINUOUS
 62
               7
100
AcDbLine
 10
-21.024993896484375
 20
-52.001983642578125
 30
0.0
 11
-13.024993896484375
 21
-52.001983642578125
 31
0.0
  0
LINE
  5
127
100
AcDbEntity
  8
0
  6
CONTINUOUS
 62
               7
100
AcDbLine
 10
-13.024993896484375
 20
-30.001983642578125
 30
0.0
 11
-13.024993896484375
 21
-52.001983642578125
 31
0.0
  0
LINE
  5
128
100
AcDbEntity
  8
0
  6
CONTINUOUS
 62
               7
100
AcDbLine
 10
-21.024993896484375
 20
-30.001983642578125
 30
0.0
 11
-21.024993896484375
 21
-52.001983642578125
 31
0.0
  0
LINE
  5
129
100
AcDbEntity
  8
0
  6
CONTINUOUS
 62
               7
100
AcDbLine
 10
-12.024993896484375
 20
-34.501983642578125
 30
0.0
 11
-12.024993896484375
 21
-54.501983642578125
 31
0.0
  0
LINE
  5
12A
100
AcDbEntity
  8
0
  6
CONTINUOUS
 62
               7
100
AcDbLine
 10
11.975006103515625
 20
-34.501983642578125
 30
0.0
 11
11.975006103515625
 21
-54.501983642578125
 31
0.0
  0
LINE
  5
12B
100
AcDbEntity
  8
0
  6
CONTINUOUS
 62
               7
100
AcDbLine
 10
-138.40000000000001
 20
94.5
 30
0.0
 11
138.34999999999999
 21
94.5
 31
0.0
  0
LINE
  5
12C
100
AcDbEntity
  8
0
  6
CONTINUOUS
 62
               7
100
AcDbLine
 10
138.34999999999999
 20
94.5
 30
0.0
 11
138.34999999999999
 21
-94.799999999999997
 31
0.0
  0
LINE
  5
12D
100
AcDbEntity
  8
0
  6
CONTINUOUS
 62
               7
100
AcDbLine
 10
-138.40000000000001
 20
-94.799999999999997
 30
0.0
 11
138.34999999999999
 21
-94.799999999999997
 31
0.0
  0
LINE
  5
12E
100
AcDbEntity
  8
0
  6
CONTINUOUS
 62
               7
100
AcDbLine
 10
-138.40000000000001
 20
94.5
 30
0.0
 11
-138.40000000000001
 21
-94.799999999999997
 31
0.0
  0
LINE
  5
12F
100
AcDbEntity
  8
0
  6
CONTINUOUS
 62
               7
100
AcDbLine
 10
73.349999999999994
 20
-84.799999999999997
 30
0.0
 11
138.34999999999999
 21
-84.799999999999997
 31
0.0
  0
LINE
  5
130
100
AcDbEntity
  8
0
  6
CONTINUOUS
 62
               7
100
AcDbLine
 10
-138.40000000000001
 20
84.5
 30
0.0
 11
-73.400000000000006
 21
84.5
 31
0.0
  0
LINE
  5
131
100
AcDbEntity
  8
0
  6
CONTINUOUS
 62
               7
100
AcDbLine
 10
73.349999999999994
 20
84.5
 30
0.0
 11
138.34999999999999
 21
84.5
 31
0.0
  0
LINE
  5
132
100
AcDbEntity
  8
0
  6
CONTINUOUS
 62
               7
100
AcDbLine
 10
73.349999999999994
 20
-84.799999999999997
 30
0.0
 11
73.349999999999994
 21
-94.799999999999997
 31
0.0
  0
LINE
  5
133
100
AcDbEntity
  8
0
  6
CONTINUOUS
 62
               7
100
AcDbLine
 10
73.349999999999994
 20
94.5
 30
0.0
 11
73.349999999999994
 21
84.5
 31
0.0
  0
LINE
  5
134
100
AcDbEntity
  8
0
  6
CONTINUOUS
 62
               7
100
AcDbLine
 10
-73.400000000000006
 20
94.5
 30
0.0
 11
-73.400000000000006
 21
84.5
 31
0.0
  0
MTEXT
  5
135
100
AcDbEntity
  8
0
  6
CONTINUOUS
 62
               7
100
AcDbMText
 10
77.440523342735503
 20
-89.800003051757812
 30
0.0
 40
4.5
 41
0.0
 71
               4
 72
               1
  1
\W1.121;\A1;KOGANEI CORP.
  7
MX_NOTE_STANDARD
  0
MTEXT
  5
136
100
AcDbEntity
  8
0
  6
CONTINUOUS
 62
               7
100
AcDbMText
 10
93.74946397608629
 20
89.5
 30
0.0
 40
3.1999998092651367
 41
0.0
 71
               4
 72
               1
  1
\W1.311;\A1;Ver. 1.0
  7
MX_NOTE_STANDARD
  0
MTEXT
  5
137
100
AcDbEntity
  8
0
  6
CONTINUOUS
 62
               7
100
AcDbMText
 10
-126.11898107804899
 20
93.099999904632568
 30
0.0
 40
3.1999998092651367
 41
0.0
 71
               1
 72
               1
  1
\W1.089;\A1;CS-030 SERIES
  7
MX_NOTE_STANDARD
  0
MTEXT
  5
138
100
AcDbEntity
  8
0
  6
CONTINUOUS
 62
               7
100
AcDbMText
 10
-127.81462807729086
 20
74.5
 30
0.0
 40
3.1999998092651367
 41
0.0
 71
               4
 72
               1
  1
\W1.098;\A1;MODEL:CS-030-21
  7
MX_NOTE_STANDARD
  0
MTEXT
  5
139
100
AcDbEntity
  8
0
  6
CONTINUOUS
 62
               7
100
AcDbMText
 10
-107.29122514715925
 20
64.5
 30
0.0
 40
3.1999998092651367
 41
0.0
 71
               4
 72
               1
  1
\W1.053;\A1;(VALVE:CS-V030E1-24)
  7
MX_NOTE_STANDARD
  0
MTEXT
  5
13A
100
AcDbEntity
  8
0
  6
CONTINUOUS
 62
               7
100
AcDbMText
 10
-107.24980839729989
 20
69.5
 30
0.0
 40
3.1999998092651367
 41
0.0
 71
               4
 72
               1
  1
\W1.075;\A1;(VALVE:CS-030E1-24)
  7
MX_NOTE_STANDARD
  0
MTEXT
  5
13B
100
AcDbEntity
  8
0
  6
CONTINUOUS
 62
               7
100
AcDbMText
 10
-111.76666021347046
 20
87.5
 30
0.0
 40
3.1999998092651367
 41
0.0
 71
               4
 72
               1
  1
\A1;BASE
  7
MX_NOTE_STANDARD
  0
ENDSEC
  0
SECTION
  2
OBJECTS
  0
DICTIONARY
  5
19
100
AcDbDictionary
  3
ACAD_GROUP
350
1A
  3
ACAD_MLINESTYLE
350
1B
  0
DICTIONARY
  5
1A
102
{ACAD_REACTORS
330
19
102
}
100
AcDbDictionary
  0
DICTIONARY
  5
1B
102
{ACAD_REACTORS
330
19
102
}
100
AcDbDictionary
  3
STANDARD
350
1C
  0
MLINESTYLE
  5
1C
102
{ACAD_REACTORS
330
1B
102
}
100
AcDbMlineStyle
  2
Standard
 70
               0
  3

 62
               0
 51
90.0
 52
90.0
 71
               2
 49
0.5
 62
             256
  6
ByLayer
 49
-0.5
 62
             256
  6
ByLayer
  0
ENDSEC
  0
EOF
