  0
SECTION
  2
HEADER
  9
$ACADVER
  1
AC1012
  9
$DWGCODEPAGE
  3
dos932
  9
$INSBASE
 10
0.0
 20
0.0
 30
0.0
  9
$EXTMIN
 10
-399.25
 20
-276.75
 30
0.0
  9
$EXTMAX
 10
406.04981708526611
 20
276.25
 30
0.0
  9
$LIMMIN
 10
-399.25
 20
-276.75
  9
$LIMMAX
 10
406.04981708526611
 20
276.25
  9
$ORTHOMODE
 70
               0
  9
$REGENMODE
 70
               1
  9
$FILLMODE
 70
               1
  9
$QTEXTMODE
 70
               0
  9
$MIRRTEXT
 70
               1
  9
$DRAGMODE
 70
               2
  9
$LTSCALE
 40
1.0
  9
$OSMODE
 70
               0
  9
$ATTMODE
 70
               1
  9
$TEXTSIZE
 40
3.2000000476837158
  9
$TRACEWID
 40
0.05
  9
$TEXTSTYLE
  7
MX_NOTE_STANDARD
  9
$CLAYER
  8
0
  9
$CELTYPE
  6
CONTINUOUS
  9
$CECOLOR
 62
             256
  9
$CELTSCALE
 40
1.0
  9
$DELOBJ
 70
               1
  9
$DISPSILH
 70
               0
  9
$DIMSCALE
 40
1.0
  9
$DIMASZ
 40
2.5
  9
$DIMEXO
 40
1.5
  9
$DIMDLI
 40
3.75
  9
$DIMRND
 40
0.0
  9
$DIMDLE
 40
0.0
  9
$DIMEXE
 40
1.5
  9
$DIMTP
 40
0.0
  9
$DIMTM
 40
0.0
  9
$DIMTXT
 40
3.2000000476837158
  9
$DIMCEN
 40
2.5
  9
$DIMTSZ
 40
0.0
  9
$DIMTOL
 70
               0
  9
$DIMLIM
 70
               0
  9
$DIMTIH
 70
               0
  9
$DIMTOH
 70
               0
  9
$DIMSE1
 70
               0
  9
$DIMSE2
 70
               0
  9
$DIMTAD
 70
               1
  9
$DIMZIN
 70
               8
  9
$DIMBLK
  1

  9
$DIMASO
 70
               1
  9
$DIMSHO
 70
               1
  9
$DIMPOST
  1

  9
$DIMAPOST
  1

  9
$DIMALT
 70
               0
  9
$DIMALTD
 70
               4
  9
$DIMALTF
 40
0.0394
  9
$DIMLFAC
 40
1.0
  9
$DIMTOFL
 70
               1
  9
$DIMTVP
 40
0.0
  9
$DIMTIX
 70
               0
  9
$DIMSOXD
 70
               0
  9
$DIMSAH
 70
               0
  9
$DIMBLK1
  1

  9
$DIMBLK2
  1

  9
$DIMSTYLE
  2
MXDIMSTYLE
  9
$DIMCLRD
 70
               0
  9
$DIMCLRE
 70
               0
  9
$DIMCLRT
 70
               0
  9
$DIMTFAC
 40
1.0
  9
$DIMGAP
 40
1.0
  9
$DIMJUST
 70
               0
  9
$DIMSD1
 70
               0
  9
$DIMSD2
 70
               0
  9
$DIMTOLJ
 70
               1
  9
$DIMTZIN
 70
               0
  9
$DIMALTZ
 70
               0
  9
$DIMALTTZ
 70
               0
  9
$DIMFIT
 70
               3
  9
$DIMUPT
 70
               1
  9
$DIMUNIT
 70
               2
  9
$DIMDEC
 70
               4
  9
$DIMTDEC
 70
               4
  9
$DIMALTU
 70
               8
  9
$DIMALTTD
 70
               4
  9
$DIMTXSTY
  7
MX_NOTE_STANDARD
  9
$DIMAUNIT
 70
               0
  9
$LUNITS
 70
               2
  9
$LUPREC
 70
               4
  9
$SKETCHINC
 40
0.1
  9
$FILLETRAD
 40
0.0
  9
$AUNITS
 70
               0
  9
$AUPREC
 70
               0
  9
$MENU
  1
acad
  9
$ELEVATION
 40
0.0
  9
$PELEVATION
 40
0.0
  9
$THICKNESS
 40
0.0
  9
$LIMCHECK
 70
               0
  9
$BLIPMODE
 70
               1
  9
$CHAMFERA
 40
0.0
  9
$CHAMFERB
 40
0.0
  9
$CHAMFERC
 40
0.0
  9
$CHAMFERD
 40
0.0
  9
$SKPOLY
 70
               0
  9
$TDCREATE
 40
2452220.696365741
  9
$TDUPDATE
 40
2452220.696365741
  9
$TDINDWG
 40
0.0000000000
  9
$TDUSRTIMER
 40
0.0000000000
  9
$USRTIMER
 70
               1
  9
$ANGBASE
 50
0.0
  9
$ANGDIR
 70
               0
  9
$PDMODE
 70
               0
  9
$PDSIZE
 40
0.0
  9
$PLINEWID
 40
0.0
  9
$COORDS
 70
               1
  9
$SPLFRAME
 70
               0
  9
$SPLINETYPE
 70
               6
  9
$SPLINESEGS
 70
               8
  9
$ATTDIA
 70
               0
  9
$ATTREQ
 70
               1
  9
$HANDLING
 70
               1
  9
$HANDSEED
  5
53F
  9
$SURFTAB1
 70
               6
  9
$SURFTAB2
 70
               6
  9
$SURFTYPE
 70
               6
  9
$SURFU
 70
               6
  9
$SURFV
 70
               6
  9
$UCSNAME
  2

  9
$UCSORG
 10
0.0
 20
0.0
 30
0.0
  9
$UCSXDIR
 10
1.0
 20
0.0
 30
0.0
  9
$UCSYDIR
 10
0.0
 20
1.0
 30
0.0
  9
$PUCSNAME
  2

  9
$PUCSORG
 10
0.0
 20
0.0
 30
0.0
  9
$PUCSXDIR
 10
1.0
 20
0.0
 30
0.0
  9
$PUCSYDIR
 10
0.0
 20
1.0
 30
0.0
  9
$USERI1
 70
               0
  9
$USERI2
 70
               0
  9
$USERI3
 70
               0
  9
$USERI4
 70
               0
  9
$USERI5
 70
               0
  9
$USERR1
 40
0.0
  9
$USERR2
 40
0.0
  9
$USERR3
 40
0.0
  9
$USERR4
 40
0.0
  9
$USERR5
 40
0.0
  9
$WORLDVIEW
 70
               1
  9
$SHADEDGE
 70
               3
  9
$SHADEDIF
 70
              70
  9
$TILEMODE
 70
               1
  9
$MAXACTVP
 70
              16
  9
$PINSBASE
 10
0.0
 20
0.0
 30
0.0
  9
$PLIMCHECK
 70
               0
  9
$PEXTMIN
 10
1.0000000000000000E+20
 20
1.0000000000000000E+20
 30
1.0000000000000000E+20
  9
$PEXTMAX
 10
-1.0000000000000000E+20
 20
-1.0000000000000000E+20
 30
-1.0000000000000000E+20
  9
$PLIMMIN
 10
0.0
 20
0.0
  9
$PLIMMAX
 10
12.0
 20
9.0
  9
$UNITMODE
 70
               0
  9
$VISRETAIN
 70
               0
  9
$PLINEGEN
 70
               1
  9
$PSLTSCALE
 70
               0
  9
$TREEDEPTH
 70
            3020
  9
$PICKSTYLE
 70
               1
  9
$CMLSTYLE
  2
Standard
  9
$CMLJUST
 70
               0
  9
$CMLSCALE
 40
1.0
  9
$SAVEIMAGES
 70
               0
  0
ENDSEC
  0
SECTION
  2
CLASSES
  0
CLASS
  1
LWPOLYLINE
  2
AcDbPolyline
  3
"AutoCAD"
 90
        0
280
               0
281
               1
  0
CLASS
  1
IMAGE
  2
AcDbRasterImage
  3
ISM
 90
      127
280
               0
281
               1
  0
CLASS
  1
OLE2FRAME
  2
AcDbOle2Frame
  3
""
 90
        0
280
               0
281
               1
  0
CLASS
  1
HATCH
  2
AcDbHatch
  3
"ACAD_SEDONA"
 90
        0
280
               0
281
               1
  0
CLASS
  1
DICTIONARYVAR
  2
AcDbDictionaryVar
  3
"AutoCAD"
 90
        0
280
               0
281
               0
  0
CLASS
  1
RASTERVARIABLES
  2
AcDbRasterVariables
  3
ISM
 90
        0
280
               0
281
               0
  0
CLASS
  1
IMAGEDEF
  2
AcDbRasterImageDef
  3
ISM
 90
        0
280
               0
281
               0
  0
CLASS
  1
IMAGEDEF_REACTOR
  2
AcDbRasterImageDefReactor
  3
ISM
 90
        1
280
               0
281
               0
  0
CLASS
  1
IDBUFFER
  2
AcDbIdBuffer
  3
"Acad"
 90
        0
280
               0
281
               0
  0
CLASS
  1
SPATIAL_FILTER
  2
AcDbSpatialFilter
  3
"Acad"
 90
        0
280
               0
281
               0
  0
CLASS
  1
XRECORD
  2
AcDbXrecord
  3
"<Built In>"
 90
        0
280
               0
281
               0
  0
CLASS
  1
SORTENTSTABLE
  2
AcDbSortentsTable
  3
"AutoCAD"
 90
        0
280
               0
281
               0
  0
CLASS
  1
LAYER_INDEX
  2
AcDbLayerIndex
  3
"Acad"
 90
        0
280
               0
281
               0
  0
CLASS
  1
SPATIAL_INDEX
  2
AcDbSpatialIndex
  3
"Acad"
 90
        0
280
               0
281
               0
  0
CLASS
  1
OBJECT_PTR
  2
CAseDLPNTableRecord
  3
"ASE-LPNTableRecord"
 90
        1
280
               0
281
               0
  0
CLASS
  1
LAYOUT
  2
AcDbLayout
  3
"AutoCAD 2000"
 90
        1
280
               0
281
               0
  0
CLASS
  1
PLOTSETTINGS
  2
AcDbPlotSettings
  3
"AutoCAD 2000"
 90
        1
280
               0
281
               0
  0
CLASS
  1
ACDBDICTIONARYWDFLT
  2
AcDbDictionaryWithDefault
  3
"AutoCAD 2000"
 90
        1
280
               0
281
               0
  0
CLASS
  1
ACDBPLACEHOLDER
  2
AcDbPlaceHolder
  3
"AutoCAD 2000"
 90
        1
280
               0
281
               0
  0
CLASS
  1
VBA_PROJECT
  2
AcDbVbaProject
  3
"acadvba"
 90
        1
280
               0
281
               0
  0
CLASS
  1
WIPEOUT
  2
AcDbWipeout
  3
WipeOut|AutoCAD Express Tool|expresstools@autodesk.com
 90
      127
280
               0
281
               1
  0
CLASS
  1
WIPEOUTVARIABLES
  2
AcDbWipeoutVariables
  3
WipeOut|AutoCAD Express Tool|expresstools@autodesk.com
 90
        0
280
               0
281
               0
  0
CLASS
  1
RTEXT
  2
RText
  3
RText|AutoCAD Express Tool|expresstools@autodesk.com
 90
        0
280
               0
281
               1
  0
CLASS
  1
ARCALIGNEDTEXT
  2
AcDbArcAlignedText
  3
ATEXT|AutoCAD Express Tool|expresstools@autodesk.com
 90
        0
280
               0
281
               1
  0
ENDSEC
  0
SECTION
  2
TABLES
  0
TABLE
  2
VPORT
  5
7
100
AcDbSymbolTable
 70
               1
  0
VPORT
  5
15
100
AcDbSymbolTableRecord
100
AcDbViewportTableRecord
  2
*ACTIVE
 70
               0
 10
0.0
 20
0.0
 11
1.0
 21
1.0
 12
3.3999085426330566
 22
-0.25
 13
0.0
 23
0.0
 14
1.0
 24
1.0
 15
0.0
 25
0.0
 16
0.0
 26
0.0
 36
1.0
 17
0.0
 27
0.0
 37
0.0
 40
558.52999999999997
 41
1.7320508075688772
 42
50.0
 43
0.0
 44
0.0
 50
0.0
 51
0.0
 71
               0
 72
             100
 73
               1
 74
               1
 75
               0
 76
               0
 77
               0
 78
               0
  0
ENDTAB
  0
TABLE
  2
LTYPE
  5
4
100
AcDbSymbolTable
 70
               4
  0
LTYPE
  5
11
100
AcDbSymbolTableRecord
100
AcDbLinetypeTableRecord
  2
BYBLOCK
 70
              64
  3

 72
              65
 73
               0
 40
0.0
  0
LTYPE
  5
12
100
AcDbSymbolTableRecord
100
AcDbLinetypeTableRecord
  2
BYLAYER
 70
              64
  3

 72
              65
 73
               0
 40
0.0
  0
LTYPE
  5
13
100
AcDbSymbolTableRecord
100
AcDbLinetypeTableRecord
  2
CONTINUOUS
 70
              64
  3
Solid line
 72
              65
 73
               0
 40
0.0
  0
LTYPE
  5
47B
100
AcDbSymbolTableRecord
100
AcDbLinetypeTableRecord
  2
CENTER
 70
              64
  3
Center ____ _ ____ _ ____ _ ____ _ ____ _ ____
 72
              65
 73
               4
 40
50.800000000000004
 49
31.75
 74
               0
 49
-6.3499999999999996
 74
               0
 49
6.3499999999999996
 74
               0
 49
-6.3499999999999996
 74
               0
  0
ENDTAB
  0
TABLE
  2
LAYER
  5
2
100
AcDbSymbolTable
 70
               2
  0
LAYER
  5
14
100
AcDbSymbolTableRecord
100
AcDbLayerTableRecord
  2
0
 70
               0
 62
               7
  6
CONTINUOUS
  0
LAYER
  5
1D
100
AcDbSymbolTableRecord
100
AcDbLayerTableRecord
  2
DEFPOINTS
 70
               0
 62
               7
  6
CONTINUOUS
  0
ENDTAB
  0
TABLE
  2
STYLE
  5
3
100
AcDbSymbolTable
 70
               1
  0
STYLE
  5
17
100
AcDbSymbolTableRecord
100
AcDbTextStyleTableRecord
  2
MX_NOTE_STANDARD
 70
               0
 40
3.2000000476837158
 41
1.0
 50
0.0
 71
               0
 42
3.2000000476837158
  3
txt.shx
  4
extfont.shx
  0
ENDTAB
  0
TABLE
  2
VIEW
  5
5
100
AcDbSymbolTable
 70
               0
  0
ENDTAB
  0
TABLE
  2
UCS
  5
6
100
AcDbSymbolTable
 70
               0
  0
ENDTAB
  0
TABLE
  2
APPID
  5
8
100
AcDbSymbolTable
 70
               1
  0
APPID
  5
16
100
AcDbSymbolTableRecord
100
AcDbRegAppTableRecord
  2
ACAD
 70
               0
  0
ENDTAB
  0
TABLE
  2
DIMSTYLE
  5
9
100
AcDbSymbolTable
 70
               1
  0
DIMSTYLE
105
18
100
AcDbSymbolTableRecord
100
AcDbDimStyleTableRecord
  2
MXDIMSTYLE
 70
               0
  3

  4

  5

  6

  7

 40
1.0
 41
2.5
 42
1.5
 43
3.75
 44
1.5
 45
0.0
 46
0.0
 47
0.0
 48
0.0
 71
               0
 72
               0
 73
               0
 74
               0
 75
               0
 76
               0
 77
               1
 78
               8
140
3.2000000476837158
141
2.5
142
0.0
143
0.0394
144
1.0
145
0.0
146
1.0
147
1.0
170
               0
171
               4
172
               1
173
               0
174
               0
175
               0
176
               0
177
               0
178
               0
270
               2
271
               4
272
               4
273
               8
274
               4
275
               0
280
               0
281
               0
282
               0
283
               1
284
               0
285
               0
286
               0
287
               3
288
               1
340
17
  0
ENDTAB
  0
TABLE
  2
BLOCK_RECORD
  5
1
100
AcDbSymbolTable
 70
              25
  0
BLOCK_RECORD
  5
A
100
AcDbSymbolTableRecord
100
AcDbBlockTableRecord
  2
*MODEL_SPACE
  0
BLOCK_RECORD
  5
B
100
AcDbSymbolTableRecord
100
AcDbBlockTableRecord
  2
*PAPER_SPACE
  0
BLOCK_RECORD
  5
1E
100
AcDbSymbolTableRecord
100
AcDbBlockTableRecord
  2
MS_1
  0
BLOCK_RECORD
  5
1F
100
AcDbSymbolTableRecord
100
AcDbBlockTableRecord
  2
MS_2
  0
BLOCK_RECORD
  5
20
100
AcDbSymbolTableRecord
100
AcDbBlockTableRecord
  2
MS_3
  0
BLOCK_RECORD
  5
21
100
AcDbSymbolTableRecord
100
AcDbBlockTableRecord
  2
MS_4
  0
BLOCK_RECORD
  5
22
100
AcDbSymbolTableRecord
100
AcDbBlockTableRecord
  2
MS_5
  0
BLOCK_RECORD
  5
23
100
AcDbSymbolTableRecord
100
AcDbBlockTableRecord
  2
MS_6
  0
BLOCK_RECORD
  5
24
100
AcDbSymbolTableRecord
100
AcDbBlockTableRecord
  2
MS_7
  0
BLOCK_RECORD
  5
25
100
AcDbSymbolTableRecord
100
AcDbBlockTableRecord
  2
MS_8
  0
BLOCK_RECORD
  5
26
100
AcDbSymbolTableRecord
100
AcDbBlockTableRecord
  2
MS_9
  0
BLOCK_RECORD
  5
27
100
AcDbSymbolTableRecord
100
AcDbBlockTableRecord
  2
MS_10
  0
BLOCK_RECORD
  5
28
100
AcDbSymbolTableRecord
100
AcDbBlockTableRecord
  2
MS_11
  0
BLOCK_RECORD
  5
29
100
AcDbSymbolTableRecord
100
AcDbBlockTableRecord
  2
MS_12
  0
BLOCK_RECORD
  5
2A
100
AcDbSymbolTableRecord
100
AcDbBlockTableRecord
  2
MS_13
  0
BLOCK_RECORD
  5
2B
100
AcDbSymbolTableRecord
100
AcDbBlockTableRecord
  2
MS_14
  0
BLOCK_RECORD
  5
2C
100
AcDbSymbolTableRecord
100
AcDbBlockTableRecord
  2
MS_15
  0
BLOCK_RECORD
  5
2D
100
AcDbSymbolTableRecord
100
AcDbBlockTableRecord
  2
MS_16
  0
BLOCK_RECORD
  5
2E
100
AcDbSymbolTableRecord
100
AcDbBlockTableRecord
  2
MS_17
  0
BLOCK_RECORD
  5
2F
100
AcDbSymbolTableRecord
100
AcDbBlockTableRecord
  2
MS_18
  0
BLOCK_RECORD
  5
30
100
AcDbSymbolTableRecord
100
AcDbBlockTableRecord
  2
MS_19
  0
BLOCK_RECORD
  5
31
100
AcDbSymbolTableRecord
100
AcDbBlockTableRecord
  2
MS_20
  0
BLOCK_RECORD
  5
32
100
AcDbSymbolTableRecord
100
AcDbBlockTableRecord
  2
MS_21
  0
BLOCK_RECORD
  5
33
100
AcDbSymbolTableRecord
100
AcDbBlockTableRecord
  2
MS_22
  0
BLOCK_RECORD
  5
34
100
AcDbSymbolTableRecord
100
AcDbBlockTableRecord
  2
MS_23
  0
BLOCK_RECORD
  5
35
100
AcDbSymbolTableRecord
100
AcDbBlockTableRecord
  2
MS_24
  0
BLOCK_RECORD
  5
36
100
AcDbSymbolTableRecord
100
AcDbBlockTableRecord
  2
MS_25
  0
ENDTAB
  0
ENDSEC
  0
SECTION
  2
BLOCKS
  0
BLOCK
  5
D
100
AcDbEntity
  8
0
100
AcDbBlockBegin
  2
*MODEL_SPACE
 70
               0
 10
0.0
 20
0.0
 30
0.0
  3
*MODEL_SPACE
  1

  0
ENDBLK
  5
E
100
AcDbEntity
  8
0
100
AcDbBlockEnd
  0
BLOCK
  5
F
100
AcDbEntity
 67
               1
  8
0
100
AcDbBlockBegin
  2
*PAPER_SPACE
 70
               0
 10
0.0
 20
0.0
 30
0.0
  3
*PAPER_SPACE
  1

  0
ENDBLK
  5
10
100
AcDbEntity
 67
               1
  8
0
100
AcDbBlockEnd
  0
BLOCK
  5
37
100
AcDbEntity
  8
0
100
AcDbBlockBegin
  2
MS_1
 70
               0
 10
0.0
 20
0.0
 30
0.0
  3
MS_1
  1

  0
LINE
  5
38
100
AcDbEntity
  8
0
  6
CONTINUOUS
 62
               4
100
AcDbLine
 10
-7.5049511718750068
 20
26.199999999999989
 30
0.0
 11
-7.5049511718750068
 21
0.0
 31
0.0
  0
LINE
  5
39
100
AcDbEntity
  8
0
  6
CONTINUOUS
 62
               4
100
AcDbLine
 10
7.4950488281249932
 20
26.199999999999989
 30
0.0
 11
7.4950488281249932
 21
0.0
 31
0.0
  0
LINE
  5
3A
100
AcDbEntity
  8
0
  6
CONTINUOUS
 62
               4
100
AcDbLine
 10
-7.5049511718750068
 20
25.199999999999989
 30
0.0
 11
-7.0049511718750068
 21
25.199999999999989
 31
0.0
  0
LINE
  5
3B
100
AcDbEntity
  8
0
  6
CONTINUOUS
 62
               4
100
AcDbLine
 10
6.9950488281249932
 20
26.0
 30
0.0
 11
6.9950488281249932
 21
0.0
 31
0.0
  0
LINE
  5
3C
100
AcDbEntity
  8
0
  6
CONTINUOUS
 62
               4
100
AcDbLine
 10
6.9950488281249932
 20
25.199999999999989
 30
0.0
 11
7.4950488281249932
 21
25.199999999999989
 31
0.0
  0
LINE
  5
3D
100
AcDbEntity
  8
0
  6
CONTINUOUS
 62
               4
100
AcDbLine
 10
-7.0049511718750068
 20
26.0
 30
0.0
 11
-7.0049511718750068
 21
0.0
 31
0.0
  0
LINE
  5
3E
100
AcDbEntity
  8
0
  6
CONTINUOUS
 62
               4
100
AcDbLine
 10
-2.0049511718750068
 20
13.5
 30
0.0
 11
1.9950488281249932
 21
13.5
 31
0.0
  0
LINE
  5
3F
100
AcDbEntity
  8
0
  6
CONTINUOUS
 62
               4
100
AcDbLine
 10
-2.0049511718750068
 20
11.5
 30
0.0
 11
1.9950488281249932
 21
11.5
 31
0.0
  0
LINE
  5
40
100
AcDbEntity
  8
0
  6
CONTINUOUS
 62
               4
100
AcDbLine
 10
-2.0049511718750068
 20
13.5
 30
0.0
 11
-2.0049511718750068
 21
11.5
 31
0.0
  0
LINE
  5
41
100
AcDbEntity
  8
0
  6
CONTINUOUS
 62
               4
100
AcDbLine
 10
1.9950488281249932
 20
13.5
 30
0.0
 11
1.9950488281249932
 21
11.5
 31
0.0
  0
LINE
  5
42
100
AcDbEntity
  8
0
  6
CONTINUOUS
 62
               4
100
AcDbLine
 10
-2.5049511718750068
 20
14.0
 30
0.0
 11
2.4950488281249932
 21
14.0
 31
0.0
  0
LINE
  5
43
100
AcDbEntity
  8
0
  6
CONTINUOUS
 62
               4
100
AcDbLine
 10
-2.5049511718750068
 20
14.0
 30
0.0
 11
-2.5049511718750068
 21
11.0
 31
0.0
  0
LINE
  5
44
100
AcDbEntity
  8
0
  6
CONTINUOUS
 62
               4
100
AcDbLine
 10
-2.5049511718750068
 20
11.0
 30
0.0
 11
2.4950488281249932
 21
11.0
 31
0.0
  0
LINE
  5
45
100
AcDbEntity
  8
0
  6
CONTINUOUS
 62
               4
100
AcDbLine
 10
2.4950488281249932
 20
14.0
 30
0.0
 11
2.4950488281249932
 21
11.0
 31
0.0
  0
LINE
  5
46
100
AcDbEntity
  8
0
  6
CONTINUOUS
 62
               4
100
AcDbLine
 10
-6.5049511718750068
 20
28.199999999999989
 30
0.0
 11
-6.3749511718750114
 21
28.199999999999989
 31
0.0
  0
LINE
  5
47
100
AcDbEntity
  8
0
  6
CONTINUOUS
 62
               4
100
AcDbLine
 10
-7.0049511718750068
 20
26.0
 30
0.0
 11
-4.2049511718749955
 21
26.0
 31
0.0
  0
LINE
  5
48
100
AcDbEntity
  8
0
  6
CONTINUOUS
 62
               4
100
AcDbLine
 10
-7.5049511718750068
 20
26.199999999999989
 30
0.0
 11
-6.7549511718750068
 21
27.699999999999989
 31
0.0
  0
LINE
  5
49
100
AcDbEntity
  8
0
  6
CONTINUOUS
 62
               4
100
AcDbLine
 10
7.4950488281249932
 20
26.199999999999989
 30
0.0
 11
6.4950488281249932
 21
28.199999999999989
 31
0.0
  0
LINE
  5
4A
100
AcDbEntity
  8
0
  6
CONTINUOUS
 62
               4
100
AcDbLine
 10
-5.5049511718750068
 20
26.800000000000011
 30
0.0
 11
-7.0549511718750182
 21
26.800000000000011
 31
0.0
  0
LINE
  5
4B
100
AcDbEntity
  8
0
  6
CONTINUOUS
 62
               4
100
AcDbLine
 10
-7.0549511718750182
 20
26.800000000000011
 30
0.0
 11
-7.0549511718750182
 21
26.199999999999989
 31
0.0
  0
LINE
  5
4C
100
AcDbEntity
  8
0
  6
CONTINUOUS
 62
               4
100
AcDbLine
 10
-6.7549511718750068
 20
28.060000000000002
 30
0.0
 11
-6.7549511718750068
 21
26.800000000000011
 31
0.0
  0
LINE
  5
4D
100
AcDbEntity
  8
0
  6
CONTINUOUS
 62
               4
100
AcDbLine
 10
-4.0049511718750068
 20
34.0
 30
0.0
 11
3.9950488281249932
 21
34.0
 31
0.0
  0
LINE
  5
4E
100
AcDbEntity
  8
0
  6
CONTINUOUS
 62
               4
100
AcDbLine
 10
-4.0049511718750068
 20
28.319999999999993
 30
0.0
 11
3.9950488281249932
 21
28.319999999999993
 31
0.0
  0
LINE
  5
4F
100
AcDbEntity
  8
0
  6
CONTINUOUS
 62
               4
100
AcDbLine
 10
5.4950488281249932
 20
28.199999999999989
 30
0.0
 11
6.4950488281249932
 21
28.199999999999989
 31
0.0
  0
LINE
  5
50
100
AcDbEntity
  8
0
  6
CONTINUOUS
 62
               4
100
AcDbLine
 10
-7.0049511718750068
 20
21.0
 30
0.0
 11
6.9950488281249932
 21
21.0
 31
0.0
  0
LINE
  5
51
100
AcDbEntity
  8
0
  6
CONTINUOUS
 62
               4
100
AcDbLine
 10
4.1950488281249818
 20
26.0
 30
0.0
 11
4.1950488281249818
 21
21.0
 31
0.0
  0
LINE
  5
52
100
AcDbEntity
  8
0
  6
CONTINUOUS
 62
               4
100
AcDbLine
 10
-4.2049511718749955
 20
26.0
 30
0.0
 11
-4.2049511718749955
 21
21.0
 31
0.0
  0
LINE
  5
53
100
AcDbEntity
  8
0
  6
CONTINUOUS
 62
               4
100
AcDbLine
 10
4.1950488281249818
 20
26.0
 30
0.0
 11
6.9950488281249932
 21
26.0
 31
0.0
  0
LINE
  5
54
100
AcDbEntity
  8
0
  6
CONTINUOUS
 62
               4
100
AcDbLine
 10
-5.5049511718750068
 20
36.0
 30
0.0
 11
5.4950488281249932
 21
36.0
 31
0.0
  0
LINE
  5
55
100
AcDbEntity
  8
0
  6
CONTINUOUS
 62
               4
100
AcDbLine
 10
3.9950488281249932
 20
21.0
 30
0.0
 11
3.9950488281249932
 21
36.0
 31
0.0
  0
LINE
  5
56
100
AcDbEntity
  8
0
  6
CONTINUOUS
 62
               4
100
AcDbLine
 10
-4.0049511718750068
 20
21.0
 30
0.0
 11
-4.0049511718750068
 21
36.0
 31
0.0
  0
LINE
  5
57
100
AcDbEntity
  8
0
  6
CONTINUOUS
 62
               4
100
AcDbLine
 10
-5.5049511718750068
 20
26.0
 30
0.0
 11
-5.5049511718750068
 21
36.0
 31
0.0
  0
LINE
  5
58
100
AcDbEntity
  8
0
  6
CONTINUOUS
 62
               4
100
AcDbLine
 10
5.4950488281249932
 20
26.0
 30
0.0
 11
5.4950488281249932
 21
36.0
 31
0.0
  0
LINE
  5
59
100
AcDbEntity
  8
0
  6
CONTINUOUS
 62
               4
100
AcDbLine
 10
-3.3549511718750296
 20
46.0
 30
0.0
 11
-1.6549511718749841
 21
46.0
 31
0.0
  0
LINE
  5
5A
100
AcDbEntity
  8
0
  6
CONTINUOUS
 62
               4
100
AcDbLine
 10
-2.824951171875
 20
54.0
 30
0.0
 11
-2.1849511718750136
 21
54.0
 31
0.0
  0
LINE
  5
5B
100
AcDbEntity
  8
0
  6
CONTINUOUS
 62
               4
100
AcDbLine
 10
2.8150488281249864
 20
46.0
 30
0.0
 11
2.8150488281249864
 21
54.0
 31
0.0
  0
LINE
  5
5C
100
AcDbEntity
  8
0
  6
CONTINUOUS
 62
               4
100
AcDbLine
 10
2.175048828125
 20
46.0
 30
0.0
 11
2.175048828125
 21
54.0
 31
0.0
  0
LINE
  5
5D
100
AcDbEntity
  8
0
  6
CONTINUOUS
 62
               4
100
AcDbLine
 10
-2.1849511718750136
 20
46.0
 30
0.0
 11
-2.1849511718750136
 21
54.0
 31
0.0
  0
LINE
  5
5E
100
AcDbEntity
  8
0
  6
CONTINUOUS
 62
               4
100
AcDbLine
 10
-2.824951171875
 20
46.0
 30
0.0
 11
-2.824951171875
 21
54.0
 31
0.0
  0
LINE
  5
5F
100
AcDbEntity
  8
0
  6
CONTINUOUS
 62
               4
100
AcDbLine
 10
-1.6549511718749841
 20
36.0
 30
0.0
 11
-1.6549511718749841
 21
40.659999999999997
 31
0.0
  0
LINE
  5
60
100
AcDbEntity
  8
0
  6
CONTINUOUS
 62
               4
100
AcDbLine
 10
-3.3549511718750296
 20
36.0
 30
0.0
 11
-3.3549511718750296
 21
41.120000000000005
 31
0.0
  0
LINE
  5
61
100
AcDbEntity
  8
0
  6
CONTINUOUS
 62
               4
100
AcDbLine
 10
1.6450488281249704
 20
36.0
 30
0.0
 11
1.6450488281249704
 21
39.780000000000001
 31
0.0
  0
LINE
  5
62
100
AcDbEntity
  8
0
  6
CONTINUOUS
 62
               4
100
AcDbLine
 10
3.3450488281250159
 20
36.0
 30
0.0
 11
3.3450488281250159
 21
39.319999999999993
 31
0.0
  0
LINE
  5
63
100
AcDbEntity
  8
0
  6
CONTINUOUS
 62
               4
100
AcDbLine
 10
1.6450488281249704
 20
46.0
 30
0.0
 11
3.3450488281250159
 21
46.0
 31
0.0
  0
LINE
  5
64
100
AcDbEntity
  8
0
  6
CONTINUOUS
 62
               4
100
AcDbLine
 10
2.175048828125
 20
54.0
 30
0.0
 11
2.8150488281249864
 21
54.0
 31
0.0
  0
LINE
  5
65
100
AcDbEntity
  8
0
  6
CONTINUOUS
 62
               4
100
AcDbLine
 10
7.4950488281249932
 20
26.199999999999989
 30
0.0
 11
5.4950488281249932
 21
26.199999999999989
 31
0.0
  0
LINE
  5
66
100
AcDbEntity
  8
0
  6
CONTINUOUS
 62
               4
100
AcDbLine
 10
-7.5049511718750068
 20
26.199999999999989
 30
0.0
 11
-5.5049511718750068
 21
26.199999999999989
 31
0.0
  0
LINE
  5
67
100
AcDbEntity
  8
0
  6
CONTINUOUS
 62
             200
100
AcDbLine
 10
5.3450488281250159
 20
40.340000000000003
 30
0.0
 11
-5.3549511718750296
 21
43.210000000000008
 31
0.0
  0
LINE
  5
68
100
AcDbEntity
  8
0
  6
CONTINUOUS
 62
             200
100
AcDbLine
 10
5.3450488281250159
 20
38.789999999999992
 30
0.0
 11
-5.3549511718750296
 21
41.650000000000006
 31
0.0
  0
LINE
  5
69
100
AcDbEntity
  8
0
  6
CONTINUOUS
 62
               4
100
AcDbLine
 10
-3.3549511718750296
 20
42.670000000000016
 30
0.0
 11
-3.3549511718750296
 21
46.0
 31
0.0
  0
LINE
  5
6A
100
AcDbEntity
  8
0
  6
CONTINUOUS
 62
               4
100
AcDbLine
 10
-1.6549511718749841
 20
42.210000000000008
 30
0.0
 11
-1.6549511718749841
 21
46.0
 31
0.0
  0
LINE
  5
6B
100
AcDbEntity
  8
0
  6
CONTINUOUS
 62
               4
100
AcDbLine
 10
1.6450488281249704
 20
41.329999999999984
 30
0.0
 11
1.6450488281249704
 21
46.0
 31
0.0
  0
LINE
  5
6C
100
AcDbEntity
  8
0
  6
CONTINUOUS
 62
               4
100
AcDbLine
 10
3.3450488281250159
 20
40.870000000000005
 30
0.0
 11
3.3450488281250159
 21
46.0
 31
0.0
  0
LINE
  5
6D
100
AcDbEntity
  8
0
  6
CONTINUOUS
 62
               4
100
AcDbLine
 10
-6.5249511718749886
 20
28.139999999999986
 30
0.0
 11
-6.5049511718750068
 21
28.199999999999989
 31
0.0
  0
ARC
  5
6E
100
AcDbEntity
  8
0
  6
CONTINUOUS
 62
               4
100
AcDbCircle
 10
-4.5227456196408298
 20
22.494980170592243
 30
0.0
 40
5.9960142869348232
100
AcDbArc
 50
99.428096934892693
 51
111.85639597952442
  0
ARC
  5
6F
100
AcDbEntity
  8
0
  6
CONTINUOUS
 62
               4
100
AcDbCircle
 10
4.5269598325664901
 20
22.492202732686252
 30
0.0
 40
5.9964590218184259
100
AcDbArc
 50
72.149820024668344
 51
80.709311205008262
  0
ENDBLK
  5
70
100
AcDbEntity
  8
0
100
AcDbBlockEnd
  0
BLOCK
  5
71
100
AcDbEntity
  8
0
100
AcDbBlockBegin
  2
MS_2
 70
               0
 10
0.0
 20
0.0
 30
0.0
  3
MS_2
  1

  0
LINE
  5
72
100
AcDbEntity
  8
0
  6
CONTINUOUS
 62
               4
100
AcDbLine
 10
-12.004951171875007
 20
25.199999999999989
 30
0.0
 11
11.995048828124993
 21
25.199999999999989
 31
0.0
  0
LINE
  5
73
100
AcDbEntity
  8
0
  6
CONTINUOUS
 62
               4
100
AcDbLine
 10
-12.004951171875007
 20
26.199999999999989
 30
0.0
 11
-12.004951171875007
 21
0.0
 31
0.0
  0
LINE
  5
74
100
AcDbEntity
  8
0
  6
CONTINUOUS
 62
               4
100
AcDbLine
 10
11.995048828124993
 20
26.199999999999989
 30
0.0
 11
11.995048828124993
 21
0.0
 31
0.0
  0
LINE
  5
75
100
AcDbEntity
  8
0
  6
CONTINUOUS
 62
               4
100
AcDbLine
 10
21.995048828124993
 20
21.0
 30
0.0
 11
21.995048828124993
 21
0.0
 31
0.0
  0
LINE
  5
76
100
AcDbEntity
  8
0
  6
CONTINUOUS
 62
               4
100
AcDbLine
 10
11.995048828124993
 20
21.0
 30
0.0
 11
21.995048828124993
 21
21.0
 31
0.0
  0
LINE
  5
77
100
AcDbEntity
  8
0
  6
CONTINUOUS
 62
               4
100
AcDbLine
 10
-11.004951171875007
 20
28.199999999999989
 30
0.0
 11
7.1150488281249977
 21
28.199999999999989
 31
0.0
  0
LINE
  5
78
100
AcDbEntity
  8
0
  6
CONTINUOUS
 62
               4
100
AcDbLine
 10
11.995048828124993
 20
26.0
 30
0.0
 11
18.995048828124993
 21
26.0
 31
0.0
  0
LINE
  5
79
100
AcDbEntity
  8
0
  6
CONTINUOUS
 62
               4
100
AcDbLine
 10
-12.004951171875007
 20
26.199999999999989
 30
0.0
 11
-11.004951171875007
 21
28.199999999999989
 31
0.0
  0
LINE
  5
7A
100
AcDbEntity
  8
0
  6
CONTINUOUS
 62
               4
100
AcDbLine
 10
11.995048828124993
 20
26.199999999999989
 30
0.0
 11
11.245048828124993
 21
27.699999999999989
 31
0.0
  0
LINE
  5
7B
100
AcDbEntity
  8
0
  6
CONTINUOUS
 62
               4
100
AcDbLine
 10
5.9950488281249932
 20
28.199999999999989
 30
0.0
 11
5.9950488281249932
 21
26.199999999999989
 31
0.0
  0
LINE
  5
7C
100
AcDbEntity
  8
0
  6
CONTINUOUS
 62
               4
100
AcDbLine
 10
11.545048828125005
 20
26.800000000000011
 30
0.0
 11
6.4450488281249818
 21
26.800000000000011
 31
0.0
  0
LINE
  5
7D
100
AcDbEntity
  8
0
  6
CONTINUOUS
 62
               4
100
AcDbLine
 10
11.545048828125005
 20
26.800000000000011
 30
0.0
 11
11.545048828125005
 21
26.199999999999989
 31
0.0
  0
LINE
  5
7E
100
AcDbEntity
  8
0
  6
CONTINUOUS
 62
               4
100
AcDbLine
 10
6.4450488281249818
 20
26.800000000000011
 30
0.0
 11
6.4450488281249818
 21
26.199999999999989
 31
0.0
  0
LINE
  5
7F
100
AcDbEntity
  8
0
  6
CONTINUOUS
 62
               4
100
AcDbLine
 10
11.245048828124993
 20
28.060000000000002
 30
0.0
 11
11.245048828124993
 21
26.800000000000011
 31
0.0
  0
LINE
  5
80
100
AcDbEntity
  8
0
  6
CONTINUOUS
 62
               4
100
AcDbLine
 10
6.7450488281249932
 20
28.060000000000002
 30
0.0
 11
6.7450488281249932
 21
26.800000000000011
 31
0.0
  0
LINE
  5
81
100
AcDbEntity
  8
0
  6
CONTINUOUS
 62
               4
100
AcDbLine
 10
10.865048828124998
 20
28.199999999999989
 30
0.0
 11
10.995048828124993
 21
28.199999999999989
 31
0.0
  0
LINE
  5
82
100
AcDbEntity
  8
0
  6
CONTINUOUS
 62
               4
100
AcDbLine
 10
20.995048828124993
 20
36.0
 30
0.0
 11
19.995048828124993
 21
36.0
 31
0.0
  0
LINE
  5
83
100
AcDbEntity
  8
0
  6
CONTINUOUS
 62
               4
100
AcDbLine
 10
13.995048828124993
 20
34.5
 30
0.0
 11
12.995048828124993
 21
34.5
 31
0.0
  0
LINE
  5
84
100
AcDbEntity
  8
0
  6
CONTINUOUS
 62
               4
100
AcDbLine
 10
12.995048828124993
 20
36.0
 30
0.0
 11
12.995048828124993
 21
34.5
 31
0.0
  0
LINE
  5
85
100
AcDbEntity
  8
0
  6
CONTINUOUS
 62
               4
100
AcDbLine
 10
13.995048828124993
 20
34.5
 30
0.0
 11
13.995048828124993
 21
28.0
 31
0.0
  0
LINE
  5
86
100
AcDbEntity
  8
0
  6
CONTINUOUS
 62
               4
100
AcDbLine
 10
15.39504882812497
 20
36.0
 30
0.0
 11
15.39504882812497
 21
26.0
 31
0.0
  0
LINE
  5
87
100
AcDbEntity
  8
0
  6
CONTINUOUS
 62
               4
100
AcDbLine
 10
17.195048828124982
 20
36.0
 30
0.0
 11
17.195048828124982
 21
26.0
 31
0.0
  0
LINE
  5
88
100
AcDbEntity
  8
0
  6
CONTINUOUS
 62
               4
100
AcDbLine
 10
19.995048828124993
 20
21.0
 30
0.0
 11
19.995048828124993
 21
28.319999999999993
 31
0.0
  0
LINE
  5
89
100
AcDbEntity
  8
0
  6
CONTINUOUS
 62
               4
100
AcDbLine
 10
20.995048828124993
 20
36.0
 30
0.0
 11
20.995048828124993
 21
34.0
 31
0.0
  0
LINE
  5
8A
100
AcDbEntity
  8
0
  6
CONTINUOUS
 62
               4
100
AcDbLine
 10
19.995048828124993
 20
36.0
 30
0.0
 11
19.995048828124993
 21
34.5
 31
0.0
  0
LINE
  5
8B
100
AcDbEntity
  8
0
  6
CONTINUOUS
 62
               4
100
AcDbLine
 10
20.995048828124993
 20
34.0
 30
0.0
 11
19.995048828124993
 21
28.319999999999993
 31
0.0
  0
LINE
  5
8C
100
AcDbEntity
  8
0
  6
CONTINUOUS
 62
               4
100
AcDbLine
 10
19.995048828124993
 20
34.5
 30
0.0
 11
18.995048828124993
 21
28.819999999999993
 31
0.0
  0
LINE
  5
8D
100
AcDbEntity
  8
0
  6
CONTINUOUS
 62
               4
100
AcDbLine
 10
17.995048828124993
 20
26.0
 30
0.0
 11
17.995048828124993
 21
26.5
 31
0.0
  0
LINE
  5
8E
100
AcDbEntity
  8
0
  6
CONTINUOUS
 62
               4
100
AcDbLine
 10
13.995048828124993
 20
28.0
 30
0.0
 11
12.995048828124993
 21
28.0
 31
0.0
  0
LINE
  5
8F
100
AcDbEntity
  8
0
  6
CONTINUOUS
 62
               4
100
AcDbLine
 10
18.295048828125005
 20
35.699999999999989
 30
0.0
 11
17.995048828124993
 21
36.0
 31
0.0
  0
LINE
  5
90
100
AcDbEntity
  8
0
  6
CONTINUOUS
 62
               4
100
AcDbLine
 10
17.995048828124993
 20
29.5
 30
0.0
 11
18.295048828125005
 21
29.800000000000011
 31
0.0
  0
LINE
  5
91
100
AcDbEntity
  8
0
  6
CONTINUOUS
 62
               4
100
AcDbLine
 10
18.295048828125005
 20
29.800000000000011
 30
0.0
 11
18.295048828125005
 21
35.699999999999989
 31
0.0
  0
LINE
  5
92
100
AcDbEntity
  8
0
  6
CONTINUOUS
 62
               4
100
AcDbLine
 10
18.995048828124993
 20
28.5
 30
0.0
 11
18.995048828124993
 21
28.819999999999993
 31
0.0
  0
LINE
  5
93
100
AcDbEntity
  8
0
  6
CONTINUOUS
 62
               4
100
AcDbLine
 10
17.995048828124993
 20
28.5
 30
0.0
 11
17.995048828124993
 21
36.0
 31
0.0
  0
LINE
  5
94
100
AcDbEntity
  8
0
  6
CONTINUOUS
 62
               4
100
AcDbLine
 10
17.995048828124993
 20
36.0
 30
0.0
 11
12.995048828124993
 21
36.0
 31
0.0
  0
LINE
  5
95
100
AcDbEntity
  8
0
  6
CONTINUOUS
 62
               4
100
AcDbLine
 10
15.64504882812497
 20
36.0
 30
0.0
 11
15.64504882812497
 21
40.449999999999989
 31
0.0
  0
LINE
  5
96
100
AcDbEntity
  8
0
  6
CONTINUOUS
 62
               4
100
AcDbLine
 10
17.345048828125016
 20
36.0
 30
0.0
 11
17.345048828125016
 21
39.990000000000009
 31
0.0
  0
LINE
  5
97
100
AcDbEntity
  8
0
  6
CONTINUOUS
 62
               4
100
AcDbLine
 10
16.815048828124986
 20
46.0
 30
0.0
 11
16.815048828124986
 21
54.0
 31
0.0
  0
LINE
  5
98
100
AcDbEntity
  8
0
  6
CONTINUOUS
 62
               4
100
AcDbLine
 10
16.175048828125
 20
46.0
 30
0.0
 11
16.175048828125
 21
54.0
 31
0.0
  0
LINE
  5
99
100
AcDbEntity
  8
0
  6
CONTINUOUS
 62
               4
100
AcDbLine
 10
17.345048828125016
 20
46.0
 30
0.0
 11
15.64504882812497
 21
46.0
 31
0.0
  0
LINE
  5
9A
100
AcDbEntity
  8
0
  6
CONTINUOUS
 62
               4
100
AcDbLine
 10
16.815048828124986
 20
54.0
 30
0.0
 11
16.175048828125
 21
54.0
 31
0.0
  0
LINE
  5
9B
100
AcDbEntity
  8
0
  6
CONTINUOUS
 62
               4
100
AcDbLine
 10
18.995048828124993
 20
26.5
 30
0.0
 11
18.995048828124993
 21
21.0
 31
0.0
  0
LINE
  5
9C
100
AcDbEntity
  8
0
  6
CONTINUOUS
 62
               4
100
AcDbLine
 10
12.995048828124993
 20
28.0
 30
0.0
 11
12.995048828124993
 21
26.0
 31
0.0
  0
LINE
  5
9D
100
AcDbEntity
  8
0
  6
CONTINUOUS
 62
               4
100
AcDbLine
 10
-12.004951171875007
 20
26.199999999999989
 30
0.0
 11
11.995048828124993
 21
26.199999999999989
 31
0.0
  0
LINE
  5
9E
100
AcDbEntity
  8
0
  6
CONTINUOUS
 62
             200
100
AcDbLine
 10
19.345048828125016
 20
39.460000000000008
 30
0.0
 11
13.64504882812497
 21
40.97999999999999
 31
0.0
  0
LINE
  5
9F
100
AcDbEntity
  8
0
  6
CONTINUOUS
 62
             200
100
AcDbLine
 10
19.345048828125016
 20
41.009999999999991
 30
0.0
 11
13.64504882812497
 21
42.539999999999992
 31
0.0
  0
LINE
  5
A0
100
AcDbEntity
  8
0
  6
CONTINUOUS
 62
               4
100
AcDbLine
 10
17.345048828125016
 20
41.539999999999992
 30
0.0
 11
17.345048828125016
 21
46.0
 31
0.0
  0
LINE
  5
A1
100
AcDbEntity
  8
0
  6
CONTINUOUS
 62
               4
100
AcDbLine
 10
15.64504882812497
 20
42.0
 30
0.0
 11
15.64504882812497
 21
46.0
 31
0.0
  0
LINE
  5
A2
100
AcDbEntity
  8
0
  6
CONTINUOUS
 62
               4
100
AcDbLine
 10
11.015048828124975
 20
28.139999999999986
 30
0.0
 11
10.995048828124993
 21
28.199999999999989
 31
0.0
  0
LINE
  5
A3
100
AcDbEntity
  8
0
  6
CONTINUOUS
 62
               4
100
AcDbLine
 10
21.995048828124993
 20
0.0
 30
0.0
 11
12.495048828124993
 21
0.0
 31
0.0
  0
ARC
  5
A4
100
AcDbEntity
  8
0
  6
CONTINUOUS
 62
               4
100
AcDbCircle
 10
18.495048828124993
 20
26.5
 30
0.0
 40
0.5
100
AcDbArc
 50
0.0
 51
179.9999999999996
  0
ARC
  5
A5
100
AcDbEntity
  8
0
  6
CONTINUOUS
 62
               4
100
AcDbCircle
 10
8.9950488281249932
 20
22.5
 30
0.0
 40
5.9980080026622158
100
AcDbArc
 50
67.967989550225639
 51
112.03201044977398
  0
ARC
  5
A6
100
AcDbEntity
  8
0
  6
CONTINUOUS
 62
               4
100
AcDbCircle
 10
-8.9999511718750114
 20
22.499984741210938
 30
0.0
 40
6.0004832264100321
100
AcDbArc
 50
71.791561056789845
 51
108.20843894320979
  0
ARC
  5
A7
100
AcDbEntity
  8
0
  6
CONTINUOUS
 62
               4
100
AcDbCircle
 10
18.495048828124993
 20
28.5
 30
0.0
 40
0.5
100
AcDbArc
 50
179.9999999999996
 51
0.0
  0
ENDBLK
  5
A8
100
AcDbEntity
  8
0
100
AcDbBlockEnd
  0
BLOCK
  5
A9
100
AcDbEntity
  8
0
100
AcDbBlockBegin
  2
MS_3
 70
               0
 10
0.0
 20
0.0
 30
0.0
  3
MS_3
  1

  0
LINE
  5
AA
100
AcDbEntity
  8
0
  6
CONTINUOUS
 62
               4
100
AcDbLine
 10
-21.005012207031257
 20
36.0
 30
0.0
 11
-20.005012207031257
 21
36.0
 31
0.0
  0
LINE
  5
AB
100
AcDbEntity
  8
0
  6
CONTINUOUS
 62
               4
100
AcDbLine
 10
-14.005012207031257
 20
34.5
 30
0.0
 11
-13.005012207031257
 21
34.5
 31
0.0
  0
LINE
  5
AC
100
AcDbEntity
  8
0
  6
CONTINUOUS
 62
               4
100
AcDbLine
 10
-13.005012207031257
 20
36.0
 30
0.0
 11
-13.005012207031257
 21
34.5
 31
0.0
  0
LINE
  5
AD
100
AcDbEntity
  8
0
  6
CONTINUOUS
 62
               4
100
AcDbLine
 10
-14.005012207031257
 20
34.5
 30
0.0
 11
-14.005012207031257
 21
28.0
 31
0.0
  0
LINE
  5
AE
100
AcDbEntity
  8
0
  6
CONTINUOUS
 62
               4
100
AcDbLine
 10
-15.405012207031263
 20
36.0
 30
0.0
 11
-15.405012207031263
 21
26.0
 31
0.0
  0
LINE
  5
AF
100
AcDbEntity
  8
0
  6
CONTINUOUS
 62
               4
100
AcDbLine
 10
-17.205012207031245
 20
36.0
 30
0.0
 11
-17.205012207031245
 21
26.0
 31
0.0
  0
LINE
  5
B0
100
AcDbEntity
  8
0
  6
CONTINUOUS
 62
               4
100
AcDbLine
 10
-20.005012207031257
 20
21.0
 30
0.0
 11
-20.005012207031257
 21
28.319999999999993
 31
0.0
  0
LINE
  5
B1
100
AcDbEntity
  8
0
  6
CONTINUOUS
 62
               4
100
AcDbLine
 10
-21.005012207031257
 20
36.0
 30
0.0
 11
-21.005012207031257
 21
34.0
 31
0.0
  0
LINE
  5
B2
100
AcDbEntity
  8
0
  6
CONTINUOUS
 62
               4
100
AcDbLine
 10
-20.005012207031257
 20
36.0
 30
0.0
 11
-20.005012207031257
 21
34.5
 31
0.0
  0
LINE
  5
B3
100
AcDbEntity
  8
0
  6
CONTINUOUS
 62
               4
100
AcDbLine
 10
-21.005012207031257
 20
34.0
 30
0.0
 11
-20.005012207031257
 21
28.319999999999993
 31
0.0
  0
LINE
  5
B4
100
AcDbEntity
  8
0
  6
CONTINUOUS
 62
               4
100
AcDbLine
 10
-20.005012207031257
 20
34.5
 30
0.0
 11
-19.005012207031257
 21
28.819999999999993
 31
0.0
  0
LINE
  5
B5
100
AcDbEntity
  8
0
  6
CONTINUOUS
 62
               4
100
AcDbLine
 10
-18.005012207031257
 20
26.0
 30
0.0
 11
-18.005012207031257
 21
26.5
 31
0.0
  0
LINE
  5
B6
100
AcDbEntity
  8
0
  6
CONTINUOUS
 62
               4
100
AcDbLine
 10
-14.005012207031257
 20
28.0
 30
0.0
 11
-13.005012207031257
 21
28.0
 31
0.0
  0
LINE
  5
B7
100
AcDbEntity
  8
0
  6
CONTINUOUS
 62
               4
100
AcDbLine
 10
-18.305012207031268
 20
35.699999999999989
 30
0.0
 11
-18.005012207031257
 21
36.0
 31
0.0
  0
LINE
  5
B8
100
AcDbEntity
  8
0
  6
CONTINUOUS
 62
               4
100
AcDbLine
 10
-18.005012207031257
 20
29.5
 30
0.0
 11
-18.305012207031268
 21
29.800000000000011
 31
0.0
  0
LINE
  5
B9
100
AcDbEntity
  8
0
  6
CONTINUOUS
 62
               4
100
AcDbLine
 10
-18.305012207031268
 20
29.800000000000011
 30
0.0
 11
-18.305012207031268
 21
35.699999999999989
 31
0.0
  0
LINE
  5
BA
100
AcDbEntity
  8
0
  6
CONTINUOUS
 62
               4
100
AcDbLine
 10
-19.005012207031257
 20
28.5
 30
0.0
 11
-19.005012207031257
 21
28.819999999999993
 31
0.0
  0
LINE
  5
BB
100
AcDbEntity
  8
0
  6
CONTINUOUS
 62
               4
100
AcDbLine
 10
-18.005012207031257
 20
28.5
 30
0.0
 11
-18.005012207031257
 21
36.0
 31
0.0
  0
LINE
  5
BC
100
AcDbEntity
  8
0
  6
CONTINUOUS
 62
               4
100
AcDbLine
 10
-18.005012207031257
 20
36.0
 30
0.0
 11
-13.005012207031257
 21
36.0
 31
0.0
  0
LINE
  5
BD
100
AcDbEntity
  8
0
  6
CONTINUOUS
 62
               4
100
AcDbLine
 10
-15.655012207031263
 20
36.0
 30
0.0
 11
-15.655012207031263
 21
39.990000000000009
 31
0.0
  0
LINE
  5
BE
100
AcDbEntity
  8
0
  6
CONTINUOUS
 62
               4
100
AcDbLine
 10
-17.355012207031251
 20
36.0
 30
0.0
 11
-17.355012207031251
 21
40.449999999999989
 31
0.0
  0
LINE
  5
BF
100
AcDbEntity
  8
0
  6
CONTINUOUS
 62
               4
100
AcDbLine
 10
-16.82501220703125
 20
46.0
 30
0.0
 11
-16.82501220703125
 21
54.0
 31
0.0
  0
LINE
  5
C0
100
AcDbEntity
  8
0
  6
CONTINUOUS
 62
               4
100
AcDbLine
 10
-16.185012207031264
 20
46.0
 30
0.0
 11
-16.185012207031264
 21
54.0
 31
0.0
  0
LINE
  5
C1
100
AcDbEntity
  8
0
  6
CONTINUOUS
 62
               4
100
AcDbLine
 10
-17.355012207031251
 20
46.0
 30
0.0
 11
-15.655012207031263
 21
46.0
 31
0.0
  0
LINE
  5
C2
100
AcDbEntity
  8
0
  6
CONTINUOUS
 62
               4
100
AcDbLine
 10
-16.82501220703125
 20
54.0
 30
0.0
 11
-16.185012207031264
 21
54.0
 31
0.0
  0
LINE
  5
C3
100
AcDbEntity
  8
0
  6
CONTINUOUS
 62
               4
100
AcDbLine
 10
11.994987792968743
 20
25.199999999999989
 30
0.0
 11
-12.005012207031257
 21
25.199999999999989
 31
0.0
  0
LINE
  5
C4
100
AcDbEntity
  8
0
  6
CONTINUOUS
 62
               4
100
AcDbLine
 10
11.994987792968743
 20
26.199999999999989
 30
0.0
 11
11.994987792968743
 21
0.0
 31
0.0
  0
LINE
  5
C5
100
AcDbEntity
  8
0
  6
CONTINUOUS
 62
               4
100
AcDbLine
 10
-12.005012207031257
 20
26.199999999999989
 30
0.0
 11
-12.005012207031257
 21
0.0
 31
0.0
  0
LINE
  5
C6
100
AcDbEntity
  8
0
  6
CONTINUOUS
 62
               4
100
AcDbLine
 10
-22.005012207031257
 20
21.0
 30
0.0
 11
-22.005012207031257
 21
0.0
 31
0.0
  0
LINE
  5
C7
100
AcDbEntity
  8
0
  6
CONTINUOUS
 62
               4
100
AcDbLine
 10
-12.005012207031257
 20
21.0
 30
0.0
 11
-22.005012207031257
 21
21.0
 31
0.0
  0
LINE
  5
C8
100
AcDbEntity
  8
0
  6
CONTINUOUS
 62
               4
100
AcDbLine
 10
-11.005012207031257
 20
28.199999999999989
 30
0.0
 11
7.1149877929687477
 21
28.199999999999989
 31
0.0
  0
LINE
  5
C9
100
AcDbEntity
  8
0
  6
CONTINUOUS
 62
               4
100
AcDbLine
 10
-12.005012207031257
 20
26.0
 30
0.0
 11
-19.005012207031257
 21
26.0
 31
0.0
  0
LINE
  5
CA
100
AcDbEntity
  8
0
  6
CONTINUOUS
 62
               4
100
AcDbLine
 10
-12.005012207031257
 20
26.199999999999989
 30
0.0
 11
-11.005012207031257
 21
28.199999999999989
 31
0.0
  0
LINE
  5
CB
100
AcDbEntity
  8
0
  6
CONTINUOUS
 62
               4
100
AcDbLine
 10
11.994987792968743
 20
26.199999999999989
 30
0.0
 11
11.244987792968743
 21
27.699999999999989
 31
0.0
  0
LINE
  5
CC
100
AcDbEntity
  8
0
  6
CONTINUOUS
 62
               4
100
AcDbLine
 10
5.9949877929687432
 20
28.199999999999989
 30
0.0
 11
5.9949877929687432
 21
26.199999999999989
 31
0.0
  0
LINE
  5
CD
100
AcDbEntity
  8
0
  6
CONTINUOUS
 62
               4
100
AcDbLine
 10
11.544987792968755
 20
26.800000000000011
 30
0.0
 11
6.4449877929687318
 21
26.800000000000011
 31
0.0
  0
LINE
  5
CE
100
AcDbEntity
  8
0
  6
CONTINUOUS
 62
               4
100
AcDbLine
 10
11.544987792968755
 20
26.800000000000011
 30
0.0
 11
11.544987792968755
 21
26.199999999999989
 31
0.0
  0
LINE
  5
CF
100
AcDbEntity
  8
0
  6
CONTINUOUS
 62
               4
100
AcDbLine
 10
6.4449877929687318
 20
26.800000000000011
 30
0.0
 11
6.4449877929687318
 21
26.199999999999989
 31
0.0
  0
LINE
  5
D0
100
AcDbEntity
  8
0
  6
CONTINUOUS
 62
               4
100
AcDbLine
 10
11.244987792968743
 20
28.060000000000002
 30
0.0
 11
11.244987792968743
 21
26.800000000000011
 31
0.0
  0
LINE
  5
D1
100
AcDbEntity
  8
0
  6
CONTINUOUS
 62
               4
100
AcDbLine
 10
6.7449877929687432
 20
28.060000000000002
 30
0.0
 11
6.7449877929687432
 21
26.800000000000011
 31
0.0
  0
LINE
  5
D2
100
AcDbEntity
  8
0
  6
CONTINUOUS
 62
               4
100
AcDbLine
 10
10.864987792968748
 20
28.199999999999989
 30
0.0
 11
10.994987792968743
 21
28.199999999999989
 31
0.0
  0
LINE
  5
D3
100
AcDbEntity
  8
0
  6
CONTINUOUS
 62
               4
100
AcDbLine
 10
-19.005012207031257
 20
26.5
 30
0.0
 11
-19.005012207031257
 21
21.0
 31
0.0
  0
LINE
  5
D4
100
AcDbEntity
  8
0
  6
CONTINUOUS
 62
               4
100
AcDbLine
 10
-13.005012207031257
 20
28.0
 30
0.0
 11
-13.005012207031257
 21
26.0
 31
0.0
  0
LINE
  5
D5
100
AcDbEntity
  8
0
  6
CONTINUOUS
 62
               4
100
AcDbLine
 10
11.994987792968743
 20
26.199999999999989
 30
0.0
 11
-12.005012207031257
 21
26.199999999999989
 31
0.0
  0
LINE
  5
D6
100
AcDbEntity
  8
0
  6
CONTINUOUS
 62
             200
100
AcDbLine
 10
-13.655012207031263
 20
41.009999999999991
 30
0.0
 11
-19.355012207031251
 21
42.539999999999992
 31
0.0
  0
LINE
  5
D7
100
AcDbEntity
  8
0
  6
CONTINUOUS
 62
             200
100
AcDbLine
 10
-13.655012207031263
 20
39.460000000000008
 30
0.0
 11
-19.355012207031251
 21
40.97999999999999
 31
0.0
  0
LINE
  5
D8
100
AcDbEntity
  8
0
  6
CONTINUOUS
 62
               4
100
AcDbLine
 10
-15.655012207031263
 20
41.539999999999992
 30
0.0
 11
-15.655012207031263
 21
46.0
 31
0.0
  0
LINE
  5
D9
100
AcDbEntity
  8
0
  6
CONTINUOUS
 62
               4
100
AcDbLine
 10
-17.355012207031251
 20
42.0
 30
0.0
 11
-17.355012207031251
 21
46.0
 31
0.0
  0
LINE
  5
DA
100
AcDbEntity
  8
0
  6
CONTINUOUS
 62
               4
100
AcDbLine
 10
11.014987792968753
 20
28.139999999999986
 30
0.0
 11
10.994987792968743
 21
28.199999999999989
 31
0.0
  0
LINE
  5
DB
100
AcDbEntity
  8
0
  6
CONTINUOUS
 62
               4
100
AcDbLine
 10
-12.505012207031257
 20
0.0
 30
0.0
 11
-22.005012207031257
 21
0.0
 31
0.0
  0
ARC
  5
DC
100
AcDbEntity
  8
0
  6
CONTINUOUS
 62
               4
100
AcDbCircle
 10
-9.0000122070312614
 20
22.499908447265625
 30
0.0
 40
6.000555700062602
100
AcDbArc
 50
71.791788690344731
 51
108.2082113096549
  0
ARC
  5
DD
100
AcDbEntity
  8
0
  6
CONTINUOUS
 62
               4
100
AcDbCircle
 10
-18.505012207031257
 20
28.5
 30
0.0
 40
0.5
100
AcDbArc
 50
179.9999999999996
 51
0.0
  0
ARC
  5
DE
100
AcDbEntity
  8
0
  6
CONTINUOUS
 62
               4
100
AcDbCircle
 10
-18.505012207031257
 20
26.5
 30
0.0
 40
0.5
100
AcDbArc
 50
0.0
 51
179.9999999999996
  0
ARC
  5
DF
100
AcDbEntity
  8
0
  6
CONTINUOUS
 62
               4
100
AcDbCircle
 10
8.9949877929687432
 20
22.499923706054687
 30
0.0
 40
5.9980787252663355
100
AcDbArc
 50
67.968262936068896
 51
112.03173706393071
  0
ENDBLK
  5
E0
100
AcDbEntity
  8
0
100
AcDbBlockEnd
  0
BLOCK
  5
E1
100
AcDbEntity
  8
0
100
AcDbBlockBegin
  2
MS_4
 70
               0
 10
0.0
 20
0.0
 30
0.0
  3
MS_4
  1

  0
LINE
  5
E2
100
AcDbEntity
  8
0
  6
CONTINUOUS
 62
               4
100
AcDbLine
 10
-1.5049511718750068
 20
-22.5
 30
0.0
 11
-1.5049511718750068
 21
-25.5
 31
0.0
  0
LINE
  5
E3
100
AcDbEntity
  8
0
  6
CONTINUOUS
 62
               4
100
AcDbLine
 10
1.4950488281249932
 20
-4.5
 30
0.0
 11
1.4950488281249932
 21
-1.5
 31
0.0
  0
LINE
  5
E4
100
AcDbEntity
  8
0
  6
CONTINUOUS
 62
               4
100
AcDbLine
 10
4.4950488281249932
 20
-7.5
 30
0.0
 11
7.4950488281249932
 21
-7.5
 31
0.0
  0
LINE
  5
E5
100
AcDbEntity
  8
0
  6
CONTINUOUS
 62
               4
100
AcDbLine
 10
-4.5049511718750068
 20
-19.5
 30
0.0
 11
-7.5049511718750068
 21
-19.5
 31
0.0
  0
LINE
  5
E6
100
AcDbEntity
  8
0
  6
CONTINUOUS
 62
               4
100
AcDbLine
 10
1.4950488281249932
 20
-2.5
 30
0.0
 11
-6.5049511718750068
 21
-2.5
 31
0.0
  0
LINE
  5
E7
100
AcDbEntity
  8
0
  6
CONTINUOUS
 62
               4
100
AcDbLine
 10
6.4950488281249932
 20
-24.5
 30
0.0
 11
-1.5049511718750068
 21
-24.5
 31
0.0
  0
LINE
  5
E8
100
AcDbEntity
  8
0
  6
CONTINUOUS
 62
               4
100
AcDbLine
 10
6.4950488281249932
 20
-7.5
 30
0.0
 11
6.4950488281249932
 21
-24.5
 31
0.0
  0
LINE
  5
E9
100
AcDbEntity
  8
0
  6
CONTINUOUS
 62
               4
100
AcDbLine
 10
-6.5049511718750068
 20
-2.5
 30
0.0
 11
-6.5049511718750068
 21
-19.5
 31
0.0
  0
LINE
  5
EA
100
AcDbEntity
  8
0
  6
CONTINUOUS
 62
               4
100
AcDbLine
 10
5.4950488281249932
 20
-30.699999999999989
 30
0.0
 11
3.9950488281249932
 21
-30.699999999999989
 31
0.0
  0
LINE
  5
EB
100
AcDbEntity
  8
0
  6
CONTINUOUS
 62
               4
100
AcDbLine
 10
3.9950488281249932
 20
-33.5
 30
0.0
 11
-4.0049511718750068
 21
-33.5
 31
0.0
  0
LINE
  5
EC
100
AcDbEntity
  8
0
  6
CONTINUOUS
 62
               4
100
AcDbLine
 10
5.4950488281249932
 20
-30.699999999999989
 30
0.0
 11
5.4950488281249932
 21
-28.900000000000006
 31
0.0
  0
LINE
  5
ED
100
AcDbEntity
  8
0
  6
CONTINUOUS
 62
               4
100
AcDbLine
 10
-5.5049511718750068
 20
-30.699999999999989
 30
0.0
 11
-5.5049511718750068
 21
-28.900000000000006
 31
0.0
  0
LINE
  5
EE
100
AcDbEntity
  8
0
  6
CONTINUOUS
 62
               4
100
AcDbLine
 10
3.9950488281249932
 20
-31.5
 30
0.0
 11
3.6950488281249818
 21
-31.800000000000011
 31
0.0
  0
LINE
  5
EF
100
AcDbEntity
  8
0
  6
CONTINUOUS
 62
               4
100
AcDbLine
 10
-4.0049511718750068
 20
-31.5
 30
0.0
 11
-3.7049511718749955
 21
-31.800000000000011
 31
0.0
  0
LINE
  5
F0
100
AcDbEntity
  8
0
  6
CONTINUOUS
 62
               4
100
AcDbLine
 10
3.9950488281249932
 20
-28.900000000000006
 30
0.0
 11
3.9950488281249932
 21
-26.5
 31
0.0
  0
LINE
  5
F1
100
AcDbEntity
  8
0
  6
CONTINUOUS
 62
               4
100
AcDbLine
 10
-4.0049511718750068
 20
-28.900000000000006
 30
0.0
 11
-4.0049511718750068
 21
-26.5
 31
0.0
  0
LINE
  5
F2
100
AcDbEntity
  8
0
  6
CONTINUOUS
 62
               4
100
AcDbLine
 10
-4.0049511718750068
 20
-30.699999999999989
 30
0.0
 11
-5.5049511718750068
 21
-30.699999999999989
 31
0.0
  0
LINE
  5
F3
100
AcDbEntity
  8
0
  6
CONTINUOUS
 62
               4
100
AcDbLine
 10
3.4450488281249818
 20
-30.949999999999989
 30
0.0
 11
1.5450488281250045
 21
-30.949999999999989
 31
0.0
  0
LINE
  5
F4
100
AcDbEntity
  8
0
  6
CONTINUOUS
 62
               4
100
AcDbLine
 10
3.4450488281249818
 20
-29.050000000000011
 30
0.0
 11
1.5450488281250045
 21
-29.050000000000011
 31
0.0
  0
LINE
  5
F5
100
AcDbEntity
  8
0
  6
CONTINUOUS
 62
               4
100
AcDbLine
 10
3.4450488281249818
 20
-31.150000000000006
 30
0.0
 11
3.4450488281249818
 21
-29.050000000000011
 31
0.0
  0
LINE
  5
F6
100
AcDbEntity
  8
0
  6
CONTINUOUS
 62
               4
100
AcDbLine
 10
1.5450488281250045
 20
-31.150000000000006
 30
0.0
 11
1.5450488281250045
 21
-29.050000000000011
 31
0.0
  0
LINE
  5
F7
100
AcDbEntity
  8
0
  6
CONTINUOUS
 62
               4
100
AcDbLine
 10
0.9450488281249818
 20
-31.150000000000006
 30
0.0
 11
0.9450488281249818
 21
-29.050000000000011
 31
0.0
  0
LINE
  5
F8
100
AcDbEntity
  8
0
  6
CONTINUOUS
 62
               4
100
AcDbLine
 10
-0.9549511718749955
 20
-31.150000000000006
 30
0.0
 11
-0.9549511718749955
 21
-29.050000000000011
 31
0.0
  0
LINE
  5
F9
100
AcDbEntity
  8
0
  6
CONTINUOUS
 62
               4
100
AcDbLine
 10
-3.4549511718749955
 20
-31.150000000000006
 30
0.0
 11
-3.4549511718749955
 21
-29.050000000000011
 31
0.0
  0
LINE
  5
FA
100
AcDbEntity
  8
0
  6
CONTINUOUS
 62
               4
100
AcDbLine
 10
-1.5549511718750182
 20
-31.150000000000006
 30
0.0
 11
-1.5549511718750182
 21
-29.050000000000011
 31
0.0
  0
LINE
  5
FB
100
AcDbEntity
  8
0
  6
CONTINUOUS
 62
               4
100
AcDbLine
 10
0.9450488281249818
 20
-30.949999999999989
 30
0.0
 11
-0.9549511718749955
 21
-30.949999999999989
 31
0.0
  0
LINE
  5
FC
100
AcDbEntity
  8
0
  6
CONTINUOUS
 62
               4
100
AcDbLine
 10
0.9450488281249818
 20
-29.050000000000011
 30
0.0
 11
-0.9549511718749955
 21
-29.050000000000011
 31
0.0
  0
LINE
  5
FD
100
AcDbEntity
  8
0
  6
CONTINUOUS
 62
               4
100
AcDbLine
 10
-1.5549511718750182
 20
-29.050000000000011
 30
0.0
 11
-3.4549511718749955
 21
-29.050000000000011
 31
0.0
  0
LINE
  5
FE
100
AcDbEntity
  8
0
  6
CONTINUOUS
 62
               4
100
AcDbLine
 10
-1.5549511718750182
 20
-30.949999999999989
 30
0.0
 11
-3.4549511718749955
 21
-30.949999999999989
 31
0.0
  0
LINE
  5
FF
100
AcDbEntity
  8
0
  6
CONTINUOUS
 62
               4
100
AcDbLine
 10
3.6950488281249818
 20
-31.800000000000011
 30
0.0
 11
-3.7049511718749955
 21
-31.800000000000011
 31
0.0
  0
LINE
  5
100
100
AcDbEntity
  8
0
  6
CONTINUOUS
 62
               4
100
AcDbLine
 10
3.9950488281249932
 20
-34.5
 30
0.0
 11
-4.0049511718750068
 21
-34.5
 31
0.0
  0
LINE
  5
101
100
AcDbEntity
  8
0
  6
CONTINUOUS
 62
               4
100
AcDbLine
 10
-4.0049511718750068
 20
-34.5
 30
0.0
 11
-4.0049511718750068
 21
-30.699999999999989
 31
0.0
  0
LINE
  5
102
100
AcDbEntity
  8
0
  6
CONTINUOUS
 62
               4
100
AcDbLine
 10
3.9950488281249932
 20
-34.5
 30
0.0
 11
3.9950488281249932
 21
-30.699999999999989
 31
0.0
  0
LINE
  5
103
100
AcDbEntity
  8
0
  6
CONTINUOUS
 62
               4
100
AcDbLine
 10
3.4450488281249818
 20
-31.150000000000006
 30
0.0
 11
1.5450488281250045
 21
-31.150000000000006
 31
0.0
  0
LINE
  5
104
100
AcDbEntity
  8
0
  6
CONTINUOUS
 62
               4
100
AcDbLine
 10
0.9450488281249818
 20
-31.150000000000006
 30
0.0
 11
-0.9549511718749955
 21
-31.150000000000006
 31
0.0
  0
LINE
  5
105
100
AcDbEntity
  8
0
  6
CONTINUOUS
 62
               4
100
AcDbLine
 10
-1.5549511718750182
 20
-31.150000000000006
 30
0.0
 11
-3.4549511718749955
 21
-31.150000000000006
 31
0.0
  0
LINE
  5
106
100
AcDbEntity
  8
0
  6
CONTINUOUS
 62
               4
100
AcDbLine
 10
2.9950488281249932
 20
-28.75
 30
0.0
 11
1.9950488281249932
 21
-28.75
 31
0.0
  0
LINE
  5
107
100
AcDbEntity
  8
0
  6
CONTINUOUS
 62
               4
100
AcDbLine
 10
0.4950488281249932
 20
-28.75
 30
0.0
 11
-0.5049511718750068
 21
-28.75
 31
0.0
  0
LINE
  5
108
100
AcDbEntity
  8
0
  6
CONTINUOUS
 62
               4
100
AcDbLine
 10
-2.0049511718750068
 20
-28.75
 30
0.0
 11
-3.0049511718750068
 21
-28.75
 31
0.0
  0
LINE
  5
109
100
AcDbEntity
  8
0
  6
CONTINUOUS
 62
               4
100
AcDbLine
 10
2.9950488281249932
 20
-29.050000000000011
 30
0.0
 11
2.9950488281249932
 21
-28.75
 31
0.0
  0
LINE
  5
10A
100
AcDbEntity
  8
0
  6
CONTINUOUS
 62
               4
100
AcDbLine
 10
1.9950488281249932
 20
-29.050000000000011
 30
0.0
 11
1.9950488281249932
 21
-28.75
 31
0.0
  0
LINE
  5
10B
100
AcDbEntity
  8
0
  6
CONTINUOUS
 62
               4
100
AcDbLine
 10
0.4950488281249932
 20
-29.050000000000011
 30
0.0
 11
0.4950488281249932
 21
-28.75
 31
0.0
  0
LINE
  5
10C
100
AcDbEntity
  8
0
  6
CONTINUOUS
 62
               4
100
AcDbLine
 10
-0.5049511718750068
 20
-29.050000000000011
 30
0.0
 11
-0.5049511718750068
 21
-28.75
 31
0.0
  0
LINE
  5
10D
100
AcDbEntity
  8
0
  6
CONTINUOUS
 62
               4
100
AcDbLine
 10
-3.0049511718750068
 20
-29.050000000000011
 30
0.0
 11
-3.0049511718750068
 21
-28.75
 31
0.0
  0
LINE
  5
10E
100
AcDbEntity
  8
0
  6
CONTINUOUS
 62
               4
100
AcDbLine
 10
-2.0049511718750068
 20
-29.050000000000011
 30
0.0
 11
-2.0049511718750068
 21
-28.75
 31
0.0
  0
LINE
  5
10F
100
AcDbEntity
  8
0
  6
CONTINUOUS
 62
               4
100
AcDbLine
 10
6.9950488281249932
 20
-32.5
 30
0.0
 11
-7.0049511718750068
 21
-32.5
 31
0.0
  0
LINE
  5
110
100
AcDbEntity
  8
0
  6
CONTINUOUS
 62
               4
100
AcDbLine
 10
5.6950488281249818
 20
-30.900000000000006
 30
0.0
 11
4.1950488281249818
 21
-30.900000000000006
 31
0.0
  0
LINE
  5
111
100
AcDbEntity
  8
0
  6
CONTINUOUS
 62
               4
100
AcDbLine
 10
5.6950488281249818
 20
-28.900000000000006
 30
0.0
 11
3.9950488281249932
 21
-28.900000000000006
 31
0.0
  0
LINE
  5
112
100
AcDbEntity
  8
0
  6
CONTINUOUS
 62
               4
100
AcDbLine
 10
4.1950488281249818
 20
-26.5
 30
0.0
 11
-4.2049511718749955
 21
-26.5
 31
0.0
  0
LINE
  5
113
100
AcDbEntity
  8
0
  6
CONTINUOUS
 62
               4
100
AcDbLine
 10
4.1950488281249818
 20
-26.5
 30
0.0
 11
4.1950488281249818
 21
-28.900000000000006
 31
0.0
  0
LINE
  5
114
100
AcDbEntity
  8
0
  6
CONTINUOUS
 62
               4
100
AcDbLine
 10
-4.2049511718749955
 20
-26.5
 30
0.0
 11
-4.2049511718749955
 21
-28.900000000000006
 31
0.0
  0
LINE
  5
115
100
AcDbEntity
  8
0
  6
CONTINUOUS
 62
               4
100
AcDbLine
 10
-5.7049511718749955
 20
-28.900000000000006
 30
0.0
 11
-5.7049511718749955
 21
-30.900000000000006
 31
0.0
  0
LINE
  5
116
100
AcDbEntity
  8
0
  6
CONTINUOUS
 62
               4
100
AcDbLine
 10
5.6950488281249818
 20
-28.900000000000006
 30
0.0
 11
5.6950488281249818
 21
-30.900000000000006
 31
0.0
  0
LINE
  5
117
100
AcDbEntity
  8
0
  6
CONTINUOUS
 62
               4
100
AcDbLine
 10
-4.0049511718750068
 20
-28.900000000000006
 30
0.0
 11
-5.7049511718749955
 21
-28.900000000000006
 31
0.0
  0
LINE
  5
118
100
AcDbEntity
  8
0
  6
CONTINUOUS
 62
               4
100
AcDbLine
 10
-4.2049511718749955
 20
-30.900000000000006
 30
0.0
 11
-5.7049511718749955
 21
-30.900000000000006
 31
0.0
  0
LINE
  5
119
100
AcDbEntity
  8
0
  6
CONTINUOUS
 62
               4
100
AcDbLine
 10
4.1950488281249818
 20
-30.900000000000006
 30
0.0
 11
4.1950488281249818
 21
-32.5
 31
0.0
  0
LINE
  5
11A
100
AcDbEntity
  8
0
  6
CONTINUOUS
 62
               4
100
AcDbLine
 10
-4.2049511718749955
 20
-30.900000000000006
 30
0.0
 11
-4.2049511718749955
 21
-32.5
 31
0.0
  0
LINE
  5
11B
100
AcDbEntity
  8
0
  6
CONTINUOUS
 62
               4
100
AcDbLine
 10
4.1950488281249818
 20
-31.5
 30
0.0
 11
-4.2049511718749955
 21
-31.5
 31
0.0
  0
LINE
  5
11C
100
AcDbEntity
  8
0
  6
CONTINUOUS
 62
               4
100
AcDbLine
 10
7.4950488281249932
 20
-1.5
 30
0.0
 11
-7.5049511718750068
 21
-1.5
 31
0.0
  0
LINE
  5
11D
100
AcDbEntity
  8
0
  6
CONTINUOUS
 62
               4
100
AcDbLine
 10
7.4950488281249932
 20
-1.5
 30
0.0
 11
7.4950488281249932
 21
-25.5
 31
0.0
  0
LINE
  5
11E
100
AcDbEntity
  8
0
  6
CONTINUOUS
 62
               4
100
AcDbLine
 10
-7.5049511718750068
 20
-1.5
 30
0.0
 11
-7.5049511718750068
 21
-25.5
 31
0.0
  0
LINE
  5
11F
100
AcDbEntity
  8
0
  6
CONTINUOUS
 62
               4
100
AcDbLine
 10
7.4950488281249932
 20
-25.5
 30
0.0
 11
-7.5049511718750068
 21
-25.5
 31
0.0
  0
LINE
  5
120
100
AcDbEntity
  8
0
  6
CONTINUOUS
 62
               4
100
AcDbLine
 10
6.9950488281249932
 20
-25.5
 30
0.0
 11
6.9950488281249932
 21
-35.5
 31
0.0
  0
LINE
  5
121
100
AcDbEntity
  8
0
  6
CONTINUOUS
 62
               4
100
AcDbLine
 10
6.9950488281249932
 20
-35.5
 30
0.0
 11
-7.0049511718750068
 21
-35.5
 31
0.0
  0
LINE
  5
122
100
AcDbEntity
  8
0
  6
CONTINUOUS
 62
               4
100
AcDbLine
 10
-7.0049511718750068
 20
-25.5
 30
0.0
 11
-7.0049511718750068
 21
-35.5
 31
0.0
  0
LINE
  5
123
100
AcDbEntity
  8
0
  6
CONTINUOUS
 62
               4
100
AcDbLine
 10
5.4950488281249932
 20
-34.0
 30
0.0
 11
3.9950488281249932
 21
-34.0
 31
0.0
  0
LINE
  5
124
100
AcDbEntity
  8
0
  6
CONTINUOUS
 62
               4
100
AcDbLine
 10
4.4950488281249932
 20
-34.699999999999989
 30
0.0
 11
-4.5049511718750068
 21
-34.699999999999989
 31
0.0
  0
LINE
  5
125
100
AcDbEntity
  8
0
  6
CONTINUOUS
 62
               4
100
AcDbLine
 10
5.4950488281249932
 20
-32.5
 30
0.0
 11
5.4950488281249932
 21
-34.0
 31
0.0
  0
LINE
  5
126
100
AcDbEntity
  8
0
  6
CONTINUOUS
 62
               4
100
AcDbLine
 10
-5.5049511718750068
 20
-32.5
 30
0.0
 11
-5.5049511718750068
 21
-34.0
 31
0.0
  0
LINE
  5
127
100
AcDbEntity
  8
0
  6
CONTINUOUS
 62
               4
100
AcDbLine
 10
4.4950488281249932
 20
-34.0
 30
0.0
 11
4.4950488281249932
 21
-34.699999999999989
 31
0.0
  0
LINE
  5
128
100
AcDbEntity
  8
0
  6
CONTINUOUS
 62
               4
100
AcDbLine
 10
-4.5049511718750068
 20
-34.0
 30
0.0
 11
-4.5049511718750068
 21
-34.699999999999989
 31
0.0
  0
LINE
  5
129
100
AcDbEntity
  8
0
  6
CONTINUOUS
 62
               4
100
AcDbLine
 10
-4.0049511718750068
 20
-34.0
 30
0.0
 11
-5.5049511718750068
 21
-34.0
 31
0.0
  0
LINE
  5
12A
100
AcDbEntity
  8
0
  6
CONTINUOUS
 62
               4
100
AcDbLine
 10
-5.4149511718750318
 20
-23.409999999999997
 30
0.0
 11
-3.5849511718749909
 21
-21.579999999999984
 31
0.0
  0
LINE
  5
12B
100
AcDbEntity
  8
0
  6
CONTINUOUS
 62
               4
100
AcDbLine
 10
-5.4149511718750318
 20
-21.579999999999984
 30
0.0
 11
-3.5849511718749909
 21
-23.409999999999997
 31
0.0
  0
LINE
  5
12C
100
AcDbEntity
  8
0
  6
CONTINUOUS
 62
               4
100
AcDbLine
 10
5.4050488281250182
 20
-5.4099999999999966
 30
0.0
 11
3.5750488281249773
 21
-3.5800000000000125
 31
0.0
  0
LINE
  5
12D
100
AcDbEntity
  8
0
  6
CONTINUOUS
 62
               4
100
AcDbLine
 10
3.5750488281249773
 20
-5.4099999999999966
 30
0.0
 11
5.4050488281250182
 21
-3.5800000000000125
 31
0.0
  0
ARC
  5
12E
100
AcDbEntity
  8
0
  6
CONTINUOUS
 62
               4
100
AcDbCircle
 10
-4.5049359130859443
 20
-22.499984741210938
 30
0.0
 40
2.9999847412497429
100
AcDbArc
 50
359.99970857711236
 51
90.000291422886662
  0
ARC
  5
12F
100
AcDbEntity
  8
0
  6
CONTINUOUS
 62
               4
100
AcDbCircle
 10
4.4950488281249932
 20
-4.5
 30
0.0
 40
3.0
100
AcDbArc
 50
179.9999999999996
 51
269.99999999999937
  0
CIRCLE
  5
130
100
AcDbEntity
  8
0
  6
CONTINUOUS
 62
               4
100
AcDbCircle
 10
-4.5049206542968818
 20
-22.5
 30
0.0
 40
2.5500001907348633
  0
CIRCLE
  5
131
100
AcDbEntity
  8
0
  6
CONTINUOUS
 62
               4
100
AcDbCircle
 10
4.4950488281249932
 20
-4.5
 30
0.0
 40
2.5500001907348633
  0
CIRCLE
  5
132
100
AcDbEntity
  8
0
  6
CONTINUOUS
 62
               4
100
AcDbCircle
 10
-4.5049206542968818
 20
-22.5
 30
0.0
 40
2.25
  0
CIRCLE
  5
133
100
AcDbEntity
  8
0
  6
CONTINUOUS
 62
               4
100
AcDbCircle
 10
4.4950488281249932
 20
-4.5
 30
0.0
 40
2.25
  0
CIRCLE
  5
134
100
AcDbEntity
  8
0
  6
CONTINUOUS
 62
               4
100
AcDbCircle
 10
2.4950793457031182
 20
-30.0
 30
0.0
 40
0.8500000238418579
  0
CIRCLE
  5
135
100
AcDbEntity
  8
0
  6
CONTINUOUS
 62
               4
100
AcDbCircle
 10
-2.5049206542968818
 20
-30.0
 30
0.0
 40
0.8500000238418579
  0
ENDBLK
  5
136
100
AcDbEntity
  8
0
100
AcDbBlockEnd
  0
BLOCK
  5
137
100
AcDbEntity
  8
0
100
AcDbBlockBegin
  2
MS_5
 70
               0
 10
0.0
 20
0.0
 30
0.0
  3
MS_5
  1

  0
LINE
  5
138
100
AcDbEntity
  8
0
  6
CONTINUOUS
 62
               4
100
AcDbLine
 10
-7.0049511718750068
 20
27.0
 30
0.0
 11
-7.0049511718750068
 21
35.5
 31
0.0
  0
LINE
  5
139
100
AcDbEntity
  8
0
  6
CONTINUOUS
 62
               4
100
AcDbLine
 10
-7.0049511718750068
 20
35.5
 30
0.0
 11
6.9950488281249932
 21
35.5
 31
0.0
  0
LINE
  5
13A
100
AcDbEntity
  8
0
  6
CONTINUOUS
 62
               4
100
AcDbLine
 10
6.9950488281249932
 20
27.0
 30
0.0
 11
6.9950488281249932
 21
35.5
 31
0.0
  0
ENDBLK
  5
13B
100
AcDbEntity
  8
0
100
AcDbBlockEnd
  0
BLOCK
  5
13C
100
AcDbEntity
  8
0
100
AcDbBlockBegin
  2
MS_6
 70
               0
 10
0.0
 20
0.0
 30
0.0
  3
MS_6
  1

  0
LINE
  5
13D
100
AcDbEntity
  8
0
  6
CONTINUOUS
 62
               4
100
AcDbLine
 10
-7.5049908447265619
 20
26.199999999999989
 30
0.0
 11
-7.5049908447265619
 21
0.0
 31
0.0
  0
LINE
  5
13E
100
AcDbEntity
  8
0
  6
CONTINUOUS
 62
               4
100
AcDbLine
 10
7.4950091552734381
 20
26.199999999999989
 30
0.0
 11
7.4950091552734381
 21
0.0
 31
0.0
  0
LINE
  5
13F
100
AcDbEntity
  8
0
  6
CONTINUOUS
 62
               4
100
AcDbLine
 10
-7.5049908447265619
 20
25.199999999999989
 30
0.0
 11
-7.0049908447265619
 21
25.199999999999989
 31
0.0
  0
LINE
  5
140
100
AcDbEntity
  8
0
  6
CONTINUOUS
 62
               4
100
AcDbLine
 10
6.9950091552734381
 20
27.0
 30
0.0
 11
6.9950091552734381
 21
0.0
 31
0.0
  0
LINE
  5
141
100
AcDbEntity
  8
0
  6
CONTINUOUS
 62
               4
100
AcDbLine
 10
-7.0049908447265619
 20
27.0
 30
0.0
 11
-7.0049908447265619
 21
0.0
 31
0.0
  0
LINE
  5
142
100
AcDbEntity
  8
0
  6
CONTINUOUS
 62
               4
100
AcDbLine
 10
-7.0049908447265619
 20
27.0
 30
0.0
 11
6.9950091552734381
 21
27.0
 31
0.0
  0
LINE
  5
143
100
AcDbEntity
  8
0
  6
CONTINUOUS
 62
               4
100
AcDbLine
 10
-7.0049908447265619
 20
21.0
 30
0.0
 11
6.9950091552734381
 21
21.0
 31
0.0
  0
LINE
  5
144
100
AcDbEntity
  8
0
  6
CONTINUOUS
 62
               4
100
AcDbLine
 10
6.9950091552734381
 20
25.199999999999989
 30
0.0
 11
7.4950091552734381
 21
25.199999999999989
 31
0.0
  0
LINE
  5
145
100
AcDbEntity
  8
0
  6
CONTINUOUS
 62
               4
100
AcDbLine
 10
-2.0049908447265623
 20
13.5
 30
0.0
 11
1.9950091552734377
 21
13.5
 31
0.0
  0
LINE
  5
146
100
AcDbEntity
  8
0
  6
CONTINUOUS
 62
               4
100
AcDbLine
 10
-2.0049908447265623
 20
11.5
 30
0.0
 11
1.9950091552734377
 21
11.5
 31
0.0
  0
LINE
  5
147
100
AcDbEntity
  8
0
  6
CONTINUOUS
 62
               4
100
AcDbLine
 10
-2.0049908447265623
 20
13.5
 30
0.0
 11
-2.0049908447265623
 21
11.5
 31
0.0
  0
LINE
  5
148
100
AcDbEntity
  8
0
  6
CONTINUOUS
 62
               4
100
AcDbLine
 10
1.9950091552734377
 20
13.5
 30
0.0
 11
1.9950091552734377
 21
11.5
 31
0.0
  0
LINE
  5
149
100
AcDbEntity
  8
0
  6
CONTINUOUS
 62
               4
100
AcDbLine
 10
-2.5049908447265623
 20
14.0
 30
0.0
 11
2.4950091552734377
 21
14.0
 31
0.0
  0
LINE
  5
14A
100
AcDbEntity
  8
0
  6
CONTINUOUS
 62
               4
100
AcDbLine
 10
-2.5049908447265623
 20
14.0
 30
0.0
 11
-2.5049908447265623
 21
11.0
 31
0.0
  0
LINE
  5
14B
100
AcDbEntity
  8
0
  6
CONTINUOUS
 62
               4
100
AcDbLine
 10
-2.5049908447265623
 20
11.0
 30
0.0
 11
2.4950091552734377
 21
11.0
 31
0.0
  0
LINE
  5
14C
100
AcDbEntity
  8
0
  6
CONTINUOUS
 62
               4
100
AcDbLine
 10
2.4950091552734377
 20
14.0
 30
0.0
 11
2.4950091552734377
 21
11.0
 31
0.0
  0
LINE
  5
14D
100
AcDbEntity
  8
0
  6
CONTINUOUS
 62
               4
100
AcDbLine
 10
-6.5049908447265619
 20
28.199999999999989
 30
0.0
 11
-6.3749908447265629
 21
28.199999999999989
 31
0.0
  0
LINE
  5
14E
100
AcDbEntity
  8
0
  6
CONTINUOUS
 62
               4
100
AcDbLine
 10
-7.5049908447265619
 20
26.199999999999989
 30
0.0
 11
-7.0049908447265619
 21
26.199999999999989
 31
0.0
  0
LINE
  5
14F
100
AcDbEntity
  8
0
  6
CONTINUOUS
 62
               4
100
AcDbLine
 10
-7.5049908447265619
 20
26.199999999999989
 30
0.0
 11
-6.7549908447265619
 21
27.699999999999989
 31
0.0
  0
LINE
  5
150
100
AcDbEntity
  8
0
  6
CONTINUOUS
 62
               4
100
AcDbLine
 10
7.4950091552734381
 20
26.199999999999989
 30
0.0
 11
6.4950091552734381
 21
28.199999999999989
 31
0.0
  0
LINE
  5
151
100
AcDbEntity
  8
0
  6
CONTINUOUS
 62
               4
100
AcDbLine
 10
-7.0049908447265619
 20
26.800000000000011
 30
0.0
 11
-7.0549908447265626
 21
26.800000000000011
 31
0.0
  0
LINE
  5
152
100
AcDbEntity
  8
0
  6
CONTINUOUS
 62
               4
100
AcDbLine
 10
-7.0549908447265626
 20
26.800000000000011
 30
0.0
 11
-7.0549908447265626
 21
26.199999999999989
 31
0.0
  0
LINE
  5
153
100
AcDbEntity
  8
0
  6
CONTINUOUS
 62
               4
100
AcDbLine
 10
6.9950091552734381
 20
26.199999999999989
 30
0.0
 11
7.4950091552734381
 21
26.199999999999989
 31
0.0
  0
LINE
  5
154
100
AcDbEntity
  8
0
  6
CONTINUOUS
 62
               4
100
AcDbLine
 10
-6.7549908447265619
 20
28.060000000000002
 30
0.0
 11
-6.7549908447265619
 21
27.0
 31
0.0
  0
LINE
  5
155
100
AcDbEntity
  8
0
  6
CONTINUOUS
 62
               4
100
AcDbLine
 10
-5.7049908447265611
 20
23.400000000000006
 30
0.0
 11
-4.0049908447265619
 21
23.400000000000006
 31
0.0
  0
LINE
  5
156
100
AcDbEntity
  8
0
  6
CONTINUOUS
 62
               4
100
AcDbLine
 10
-5.7049908447265611
 20
25.400000000000006
 30
0.0
 11
-4.2049908447265629
 21
25.400000000000006
 31
0.0
  0
LINE
  5
157
100
AcDbEntity
  8
0
  6
CONTINUOUS
 62
               4
100
AcDbLine
 10
4.1950091552734374
 20
27.0
 30
0.0
 11
4.1950091552734374
 21
25.400000000000006
 31
0.0
  0
LINE
  5
158
100
AcDbEntity
  8
0
  6
CONTINUOUS
 62
               4
100
AcDbLine
 10
-4.2049908447265629
 20
27.0
 30
0.0
 11
-4.2049908447265629
 21
25.400000000000006
 31
0.0
  0
LINE
  5
159
100
AcDbEntity
  8
0
  6
CONTINUOUS
 62
               4
100
AcDbLine
 10
5.6950091552734374
 20
25.400000000000006
 30
0.0
 11
5.6950091552734374
 21
23.400000000000006
 31
0.0
  0
LINE
  5
15A
100
AcDbEntity
  8
0
  6
CONTINUOUS
 62
               4
100
AcDbLine
 10
-5.7049908447265611
 20
25.400000000000006
 30
0.0
 11
-5.7049908447265611
 21
23.400000000000006
 31
0.0
  0
LINE
  5
15B
100
AcDbEntity
  8
0
  6
CONTINUOUS
 62
               4
100
AcDbLine
 10
-4.2049908447265629
 20
23.400000000000006
 30
0.0
 11
-4.2049908447265629
 21
21.0
 31
0.0
  0
LINE
  5
15C
100
AcDbEntity
  8
0
  6
CONTINUOUS
 62
               4
100
AcDbLine
 10
4.1950091552734374
 20
23.400000000000006
 30
0.0
 11
4.1950091552734374
 21
21.0
 31
0.0
  0
LINE
  5
15D
100
AcDbEntity
  8
0
  6
CONTINUOUS
 62
               4
100
AcDbLine
 10
4.1950091552734374
 20
25.400000000000006
 30
0.0
 11
5.6950091552734374
 21
25.400000000000006
 31
0.0
  0
LINE
  5
15E
100
AcDbEntity
  8
0
  6
CONTINUOUS
 62
               4
100
AcDbLine
 10
3.9950091552734377
 20
23.400000000000006
 30
0.0
 11
5.6950091552734374
 21
23.400000000000006
 31
0.0
  0
LINE
  5
15F
100
AcDbEntity
  8
0
  6
CONTINUOUS
 62
               4
100
AcDbLine
 10
-5.5049908447265619
 20
25.199999999999989
 30
0.0
 11
-4.0049908447265619
 21
25.199999999999989
 31
0.0
  0
LINE
  5
160
100
AcDbEntity
  8
0
  6
CONTINUOUS
 62
               4
100
AcDbLine
 10
-4.0049908447265619
 20
28.0
 30
0.0
 11
3.9950091552734377
 21
28.0
 31
0.0
  0
LINE
  5
161
100
AcDbEntity
  8
0
  6
CONTINUOUS
 62
               4
100
AcDbLine
 10
-5.5049908447265619
 20
25.199999999999989
 30
0.0
 11
-5.5049908447265619
 21
23.400000000000006
 31
0.0
  0
LINE
  5
162
100
AcDbEntity
  8
0
  6
CONTINUOUS
 62
               4
100
AcDbLine
 10
5.4950091552734381
 20
25.199999999999989
 30
0.0
 11
5.4950091552734381
 21
23.400000000000006
 31
0.0
  0
LINE
  5
163
100
AcDbEntity
  8
0
  6
CONTINUOUS
 62
               4
100
AcDbLine
 10
-4.0049908447265619
 20
26.0
 30
0.0
 11
-3.7049908447265625
 21
26.300000000000011
 31
0.0
  0
LINE
  5
164
100
AcDbEntity
  8
0
  6
CONTINUOUS
 62
               4
100
AcDbLine
 10
3.9950091552734377
 20
26.0
 30
0.0
 11
3.6950091552734379
 21
26.300000000000011
 31
0.0
  0
LINE
  5
165
100
AcDbEntity
  8
0
  6
CONTINUOUS
 62
               4
100
AcDbLine
 10
-4.0049908447265619
 20
23.400000000000006
 30
0.0
 11
-4.0049908447265619
 21
21.0
 31
0.0
  0
LINE
  5
166
100
AcDbEntity
  8
0
  6
CONTINUOUS
 62
               4
100
AcDbLine
 10
3.9950091552734377
 20
23.400000000000006
 30
0.0
 11
3.9950091552734377
 21
21.0
 31
0.0
  0
LINE
  5
167
100
AcDbEntity
  8
0
  6
CONTINUOUS
 62
               4
100
AcDbLine
 10
3.9950091552734377
 20
25.199999999999989
 30
0.0
 11
5.4950091552734381
 21
25.199999999999989
 31
0.0
  0
LINE
  5
168
100
AcDbEntity
  8
0
  6
CONTINUOUS
 62
               4
100
AcDbLine
 10
-3.4549908447265625
 20
25.449999999999989
 30
0.0
 11
-1.5549908447265621
 21
25.449999999999989
 31
0.0
  0
LINE
  5
169
100
AcDbEntity
  8
0
  6
CONTINUOUS
 62
               4
100
AcDbLine
 10
-3.4549908447265625
 20
23.550000000000011
 30
0.0
 11
-1.5549908447265621
 21
23.550000000000011
 31
0.0
  0
LINE
  5
16A
100
AcDbEntity
  8
0
  6
CONTINUOUS
 62
               4
100
AcDbLine
 10
-3.4549908447265625
 20
25.650000000000006
 30
0.0
 11
-3.4549908447265625
 21
23.550000000000011
 31
0.0
  0
LINE
  5
16B
100
AcDbEntity
  8
0
  6
CONTINUOUS
 62
               4
100
AcDbLine
 10
-1.5549908447265621
 20
25.650000000000006
 30
0.0
 11
-1.5549908447265621
 21
23.550000000000011
 31
0.0
  0
LINE
  5
16C
100
AcDbEntity
  8
0
  6
CONTINUOUS
 62
               4
100
AcDbLine
 10
-0.9549908447265625
 20
25.650000000000006
 30
0.0
 11
-0.9549908447265625
 21
23.550000000000011
 31
0.0
  0
LINE
  5
16D
100
AcDbEntity
  8
0
  6
CONTINUOUS
 62
               4
100
AcDbLine
 10
0.9450091552734377
 20
25.650000000000006
 30
0.0
 11
0.9450091552734377
 21
23.550000000000011
 31
0.0
  0
LINE
  5
16E
100
AcDbEntity
  8
0
  6
CONTINUOUS
 62
               4
100
AcDbLine
 10
3.4450091552734379
 20
25.650000000000006
 30
0.0
 11
3.4450091552734379
 21
23.550000000000011
 31
0.0
  0
LINE
  5
16F
100
AcDbEntity
  8
0
  6
CONTINUOUS
 62
               4
100
AcDbLine
 10
1.5450091552734377
 20
25.650000000000006
 30
0.0
 11
1.5450091552734377
 21
23.550000000000011
 31
0.0
  0
LINE
  5
170
100
AcDbEntity
  8
0
  6
CONTINUOUS
 62
               4
100
AcDbLine
 10
-0.9549908447265625
 20
25.449999999999989
 30
0.0
 11
0.9450091552734377
 21
25.449999999999989
 31
0.0
  0
LINE
  5
171
100
AcDbEntity
  8
0
  6
CONTINUOUS
 62
               4
100
AcDbLine
 10
-0.9549908447265625
 20
23.550000000000011
 30
0.0
 11
0.9450091552734377
 21
23.550000000000011
 31
0.0
  0
LINE
  5
172
100
AcDbEntity
  8
0
  6
CONTINUOUS
 62
               4
100
AcDbLine
 10
1.5450091552734377
 20
23.550000000000011
 30
0.0
 11
3.4450091552734379
 21
23.550000000000011
 31
0.0
  0
LINE
  5
173
100
AcDbEntity
  8
0
  6
CONTINUOUS
 62
               4
100
AcDbLine
 10
1.5450091552734377
 20
25.449999999999989
 30
0.0
 11
3.4450091552734379
 21
25.449999999999989
 31
0.0
  0
LINE
  5
174
100
AcDbEntity
  8
0
  6
CONTINUOUS
 62
               4
100
AcDbLine
 10
-4.2049908447265629
 20
26.0
 30
0.0
 11
4.1950091552734374
 21
26.0
 31
0.0
  0
LINE
  5
175
100
AcDbEntity
  8
0
  6
CONTINUOUS
 62
               4
100
AcDbLine
 10
-3.7049908447265625
 20
26.300000000000011
 30
0.0
 11
3.6950091552734379
 21
26.300000000000011
 31
0.0
  0
LINE
  5
176
100
AcDbEntity
  8
0
  6
CONTINUOUS
 62
               4
100
AcDbLine
 10
-4.0049908447265619
 20
29.0
 30
0.0
 11
3.9950091552734377
 21
29.0
 31
0.0
  0
LINE
  5
177
100
AcDbEntity
  8
0
  6
CONTINUOUS
 62
               4
100
AcDbLine
 10
3.9950091552734377
 20
29.0
 30
0.0
 11
3.9950091552734377
 21
25.199999999999989
 31
0.0
  0
LINE
  5
178
100
AcDbEntity
  8
0
  6
CONTINUOUS
 62
               4
100
AcDbLine
 10
-4.0049908447265619
 20
29.0
 30
0.0
 11
-4.0049908447265619
 21
25.199999999999989
 31
0.0
  0
LINE
  5
179
100
AcDbEntity
  8
0
  6
CONTINUOUS
 62
               4
100
AcDbLine
 10
-3.4549908447265625
 20
25.650000000000006
 30
0.0
 11
-1.5549908447265621
 21
25.650000000000006
 31
0.0
  0
LINE
  5
17A
100
AcDbEntity
  8
0
  6
CONTINUOUS
 62
               4
100
AcDbLine
 10
-0.9549908447265625
 20
25.650000000000006
 30
0.0
 11
0.9450091552734377
 21
25.650000000000006
 31
0.0
  0
LINE
  5
17B
100
AcDbEntity
  8
0
  6
CONTINUOUS
 62
               4
100
AcDbLine
 10
1.5450091552734377
 20
25.650000000000006
 30
0.0
 11
3.4450091552734379
 21
25.650000000000006
 31
0.0
  0
LINE
  5
17C
100
AcDbEntity
  8
0
  6
CONTINUOUS
 62
               4
100
AcDbLine
 10
-3.0049908447265623
 20
23.25
 30
0.0
 11
-2.0049908447265623
 21
23.25
 31
0.0
  0
LINE
  5
17D
100
AcDbEntity
  8
0
  6
CONTINUOUS
 62
               4
100
AcDbLine
 10
-0.5049908447265623
 20
23.25
 30
0.0
 11
0.4950091552734377
 21
23.25
 31
0.0
  0
LINE
  5
17E
100
AcDbEntity
  8
0
  6
CONTINUOUS
 62
               4
100
AcDbLine
 10
1.9950091552734377
 20
23.25
 30
0.0
 11
2.9950091552734377
 21
23.25
 31
0.0
  0
LINE
  5
17F
100
AcDbEntity
  8
0
  6
CONTINUOUS
 62
               4
100
AcDbLine
 10
-3.0049908447265623
 20
23.550000000000011
 30
0.0
 11
-3.0049908447265623
 21
23.25
 31
0.0
  0
LINE
  5
180
100
AcDbEntity
  8
0
  6
CONTINUOUS
 62
               4
100
AcDbLine
 10
-2.0049908447265623
 20
23.550000000000011
 30
0.0
 11
-2.0049908447265623
 21
23.25
 31
0.0
  0
LINE
  5
181
100
AcDbEntity
  8
0
  6
CONTINUOUS
 62
               4
100
AcDbLine
 10
-0.5049908447265623
 20
23.550000000000011
 30
0.0
 11
-0.5049908447265623
 21
23.25
 31
0.0
  0
LINE
  5
182
100
AcDbEntity
  8
0
  6
CONTINUOUS
 62
               4
100
AcDbLine
 10
0.4950091552734377
 20
23.550000000000011
 30
0.0
 11
0.4950091552734377
 21
23.25
 31
0.0
  0
LINE
  5
183
100
AcDbEntity
  8
0
  6
CONTINUOUS
 62
               4
100
AcDbLine
 10
2.9950091552734377
 20
23.550000000000011
 30
0.0
 11
2.9950091552734377
 21
23.25
 31
0.0
  0
LINE
  5
184
100
AcDbEntity
  8
0
  6
CONTINUOUS
 62
               4
100
AcDbLine
 10
1.9950091552734377
 20
23.550000000000011
 30
0.0
 11
1.9950091552734377
 21
23.25
 31
0.0
  0
LINE
  5
185
100
AcDbEntity
  8
0
  6
CONTINUOUS
 62
               4
100
AcDbLine
 10
6.4950091552734381
 20
28.199999999999989
 30
0.0
 11
3.9950091552734377
 21
28.199999999999989
 31
0.0
  0
LINE
  5
186
100
AcDbEntity
  8
0
  6
CONTINUOUS
 62
               4
100
AcDbLine
 10
-6.5249908447265614
 20
28.139999999999986
 30
0.0
 11
-6.5049908447265619
 21
28.199999999999989
 31
0.0
  0
ARC
  5
187
100
AcDbEntity
  8
0
  6
CONTINUOUS
 62
               4
100
AcDbCircle
 10
-4.5201405413104361
 20
22.497711379525981
 30
0.0
 40
5.9944649949877773
100
AcDbArc
 50
85.070059598786543
 51
111.88957625491314
  0
ARC
  5
188
100
AcDbEntity
  8
0
  6
CONTINUOUS
 62
               4
100
AcDbCircle
 10
4.5149963521670795
 20
22.497665394955277
 30
0.0
 40
5.9949284665913947
100
AcDbArc
 50
72.025342039621222
 51
94.975965401069303
  0
CIRCLE
  5
189
100
AcDbEntity
  8
0
  6
CONTINUOUS
 62
               4
100
AcDbCircle
 10
-2.5049908447265623
 20
24.5
 30
0.0
 40
0.8500000238418579
  0
CIRCLE
  5
18A
100
AcDbEntity
  8
0
  6
CONTINUOUS
 62
               4
100
AcDbCircle
 10
2.4949938964843752
 20
24.5
 30
0.0
 40
0.8500000238418579
  0
ENDBLK
  5
18B
100
AcDbEntity
  8
0
100
AcDbBlockEnd
  0
BLOCK
  5
18C
100
AcDbEntity
  8
0
100
AcDbBlockBegin
  2
MS_7
 70
               0
 10
0.0
 20
0.0
 30
0.0
  3
MS_7
  1

  0
LINE
  5
18D
100
AcDbEntity
  8
0
  6
CONTINUOUS
 62
               4
100
AcDbLine
 10
-12.004990844726564
 20
25.199999999999989
 30
0.0
 11
11.995009155273436
 21
25.199999999999989
 31
0.0
  0
LINE
  5
18E
100
AcDbEntity
  8
0
  6
CONTINUOUS
 62
               4
100
AcDbLine
 10
12.495009155273436
 20
0.0
 30
0.0
 11
21.995009155273436
 21
0.0
 31
0.0
  0
LINE
  5
18F
100
AcDbEntity
  8
0
  6
CONTINUOUS
 62
               4
100
AcDbLine
 10
-12.004990844726564
 20
26.199999999999989
 30
0.0
 11
-12.004990844726564
 21
0.0
 31
0.0
  0
LINE
  5
190
100
AcDbEntity
  8
0
  6
CONTINUOUS
 62
               4
100
AcDbLine
 10
11.995009155273436
 20
27.0
 30
0.0
 11
11.995009155273436
 21
0.0
 31
0.0
  0
LINE
  5
191
100
AcDbEntity
  8
0
  6
CONTINUOUS
 62
               4
100
AcDbLine
 10
21.995009155273436
 20
21.0
 30
0.0
 11
21.995009155273436
 21
0.0
 31
0.0
  0
LINE
  5
192
100
AcDbEntity
  8
0
  6
CONTINUOUS
 62
               4
100
AcDbLine
 10
11.995009155273436
 20
27.0
 30
0.0
 11
22.995009155273436
 21
27.0
 31
0.0
  0
LINE
  5
193
100
AcDbEntity
  8
0
  6
CONTINUOUS
 62
               4
100
AcDbLine
 10
21.095009155273431
 20
27.0
 30
0.0
 11
21.095009155273431
 21
21.0
 31
0.0
  0
LINE
  5
194
100
AcDbEntity
  8
0
  6
CONTINUOUS
 62
               4
100
AcDbLine
 10
11.995009155273436
 20
21.0
 30
0.0
 11
24.495009155273436
 21
21.0
 31
0.0
  0
LINE
  5
195
100
AcDbEntity
  8
0
  6
CONTINUOUS
 62
               4
100
AcDbLine
 10
-11.004990844726564
 20
28.199999999999989
 30
0.0
 11
7.1150091552734409
 21
28.199999999999989
 31
0.0
  0
LINE
  5
196
100
AcDbEntity
  8
0
  6
CONTINUOUS
 62
               4
100
AcDbLine
 10
-12.004990844726564
 20
26.199999999999989
 30
0.0
 11
11.995009155273436
 21
26.199999999999989
 31
0.0
  0
LINE
  5
197
100
AcDbEntity
  8
0
  6
CONTINUOUS
 62
               4
100
AcDbLine
 10
-12.004990844726564
 20
26.199999999999989
 30
0.0
 11
-11.004990844726564
 21
28.199999999999989
 31
0.0
  0
LINE
  5
198
100
AcDbEntity
  8
0
  6
CONTINUOUS
 62
               4
100
AcDbLine
 10
11.995009155273436
 20
26.199999999999989
 30
0.0
 11
11.245009155273436
 21
27.699999999999989
 31
0.0
  0
LINE
  5
199
100
AcDbEntity
  8
0
  6
CONTINUOUS
 62
               4
100
AcDbLine
 10
5.9950091552734364
 20
28.199999999999989
 30
0.0
 11
5.9950091552734364
 21
26.199999999999989
 31
0.0
  0
LINE
  5
19A
100
AcDbEntity
  8
0
  6
CONTINUOUS
 62
               4
100
AcDbLine
 10
11.545009155273434
 20
26.800000000000011
 30
0.0
 11
6.4450091552734392
 21
26.800000000000011
 31
0.0
  0
LINE
  5
19B
100
AcDbEntity
  8
0
  6
CONTINUOUS
 62
               4
100
AcDbLine
 10
11.545009155273434
 20
26.800000000000011
 30
0.0
 11
11.545009155273434
 21
26.199999999999989
 31
0.0
  0
LINE
  5
19C
100
AcDbEntity
  8
0
  6
CONTINUOUS
 62
               4
100
AcDbLine
 10
6.4450091552734392
 20
26.800000000000011
 30
0.0
 11
6.4450091552734392
 21
26.199999999999989
 31
0.0
  0
LINE
  5
19D
100
AcDbEntity
  8
0
  6
CONTINUOUS
 62
               4
100
AcDbLine
 10
11.245009155273436
 20
28.060000000000002
 30
0.0
 11
11.245009155273436
 21
26.800000000000011
 31
0.0
  0
LINE
  5
19E
100
AcDbEntity
  8
0
  6
CONTINUOUS
 62
               4
100
AcDbLine
 10
6.7450091552734364
 20
28.060000000000002
 30
0.0
 11
6.7450091552734364
 21
26.800000000000011
 31
0.0
  0
LINE
  5
19F
100
AcDbEntity
  8
0
  6
CONTINUOUS
 62
               4
100
AcDbLine
 10
10.865009155273441
 20
28.199999999999989
 30
0.0
 11
10.995009155273436
 21
28.199999999999989
 31
0.0
  0
LINE
  5
1A0
100
AcDbEntity
  8
0
  6
CONTINUOUS
 62
               4
100
AcDbLine
 10
32.495009155273436
 20
29.0
 30
0.0
 11
32.495009155273436
 21
28.0
 31
0.0
  0
LINE
  5
1A1
100
AcDbEntity
  8
0
  6
CONTINUOUS
 62
               4
100
AcDbLine
 10
30.995009155273436
 20
22.0
 30
0.0
 11
30.995009155273436
 21
21.0
 31
0.0
  0
LINE
  5
1A2
100
AcDbEntity
  8
0
  6
CONTINUOUS
 62
               4
100
AcDbLine
 10
13.495009155273436
 20
28.0
 30
0.0
 11
13.495009155273436
 21
27.0
 31
0.0
  0
LINE
  5
1A3
100
AcDbEntity
  8
0
  6
CONTINUOUS
 62
               4
100
AcDbLine
 10
32.495009155273436
 20
21.0
 30
0.0
 11
30.995009155273436
 21
21.0
 31
0.0
  0
LINE
  5
1A4
100
AcDbEntity
  8
0
  6
CONTINUOUS
 62
               4
100
AcDbLine
 10
30.995009155273436
 20
22.0
 30
0.0
 11
24.495009155273436
 21
22.0
 31
0.0
  0
LINE
  5
1A5
100
AcDbEntity
  8
0
  6
CONTINUOUS
 62
               4
100
AcDbLine
 10
32.495009155273436
 20
23.400000000000006
 30
0.0
 11
21.095009155273431
 21
23.400000000000006
 31
0.0
  0
LINE
  5
1A6
100
AcDbEntity
  8
0
  6
CONTINUOUS
 62
               4
100
AcDbLine
 10
32.495009155273436
 20
25.199999999999989
 30
0.0
 11
21.095009155273431
 21
25.199999999999989
 31
0.0
  0
LINE
  5
1A7
100
AcDbEntity
  8
0
  6
CONTINUOUS
 62
               4
100
AcDbLine
 10
13.495009155273436
 20
28.0
 30
0.0
 11
24.81500915527343
 21
28.0
 31
0.0
  0
LINE
  5
1A8
100
AcDbEntity
  8
0
  6
CONTINUOUS
 62
               4
100
AcDbLine
 10
32.495009155273436
 20
29.0
 30
0.0
 11
30.495009155273436
 21
29.0
 31
0.0
  0
LINE
  5
1A9
100
AcDbEntity
  8
0
  6
CONTINUOUS
 62
               4
100
AcDbLine
 10
32.495009155273436
 20
28.0
 30
0.0
 11
30.995009155273436
 21
28.0
 31
0.0
  0
LINE
  5
1AA
100
AcDbEntity
  8
0
  6
CONTINUOUS
 62
               4
100
AcDbLine
 10
30.495009155273436
 20
29.0
 30
0.0
 11
24.81500915527343
 21
28.0
 31
0.0
  0
LINE
  5
1AB
100
AcDbEntity
  8
0
  6
CONTINUOUS
 62
               4
100
AcDbLine
 10
30.995009155273436
 20
28.0
 30
0.0
 11
25.31500915527343
 21
27.0
 31
0.0
  0
LINE
  5
1AC
100
AcDbEntity
  8
0
  6
CONTINUOUS
 62
               4
100
AcDbLine
 10
21.095009155273431
 20
26.0
 30
0.0
 11
22.995009155273436
 21
26.0
 31
0.0
  0
LINE
  5
1AD
100
AcDbEntity
  8
0
  6
CONTINUOUS
 62
               4
100
AcDbLine
 10
24.495009155273436
 20
22.0
 30
0.0
 11
24.495009155273436
 21
21.0
 31
0.0
  0
LINE
  5
1AE
100
AcDbEntity
  8
0
  6
CONTINUOUS
 62
               4
100
AcDbLine
 10
21.095009155273431
 20
26.300000000000011
 30
0.0
 11
21.695009155273439
 21
26.300000000000011
 31
0.0
  0
LINE
  5
1AF
100
AcDbEntity
  8
0
  6
CONTINUOUS
 62
               4
100
AcDbLine
 10
32.195009155273439
 20
26.300000000000011
 30
0.0
 11
32.495009155273436
 21
26.0
 31
0.0
  0
LINE
  5
1B0
100
AcDbEntity
  8
0
  6
CONTINUOUS
 62
               4
100
AcDbLine
 10
25.995009155273436
 20
26.0
 30
0.0
 11
26.295009155273434
 21
26.300000000000011
 31
0.0
  0
LINE
  5
1B1
100
AcDbEntity
  8
0
  6
CONTINUOUS
 62
               4
100
AcDbLine
 10
21.695009155273439
 20
26.300000000000011
 30
0.0
 11
21.995009155273436
 21
26.0
 31
0.0
  0
LINE
  5
1B2
100
AcDbEntity
  8
0
  6
CONTINUOUS
 62
               4
100
AcDbLine
 10
26.295009155273434
 20
26.300000000000011
 30
0.0
 11
32.195009155273439
 21
26.300000000000011
 31
0.0
  0
LINE
  5
1B3
100
AcDbEntity
  8
0
  6
CONTINUOUS
 62
               4
100
AcDbLine
 10
24.995009155273436
 20
27.0
 30
0.0
 11
25.31500915527343
 21
27.0
 31
0.0
  0
LINE
  5
1B4
100
AcDbEntity
  8
0
  6
CONTINUOUS
 62
               4
100
AcDbLine
 10
24.995009155273436
 20
26.0
 30
0.0
 11
32.495009155273436
 21
26.0
 31
0.0
  0
LINE
  5
1B5
100
AcDbEntity
  8
0
  6
CONTINUOUS
 62
               4
100
AcDbLine
 10
32.495009155273436
 20
26.0
 30
0.0
 11
32.495009155273436
 21
21.0
 31
0.0
  0
LINE
  5
1B6
100
AcDbEntity
  8
0
  6
CONTINUOUS
 62
               4
100
AcDbLine
 10
22.295009155273434
 20
23.400000000000006
 30
0.0
 11
22.295009155273434
 21
21.900000000000006
 31
0.0
  0
LINE
  5
1B7
100
AcDbEntity
  8
0
  6
CONTINUOUS
 62
               4
100
AcDbLine
 10
22.295009155273434
 20
21.900000000000006
 30
0.0
 11
21.095009155273431
 21
21.900000000000006
 31
0.0
  0
LINE
  5
1B8
100
AcDbEntity
  8
0
  6
CONTINUOUS
 62
               4
100
AcDbLine
 10
32.495009155273436
 20
23.650000000000006
 30
0.0
 11
36.485009155273438
 21
23.650000000000006
 31
0.0
  0
LINE
  5
1B9
100
AcDbEntity
  8
0
  6
CONTINUOUS
 62
               4
100
AcDbLine
 10
32.495009155273436
 20
25.349999999999994
 30
0.0
 11
36.945009155273439
 21
25.349999999999994
 31
0.0
  0
LINE
  5
1BA
100
AcDbEntity
  8
0
  6
CONTINUOUS
 62
               4
100
AcDbLine
 10
42.495009155273436
 20
24.819999999999993
 30
0.0
 11
52.495009155273436
 21
24.819999999999993
 31
0.0
  0
LINE
  5
1BB
100
AcDbEntity
  8
0
  6
CONTINUOUS
 62
               4
100
AcDbLine
 10
42.495009155273436
 20
24.180000000000007
 30
0.0
 11
52.495009155273436
 21
24.180000000000007
 31
0.0
  0
LINE
  5
1BC
100
AcDbEntity
  8
0
  6
CONTINUOUS
 62
               4
100
AcDbLine
 10
42.495009155273436
 20
25.349999999999994
 30
0.0
 11
42.495009155273436
 21
23.650000000000006
 31
0.0
  0
LINE
  5
1BD
100
AcDbEntity
  8
0
  6
CONTINUOUS
 62
               4
100
AcDbLine
 10
52.495009155273436
 20
24.819999999999993
 30
0.0
 11
52.495009155273436
 21
24.180000000000007
 31
0.0
  0
LINE
  5
1BE
100
AcDbEntity
  8
0
  6
CONTINUOUS
 62
             200
100
AcDbLine
 10
35.955009155273437
 20
21.650000000000006
 30
0.0
 11
37.475009155273433
 21
27.349999999999994
 31
0.0
  0
LINE
  5
1BF
100
AcDbEntity
  8
0
  6
CONTINUOUS
 62
             200
100
AcDbLine
 10
37.505009155273434
 20
21.650000000000006
 30
0.0
 11
39.035009155273436
 21
27.349999999999994
 31
0.0
  0
LINE
  5
1C0
100
AcDbEntity
  8
0
  6
CONTINUOUS
 62
               4
100
AcDbLine
 10
38.495009155273436
 20
25.349999999999994
 30
0.0
 11
42.495009155273436
 21
25.349999999999994
 31
0.0
  0
LINE
  5
1C1
100
AcDbEntity
  8
0
  6
CONTINUOUS
 62
               4
100
AcDbLine
 10
38.035009155273436
 20
23.650000000000006
 30
0.0
 11
42.495009155273436
 21
23.650000000000006
 31
0.0
  0
LINE
  5
1C2
100
AcDbEntity
  8
0
  6
CONTINUOUS
 62
               4
100
AcDbLine
 10
11.015009155273432
 20
28.139999999999986
 30
0.0
 11
10.995009155273436
 21
28.199999999999989
 31
0.0
  0
ARC
  5
1C3
100
AcDbEntity
  8
0
  6
CONTINUOUS
 62
               4
100
AcDbCircle
 10
8.9950091552734364
 20
22.500015258789063
 30
0.0
 40
5.9979938581577796
100
AcDbArc
 50
67.967934872283351
 51
112.03206512771627
  0
ARC
  5
1C4
100
AcDbEntity
  8
0
  6
CONTINUOUS
 62
               4
100
AcDbCircle
 10
-8.9999908447265682
 20
22.499969482421875
 30
0.0
 40
6.0004977211329678
100
AcDbArc
 50
71.791606583940705
 51
108.2083934160589
  0
ARC
  5
1C5
100
AcDbEntity
  8
0
  6
CONTINUOUS
 62
               4
100
AcDbCircle
 10
-10.455415275836671
 20
27.493561077775297
 30
0.0
 40
0.7972716299695527
100
AcDbArc
 50
105.98637341162404
 51
117.6164455610805
  0
ARC
  5
1C6
100
AcDbEntity
  8
0
  6
CONTINUOUS
 62
               4
100
AcDbCircle
 10
-7.5459755838405158
 20
27.490038152215135
 30
0.0
 40
0.8010465042465009
100
AcDbArc
 50
62.411051186589674
 51
73.986129840704891
  0
ARC
  5
1C7
100
AcDbEntity
  8
0
  6
CONTINUOUS
 62
               4
100
AcDbCircle
 10
24.995009155273436
 20
26.5
 30
0.0
 40
0.5
100
AcDbArc
 50
89.999999999999801
 51
269.99999999999937
  0
ARC
  5
1C8
100
AcDbEntity
  8
0
  6
CONTINUOUS
 62
               4
100
AcDbCircle
 10
22.995009155273436
 20
26.5
 30
0.0
 40
0.5
100
AcDbArc
 50
269.99999999999937
 51
89.999999999999801
  0
ENDBLK
  5
1C9
100
AcDbEntity
  8
0
100
AcDbBlockEnd
  0
BLOCK
  5
1CA
100
AcDbEntity
  8
0
100
AcDbBlockBegin
  2
MS_8
 70
               0
 10
0.0
 20
0.0
 30
0.0
  3
MS_8
  1

  0
LINE
  5
1CB
100
AcDbEntity
  8
0
  6
CONTINUOUS
 62
               4
100
AcDbLine
 10
12.005009155273441
 20
25.199999999999989
 30
0.0
 11
-11.994990844726559
 21
25.199999999999989
 31
0.0
  0
LINE
  5
1CC
100
AcDbEntity
  8
0
  6
CONTINUOUS
 62
               4
100
AcDbLine
 10
-12.494990844726559
 20
0.0
 30
0.0
 11
-21.994990844726559
 21
0.0
 31
0.0
  0
LINE
  5
1CD
100
AcDbEntity
  8
0
  6
CONTINUOUS
 62
               4
100
AcDbLine
 10
12.005009155273441
 20
26.199999999999989
 30
0.0
 11
12.005009155273441
 21
0.0
 31
0.0
  0
LINE
  5
1CE
100
AcDbEntity
  8
0
  6
CONTINUOUS
 62
               4
100
AcDbLine
 10
-11.994990844726559
 20
27.0
 30
0.0
 11
-11.994990844726559
 21
0.0
 31
0.0
  0
LINE
  5
1CF
100
AcDbEntity
  8
0
  6
CONTINUOUS
 62
               4
100
AcDbLine
 10
-21.994990844726559
 20
21.0
 30
0.0
 11
-21.994990844726559
 21
0.0
 31
0.0
  0
LINE
  5
1D0
100
AcDbEntity
  8
0
  6
CONTINUOUS
 62
               4
100
AcDbLine
 10
-11.994990844726559
 20
27.0
 30
0.0
 11
-22.994990844726559
 21
27.0
 31
0.0
  0
LINE
  5
1D1
100
AcDbEntity
  8
0
  6
CONTINUOUS
 62
               4
100
AcDbLine
 10
-21.094990844726553
 20
27.0
 30
0.0
 11
-21.094990844726553
 21
21.0
 31
0.0
  0
LINE
  5
1D2
100
AcDbEntity
  8
0
  6
CONTINUOUS
 62
               4
100
AcDbLine
 10
-11.994990844726559
 20
21.0
 30
0.0
 11
-24.494990844726559
 21
21.0
 31
0.0
  0
LINE
  5
1D3
100
AcDbEntity
  8
0
  6
CONTINUOUS
 62
               4
100
AcDbLine
 10
-10.994990844726559
 20
28.199999999999989
 30
0.0
 11
7.125009155273446
 21
28.199999999999989
 31
0.0
  0
LINE
  5
1D4
100
AcDbEntity
  8
0
  6
CONTINUOUS
 62
               4
100
AcDbLine
 10
12.005009155273441
 20
26.199999999999989
 30
0.0
 11
-11.994990844726559
 21
26.199999999999989
 31
0.0
  0
LINE
  5
1D5
100
AcDbEntity
  8
0
  6
CONTINUOUS
 62
               4
100
AcDbLine
 10
-11.994990844726559
 20
26.199999999999989
 30
0.0
 11
-10.994990844726559
 21
28.199999999999989
 31
0.0
  0
LINE
  5
1D6
100
AcDbEntity
  8
0
  6
CONTINUOUS
 62
               4
100
AcDbLine
 10
12.005009155273441
 20
26.199999999999989
 30
0.0
 11
11.255009155273441
 21
27.699999999999989
 31
0.0
  0
LINE
  5
1D7
100
AcDbEntity
  8
0
  6
CONTINUOUS
 62
               4
100
AcDbLine
 10
6.0050091552734415
 20
28.199999999999989
 30
0.0
 11
6.0050091552734415
 21
26.199999999999989
 31
0.0
  0
LINE
  5
1D8
100
AcDbEntity
  8
0
  6
CONTINUOUS
 62
               4
100
AcDbLine
 10
11.555009155273439
 20
26.800000000000011
 30
0.0
 11
6.4550091552734443
 21
26.800000000000011
 31
0.0
  0
LINE
  5
1D9
100
AcDbEntity
  8
0
  6
CONTINUOUS
 62
               4
100
AcDbLine
 10
11.555009155273439
 20
26.800000000000011
 30
0.0
 11
11.555009155273439
 21
26.199999999999989
 31
0.0
  0
LINE
  5
1DA
100
AcDbEntity
  8
0
  6
CONTINUOUS
 62
               4
100
AcDbLine
 10
6.4550091552734443
 20
26.800000000000011
 30
0.0
 11
6.4550091552734443
 21
26.199999999999989
 31
0.0
  0
LINE
  5
1DB
100
AcDbEntity
  8
0
  6
CONTINUOUS
 62
               4
100
AcDbLine
 10
11.255009155273441
 20
28.060000000000002
 30
0.0
 11
11.255009155273441
 21
26.800000000000011
 31
0.0
  0
LINE
  5
1DC
100
AcDbEntity
  8
0
  6
CONTINUOUS
 62
               4
100
AcDbLine
 10
6.7550091552734415
 20
28.060000000000002
 30
0.0
 11
6.7550091552734415
 21
26.800000000000011
 31
0.0
  0
LINE
  5
1DD
100
AcDbEntity
  8
0
  6
CONTINUOUS
 62
               4
100
AcDbLine
 10
10.875009155273446
 20
28.199999999999989
 30
0.0
 11
11.005009155273441
 21
28.199999999999989
 31
0.0
  0
LINE
  5
1DE
100
AcDbEntity
  8
0
  6
CONTINUOUS
 62
               4
100
AcDbLine
 10
-32.494990844726559
 20
29.0
 30
0.0
 11
-32.494990844726559
 21
28.0
 31
0.0
  0
LINE
  5
1DF
100
AcDbEntity
  8
0
  6
CONTINUOUS
 62
               4
100
AcDbLine
 10
-30.994990844726559
 20
22.0
 30
0.0
 11
-30.994990844726559
 21
21.0
 31
0.0
  0
LINE
  5
1E0
100
AcDbEntity
  8
0
  6
CONTINUOUS
 62
               4
100
AcDbLine
 10
-13.494990844726559
 20
28.0
 30
0.0
 11
-13.494990844726559
 21
27.0
 31
0.0
  0
LINE
  5
1E1
100
AcDbEntity
  8
0
  6
CONTINUOUS
 62
               4
100
AcDbLine
 10
-32.494990844726559
 20
21.0
 30
0.0
 11
-30.994990844726559
 21
21.0
 31
0.0
  0
LINE
  5
1E2
100
AcDbEntity
  8
0
  6
CONTINUOUS
 62
               4
100
AcDbLine
 10
-30.994990844726559
 20
22.0
 30
0.0
 11
-24.494990844726559
 21
22.0
 31
0.0
  0
LINE
  5
1E3
100
AcDbEntity
  8
0
  6
CONTINUOUS
 62
               4
100
AcDbLine
 10
-32.494990844726559
 20
23.400000000000006
 30
0.0
 11
-21.094990844726553
 21
23.400000000000006
 31
0.0
  0
LINE
  5
1E4
100
AcDbEntity
  8
0
  6
CONTINUOUS
 62
               4
100
AcDbLine
 10
-32.494990844726559
 20
25.199999999999989
 30
0.0
 11
-21.094990844726553
 21
25.199999999999989
 31
0.0
  0
LINE
  5
1E5
100
AcDbEntity
  8
0
  6
CONTINUOUS
 62
               4
100
AcDbLine
 10
-13.494990844726559
 20
28.0
 30
0.0
 11
-24.814990844726552
 21
28.0
 31
0.0
  0
LINE
  5
1E6
100
AcDbEntity
  8
0
  6
CONTINUOUS
 62
               4
100
AcDbLine
 10
-32.494990844726559
 20
29.0
 30
0.0
 11
-30.494990844726559
 21
29.0
 31
0.0
  0
LINE
  5
1E7
100
AcDbEntity
  8
0
  6
CONTINUOUS
 62
               4
100
AcDbLine
 10
-32.494990844726559
 20
28.0
 30
0.0
 11
-30.994990844726559
 21
28.0
 31
0.0
  0
LINE
  5
1E8
100
AcDbEntity
  8
0
  6
CONTINUOUS
 62
               4
100
AcDbLine
 10
-30.494990844726559
 20
29.0
 30
0.0
 11
-24.814990844726552
 21
28.0
 31
0.0
  0
LINE
  5
1E9
100
AcDbEntity
  8
0
  6
CONTINUOUS
 62
               4
100
AcDbLine
 10
-30.994990844726559
 20
28.0
 30
0.0
 11
-25.314990844726552
 21
27.0
 31
0.0
  0
LINE
  5
1EA
100
AcDbEntity
  8
0
  6
CONTINUOUS
 62
               4
100
AcDbLine
 10
-21.094990844726553
 20
26.0
 30
0.0
 11
-22.994990844726559
 21
26.0
 31
0.0
  0
LINE
  5
1EB
100
AcDbEntity
  8
0
  6
CONTINUOUS
 62
               4
100
AcDbLine
 10
-24.494990844726559
 20
22.0
 30
0.0
 11
-24.494990844726559
 21
21.0
 31
0.0
  0
LINE
  5
1EC
100
AcDbEntity
  8
0
  6
CONTINUOUS
 62
               4
100
AcDbLine
 10
-21.094990844726553
 20
26.300000000000011
 30
0.0
 11
-21.694990844726561
 21
26.300000000000011
 31
0.0
  0
LINE
  5
1ED
100
AcDbEntity
  8
0
  6
CONTINUOUS
 62
               4
100
AcDbLine
 10
-32.194990844726561
 20
26.300000000000011
 30
0.0
 11
-32.494990844726559
 21
26.0
 31
0.0
  0
LINE
  5
1EE
100
AcDbEntity
  8
0
  6
CONTINUOUS
 62
               4
100
AcDbLine
 10
-25.994990844726559
 20
26.0
 30
0.0
 11
-26.294990844726556
 21
26.300000000000011
 31
0.0
  0
LINE
  5
1EF
100
AcDbEntity
  8
0
  6
CONTINUOUS
 62
               4
100
AcDbLine
 10
-21.694990844726561
 20
26.300000000000011
 30
0.0
 11
-21.994990844726559
 21
26.0
 31
0.0
  0
LINE
  5
1F0
100
AcDbEntity
  8
0
  6
CONTINUOUS
 62
               4
100
AcDbLine
 10
-26.294990844726556
 20
26.300000000000011
 30
0.0
 11
-32.194990844726561
 21
26.300000000000011
 31
0.0
  0
LINE
  5
1F1
100
AcDbEntity
  8
0
  6
CONTINUOUS
 62
               4
100
AcDbLine
 10
-24.994990844726559
 20
27.0
 30
0.0
 11
-25.314990844726552
 21
27.0
 31
0.0
  0
LINE
  5
1F2
100
AcDbEntity
  8
0
  6
CONTINUOUS
 62
               4
100
AcDbLine
 10
-24.994990844726559
 20
26.0
 30
0.0
 11
-32.494990844726559
 21
26.0
 31
0.0
  0
LINE
  5
1F3
100
AcDbEntity
  8
0
  6
CONTINUOUS
 62
               4
100
AcDbLine
 10
-32.494990844726559
 20
26.0
 30
0.0
 11
-32.494990844726559
 21
21.0
 31
0.0
  0
LINE
  5
1F4
100
AcDbEntity
  8
0
  6
CONTINUOUS
 62
               4
100
AcDbLine
 10
-22.294990844726556
 20
23.400000000000006
 30
0.0
 11
-22.294990844726556
 21
21.900000000000006
 31
0.0
  0
LINE
  5
1F5
100
AcDbEntity
  8
0
  6
CONTINUOUS
 62
               4
100
AcDbLine
 10
-22.294990844726556
 20
21.900000000000006
 30
0.0
 11
-21.094990844726553
 21
21.900000000000006
 31
0.0
  0
LINE
  5
1F6
100
AcDbEntity
  8
0
  6
CONTINUOUS
 62
               4
100
AcDbLine
 10
-32.494990844726559
 20
23.650000000000006
 30
0.0
 11
-36.944990844726561
 21
23.650000000000006
 31
0.0
  0
LINE
  5
1F7
100
AcDbEntity
  8
0
  6
CONTINUOUS
 62
               4
100
AcDbLine
 10
-32.494990844726559
 20
25.349999999999994
 30
0.0
 11
-36.484990844726561
 21
25.349999999999994
 31
0.0
  0
LINE
  5
1F8
100
AcDbEntity
  8
0
  6
CONTINUOUS
 62
               4
100
AcDbLine
 10
-42.494990844726559
 20
24.819999999999993
 30
0.0
 11
-52.494990844726559
 21
24.819999999999993
 31
0.0
  0
LINE
  5
1F9
100
AcDbEntity
  8
0
  6
CONTINUOUS
 62
               4
100
AcDbLine
 10
-42.494990844726559
 20
24.180000000000007
 30
0.0
 11
-52.494990844726559
 21
24.180000000000007
 31
0.0
  0
LINE
  5
1FA
100
AcDbEntity
  8
0
  6
CONTINUOUS
 62
               4
100
AcDbLine
 10
-42.494990844726559
 20
25.349999999999994
 30
0.0
 11
-42.494990844726559
 21
23.650000000000006
 31
0.0
  0
LINE
  5
1FB
100
AcDbEntity
  8
0
  6
CONTINUOUS
 62
             200
100
AcDbLine
 10
-35.954990844726559
 20
27.349999999999994
 30
0.0
 11
-37.474990844726555
 21
21.650000000000006
 31
0.0
  0
LINE
  5
1FC
100
AcDbEntity
  8
0
  6
CONTINUOUS
 62
             200
100
AcDbLine
 10
-37.504990844726557
 20
27.349999999999994
 30
0.0
 11
-39.034990844726558
 21
21.650000000000006
 31
0.0
  0
LINE
  5
1FD
100
AcDbEntity
  8
0
  6
CONTINUOUS
 62
               4
100
AcDbLine
 10
-38.494990844726559
 20
23.650000000000006
 30
0.0
 11
-42.494990844726559
 21
23.650000000000006
 31
0.0
  0
LINE
  5
1FE
100
AcDbEntity
  8
0
  6
CONTINUOUS
 62
               4
100
AcDbLine
 10
-38.034990844726558
 20
25.349999999999994
 30
0.0
 11
-42.494990844726559
 21
25.349999999999994
 31
0.0
  0
LINE
  5
1FF
100
AcDbEntity
  8
0
  6
CONTINUOUS
 62
               4
100
AcDbLine
 10
-52.494990844726559
 20
24.800000000000011
 30
0.0
 11
-52.494990844726559
 21
24.180000000000007
 31
0.0
  0
LINE
  5
200
100
AcDbEntity
  8
0
  6
CONTINUOUS
 62
               4
100
AcDbLine
 10
11.025009155273438
 20
28.139999999999986
 30
0.0
 11
11.005009155273441
 21
28.199999999999989
 31
0.0
  0
ARC
  5
201
100
AcDbEntity
  8
0
  6
CONTINUOUS
 62
               4
100
AcDbCircle
 10
9.0050091552734415
 20
22.49993896484375
 30
0.0
 40
5.9980645807345869
100
AcDbArc
 50
67.968208259416016
 51
112.0317917405836
  0
ARC
  5
202
100
AcDbEntity
  8
0
  6
CONTINUOUS
 62
               4
100
AcDbCircle
 10
-8.9899908447265631
 20
22.499893188476563
 30
0.0
 40
6.0005701948044816
100
AcDbArc
 50
71.791834216395856
 51
108.20816578360375
  0
ARC
  5
203
100
AcDbEntity
  8
0
  6
CONTINUOUS
 62
               4
100
AcDbCircle
 10
-24.994990844726559
 20
26.5
 30
0.0
 40
0.5
100
AcDbArc
 50
269.99999999999937
 51
89.999999999999801
  0
ARC
  5
204
100
AcDbEntity
  8
0
  6
CONTINUOUS
 62
               4
100
AcDbCircle
 10
-22.994990844726559
 20
26.5
 30
0.0
 40
0.5
100
AcDbArc
 50
89.999999999999801
 51
269.99999999999937
  0
ENDBLK
  5
205
100
AcDbEntity
  8
0
100
AcDbBlockEnd
  0
BLOCK
  5
206
100
AcDbEntity
  8
0
100
AcDbBlockBegin
  2
MS_9
 70
               0
 10
0.0
 20
0.0
 30
0.0
  3
MS_9
  1

  0
LINE
  5
207
100
AcDbEntity
  8
0
  6
CONTINUOUS
 62
               4
100
AcDbLine
 10
7.4950091552734381
 20
-25.5
 30
0.0
 11
-7.5049908447265619
 21
-25.5
 31
0.0
  0
LINE
  5
208
100
AcDbEntity
  8
0
  6
CONTINUOUS
 62
               4
100
AcDbLine
 10
6.9950091552734381
 20
-34.599999999999994
 30
0.0
 11
3.9950091552734381
 21
-34.599999999999994
 31
0.0
  0
LINE
  5
209
100
AcDbEntity
  8
0
  6
CONTINUOUS
 62
               4
100
AcDbLine
 10
-1.5049908447265619
 20
-22.5
 30
0.0
 11
-1.5049908447265619
 21
-25.5
 31
0.0
  0
LINE
  5
20A
100
AcDbEntity
  8
0
  6
CONTINUOUS
 62
               4
100
AcDbLine
 10
1.4950091552734381
 20
-4.5
 30
0.0
 11
1.4950091552734381
 21
-1.5
 31
0.0
  0
LINE
  5
20B
100
AcDbEntity
  8
0
  6
CONTINUOUS
 62
               4
100
AcDbLine
 10
4.4950091552734381
 20
-7.5
 30
0.0
 11
7.4950091552734381
 21
-7.5
 31
0.0
  0
LINE
  5
20C
100
AcDbEntity
  8
0
  6
CONTINUOUS
 62
               4
100
AcDbLine
 10
-4.5049908447265619
 20
-19.5
 30
0.0
 11
-7.5049908447265619
 21
-19.5
 31
0.0
  0
LINE
  5
20D
100
AcDbEntity
  8
0
  6
CONTINUOUS
 62
               4
100
AcDbLine
 10
1.4950091552734381
 20
-2.5
 30
0.0
 11
-6.5049908447265619
 21
-2.5
 31
0.0
  0
LINE
  5
20E
100
AcDbEntity
  8
0
  6
CONTINUOUS
 62
               4
100
AcDbLine
 10
6.4950091552734381
 20
-24.5
 30
0.0
 11
-1.5049908447265619
 21
-24.5
 31
0.0
  0
LINE
  5
20F
100
AcDbEntity
  8
0
  6
CONTINUOUS
 62
               4
100
AcDbLine
 10
6.4950091552734381
 20
-7.5
 30
0.0
 11
6.4950091552734381
 21
-24.5
 31
0.0
  0
LINE
  5
210
100
AcDbEntity
  8
0
  6
CONTINUOUS
 62
               4
100
AcDbLine
 10
-6.5049908447265619
 20
-2.5
 30
0.0
 11
-6.5049908447265619
 21
-19.5
 31
0.0
  0
LINE
  5
211
100
AcDbEntity
  8
0
  6
CONTINUOUS
 62
               4
100
AcDbLine
 10
3.9950091552734381
 20
-44.0
 30
0.0
 11
-4.0049908447265619
 21
-44.0
 31
0.0
  0
LINE
  5
212
100
AcDbEntity
  8
0
  6
CONTINUOUS
 62
               4
100
AcDbLine
 10
3.9950091552734381
 20
-38.319999999999993
 30
0.0
 11
-4.0049908447265619
 21
-38.319999999999993
 31
0.0
  0
LINE
  5
213
100
AcDbEntity
  8
0
  6
CONTINUOUS
 62
               4
100
AcDbLine
 10
3.9950091552734381
 20
-27.0
 30
0.0
 11
-4.0049908447265619
 21
-27.0
 31
0.0
  0
LINE
  5
214
100
AcDbEntity
  8
0
  6
CONTINUOUS
 62
               4
100
AcDbLine
 10
-4.204990844726562
 20
-25.5
 30
0.0
 11
-4.204990844726562
 21
-29.0
 31
0.0
  0
LINE
  5
215
100
AcDbEntity
  8
0
  6
CONTINUOUS
 62
               4
100
AcDbLine
 10
4.1950091552734383
 20
-25.5
 30
0.0
 11
4.1950091552734383
 21
-29.0
 31
0.0
  0
LINE
  5
216
100
AcDbEntity
  8
0
  6
CONTINUOUS
 62
               4
100
AcDbLine
 10
4.1950091552734383
 20
-29.0
 30
0.0
 11
3.9950091552734381
 21
-29.0
 31
0.0
  0
LINE
  5
217
100
AcDbEntity
  8
0
  6
CONTINUOUS
 62
               4
100
AcDbLine
 10
4.1950091552734383
 20
-30.0
 30
0.0
 11
3.9950091552734381
 21
-30.0
 31
0.0
  0
LINE
  5
218
100
AcDbEntity
  8
0
  6
CONTINUOUS
 62
               4
100
AcDbLine
 10
-4.204990844726562
 20
-30.0
 30
0.0
 11
-4.204990844726562
 21
-34.599999999999994
 31
0.0
  0
LINE
  5
219
100
AcDbEntity
  8
0
  6
CONTINUOUS
 62
               4
100
AcDbLine
 10
4.1950091552734383
 20
-30.0
 30
0.0
 11
4.1950091552734383
 21
-34.599999999999994
 31
0.0
  0
LINE
  5
21A
100
AcDbEntity
  8
0
  6
CONTINUOUS
 62
               4
100
AcDbLine
 10
-4.0049908447265619
 20
-34.599999999999994
 30
0.0
 11
-7.0049908447265619
 21
-34.599999999999994
 31
0.0
  0
LINE
  5
21B
100
AcDbEntity
  8
0
  6
CONTINUOUS
 62
               4
100
AcDbLine
 10
-4.0049908447265619
 20
-30.0
 30
0.0
 11
-4.204990844726562
 21
-30.0
 31
0.0
  0
LINE
  5
21C
100
AcDbEntity
  8
0
  6
CONTINUOUS
 62
               4
100
AcDbLine
 10
-4.0049908447265619
 20
-29.0
 30
0.0
 11
-4.204990844726562
 21
-29.0
 31
0.0
  0
LINE
  5
21D
100
AcDbEntity
  8
0
  6
CONTINUOUS
 62
               4
100
AcDbLine
 10
7.4950091552734381
 20
-1.5
 30
0.0
 11
7.4950091552734381
 21
-25.5
 31
0.0
  0
LINE
  5
21E
100
AcDbEntity
  8
0
  6
CONTINUOUS
 62
               4
100
AcDbLine
 10
7.4950091552734381
 20
-1.5
 30
0.0
 11
-7.5049908447265619
 21
-1.5
 31
0.0
  0
LINE
  5
21F
100
AcDbEntity
  8
0
  6
CONTINUOUS
 62
               4
100
AcDbLine
 10
-7.5049908447265619
 20
-1.5
 30
0.0
 11
-7.5049908447265619
 21
-25.5
 31
0.0
  0
LINE
  5
220
100
AcDbEntity
  8
0
  6
CONTINUOUS
 62
               4
100
AcDbLine
 10
6.9950091552734381
 20
-25.5
 30
0.0
 11
6.9950091552734381
 21
-35.5
 31
0.0
  0
LINE
  5
221
100
AcDbEntity
  8
0
  6
CONTINUOUS
 62
               4
100
AcDbLine
 10
6.9950091552734381
 20
-35.5
 30
0.0
 11
5.4950091552734381
 21
-35.5
 31
0.0
  0
LINE
  5
222
100
AcDbEntity
  8
0
  6
CONTINUOUS
 62
               4
100
AcDbLine
 10
-5.5049908447265619
 20
-35.5
 30
0.0
 11
-7.0049908447265619
 21
-35.5
 31
0.0
  0
LINE
  5
223
100
AcDbEntity
  8
0
  6
CONTINUOUS
 62
               4
100
AcDbLine
 10
-7.0049908447265619
 20
-25.5
 30
0.0
 11
-7.0049908447265619
 21
-35.5
 31
0.0
  0
LINE
  5
224
100
AcDbEntity
  8
0
  6
CONTINUOUS
 62
               4
100
AcDbLine
 10
-5.5049908447265619
 20
-34.599999999999994
 30
0.0
 11
-5.5049908447265619
 21
-46.0
 31
0.0
  0
LINE
  5
225
100
AcDbEntity
  8
0
  6
CONTINUOUS
 62
               4
100
AcDbLine
 10
5.4950091552734381
 20
-46.0
 30
0.0
 11
-5.5049908447265619
 21
-46.0
 31
0.0
  0
LINE
  5
226
100
AcDbEntity
  8
0
  6
CONTINUOUS
 62
               4
100
AcDbLine
 10
5.4950091552734381
 20
-34.599999999999994
 30
0.0
 11
5.4950091552734381
 21
-46.0
 31
0.0
  0
LINE
  5
227
100
AcDbEntity
  8
0
  6
CONTINUOUS
 62
               4
100
AcDbLine
 10
3.9950091552734381
 20
-27.0
 30
0.0
 11
3.9950091552734381
 21
-46.0
 31
0.0
  0
LINE
  5
228
100
AcDbEntity
  8
0
  6
CONTINUOUS
 62
               4
100
AcDbLine
 10
-4.0049908447265619
 20
-27.0
 30
0.0
 11
-4.0049908447265619
 21
-46.0
 31
0.0
  0
LINE
  5
229
100
AcDbEntity
  8
0
  6
CONTINUOUS
 62
               4
100
AcDbLine
 10
3.3450091552734382
 20
-46.0
 30
0.0
 11
3.3450091552734382
 21
-51.120000000000005
 31
0.0
  0
LINE
  5
22A
100
AcDbEntity
  8
0
  6
CONTINUOUS
 62
               4
100
AcDbLine
 10
1.6450091552734381
 20
-46.0
 30
0.0
 11
1.6450091552734381
 21
-50.659999999999997
 31
0.0
  0
LINE
  5
22B
100
AcDbEntity
  8
0
  6
CONTINUOUS
 62
               4
100
AcDbLine
 10
2.815009155273438
 20
-56.0
 30
0.0
 11
2.815009155273438
 21
-66.0
 31
0.0
  0
LINE
  5
22C
100
AcDbEntity
  8
0
  6
CONTINUOUS
 62
               4
100
AcDbLine
 10
3.3450091552734382
 20
-56.0
 30
0.0
 11
1.6450091552734381
 21
-56.0
 31
0.0
  0
LINE
  5
22D
100
AcDbEntity
  8
0
  6
CONTINUOUS
 62
               4
100
AcDbLine
 10
2.815009155273438
 20
-66.0
 30
0.0
 11
2.1750091552734383
 21
-66.0
 31
0.0
  0
LINE
  5
22E
100
AcDbEntity
  8
0
  6
CONTINUOUS
 62
               4
100
AcDbLine
 10
2.1750091552734383
 20
-56.0
 30
0.0
 11
2.1750091552734383
 21
-66.0
 31
0.0
  0
LINE
  5
22F
100
AcDbEntity
  8
0
  6
CONTINUOUS
 62
               4
100
AcDbLine
 10
-2.1849908447265616
 20
-56.0
 30
0.0
 11
-2.1849908447265616
 21
-66.0
 31
0.0
  0
LINE
  5
230
100
AcDbEntity
  8
0
  6
CONTINUOUS
 62
               4
100
AcDbLine
 10
-2.1849908447265616
 20
-66.0
 30
0.0
 11
-2.8249908447265621
 21
-66.0
 31
0.0
  0
LINE
  5
231
100
AcDbEntity
  8
0
  6
CONTINUOUS
 62
               4
100
AcDbLine
 10
-2.8249908447265621
 20
-56.0
 30
0.0
 11
-2.8249908447265621
 21
-66.0
 31
0.0
  0
LINE
  5
232
100
AcDbEntity
  8
0
  6
CONTINUOUS
 62
               4
100
AcDbLine
 10
-1.6549908447265622
 20
-46.0
 30
0.0
 11
-1.6549908447265622
 21
-49.780000000000001
 31
0.0
  0
LINE
  5
233
100
AcDbEntity
  8
0
  6
CONTINUOUS
 62
               4
100
AcDbLine
 10
-1.6549908447265622
 20
-56.0
 30
0.0
 11
-3.3549908447265615
 21
-56.0
 31
0.0
  0
LINE
  5
234
100
AcDbEntity
  8
0
  6
CONTINUOUS
 62
               4
100
AcDbLine
 10
-3.3549908447265615
 20
-46.0
 30
0.0
 11
-3.3549908447265615
 21
-49.319999999999993
 31
0.0
  0
LINE
  5
235
100
AcDbEntity
  8
0
  6
CONTINUOUS
 62
             200
100
AcDbLine
 10
-5.3549908447265615
 20
-48.789999999999992
 30
0.0
 11
5.3450091552734378
 21
-51.650000000000006
 31
0.0
  0
LINE
  5
236
100
AcDbEntity
  8
0
  6
CONTINUOUS
 62
             200
100
AcDbLine
 10
-5.3549908447265615
 20
-50.340000000000003
 30
0.0
 11
5.3450091552734378
 21
-53.210000000000008
 31
0.0
  0
LINE
  5
237
100
AcDbEntity
  8
0
  6
CONTINUOUS
 62
               4
100
AcDbLine
 10
3.3450091552734382
 20
-52.670000000000016
 30
0.0
 11
3.3450091552734382
 21
-56.0
 31
0.0
  0
LINE
  5
238
100
AcDbEntity
  8
0
  6
CONTINUOUS
 62
               4
100
AcDbLine
 10
1.6450091552734381
 20
-52.210000000000008
 30
0.0
 11
1.6450091552734381
 21
-56.0
 31
0.0
  0
LINE
  5
239
100
AcDbEntity
  8
0
  6
CONTINUOUS
 62
               4
100
AcDbLine
 10
-1.6549908447265622
 20
-51.329999999999984
 30
0.0
 11
-1.6549908447265622
 21
-56.0
 31
0.0
  0
LINE
  5
23A
100
AcDbEntity
  8
0
  6
CONTINUOUS
 62
               4
100
AcDbLine
 10
-3.3549908447265615
 20
-50.870000000000005
 30
0.0
 11
-3.3549908447265615
 21
-56.0
 31
0.0
  0
LINE
  5
23B
100
AcDbEntity
  8
0
  6
CONTINUOUS
 62
               4
100
AcDbLine
 10
-3.5849908447265619
 20
-23.409999999999997
 30
0.0
 11
-5.414990844726562
 21
-21.579999999999984
 31
0.0
  0
LINE
  5
23C
100
AcDbEntity
  8
0
  6
CONTINUOUS
 62
               4
100
AcDbLine
 10
3.5750091552734382
 20
-5.4099999999999966
 30
0.0
 11
5.4050091552734383
 21
-3.5800000000000125
 31
0.0
  0
LINE
  5
23D
100
AcDbEntity
  8
0
  6
CONTINUOUS
 62
               4
100
AcDbLine
 10
-5.414990844726562
 20
-23.409999999999997
 30
0.0
 11
-3.5849908447265619
 21
-21.579999999999984
 31
0.0
  0
LINE
  5
23E
100
AcDbEntity
  8
0
  6
CONTINUOUS
 62
               4
100
AcDbLine
 10
3.5750091552734382
 20
-3.5800000000000125
 30
0.0
 11
5.4050091552734383
 21
-5.4099999999999966
 31
0.0
  0
ARC
  5
23F
100
AcDbEntity
  8
0
  6
CONTINUOUS
 62
               4
100
AcDbCircle
 10
-4.5049603271484369
 20
-22.499969482421875
 30
0.0
 40
2.9999694825770971
100
AcDbArc
 50
359.99941715126101
 51
90.000582848738006
  0
ARC
  5
240
100
AcDbEntity
  8
0
  6
CONTINUOUS
 62
               4
100
AcDbCircle
 10
4.495024890899697
 20
-4.4999842643737509
 30
0.0
 40
3.0000157356675268
100
AcDbArc
 50
180.00030052674748
 51
269.99969947325155
  0
CIRCLE
  5
241
100
AcDbEntity
  8
0
  6
CONTINUOUS
 62
               4
100
AcDbCircle
 10
-4.5049298095703119
 20
-22.5
 30
0.0
 40
2.5500001907348633
  0
CIRCLE
  5
242
100
AcDbEntity
  8
0
  6
CONTINUOUS
 62
               4
100
AcDbCircle
 10
4.4950396728515631
 20
-4.5
 30
0.0
 40
2.5500001907348633
  0
CIRCLE
  5
243
100
AcDbEntity
  8
0
  6
CONTINUOUS
 62
               4
100
AcDbCircle
 10
-4.5049298095703119
 20
-22.5
 30
0.0
 40
2.25
  0
CIRCLE
  5
244
100
AcDbEntity
  8
0
  6
CONTINUOUS
 62
               4
100
AcDbCircle
 10
4.4950396728515631
 20
-4.5
 30
0.0
 40
2.25
  0
ENDBLK
  5
245
100
AcDbEntity
  8
0
100
AcDbBlockEnd
  0
BLOCK
  5
246
100
AcDbEntity
  8
0
100
AcDbBlockBegin
  2
MS_10
 70
               0
 10
0.0
 20
0.0
 30
0.0
  3
MS_10
  1

  0
LINE
  5
247
100
AcDbEntity
  8
0
  6
CONTINUOUS
 62
               4
100
AcDbLine
 10
-7.0049908447265619
 20
27.0
 30
0.0
 11
-7.0049908447265619
 21
35.5
 31
0.0
  0
LINE
  5
248
100
AcDbEntity
  8
0
  6
CONTINUOUS
 62
               4
100
AcDbLine
 10
-7.0049908447265619
 20
35.5
 30
0.0
 11
6.9950091552734381
 21
35.5
 31
0.0
  0
LINE
  5
249
100
AcDbEntity
  8
0
  6
CONTINUOUS
 62
               4
100
AcDbLine
 10
6.9950091552734381
 20
27.0
 30
0.0
 11
6.9950091552734381
 21
35.5
 31
0.0
  0
LINE
  5
24A
100
AcDbEntity
  8
0
  6
CONTINUOUS
 62
               4
100
AcDbLine
 10
-5.5049908447265619
 20
46.0
 30
0.0
 11
5.4950091552734381
 21
46.0
 31
0.0
  0
LINE
  5
24B
100
AcDbEntity
  8
0
  6
CONTINUOUS
 62
               4
100
AcDbLine
 10
3.9950091552734381
 20
35.5
 30
0.0
 11
3.9950091552734381
 21
46.0
 31
0.0
  0
LINE
  5
24C
100
AcDbEntity
  8
0
  6
CONTINUOUS
 62
               4
100
AcDbLine
 10
-4.0049908447265619
 20
35.5
 30
0.0
 11
-4.0049908447265619
 21
46.0
 31
0.0
  0
LINE
  5
24D
100
AcDbEntity
  8
0
  6
CONTINUOUS
 62
               4
100
AcDbLine
 10
-5.5049908447265619
 20
35.5
 30
0.0
 11
-5.5049908447265619
 21
46.0
 31
0.0
  0
LINE
  5
24E
100
AcDbEntity
  8
0
  6
CONTINUOUS
 62
               4
100
AcDbLine
 10
5.4950091552734381
 20
35.5
 30
0.0
 11
5.4950091552734381
 21
46.0
 31
0.0
  0
LINE
  5
24F
100
AcDbEntity
  8
0
  6
CONTINUOUS
 62
               4
100
AcDbLine
 10
-3.3549908447265615
 20
56.0
 30
0.0
 11
-1.6549908447265622
 21
56.0
 31
0.0
  0
LINE
  5
250
100
AcDbEntity
  8
0
  6
CONTINUOUS
 62
               4
100
AcDbLine
 10
-2.8249908447265621
 20
66.0
 30
0.0
 11
-2.1849908447265616
 21
66.0
 31
0.0
  0
LINE
  5
251
100
AcDbEntity
  8
0
  6
CONTINUOUS
 62
               4
100
AcDbLine
 10
2.815009155273438
 20
56.0
 30
0.0
 11
2.815009155273438
 21
66.0
 31
0.0
  0
LINE
  5
252
100
AcDbEntity
  8
0
  6
CONTINUOUS
 62
               4
100
AcDbLine
 10
2.1750091552734383
 20
56.0
 30
0.0
 11
2.1750091552734383
 21
66.0
 31
0.0
  0
LINE
  5
253
100
AcDbEntity
  8
0
  6
CONTINUOUS
 62
               4
100
AcDbLine
 10
-2.1849908447265616
 20
56.0
 30
0.0
 11
-2.1849908447265616
 21
66.0
 31
0.0
  0
LINE
  5
254
100
AcDbEntity
  8
0
  6
CONTINUOUS
 62
               4
100
AcDbLine
 10
-2.8249908447265621
 20
56.0
 30
0.0
 11
-2.8249908447265621
 21
66.0
 31
0.0
  0
LINE
  5
255
100
AcDbEntity
  8
0
  6
CONTINUOUS
 62
               4
100
AcDbLine
 10
-1.6549908447265622
 20
46.0
 30
0.0
 11
-1.6549908447265622
 21
50.659999999999997
 31
0.0
  0
LINE
  5
256
100
AcDbEntity
  8
0
  6
CONTINUOUS
 62
               4
100
AcDbLine
 10
-3.3549908447265615
 20
46.0
 30
0.0
 11
-3.3549908447265615
 21
51.120000000000005
 31
0.0
  0
LINE
  5
257
100
AcDbEntity
  8
0
  6
CONTINUOUS
 62
               4
100
AcDbLine
 10
1.6450091552734381
 20
46.0
 30
0.0
 11
1.6450091552734381
 21
49.780000000000001
 31
0.0
  0
LINE
  5
258
100
AcDbEntity
  8
0
  6
CONTINUOUS
 62
               4
100
AcDbLine
 10
3.3450091552734382
 20
46.0
 30
0.0
 11
3.3450091552734382
 21
49.319999999999993
 31
0.0
  0
LINE
  5
259
100
AcDbEntity
  8
0
  6
CONTINUOUS
 62
               4
100
AcDbLine
 10
1.6450091552734381
 20
56.0
 30
0.0
 11
3.3450091552734382
 21
56.0
 31
0.0
  0
LINE
  5
25A
100
AcDbEntity
  8
0
  6
CONTINUOUS
 62
               4
100
AcDbLine
 10
2.1750091552734383
 20
66.0
 30
0.0
 11
2.815009155273438
 21
66.0
 31
0.0
  0
LINE
  5
25B
100
AcDbEntity
  8
0
  6
CONTINUOUS
 62
               4
100
AcDbLine
 10
-4.0049908447265619
 20
44.5
 30
0.0
 11
3.9950091552734381
 21
44.5
 31
0.0
  0
LINE
  5
25C
100
AcDbEntity
  8
0
  6
CONTINUOUS
 62
               4
100
AcDbLine
 10
-4.0049908447265619
 20
38.0
 30
0.0
 11
3.9950091552734381
 21
38.0
 31
0.0
  0
LINE
  5
25D
100
AcDbEntity
  8
0
  6
CONTINUOUS
 62
             200
100
AcDbLine
 10
5.3450091552734378
 20
50.340000000000003
 30
0.0
 11
-5.3549908447265615
 21
53.210000000000008
 31
0.0
  0
LINE
  5
25E
100
AcDbEntity
  8
0
  6
CONTINUOUS
 62
             200
100
AcDbLine
 10
5.3450091552734378
 20
48.789999999999992
 30
0.0
 11
-5.3549908447265615
 21
51.650000000000006
 31
0.0
  0
LINE
  5
25F
100
AcDbEntity
  8
0
  6
CONTINUOUS
 62
               4
100
AcDbLine
 10
-3.3549908447265615
 20
52.670000000000002
 30
0.0
 11
-3.3549908447265615
 21
56.0
 31
0.0
  0
LINE
  5
260
100
AcDbEntity
  8
0
  6
CONTINUOUS
 62
               4
100
AcDbLine
 10
-1.6549908447265622
 20
52.210000000000008
 30
0.0
 11
-1.6549908447265622
 21
56.0
 31
0.0
  0
LINE
  5
261
100
AcDbEntity
  8
0
  6
CONTINUOUS
 62
               4
100
AcDbLine
 10
1.6450091552734381
 20
51.329999999999998
 30
0.0
 11
1.6450091552734381
 21
56.0
 31
0.0
  0
LINE
  5
262
100
AcDbEntity
  8
0
  6
CONTINUOUS
 62
               4
100
AcDbLine
 10
3.3450091552734382
 20
50.870000000000005
 30
0.0
 11
3.3450091552734382
 21
56.0
 31
0.0
  0
ENDBLK
  5
263
100
AcDbEntity
  8
0
100
AcDbBlockEnd
  0
BLOCK
  5
264
100
AcDbEntity
  8
0
100
AcDbBlockBegin
  2
MS_11
 70
               0
 10
0.0
 20
0.0
 30
0.0
  3
MS_11
  1

  0
LINE
  5
265
100
AcDbEntity
  8
0
  6
CONTINUOUS
 62
               4
100
AcDbLine
 10
-7.4950000000000045
 20
26.199999999999989
 30
0.0
 11
-7.4950000000000045
 21
0.0
 31
0.0
  0
LINE
  5
266
100
AcDbEntity
  8
0
  6
CONTINUOUS
 62
               4
100
AcDbLine
 10
7.5049999999999955
 20
26.199999999999989
 30
0.0
 11
7.5049999999999955
 21
0.0
 31
0.0
  0
LINE
  5
267
100
AcDbEntity
  8
0
  6
CONTINUOUS
 62
               4
100
AcDbLine
 10
-7.4950000000000045
 20
25.199999999999989
 30
0.0
 11
-7.3949999999999818
 21
25.199999999999989
 31
0.0
  0
LINE
  5
268
100
AcDbEntity
  8
0
  6
CONTINUOUS
 62
               4
100
AcDbLine
 10
-7.4950000000000045
 20
26.199999999999989
 30
0.0
 11
-7.3949999999999818
 21
26.199999999999989
 31
0.0
  0
LINE
  5
269
100
AcDbEntity
  8
0
  6
CONTINUOUS
 62
               4
100
AcDbLine
 10
7.5049999999999955
 20
26.199999999999989
 30
0.0
 11
7.4049999999999727
 21
26.400000000000006
 31
0.0
  0
LINE
  5
26A
100
AcDbEntity
  8
0
  6
CONTINUOUS
 62
               4
100
AcDbLine
 10
-7.4950000000000045
 20
26.199999999999989
 30
0.0
 11
-7.3949999999999818
 21
26.400000000000006
 31
0.0
  0
LINE
  5
26B
100
AcDbEntity
  8
0
  6
CONTINUOUS
 62
               4
100
AcDbLine
 10
-7.3949999999999818
 20
24.400000000000006
 30
0.0
 11
7.4049999999999727
 21
24.400000000000006
 31
0.0
  0
LINE
  5
26C
100
AcDbEntity
  8
0
  6
CONTINUOUS
 62
               4
100
AcDbLine
 10
-7.3949999999999818
 20
9.5999999999999943
 30
0.0
 11
7.4049999999999727
 21
9.5999999999999943
 31
0.0
  0
LINE
  5
26D
100
AcDbEntity
  8
0
  6
CONTINUOUS
 62
               4
100
AcDbLine
 10
-7.3949999999999818
 20
36.699999999999989
 30
0.0
 11
7.4049999999999727
 21
36.699999999999989
 31
0.0
  0
LINE
  5
26E
100
AcDbEntity
  8
0
  6
CONTINUOUS
 62
               4
100
AcDbLine
 10
-5.7950000000000159
 20
44.099999999999994
 30
0.0
 11
5.8050000000000068
 21
44.099999999999994
 31
0.0
  0
LINE
  5
26F
100
AcDbEntity
  8
0
  6
CONTINUOUS
 62
               4
100
AcDbLine
 10
-7.3949999999999818
 20
37.699999999999989
 30
0.0
 11
7.4049999999999727
 21
37.699999999999989
 31
0.0
  0
LINE
  5
270
100
AcDbEntity
  8
0
  6
CONTINUOUS
 62
               4
100
AcDbLine
 10
7.4049999999999727
 20
37.699999999999989
 30
0.0
 11
7.4049999999999727
 21
36.699999999999989
 31
0.0
  0
LINE
  5
271
100
AcDbEntity
  8
0
  6
CONTINUOUS
 62
               4
100
AcDbLine
 10
-7.3949999999999818
 20
37.699999999999989
 30
0.0
 11
-7.3949999999999818
 21
36.699999999999989
 31
0.0
  0
LINE
  5
272
100
AcDbEntity
  8
0
  6
CONTINUOUS
 62
               4
100
AcDbLine
 10
-6.4950000000000045
 20
43.689999999999998
 30
0.0
 11
-6.4950000000000045
 21
37.699999999999989
 31
0.0
  0
LINE
  5
273
100
AcDbEntity
  8
0
  6
CONTINUOUS
 62
               4
100
AcDbLine
 10
6.5049999999999955
 20
43.689999999999998
 30
0.0
 11
6.5049999999999955
 21
37.699999999999989
 31
0.0
  0
LINE
  5
274
100
AcDbEntity
  8
0
  6
CONTINUOUS
 62
               4
100
AcDbLine
 10
5.8050000000000068
 20
44.099999999999994
 30
0.0
 11
6.5049999999999955
 21
43.689999999999998
 31
0.0
  0
LINE
  5
275
100
AcDbEntity
  8
0
  6
CONTINUOUS
 62
               4
100
AcDbLine
 10
-5.7950000000000159
 20
44.099999999999994
 30
0.0
 11
-6.4950000000000045
 21
43.689999999999998
 31
0.0
  0
LINE
  5
276
100
AcDbEntity
  8
0
  6
CONTINUOUS
 62
               4
100
AcDbLine
 10
-0.1750000000000114
 20
43.170000000000016
 30
0.0
 11
0.1850000000000023
 21
43.170000000000016
 31
0.0
  0
LINE
  5
277
100
AcDbEntity
  8
0
  6
CONTINUOUS
 62
               4
100
AcDbLine
 10
7.4049999999999727
 20
26.199999999999989
 30
0.0
 11
7.5049999999999955
 21
26.199999999999989
 31
0.0
  0
LINE
  5
278
100
AcDbEntity
  8
0
  6
CONTINUOUS
 62
               4
100
AcDbLine
 10
7.4049999999999727
 20
25.199999999999989
 30
0.0
 11
7.5049999999999955
 21
25.199999999999989
 31
0.0
  0
LINE
  5
279
100
AcDbEntity
  8
0
  6
CONTINUOUS
 62
               4
100
AcDbLine
 10
0.1850000000000023
 20
43.170000000000016
 30
0.0
 11
0.1850000000000023
 21
37.699999999999989
 31
0.0
  0
LINE
  5
27A
100
AcDbEntity
  8
0
  6
CONTINUOUS
 62
               4
100
AcDbLine
 10
-0.1750000000000114
 20
43.170000000000016
 30
0.0
 11
-0.1750000000000114
 21
37.699999999999989
 31
0.0
  0
LINE
  5
27B
100
AcDbEntity
  8
0
  6
CONTINUOUS
 62
               4
100
AcDbLine
 10
-7.3949999999999818
 20
34.699999999999989
 30
0.0
 11
7.4049999999999727
 21
34.699999999999989
 31
0.0
  0
LINE
  5
27C
100
AcDbEntity
  8
0
  6
CONTINUOUS
 62
               4
100
AcDbLine
 10
-7.3949999999999818
 20
34.699999999999989
 30
0.0
 11
-7.3949999999999818
 21
9.5999999999999943
 31
0.0
  0
LINE
  5
27D
100
AcDbEntity
  8
0
  6
CONTINUOUS
 62
               4
100
AcDbLine
 10
7.4049999999999727
 20
34.699999999999989
 30
0.0
 11
7.4049999999999727
 21
9.5999999999999943
 31
0.0
  0
LINE
  5
27E
100
AcDbEntity
  8
0
  6
CONTINUOUS
 62
               4
100
AcDbLine
 10
6.0049999999999955
 20
36.699999999999989
 30
0.0
 11
6.0049999999999955
 21
34.699999999999989
 31
0.0
  0
LINE
  5
27F
100
AcDbEntity
  8
0
  6
CONTINUOUS
 62
               4
100
AcDbLine
 10
-5.9950000000000045
 20
36.699999999999989
 30
0.0
 11
-5.9950000000000045
 21
34.699999999999989
 31
0.0
  0
LINE
  5
280
100
AcDbEntity
  8
0
  6
CONTINUOUS
 62
               4
100
AcDbLine
 10
5.3249999999999886
 20
36.699999999999989
 30
0.0
 11
5.3249999999999886
 21
34.699999999999989
 31
0.0
  0
LINE
  5
281
100
AcDbEntity
  8
0
  6
CONTINUOUS
 62
               4
100
AcDbLine
 10
-5.3149999999999977
 20
36.699999999999989
 30
0.0
 11
-5.3149999999999977
 21
34.699999999999989
 31
0.0
  0
LINE
  5
282
100
AcDbEntity
  8
0
  6
CONTINUOUS
 62
               4
100
AcDbLine
 10
1.0649999999999977
 20
15.930000000000007
 30
0.0
 11
-1.0550000000000068
 21
18.060000000000002
 31
0.0
  0
LINE
  5
283
100
AcDbEntity
  8
0
  6
CONTINUOUS
 62
               4
100
AcDbLine
 10
-1.0550000000000068
 20
15.930000000000007
 30
0.0
 11
1.0649999999999977
 21
18.060000000000002
 31
0.0
  0
CIRCLE
  5
284
100
AcDbEntity
  8
0
  6
CONTINUOUS
 62
               4
100
AcDbCircle
 10
0.0049999999999955
 20
17.0
 30
0.0
 40
3.25
  0
ARC
  5
285
100
AcDbEntity
  8
0
  6
CONTINUOUS
 62
               4
100
AcDbCircle
 10
-3.3349999999999795
 20
33.848464965820284
 30
0.0
 40
9.8425919042414804
100
AcDbArc
 50
71.27334320959028
 51
108.72665679040932
  0
ARC
  5
286
100
AcDbEntity
  8
0
  6
CONTINUOUS
 62
               4
100
AcDbCircle
 10
3.3449999999999704
 20
33.848464965820284
 30
0.0
 40
9.8425919042414804
100
AcDbArc
 50
71.27334320959028
 51
108.72665679040932
  0
CIRCLE
  5
287
100
AcDbEntity
  8
0
  6
CONTINUOUS
 62
               4
100
AcDbCircle
 10
0.0049999999999955
 20
17.0
 30
0.0
 40
2.7999992370605469
  0
ENDBLK
  5
288
100
AcDbEntity
  8
0
100
AcDbBlockEnd
  0
BLOCK
  5
289
100
AcDbEntity
  8
0
100
AcDbBlockBegin
  2
MS_12
 70
               0
 10
0.0
 20
0.0
 30
0.0
  3
MS_12
  1

  0
LINE
  5
28A
100
AcDbEntity
  8
0
  6
CONTINUOUS
 62
               4
100
AcDbLine
 10
-11.995000000000005
 20
26.199999999999989
 30
0.0
 11
-11.995000000000005
 21
0.0
 31
0.0
  0
LINE
  5
28B
100
AcDbEntity
  8
0
  6
CONTINUOUS
 62
               4
100
AcDbLine
 10
-11.995000000000005
 20
25.199999999999989
 30
0.0
 11
15.004999999999995
 21
25.199999999999989
 31
0.0
  0
LINE
  5
28C
100
AcDbEntity
  8
0
  6
CONTINUOUS
 62
               4
100
AcDbLine
 10
12.004999999999995
 20
26.199999999999989
 30
0.0
 11
12.004999999999995
 21
25.199999999999989
 31
0.0
  0
LINE
  5
28D
100
AcDbEntity
  8
0
  6
CONTINUOUS
 62
               4
100
AcDbLine
 10
-10.995000000000005
 20
28.199999999999989
 30
0.0
 11
7.125
 21
28.199999999999989
 31
0.0
  0
LINE
  5
28E
100
AcDbEntity
  8
0
  6
CONTINUOUS
 62
               4
100
AcDbLine
 10
-11.995000000000005
 20
26.199999999999989
 30
0.0
 11
12.004999999999995
 21
26.199999999999989
 31
0.0
  0
LINE
  5
28F
100
AcDbEntity
  8
0
  6
CONTINUOUS
 62
               4
100
AcDbLine
 10
-11.995000000000005
 20
26.199999999999989
 30
0.0
 11
-10.995000000000005
 21
28.199999999999989
 31
0.0
  0
LINE
  5
290
100
AcDbEntity
  8
0
  6
CONTINUOUS
 62
               4
100
AcDbLine
 10
12.004999999999995
 20
26.199999999999989
 30
0.0
 11
11.254999999999995
 21
27.699999999999989
 31
0.0
  0
LINE
  5
291
100
AcDbEntity
  8
0
  6
CONTINUOUS
 62
               4
100
AcDbLine
 10
6.0049999999999955
 20
28.199999999999989
 30
0.0
 11
6.0049999999999955
 21
26.199999999999989
 31
0.0
  0
LINE
  5
292
100
AcDbEntity
  8
0
  6
CONTINUOUS
 62
               4
100
AcDbLine
 10
11.555000000000007
 20
26.800000000000011
 30
0.0
 11
6.4549999999999841
 21
26.800000000000011
 31
0.0
  0
LINE
  5
293
100
AcDbEntity
  8
0
  6
CONTINUOUS
 62
               4
100
AcDbLine
 10
11.555000000000007
 20
26.800000000000011
 30
0.0
 11
11.555000000000007
 21
26.199999999999989
 31
0.0
  0
LINE
  5
294
100
AcDbEntity
  8
0
  6
CONTINUOUS
 62
               4
100
AcDbLine
 10
6.4549999999999841
 20
26.800000000000011
 30
0.0
 11
6.4549999999999841
 21
26.199999999999989
 31
0.0
  0
LINE
  5
295
100
AcDbEntity
  8
0
  6
CONTINUOUS
 62
               4
100
AcDbLine
 10
11.254999999999995
 20
28.060000000000002
 30
0.0
 11
11.254999999999995
 21
26.800000000000011
 31
0.0
  0
LINE
  5
296
100
AcDbEntity
  8
0
  6
CONTINUOUS
 62
               4
100
AcDbLine
 10
6.7549999999999955
 20
28.060000000000002
 30
0.0
 11
6.7549999999999955
 21
26.800000000000011
 31
0.0
  0
LINE
  5
297
100
AcDbEntity
  8
0
  6
CONTINUOUS
 62
               4
100
AcDbLine
 10
10.875
 20
28.199999999999989
 30
0.0
 11
11.004999999999995
 21
28.199999999999989
 31
0.0
  0
LINE
  5
298
100
AcDbEntity
  8
0
  6
CONTINUOUS
 62
               4
100
AcDbLine
 10
15.004999999999995
 20
25.199999999999989
 30
0.0
 11
15.004999999999995
 21
0.0
 31
0.0
  0
LINE
  5
299
100
AcDbEntity
  8
0
  6
CONTINUOUS
 62
               4
100
AcDbLine
 10
15.004999999999995
 20
25.0
 30
0.0
 11
19.004999999999995
 21
25.0
 31
0.0
  0
LINE
  5
29A
100
AcDbEntity
  8
0
  6
CONTINUOUS
 62
               4
100
AcDbLine
 10
42.004999999999995
 20
43.170000000000016
 30
0.0
 11
42.004999999999995
 21
36.699999999999989
 31
0.0
  0
LINE
  5
29B
100
AcDbEntity
  8
0
  6
CONTINUOUS
 62
               4
100
AcDbLine
 10
19.004999999999995
 20
9.5999999999999943
 30
0.0
 11
42.004999999999995
 21
9.5999999999999943
 31
0.0
  0
LINE
  5
29C
100
AcDbEntity
  8
0
  6
CONTINUOUS
 62
               4
100
AcDbLine
 10
19.004999999999995
 20
24.400000000000006
 30
0.0
 11
42.004999999999995
 21
24.400000000000006
 31
0.0
  0
LINE
  5
29D
100
AcDbEntity
  8
0
  6
CONTINUOUS
 62
               4
100
AcDbLine
 10
27.204999999999984
 20
43.170000000000016
 30
0.0
 11
27.204999999999984
 21
36.699999999999989
 31
0.0
  0
LINE
  5
29E
100
AcDbEntity
  8
0
  6
CONTINUOUS
 62
               4
100
AcDbLine
 10
28.805000000000007
 20
44.099999999999994
 30
0.0
 11
40.405000000000001
 21
44.099999999999994
 31
0.0
  0
LINE
  5
29F
100
AcDbEntity
  8
0
  6
CONTINUOUS
 62
               4
100
AcDbLine
 10
43.544999999999987
 20
14.200000000000003
 30
0.0
 11
42.504999999999995
 21
14.200000000000003
 31
0.0
  0
LINE
  5
2A0
100
AcDbEntity
  8
0
  6
CONTINUOUS
 62
               4
100
AcDbLine
 10
43.544999999999987
 20
19.800000000000011
 30
0.0
 11
42.504999999999995
 21
19.800000000000011
 31
0.0
  0
LINE
  5
2A1
100
AcDbEntity
  8
0
  6
CONTINUOUS
 62
               4
100
AcDbLine
 10
42.504999999999995
 20
13.75
 30
0.0
 11
42.504999999999995
 21
20.25
 31
0.0
  0
LINE
  5
2A2
100
AcDbEntity
  8
0
  6
CONTINUOUS
 62
               4
100
AcDbLine
 10
42.504999999999995
 20
13.75
 30
0.0
 11
42.004999999999995
 21
13.75
 31
0.0
  0
LINE
  5
2A3
100
AcDbEntity
  8
0
  6
CONTINUOUS
 62
               4
100
AcDbLine
 10
42.504999999999995
 20
20.25
 30
0.0
 11
42.004999999999995
 21
20.25
 31
0.0
  0
LINE
  5
2A4
100
AcDbEntity
  8
0
  6
CONTINUOUS
 62
               4
100
AcDbLine
 10
27.204999999999984
 20
36.699999999999989
 30
0.0
 11
42.004999999999995
 21
36.699999999999989
 31
0.0
  0
LINE
  5
2A5
100
AcDbEntity
  8
0
  6
CONTINUOUS
 62
               4
100
AcDbLine
 10
27.204999999999984
 20
37.699999999999989
 30
0.0
 11
42.004999999999995
 21
37.699999999999989
 31
0.0
  0
LINE
  5
2A6
100
AcDbEntity
  8
0
  6
CONTINUOUS
 62
               4
100
AcDbLine
 10
29.60499999999999
 20
22.0
 30
0.0
 11
39.60499999999999
 21
22.0
 31
0.0
  0
LINE
  5
2A7
100
AcDbEntity
  8
0
  6
CONTINUOUS
 62
               4
100
AcDbLine
 10
29.60499999999999
 20
12.0
 30
0.0
 11
39.60499999999999
 21
12.0
 31
0.0
  0
LINE
  5
2A8
100
AcDbEntity
  8
0
  6
CONTINUOUS
 62
               4
100
AcDbLine
 10
29.60499999999999
 20
22.0
 30
0.0
 11
29.60499999999999
 21
12.0
 31
0.0
  0
LINE
  5
2A9
100
AcDbEntity
  8
0
  6
CONTINUOUS
 62
               4
100
AcDbLine
 10
39.60499999999999
 20
22.0
 30
0.0
 11
39.60499999999999
 21
12.0
 31
0.0
  0
LINE
  5
2AA
100
AcDbEntity
  8
0
  6
CONTINUOUS
 62
               4
100
AcDbLine
 10
40.405000000000001
 20
44.099999999999994
 30
0.0
 11
42.004999999999995
 21
43.170000000000016
 31
0.0
  0
LINE
  5
2AB
100
AcDbEntity
  8
0
  6
CONTINUOUS
 62
               4
100
AcDbLine
 10
28.805000000000007
 20
44.099999999999994
 30
0.0
 11
27.204999999999984
 21
43.170000000000016
 31
0.0
  0
LINE
  5
2AC
100
AcDbEntity
  8
0
  6
CONTINUOUS
 62
               4
100
AcDbLine
 10
30.734999999999985
 20
43.170000000000016
 30
0.0
 11
30.734999999999985
 21
37.699999999999989
 31
0.0
  0
LINE
  5
2AD
100
AcDbEntity
  8
0
  6
CONTINUOUS
 62
               4
100
AcDbLine
 10
31.064999999999998
 20
43.170000000000016
 30
0.0
 11
31.064999999999998
 21
37.699999999999989
 31
0.0
  0
LINE
  5
2AE
100
AcDbEntity
  8
0
  6
CONTINUOUS
 62
               4
100
AcDbLine
 10
38.134999999999991
 20
43.170000000000016
 30
0.0
 11
38.134999999999991
 21
37.699999999999989
 31
0.0
  0
LINE
  5
2AF
100
AcDbEntity
  8
0
  6
CONTINUOUS
 62
               4
100
AcDbLine
 10
38.465000000000003
 20
43.170000000000016
 30
0.0
 11
38.465000000000003
 21
37.699999999999989
 31
0.0
  0
LINE
  5
2B0
100
AcDbEntity
  8
0
  6
CONTINUOUS
 62
               4
100
AcDbLine
 10
30.734999999999985
 20
43.170000000000016
 30
0.0
 11
31.064999999999998
 21
43.170000000000016
 31
0.0
  0
LINE
  5
2B1
100
AcDbEntity
  8
0
  6
CONTINUOUS
 62
               4
100
AcDbLine
 10
38.134999999999991
 20
43.170000000000016
 30
0.0
 11
38.465000000000003
 21
43.170000000000016
 31
0.0
  0
LINE
  5
2B2
100
AcDbEntity
  8
0
  6
CONTINUOUS
 62
               4
100
AcDbLine
 10
19.004999999999995
 20
25.0
 30
0.0
 11
19.004999999999995
 21
0.0
 31
0.0
  0
LINE
  5
2B3
100
AcDbEntity
  8
0
  6
CONTINUOUS
 62
               4
100
AcDbLine
 10
27.204999999999984
 20
34.699999999999989
 30
0.0
 11
42.004999999999995
 21
34.699999999999989
 31
0.0
  0
LINE
  5
2B4
100
AcDbEntity
  8
0
  6
CONTINUOUS
 62
               4
100
AcDbLine
 10
27.204999999999984
 20
34.699999999999989
 30
0.0
 11
27.204999999999984
 21
24.400000000000006
 31
0.0
  0
LINE
  5
2B5
100
AcDbEntity
  8
0
  6
CONTINUOUS
 62
               4
100
AcDbLine
 10
42.004999999999995
 20
34.699999999999989
 30
0.0
 11
42.004999999999995
 21
9.5999999999999943
 31
0.0
  0
LINE
  5
2B6
100
AcDbEntity
  8
0
  6
CONTINUOUS
 62
               4
100
AcDbLine
 10
40.60499999999999
 20
36.699999999999989
 30
0.0
 11
40.60499999999999
 21
34.699999999999989
 31
0.0
  0
LINE
  5
2B7
100
AcDbEntity
  8
0
  6
CONTINUOUS
 62
               4
100
AcDbLine
 10
28.60499999999999
 20
36.699999999999989
 30
0.0
 11
28.60499999999999
 21
34.699999999999989
 31
0.0
  0
LINE
  5
2B8
100
AcDbEntity
  8
0
  6
CONTINUOUS
 62
               4
100
AcDbLine
 10
39.925000000000011
 20
36.699999999999989
 30
0.0
 11
39.925000000000011
 21
34.699999999999989
 31
0.0
  0
LINE
  5
2B9
100
AcDbEntity
  8
0
  6
CONTINUOUS
 62
               4
100
AcDbLine
 10
29.275000000000006
 20
36.699999999999989
 30
0.0
 11
29.275000000000006
 21
34.699999999999989
 31
0.0
  0
LINE
  5
2BA
100
AcDbEntity
  8
0
  6
CONTINUOUS
 62
               4
100
AcDbLine
 10
19.504999999999995
 20
9.5999999999999943
 30
0.0
 11
19.504999999999995
 21
24.400000000000006
 31
0.0
  0
LINE
  5
2BB
100
AcDbEntity
  8
0
  6
CONTINUOUS
 62
               4
100
AcDbLine
 10
11.025000000000006
 20
28.139999999999986
 30
0.0
 11
11.004999999999995
 21
28.199999999999989
 31
0.0
  0
LINE
  5
2BC
100
AcDbEntity
  8
0
  6
CONTINUOUS
 62
               4
100
AcDbLine
 10
19.004999999999995
 20
0.0
 30
0.0
 11
12.504999999999995
 21
0.0
 31
0.0
  0
ARC
  5
2BD
100
AcDbEntity
  8
0
  6
CONTINUOUS
 62
               4
100
AcDbCircle
 10
34.599999999999994
 20
31.398361206047014
 30
0.0
 40
12.290960291828263
100
AcDbArc
 50
73.285090854398561
 51
106.71490914560104
  0
ARC
  5
2BE
100
AcDbEntity
  8
0
  6
CONTINUOUS
 62
               4
100
AcDbCircle
 10
40.238336613628633
 20
40.422745458964584
 30
0.0
 40
3.2698823004009689
100
AcDbArc
 50
62.760454025077443
 51
122.84200429042177
  0
ARC
  5
2BF
100
AcDbEntity
  8
0
  6
CONTINUOUS
 62
               4
100
AcDbCircle
 10
28.966250221470631
 20
40.422973262464325
 30
0.0
 40
3.2672054841689193
100
AcDbArc
 50
57.223410418813913
 51
117.15697330904528
  0
ARC
  5
2C0
100
AcDbEntity
  8
0
  6
CONTINUOUS
 62
               4
100
AcDbCircle
 10
9.0049999999999955
 20
22.5
 30
0.0
 40
5.9980080026622158
100
AcDbArc
 50
67.967989550225639
 51
112.03201044977398
  0
ARC
  5
2C1
100
AcDbEntity
  8
0
  6
CONTINUOUS
 62
               4
100
AcDbCircle
 10
-8.9900000000000091
 20
22.499969482421875
 30
0.0
 40
6.0004977211329678
100
AcDbArc
 50
71.791606583940705
 51
108.2083934160589
  0
ARC
  5
2C2
100
AcDbEntity
  8
0
  6
CONTINUOUS
 62
               4
100
AcDbCircle
 10
39.405024414062495
 20
17.0
 30
0.0
 40
4.997939360592377
100
AcDbArc
 50
325.9282333958779
 51
34.071766604121279
  0
ENDBLK
  5
2C3
100
AcDbEntity
  8
0
100
AcDbBlockEnd
  0
BLOCK
  5
2C4
100
AcDbEntity
  8
0
100
AcDbBlockBegin
  2
MS_13
 70
               0
 10
0.0
 20
0.0
 30
0.0
  3
MS_13
  1

  0
LINE
  5
2C5
100
AcDbEntity
  8
0
  6
CONTINUOUS
 62
               4
100
AcDbLine
 10
-12.495000000000005
 20
0.0
 30
0.0
 11
-18.995000000000005
 21
0.0
 31
0.0
  0
LINE
  5
2C6
100
AcDbEntity
  8
0
  6
CONTINUOUS
 62
               4
100
AcDbLine
 10
12.004999999999995
 20
26.199999999999989
 30
0.0
 11
12.004999999999995
 21
0.0
 31
0.0
  0
LINE
  5
2C7
100
AcDbEntity
  8
0
  6
CONTINUOUS
 62
               4
100
AcDbLine
 10
12.004999999999995
 20
25.199999999999989
 30
0.0
 11
-14.995000000000005
 21
25.199999999999989
 31
0.0
  0
LINE
  5
2C8
100
AcDbEntity
  8
0
  6
CONTINUOUS
 62
               4
100
AcDbLine
 10
-11.995000000000005
 20
26.199999999999989
 30
0.0
 11
-11.995000000000005
 21
25.199999999999989
 31
0.0
  0
LINE
  5
2C9
100
AcDbEntity
  8
0
  6
CONTINUOUS
 62
               4
100
AcDbLine
 10
-10.995000000000005
 20
28.199999999999989
 30
0.0
 11
7.125
 21
28.199999999999989
 31
0.0
  0
LINE
  5
2CA
100
AcDbEntity
  8
0
  6
CONTINUOUS
 62
               4
100
AcDbLine
 10
12.004999999999995
 20
26.199999999999989
 30
0.0
 11
-11.995000000000005
 21
26.199999999999989
 31
0.0
  0
LINE
  5
2CB
100
AcDbEntity
  8
0
  6
CONTINUOUS
 62
               4
100
AcDbLine
 10
-11.995000000000005
 20
26.199999999999989
 30
0.0
 11
-10.995000000000005
 21
28.199999999999989
 31
0.0
  0
LINE
  5
2CC
100
AcDbEntity
  8
0
  6
CONTINUOUS
 62
               4
100
AcDbLine
 10
12.004999999999995
 20
26.199999999999989
 30
0.0
 11
11.254999999999995
 21
27.699999999999989
 31
0.0
  0
LINE
  5
2CD
100
AcDbEntity
  8
0
  6
CONTINUOUS
 62
               4
100
AcDbLine
 10
6.0049999999999955
 20
28.199999999999989
 30
0.0
 11
6.0049999999999955
 21
26.199999999999989
 31
0.0
  0
LINE
  5
2CE
100
AcDbEntity
  8
0
  6
CONTINUOUS
 62
               4
100
AcDbLine
 10
11.555000000000007
 20
26.800000000000011
 30
0.0
 11
6.4549999999999841
 21
26.800000000000011
 31
0.0
  0
LINE
  5
2CF
100
AcDbEntity
  8
0
  6
CONTINUOUS
 62
               4
100
AcDbLine
 10
11.555000000000007
 20
26.800000000000011
 30
0.0
 11
11.555000000000007
 21
26.199999999999989
 31
0.0
  0
LINE
  5
2D0
100
AcDbEntity
  8
0
  6
CONTINUOUS
 62
               4
100
AcDbLine
 10
6.4549999999999841
 20
26.800000000000011
 30
0.0
 11
6.4549999999999841
 21
26.199999999999989
 31
0.0
  0
LINE
  5
2D1
100
AcDbEntity
  8
0
  6
CONTINUOUS
 62
               4
100
AcDbLine
 10
11.254999999999995
 20
28.060000000000002
 30
0.0
 11
11.254999999999995
 21
26.800000000000011
 31
0.0
  0
LINE
  5
2D2
100
AcDbEntity
  8
0
  6
CONTINUOUS
 62
               4
100
AcDbLine
 10
6.7549999999999955
 20
28.060000000000002
 30
0.0
 11
6.7549999999999955
 21
26.800000000000011
 31
0.0
  0
LINE
  5
2D3
100
AcDbEntity
  8
0
  6
CONTINUOUS
 62
               4
100
AcDbLine
 10
10.875
 20
28.199999999999989
 30
0.0
 11
11.004999999999995
 21
28.199999999999989
 31
0.0
  0
LINE
  5
2D4
100
AcDbEntity
  8
0
  6
CONTINUOUS
 62
               4
100
AcDbLine
 10
-14.995000000000005
 20
25.199999999999989
 30
0.0
 11
-14.995000000000005
 21
0.0
 31
0.0
  0
LINE
  5
2D5
100
AcDbEntity
  8
0
  6
CONTINUOUS
 62
               4
100
AcDbLine
 10
-14.995000000000005
 20
25.0
 30
0.0
 11
-18.995000000000005
 21
25.0
 31
0.0
  0
LINE
  5
2D6
100
AcDbEntity
  8
0
  6
CONTINUOUS
 62
               4
100
AcDbLine
 10
-41.995000000000005
 20
43.170000000000016
 30
0.0
 11
-41.995000000000005
 21
36.699999999999989
 31
0.0
  0
LINE
  5
2D7
100
AcDbEntity
  8
0
  6
CONTINUOUS
 62
               4
100
AcDbLine
 10
-27.194999999999993
 20
43.170000000000016
 30
0.0
 11
-27.194999999999993
 21
36.699999999999989
 31
0.0
  0
LINE
  5
2D8
100
AcDbEntity
  8
0
  6
CONTINUOUS
 62
               4
100
AcDbLine
 10
-28.795000000000016
 20
44.099999999999994
 30
0.0
 11
-40.394999999999982
 21
44.099999999999994
 31
0.0
  0
LINE
  5
2D9
100
AcDbEntity
  8
0
  6
CONTINUOUS
 62
               4
100
AcDbLine
 10
-43.535000000000025
 20
14.200000000000003
 30
0.0
 11
-42.495000000000005
 21
14.200000000000003
 31
0.0
  0
LINE
  5
2DA
100
AcDbEntity
  8
0
  6
CONTINUOUS
 62
               4
100
AcDbLine
 10
-43.535000000000025
 20
19.800000000000011
 30
0.0
 11
-42.495000000000005
 21
19.800000000000011
 31
0.0
  0
LINE
  5
2DB
100
AcDbEntity
  8
0
  6
CONTINUOUS
 62
               4
100
AcDbLine
 10
-42.495000000000005
 20
13.75
 30
0.0
 11
-42.495000000000005
 21
20.25
 31
0.0
  0
LINE
  5
2DC
100
AcDbEntity
  8
0
  6
CONTINUOUS
 62
               4
100
AcDbLine
 10
-42.495000000000005
 20
13.75
 30
0.0
 11
-41.995000000000005
 21
13.75
 31
0.0
  0
LINE
  5
2DD
100
AcDbEntity
  8
0
  6
CONTINUOUS
 62
               4
100
AcDbLine
 10
-42.495000000000005
 20
20.25
 30
0.0
 11
-41.995000000000005
 21
20.25
 31
0.0
  0
LINE
  5
2DE
100
AcDbEntity
  8
0
  6
CONTINUOUS
 62
               4
100
AcDbLine
 10
-27.194999999999993
 20
36.699999999999989
 30
0.0
 11
-41.995000000000005
 21
36.699999999999989
 31
0.0
  0
LINE
  5
2DF
100
AcDbEntity
  8
0
  6
CONTINUOUS
 62
               4
100
AcDbLine
 10
-27.194999999999993
 20
37.699999999999989
 30
0.0
 11
-41.995000000000005
 21
37.699999999999989
 31
0.0
  0
LINE
  5
2E0
100
AcDbEntity
  8
0
  6
CONTINUOUS
 62
               4
100
AcDbLine
 10
-29.595000000000027
 20
22.0
 30
0.0
 11
-39.595000000000027
 21
22.0
 31
0.0
  0
LINE
  5
2E1
100
AcDbEntity
  8
0
  6
CONTINUOUS
 62
               4
100
AcDbLine
 10
-29.595000000000027
 20
12.0
 30
0.0
 11
-39.595000000000027
 21
12.0
 31
0.0
  0
LINE
  5
2E2
100
AcDbEntity
  8
0
  6
CONTINUOUS
 62
               4
100
AcDbLine
 10
-29.595000000000027
 20
22.0
 30
0.0
 11
-29.595000000000027
 21
12.0
 31
0.0
  0
LINE
  5
2E3
100
AcDbEntity
  8
0
  6
CONTINUOUS
 62
               4
100
AcDbLine
 10
-39.595000000000027
 20
22.0
 30
0.0
 11
-39.595000000000027
 21
12.0
 31
0.0
  0
LINE
  5
2E4
100
AcDbEntity
  8
0
  6
CONTINUOUS
 62
               4
100
AcDbLine
 10
-40.394999999999982
 20
44.099999999999994
 30
0.0
 11
-41.995000000000005
 21
43.170000000000016
 31
0.0
  0
LINE
  5
2E5
100
AcDbEntity
  8
0
  6
CONTINUOUS
 62
               4
100
AcDbLine
 10
-28.795000000000016
 20
44.099999999999994
 30
0.0
 11
-27.194999999999993
 21
43.170000000000016
 31
0.0
  0
LINE
  5
2E6
100
AcDbEntity
  8
0
  6
CONTINUOUS
 62
               4
100
AcDbLine
 10
-30.725000000000023
 20
43.170000000000016
 30
0.0
 11
-30.725000000000023
 21
37.699999999999989
 31
0.0
  0
LINE
  5
2E7
100
AcDbEntity
  8
0
  6
CONTINUOUS
 62
               4
100
AcDbLine
 10
-31.055000000000007
 20
43.170000000000016
 30
0.0
 11
-31.055000000000007
 21
37.699999999999989
 31
0.0
  0
LINE
  5
2E8
100
AcDbEntity
  8
0
  6
CONTINUOUS
 62
               4
100
AcDbLine
 10
-38.125
 20
43.170000000000016
 30
0.0
 11
-38.125
 21
37.699999999999989
 31
0.0
  0
LINE
  5
2E9
100
AcDbEntity
  8
0
  6
CONTINUOUS
 62
               4
100
AcDbLine
 10
-38.454999999999984
 20
43.170000000000016
 30
0.0
 11
-38.454999999999984
 21
37.699999999999989
 31
0.0
  0
LINE
  5
2EA
100
AcDbEntity
  8
0
  6
CONTINUOUS
 62
               4
100
AcDbLine
 10
-30.725000000000023
 20
43.170000000000016
 30
0.0
 11
-31.055000000000007
 21
43.170000000000016
 31
0.0
  0
LINE
  5
2EB
100
AcDbEntity
  8
0
  6
CONTINUOUS
 62
               4
100
AcDbLine
 10
-38.125
 20
43.170000000000016
 30
0.0
 11
-38.454999999999984
 21
43.170000000000016
 31
0.0
  0
LINE
  5
2EC
100
AcDbEntity
  8
0
  6
CONTINUOUS
 62
               4
100
AcDbLine
 10
-18.995000000000005
 20
24.400000000000006
 30
0.0
 11
-41.995000000000005
 21
24.400000000000006
 31
0.0
  0
LINE
  5
2ED
100
AcDbEntity
  8
0
  6
CONTINUOUS
 62
               4
100
AcDbLine
 10
-18.995000000000005
 20
9.5999999999999943
 30
0.0
 11
-41.995000000000005
 21
9.5999999999999943
 31
0.0
  0
LINE
  5
2EE
100
AcDbEntity
  8
0
  6
CONTINUOUS
 62
               4
100
AcDbLine
 10
-18.995000000000005
 20
25.0
 30
0.0
 11
-18.995000000000005
 21
0.0
 31
0.0
  0
LINE
  5
2EF
100
AcDbEntity
  8
0
  6
CONTINUOUS
 62
               4
100
AcDbLine
 10
-27.194999999999993
 20
34.699999999999989
 30
0.0
 11
-41.995000000000005
 21
34.699999999999989
 31
0.0
  0
LINE
  5
2F0
100
AcDbEntity
  8
0
  6
CONTINUOUS
 62
               4
100
AcDbLine
 10
-41.995000000000005
 20
34.699999999999989
 30
0.0
 11
-41.995000000000005
 21
9.5999999999999943
 31
0.0
  0
LINE
  5
2F1
100
AcDbEntity
  8
0
  6
CONTINUOUS
 62
               4
100
AcDbLine
 10
-27.194999999999993
 20
34.699999999999989
 30
0.0
 11
-27.194999999999993
 21
24.400000000000006
 31
0.0
  0
LINE
  5
2F2
100
AcDbEntity
  8
0
  6
CONTINUOUS
 62
               4
100
AcDbLine
 10
-28.595000000000027
 20
36.699999999999989
 30
0.0
 11
-28.595000000000027
 21
34.699999999999989
 31
0.0
  0
LINE
  5
2F3
100
AcDbEntity
  8
0
  6
CONTINUOUS
 62
               4
100
AcDbLine
 10
-40.595000000000027
 20
36.699999999999989
 30
0.0
 11
-40.595000000000027
 21
34.699999999999989
 31
0.0
  0
LINE
  5
2F4
100
AcDbEntity
  8
0
  6
CONTINUOUS
 62
               4
100
AcDbLine
 10
-39.91500000000002
 20
36.699999999999989
 30
0.0
 11
-39.91500000000002
 21
34.699999999999989
 31
0.0
  0
LINE
  5
2F5
100
AcDbEntity
  8
0
  6
CONTINUOUS
 62
               4
100
AcDbLine
 10
-29.264999999999986
 20
36.699999999999989
 30
0.0
 11
-29.264999999999986
 21
34.699999999999989
 31
0.0
  0
LINE
  5
2F6
100
AcDbEntity
  8
0
  6
CONTINUOUS
 62
               4
100
AcDbLine
 10
-19.495000000000005
 20
9.5999999999999943
 30
0.0
 11
-19.495000000000005
 21
24.400000000000006
 31
0.0
  0
LINE
  5
2F7
100
AcDbEntity
  8
0
  6
CONTINUOUS
 62
               4
100
AcDbLine
 10
11.024999999999977
 20
28.139999999999986
 30
0.0
 11
11.004999999999995
 21
28.199999999999989
 31
0.0
  0
ARC
  5
2F8
100
AcDbEntity
  8
0
  6
CONTINUOUS
 62
               4
100
AcDbCircle
 10
-40.228336613628642
 20
40.422745458964584
 30
0.0
 40
3.2698823004009689
100
AcDbArc
 50
57.157995709577825
 51
117.23954597492218
  0
ARC
  5
2F9
100
AcDbEntity
  8
0
  6
CONTINUOUS
 62
               4
100
AcDbCircle
 10
-34.590000000000032
 20
31.398376464836076
 30
0.0
 40
12.29094567775911
100
AcDbArc
 50
73.285070396500757
 51
106.71492960349887
  0
ARC
  5
2FA
100
AcDbEntity
  8
0
  6
CONTINUOUS
 62
               4
100
AcDbCircle
 10
-28.956251715666497
 20
40.423003706704407
 30
0.0
 40
3.267179078151754
100
AcDbArc
 50
62.842759691197216
 51
122.77685658094278
  0
ARC
  5
2FB
100
AcDbEntity
  8
0
  6
CONTINUOUS
 62
               4
100
AcDbCircle
 10
9.0049999999999955
 20
22.500015258789063
 30
0.0
 40
5.9979938581577796
100
AcDbArc
 50
67.967934872283351
 51
112.03206512771627
  0
ARC
  5
2FC
100
AcDbEntity
  8
0
  6
CONTINUOUS
 62
               4
100
AcDbCircle
 10
-8.9900000000000091
 20
22.499984741210938
 30
0.0
 40
6.0004832264100321
100
AcDbArc
 50
71.791561056789845
 51
108.20843894320979
  0
ARC
  5
2FD
100
AcDbEntity
  8
0
  6
CONTINUOUS
 62
               4
100
AcDbCircle
 10
-39.394978637695317
 20
17.0
 30
0.0
 40
4.9979772788938481
100
AcDbArc
 50
145.92852738870087
 51
214.07147261129833
  0
ENDBLK
  5
2FE
100
AcDbEntity
  8
0
100
AcDbBlockEnd
  0
BLOCK
  5
2FF
100
AcDbEntity
  8
0
100
AcDbBlockBegin
  2
MS_14
 70
               0
 10
0.0
 20
0.0
 30
0.0
  3
MS_14
  1

  0
LINE
  5
300
100
AcDbEntity
  8
0
  6
CONTINUOUS
 62
               4
100
AcDbLine
 10
7.5049999999999955
 20
-25.5
 30
0.0
 11
-7.4950000000000045
 21
-25.5
 31
0.0
  0
LINE
  5
301
100
AcDbEntity
  8
0
  6
CONTINUOUS
 62
               4
100
AcDbLine
 10
-1.4950000000000045
 20
-22.5
 30
0.0
 11
-1.4950000000000045
 21
-25.5
 31
0.0
  0
LINE
  5
302
100
AcDbEntity
  8
0
  6
CONTINUOUS
 62
               4
100
AcDbLine
 10
1.5049999999999955
 20
-4.5
 30
0.0
 11
1.5049999999999955
 21
-1.5
 31
0.0
  0
LINE
  5
303
100
AcDbEntity
  8
0
  6
CONTINUOUS
 62
               4
100
AcDbLine
 10
4.5049999999999955
 20
-7.5
 30
0.0
 11
7.5049999999999955
 21
-7.5
 31
0.0
  0
LINE
  5
304
100
AcDbEntity
  8
0
  6
CONTINUOUS
 62
               4
100
AcDbLine
 10
-4.4950000000000045
 20
-19.5
 30
0.0
 11
-7.4950000000000045
 21
-19.5
 31
0.0
  0
LINE
  5
305
100
AcDbEntity
  8
0
  6
CONTINUOUS
 62
               4
100
AcDbLine
 10
1.5049999999999955
 20
-2.5
 30
0.0
 11
-6.4950000000000045
 21
-2.5
 31
0.0
  0
LINE
  5
306
100
AcDbEntity
  8
0
  6
CONTINUOUS
 62
               4
100
AcDbLine
 10
6.5049999999999955
 20
-24.5
 30
0.0
 11
-1.4950000000000045
 21
-24.5
 31
0.0
  0
LINE
  5
307
100
AcDbEntity
  8
0
  6
CONTINUOUS
 62
               4
100
AcDbLine
 10
6.5049999999999955
 20
-7.5
 30
0.0
 11
6.5049999999999955
 21
-24.5
 31
0.0
  0
LINE
  5
308
100
AcDbEntity
  8
0
  6
CONTINUOUS
 62
               4
100
AcDbLine
 10
-6.4950000000000045
 20
-2.5
 30
0.0
 11
-6.4950000000000045
 21
-19.5
 31
0.0
  0
LINE
  5
309
100
AcDbEntity
  8
0
  6
CONTINUOUS
 62
               4
100
AcDbLine
 10
7.5049999999999955
 20
-1.5
 30
0.0
 11
7.5049999999999955
 21
-32.5
 31
0.0
  0
LINE
  5
30A
100
AcDbEntity
  8
0
  6
CONTINUOUS
 62
               4
100
AcDbLine
 10
7.5049999999999955
 20
-1.5
 30
0.0
 11
-7.4950000000000045
 21
-1.5
 31
0.0
  0
LINE
  5
30B
100
AcDbEntity
  8
0
  6
CONTINUOUS
 62
               4
100
AcDbLine
 10
-7.4950000000000045
 20
-1.5
 30
0.0
 11
-7.4950000000000045
 21
-32.5
 31
0.0
  0
LINE
  5
30C
100
AcDbEntity
  8
0
  6
CONTINUOUS
 62
               4
100
AcDbLine
 10
7.5049999999999955
 20
-28.5
 30
0.0
 11
-7.4950000000000045
 21
-28.5
 31
0.0
  0
LINE
  5
30D
100
AcDbEntity
  8
0
  6
CONTINUOUS
 62
               4
100
AcDbLine
 10
7.5049999999999955
 20
-32.5
 30
0.0
 11
-7.4950000000000045
 21
-32.5
 31
0.0
  0
LINE
  5
30E
100
AcDbEntity
  8
0
  6
CONTINUOUS
 62
               4
100
AcDbLine
 10
6.5049999999999955
 20
-44.560000000000002
 30
0.0
 11
6.5049999999999955
 21
-51.629999999999995
 31
0.0
  0
LINE
  5
30F
100
AcDbEntity
  8
0
  6
CONTINUOUS
 62
               4
100
AcDbLine
 10
-6.4950000000000045
 20
-44.560000000000002
 30
0.0
 11
-6.4950000000000045
 21
-51.629999999999995
 31
0.0
  0
LINE
  5
310
100
AcDbEntity
  8
0
  6
CONTINUOUS
 62
               4
100
AcDbLine
 10
6.3149999999999977
 20
-51.960000000000008
 30
0.0
 11
0.1850000000000023
 21
-55.490000000000009
 31
0.0
  0
LINE
  5
311
100
AcDbEntity
  8
0
  6
CONTINUOUS
 62
               4
100
AcDbLine
 10
-0.1750000000000114
 20
-40.699999999999989
 30
0.0
 11
-6.3050000000000068
 21
-44.22999999999999
 31
0.0
  0
LINE
  5
312
100
AcDbEntity
  8
0
  6
CONTINUOUS
 62
               4
100
AcDbLine
 10
-0.1750000000000114
 20
-55.490000000000009
 30
0.0
 11
-6.3050000000000068
 21
-51.960000000000008
 31
0.0
  0
LINE
  5
313
100
AcDbEntity
  8
0
  6
CONTINUOUS
 62
               4
100
AcDbLine
 10
6.3149999999999977
 20
-44.22999999999999
 30
0.0
 11
0.1850000000000023
 21
-40.699999999999989
 31
0.0
  0
LINE
  5
314
100
AcDbEntity
  8
0
  6
CONTINUOUS
 62
               4
100
AcDbLine
 10
7.4049999999999727
 20
-55.5
 30
0.0
 11
-7.3949999999999818
 21
-55.5
 31
0.0
  0
LINE
  5
315
100
AcDbEntity
  8
0
  6
CONTINUOUS
 62
               4
100
AcDbLine
 10
-2.7950000000000159
 20
-57.039999999999992
 30
0.0
 11
-2.7950000000000159
 21
-56.0
 31
0.0
  0
LINE
  5
316
100
AcDbEntity
  8
0
  6
CONTINUOUS
 62
               4
100
AcDbLine
 10
2.8050000000000068
 20
-57.039999999999992
 30
0.0
 11
2.8050000000000068
 21
-56.0
 31
0.0
  0
LINE
  5
317
100
AcDbEntity
  8
0
  6
CONTINUOUS
 62
               4
100
AcDbLine
 10
3.2549999999999955
 20
-56.0
 30
0.0
 11
3.2549999999999955
 21
-55.5
 31
0.0
  0
LINE
  5
318
100
AcDbEntity
  8
0
  6
CONTINUOUS
 62
               4
100
AcDbLine
 10
-3.2450000000000045
 20
-56.0
 30
0.0
 11
-3.2450000000000045
 21
-55.5
 31
0.0
  0
LINE
  5
319
100
AcDbEntity
  8
0
  6
CONTINUOUS
 62
               4
100
AcDbLine
 10
-7.3949999999999818
 20
-32.5
 30
0.0
 11
-7.3949999999999818
 21
-55.5
 31
0.0
  0
LINE
  5
31A
100
AcDbEntity
  8
0
  6
CONTINUOUS
 62
               4
100
AcDbLine
 10
7.4049999999999727
 20
-32.5
 30
0.0
 11
7.4049999999999727
 21
-55.5
 31
0.0
  0
LINE
  5
31B
100
AcDbEntity
  8
0
  6
CONTINUOUS
 62
               4
100
AcDbLine
 10
7.4049999999999727
 20
-33.0
 30
0.0
 11
-7.3949999999999818
 21
-33.0
 31
0.0
  0
LINE
  5
31C
100
AcDbEntity
  8
0
  6
CONTINUOUS
 62
               4
100
AcDbLine
 10
3.5849999999999795
 20
-5.4099999999999966
 30
0.0
 11
5.4150000000000205
 21
-3.5800000000000125
 31
0.0
  0
LINE
  5
31D
100
AcDbEntity
  8
0
  6
CONTINUOUS
 62
               4
100
AcDbLine
 10
3.5849999999999795
 20
-3.5800000000000125
 30
0.0
 11
5.4150000000000205
 21
-5.4099999999999966
 31
0.0
  0
LINE
  5
31E
100
AcDbEntity
  8
0
  6
CONTINUOUS
 62
               4
100
AcDbLine
 10
-5.4050000000000296
 20
-21.579999999999984
 30
0.0
 11
-3.5749999999999886
 21
-23.409999999999997
 31
0.0
  0
LINE
  5
31F
100
AcDbEntity
  8
0
  6
CONTINUOUS
 62
               4
100
AcDbLine
 10
-5.4050000000000296
 20
-23.409999999999997
 30
0.0
 11
-3.5749999999999886
 21
-21.579999999999984
 31
0.0
  0
LINE
  5
320
100
AcDbEntity
  8
0
  6
CONTINUOUS
 62
               4
100
AcDbLine
 10
3.2549999999999955
 20
-56.0
 30
0.0
 11
-3.2450000000000045
 21
-56.0
 31
0.0
  0
ARC
  5
321
100
AcDbEntity
  8
0
  6
CONTINUOUS
 62
               4
100
AcDbCircle
 10
-4.4950000000000045
 20
-22.5
 30
0.0
 40
3.0
100
AcDbArc
 50
0.0
 51
89.999999999999801
  0
ARC
  5
322
100
AcDbEntity
  8
0
  6
CONTINUOUS
 62
               4
100
AcDbCircle
 10
4.5049999999999955
 20
-4.5
 30
0.0
 40
3.0
100
AcDbArc
 50
179.9999999999996
 51
269.99999999999937
  0
CIRCLE
  5
323
100
AcDbEntity
  8
0
  6
CONTINUOUS
 62
               4
100
AcDbCircle
 10
-4.4950000000000045
 20
-22.5
 30
0.0
 40
2.5500001907348633
  0
CIRCLE
  5
324
100
AcDbEntity
  8
0
  6
CONTINUOUS
 62
               4
100
AcDbCircle
 10
4.5049999999999955
 20
-4.5
 30
0.0
 40
2.5500001907348633
  0
CIRCLE
  5
325
100
AcDbEntity
  8
0
  6
CONTINUOUS
 62
               4
100
AcDbCircle
 10
-4.4950000000000045
 20
-22.5
 30
0.0
 40
2.25
  0
CIRCLE
  5
326
100
AcDbEntity
  8
0
  6
CONTINUOUS
 62
               4
100
AcDbCircle
 10
4.5049999999999955
 20
-4.5
 30
0.0
 40
2.25
  0
CIRCLE
  5
327
100
AcDbEntity
  8
0
  6
CONTINUOUS
 62
               4
100
AcDbCircle
 10
0.0049999999999955
 20
-48.099990844726563
 30
0.0
 40
7.3999996185302734
  0
CIRCLE
  5
328
100
AcDbEntity
  8
0
  6
CONTINUOUS
 62
               4
100
AcDbCircle
 10
0.0049999999999955
 20
-48.099990844726563
 30
0.0
 40
3.7999992370605469
  0
CIRCLE
  5
329
100
AcDbEntity
  8
0
  6
CONTINUOUS
 62
               4
100
AcDbCircle
 10
0.0049999999999955
 20
-48.099990844726563
 30
0.0
 40
5.8000001907348633
  0
ARC
  5
32A
100
AcDbEntity
  8
0
  6
CONTINUOUS
 62
               4
100
AcDbCircle
 10
0.0049999999999955
 20
-52.899993896484375
 30
0.0
 40
4.9979646394454038
100
AcDbArc
 50
235.92842939158882
 51
304.07157060840996
  0
ENDBLK
  5
32B
100
AcDbEntity
  8
0
100
AcDbBlockEnd
  0
BLOCK
  5
32C
100
AcDbEntity
  8
0
100
AcDbBlockBegin
  2
MS_15
 70
               0
 10
0.0
 20
0.0
 30
0.0
  3
MS_15
  1

  0
LINE
  5
32D
100
AcDbEntity
  8
0
  6
CONTINUOUS
 62
               4
100
AcDbLine
 10
7.5049999999999955
 20
27.0
 30
0.0
 11
7.5049999999999955
 21
32.5
 31
0.0
  0
LINE
  5
32E
100
AcDbEntity
  8
0
  6
CONTINUOUS
 62
               4
100
AcDbLine
 10
-7.4950000000000045
 20
27.0
 30
0.0
 11
-7.4950000000000045
 21
32.5
 31
0.0
  0
LINE
  5
32F
100
AcDbEntity
  8
0
  6
CONTINUOUS
 62
               4
100
AcDbLine
 10
-7.4950000000000045
 20
28.5
 30
0.0
 11
7.5049999999999955
 21
28.5
 31
0.0
  0
LINE
  5
330
100
AcDbEntity
  8
0
  6
CONTINUOUS
 62
               4
100
AcDbLine
 10
-7.4950000000000045
 20
32.5
 30
0.0
 11
7.5049999999999955
 21
32.5
 31
0.0
  0
LINE
  5
331
100
AcDbEntity
  8
0
  6
CONTINUOUS
 62
               4
100
AcDbLine
 10
7.4049999999999727
 20
32.5
 30
0.0
 11
7.4049999999999727
 21
55.5
 31
0.0
  0
LINE
  5
332
100
AcDbEntity
  8
0
  6
CONTINUOUS
 62
               4
100
AcDbLine
 10
-7.3949999999999818
 20
32.5
 30
0.0
 11
-7.3949999999999818
 21
55.5
 31
0.0
  0
LINE
  5
333
100
AcDbEntity
  8
0
  6
CONTINUOUS
 62
               4
100
AcDbLine
 10
-7.3949999999999818
 20
55.5
 30
0.0
 11
7.4049999999999727
 21
55.5
 31
0.0
  0
LINE
  5
334
100
AcDbEntity
  8
0
  6
CONTINUOUS
 62
               4
100
AcDbLine
 10
2.8050000000000068
 20
57.039999999999992
 30
0.0
 11
2.8050000000000068
 21
56.0
 31
0.0
  0
LINE
  5
335
100
AcDbEntity
  8
0
  6
CONTINUOUS
 62
               4
100
AcDbLine
 10
-2.7950000000000159
 20
57.039999999999992
 30
0.0
 11
-2.7950000000000159
 21
56.0
 31
0.0
  0
LINE
  5
336
100
AcDbEntity
  8
0
  6
CONTINUOUS
 62
               4
100
AcDbLine
 10
3.2549999999999955
 20
56.0
 30
0.0
 11
-3.2450000000000045
 21
56.0
 31
0.0
  0
LINE
  5
337
100
AcDbEntity
  8
0
  6
CONTINUOUS
 62
               4
100
AcDbLine
 10
3.2549999999999955
 20
56.0
 30
0.0
 11
3.2549999999999955
 21
55.5
 31
0.0
  0
LINE
  5
338
100
AcDbEntity
  8
0
  6
CONTINUOUS
 62
               4
100
AcDbLine
 10
-3.2450000000000045
 20
56.0
 30
0.0
 11
-3.2450000000000045
 21
55.5
 31
0.0
  0
LINE
  5
339
100
AcDbEntity
  8
0
  6
CONTINUOUS
 62
               4
100
AcDbLine
 10
-7.3949999999999818
 20
33.0
 30
0.0
 11
7.4049999999999727
 21
33.0
 31
0.0
  0
ARC
  5
33A
100
AcDbEntity
  8
0
  6
CONTINUOUS
 62
               4
100
AcDbCircle
 10
0.0049999999999955
 20
52.899993896484375
 30
0.0
 40
4.9979646394454038
100
AcDbArc
 50
55.928429391589219
 51
124.07157060841038
  0
ENDBLK
  5
33B
100
AcDbEntity
  8
0
100
AcDbBlockEnd
  0
BLOCK
  5
33C
100
AcDbEntity
  8
0
100
AcDbBlockBegin
  2
MS_16
 70
               0
 10
0.0
 20
0.0
 30
0.0
  3
MS_16
  1

  0
LINE
  5
33D
100
AcDbEntity
  8
0
  6
CONTINUOUS
 62
               4
100
AcDbLine
 10
-7.5075030517578227
 20
26.199999999999989
 30
0.0
 11
-7.5075030517578227
 21
0.0
 31
0.0
  0
LINE
  5
33E
100
AcDbEntity
  8
0
  6
CONTINUOUS
 62
               4
100
AcDbLine
 10
7.4924969482421773
 20
26.199999999999989
 30
0.0
 11
7.4924969482421773
 21
0.0
 31
0.0
  0
LINE
  5
33F
100
AcDbEntity
  8
0
  6
CONTINUOUS
 62
               4
100
AcDbLine
 10
-7.5075030517578227
 20
25.199999999999989
 30
0.0
 11
-4.5075030517578227
 21
25.199999999999989
 31
0.0
  0
LINE
  5
340
100
AcDbEntity
  8
0
  6
CONTINUOUS
 62
               4
100
AcDbLine
 10
-7.0075030517578227
 20
24.5
 30
0.0
 11
-7.0075030517578227
 21
0.0
 31
0.0
  0
LINE
  5
341
100
AcDbEntity
  8
0
  6
CONTINUOUS
 62
               4
100
AcDbLine
 10
6.9924969482421773
 20
24.5
 30
0.0
 11
6.9924969482421773
 21
0.0
 31
0.0
  0
LINE
  5
342
100
AcDbEntity
  8
0
  6
CONTINUOUS
 62
               4
100
AcDbLine
 10
-2.0075030517578227
 20
13.5
 30
0.0
 11
1.9924969482421773
 21
13.5
 31
0.0
  0
LINE
  5
343
100
AcDbEntity
  8
0
  6
CONTINUOUS
 62
               4
100
AcDbLine
 10
-2.0075030517578227
 20
11.5
 30
0.0
 11
1.9924969482421773
 21
11.5
 31
0.0
  0
LINE
  5
344
100
AcDbEntity
  8
0
  6
CONTINUOUS
 62
               4
100
AcDbLine
 10
-2.0075030517578227
 20
13.5
 30
0.0
 11
-2.0075030517578227
 21
11.5
 31
0.0
  0
LINE
  5
345
100
AcDbEntity
  8
0
  6
CONTINUOUS
 62
               4
100
AcDbLine
 10
1.9924969482421773
 20
13.5
 30
0.0
 11
1.9924969482421773
 21
11.5
 31
0.0
  0
LINE
  5
346
100
AcDbEntity
  8
0
  6
CONTINUOUS
 62
               4
100
AcDbLine
 10
-2.5075030517578227
 20
14.0
 30
0.0
 11
2.4924969482421773
 21
14.0
 31
0.0
  0
LINE
  5
347
100
AcDbEntity
  8
0
  6
CONTINUOUS
 62
               4
100
AcDbLine
 10
-2.5075030517578227
 20
14.0
 30
0.0
 11
-2.5075030517578227
 21
11.0
 31
0.0
  0
LINE
  5
348
100
AcDbEntity
  8
0
  6
CONTINUOUS
 62
               4
100
AcDbLine
 10
-2.5075030517578227
 20
11.0
 30
0.0
 11
2.4924969482421773
 21
11.0
 31
0.0
  0
LINE
  5
349
100
AcDbEntity
  8
0
  6
CONTINUOUS
 62
               4
100
AcDbLine
 10
2.4924969482421773
 20
14.0
 30
0.0
 11
2.4924969482421773
 21
11.0
 31
0.0
  0
LINE
  5
34A
100
AcDbEntity
  8
0
  6
CONTINUOUS
 62
               4
100
AcDbLine
 10
-7.5075030517578227
 20
26.199999999999989
 30
0.0
 11
-2.357503051757817
 21
26.199999999999989
 31
0.0
  0
LINE
  5
34B
100
AcDbEntity
  8
0
  6
CONTINUOUS
 62
               4
100
AcDbLine
 10
-6.5075030517578227
 20
28.199999999999989
 30
0.0
 11
-6.3775030517578273
 21
28.199999999999989
 31
0.0
  0
LINE
  5
34C
100
AcDbEntity
  8
0
  6
CONTINUOUS
 62
               4
100
AcDbLine
 10
7.4924969482421773
 20
26.199999999999989
 30
0.0
 11
6.4924969482421773
 21
28.199999999999989
 31
0.0
  0
LINE
  5
34D
100
AcDbEntity
  8
0
  6
CONTINUOUS
 62
               4
100
AcDbLine
 10
-7.5075030517578227
 20
26.199999999999989
 30
0.0
 11
-6.7575030517578227
 21
27.699999999999989
 31
0.0
  0
LINE
  5
34E
100
AcDbEntity
  8
0
  6
CONTINUOUS
 62
               4
100
AcDbLine
 10
-2.357503051757817
 20
26.800000000000011
 30
0.0
 11
-7.0575030517578341
 21
26.800000000000011
 31
0.0
  0
LINE
  5
34F
100
AcDbEntity
  8
0
  6
CONTINUOUS
 62
               4
100
AcDbLine
 10
-7.0575030517578341
 20
26.800000000000011
 30
0.0
 11
-7.0575030517578341
 21
26.199999999999989
 31
0.0
  0
LINE
  5
350
100
AcDbEntity
  8
0
  6
CONTINUOUS
 62
               4
100
AcDbLine
 10
-6.7575030517578227
 20
28.060000000000002
 30
0.0
 11
-6.7575030517578227
 21
26.800000000000011
 31
0.0
  0
LINE
  5
351
100
AcDbEntity
  8
0
  6
CONTINUOUS
 62
               4
100
AcDbLine
 10
-2.6275030517578273
 20
28.199999999999989
 30
0.0
 11
-2.357503051757817
 21
28.199999999999989
 31
0.0
  0
LINE
  5
352
100
AcDbEntity
  8
0
  6
CONTINUOUS
 62
               4
100
AcDbLine
 10
-0.6575030517578284
 20
36.0
 30
0.0
 11
-0.6575030517578284
 21
33.049999999999997
 31
0.0
  0
LINE
  5
353
100
AcDbEntity
  8
0
  6
CONTINUOUS
 62
               4
100
AcDbLine
 10
-2.357503051757817
 20
36.0
 30
0.0
 11
-2.357503051757817
 21
33.5
 31
0.0
  0
LINE
  5
354
100
AcDbEntity
  8
0
  6
CONTINUOUS
 62
               4
100
AcDbLine
 10
-1.1875030517578296
 20
46.0
 30
0.0
 11
-1.1875030517578296
 21
36.0
 31
0.0
  0
LINE
  5
355
100
AcDbEntity
  8
0
  6
CONTINUOUS
 62
               4
100
AcDbLine
 10
-1.8275030517578159
 20
46.0
 30
0.0
 11
-1.8275030517578159
 21
36.0
 31
0.0
  0
LINE
  5
356
100
AcDbEntity
  8
0
  6
CONTINUOUS
 62
               4
100
AcDbLine
 10
1.8124969482421704
 20
46.0
 30
0.0
 11
1.8124969482421704
 21
36.0
 31
0.0
  0
LINE
  5
357
100
AcDbEntity
  8
0
  6
CONTINUOUS
 62
               4
100
AcDbLine
 10
1.1724969482421841
 20
46.0
 30
0.0
 11
1.1724969482421841
 21
36.0
 31
0.0
  0
LINE
  5
358
100
AcDbEntity
  8
0
  6
CONTINUOUS
 62
               4
100
AcDbLine
 10
2.3424969482421716
 20
36.0
 30
0.0
 11
2.3424969482421716
 21
32.240000000000009
 31
0.0
  0
LINE
  5
359
100
AcDbEntity
  8
0
  6
CONTINUOUS
 62
               4
100
AcDbLine
 10
0.642496948242183
 20
36.0
 30
0.0
 11
0.642496948242183
 21
32.700000000000003
 31
0.0
  0
LINE
  5
35A
100
AcDbEntity
  8
0
  6
CONTINUOUS
 62
               4
100
AcDbLine
 10
-1.8275030517578159
 20
46.0
 30
0.0
 11
-1.1875030517578296
 21
46.0
 31
0.0
  0
LINE
  5
35B
100
AcDbEntity
  8
0
  6
CONTINUOUS
 62
               4
100
AcDbLine
 10
1.1724969482421841
 20
46.0
 30
0.0
 11
1.8124969482421704
 21
46.0
 31
0.0
  0
LINE
  5
35C
100
AcDbEntity
  8
0
  6
CONTINUOUS
 62
               4
100
AcDbLine
 10
-2.357503051757817
 20
36.0
 30
0.0
 11
-0.6575030517578284
 21
36.0
 31
0.0
  0
LINE
  5
35D
100
AcDbEntity
  8
0
  6
CONTINUOUS
 62
               4
100
AcDbLine
 10
0.642496948242183
 20
36.0
 30
0.0
 11
2.3424969482421716
 21
36.0
 31
0.0
  0
LINE
  5
35E
100
AcDbEntity
  8
0
  6
CONTINUOUS
 62
               4
100
AcDbLine
 10
4.4924969482421773
 20
25.199999999999989
 30
0.0
 11
7.4924969482421773
 21
25.199999999999989
 31
0.0
  0
LINE
  5
35F
100
AcDbEntity
  8
0
  6
CONTINUOUS
 62
               4
100
AcDbLine
 10
-0.6575030517578284
 20
26.199999999999989
 30
0.0
 11
0.642496948242183
 21
26.199999999999989
 31
0.0
  0
LINE
  5
360
100
AcDbEntity
  8
0
  6
CONTINUOUS
 62
               4
100
AcDbLine
 10
2.3424969482421716
 20
26.199999999999989
 30
0.0
 11
7.4924969482421773
 21
26.199999999999989
 31
0.0
  0
LINE
  5
361
100
AcDbEntity
  8
0
  6
CONTINUOUS
 62
               4
100
AcDbLine
 10
2.3424969482421716
 20
28.199999999999989
 30
0.0
 11
6.4924969482421773
 21
28.199999999999989
 31
0.0
  0
LINE
  5
362
100
AcDbEntity
  8
0
  6
CONTINUOUS
 62
               4
100
AcDbLine
 10
-0.6575030517578284
 20
28.199999999999989
 30
0.0
 11
0.642496948242183
 21
28.199999999999989
 31
0.0
  0
LINE
  5
363
100
AcDbEntity
  8
0
  6
CONTINUOUS
 62
             200
100
AcDbLine
 10
-4.357503051757817
 20
32.47999999999999
 30
0.0
 11
4.3424969482421716
 21
30.150000000000006
 31
0.0
  0
LINE
  5
364
100
AcDbEntity
  8
0
  6
CONTINUOUS
 62
             200
100
AcDbLine
 10
-4.357503051757817
 20
34.039999999999992
 30
0.0
 11
4.3424969482421716
 21
31.710000000000008
 31
0.0
  0
LINE
  5
365
100
AcDbEntity
  8
0
  6
CONTINUOUS
 62
               4
100
AcDbLine
 10
-2.357503051757817
 20
31.950000000000003
 30
0.0
 11
-2.357503051757817
 21
26.0
 31
0.0
  0
LINE
  5
366
100
AcDbEntity
  8
0
  6
CONTINUOUS
 62
               4
100
AcDbLine
 10
-0.6575030517578284
 20
31.489999999999995
 30
0.0
 11
-0.6575030517578284
 21
26.0
 31
0.0
  0
LINE
  5
367
100
AcDbEntity
  8
0
  6
CONTINUOUS
 62
               4
100
AcDbLine
 10
0.642496948242183
 20
31.140000000000001
 30
0.0
 11
0.642496948242183
 21
26.0
 31
0.0
  0
LINE
  5
368
100
AcDbEntity
  8
0
  6
CONTINUOUS
 62
               4
100
AcDbLine
 10
2.3424969482421716
 20
30.689999999999998
 30
0.0
 11
2.3424969482421716
 21
26.0
 31
0.0
  0
LINE
  5
369
100
AcDbEntity
  8
0
  6
CONTINUOUS
 62
               4
100
AcDbLine
 10
-7.0075030517578227
 20
24.5
 30
0.0
 11
6.9924969482421773
 21
24.5
 31
0.0
  0
LINE
  5
36A
100
AcDbEntity
  8
0
  6
CONTINUOUS
 62
               4
100
AcDbLine
 10
-4.5075030517578227
 20
26.0
 30
0.0
 11
4.4924969482421773
 21
26.0
 31
0.0
  0
LINE
  5
36B
100
AcDbEntity
  8
0
  6
CONTINUOUS
 62
               4
100
AcDbLine
 10
-4.5075030517578227
 20
26.0
 30
0.0
 11
-4.5075030517578227
 21
24.5
 31
0.0
  0
LINE
  5
36C
100
AcDbEntity
  8
0
  6
CONTINUOUS
 62
               4
100
AcDbLine
 10
4.4924969482421773
 20
26.0
 30
0.0
 11
4.4924969482421773
 21
24.5
 31
0.0
  0
LINE
  5
36D
100
AcDbEntity
  8
0
  6
CONTINUOUS
 62
               4
100
AcDbLine
 10
-6.527503051757833
 20
28.139999999999986
 30
0.0
 11
-6.5075030517578227
 21
28.199999999999989
 31
0.0
  0
ARC
  5
36E
100
AcDbEntity
  8
0
  6
CONTINUOUS
 62
               4
100
AcDbCircle
 10
-4.5067757789990708
 20
22.499999996538662
 30
0.0
 40
5.998280861616097
100
AcDbArc
 50
69.003262681742669
 51
112.03845006726092
  0
ARC
  5
36F
100
AcDbEntity
  8
0
  6
CONTINUOUS
 62
               4
100
AcDbCircle
 10
4.4874969482421818
 20
22.499984741210938
 30
0.0
 40
6.0004832264100321
100
AcDbArc
 50
71.791561056789831
 51
108.20843894320979
  0
ENDBLK
  5
370
100
AcDbEntity
  8
0
100
AcDbBlockEnd
  0
BLOCK
  5
371
100
AcDbEntity
  8
0
100
AcDbBlockBegin
  2
MS_17
 70
               0
 10
0.0
 20
0.0
 30
0.0
  3
MS_17
  1

  0
LINE
  5
372
100
AcDbEntity
  8
0
  6
CONTINUOUS
 62
               4
100
AcDbLine
 10
12.492695312500018
 20
0.0
 30
0.0
 11
21.992695312500018
 21
0.0
 31
0.0
  0
LINE
  5
373
100
AcDbEntity
  8
0
  6
CONTINUOUS
 62
               4
100
AcDbLine
 10
-12.007304687499982
 20
26.199999999999989
 30
0.0
 11
-12.007304687499982
 21
0.0
 31
0.0
  0
LINE
  5
374
100
AcDbEntity
  8
0
  6
CONTINUOUS
 62
               4
100
AcDbLine
 10
11.992695312500018
 20
26.199999999999989
 30
0.0
 11
11.992695312500018
 21
0.0
 31
0.0
  0
LINE
  5
375
100
AcDbEntity
  8
0
  6
CONTINUOUS
 62
               4
100
AcDbLine
 10
-12.007304687499982
 20
25.199999999999989
 30
0.0
 11
11.992695312500018
 21
25.199999999999989
 31
0.0
  0
LINE
  5
376
100
AcDbEntity
  8
0
  6
CONTINUOUS
 62
               4
100
AcDbLine
 10
21.992695312500018
 20
24.5
 30
0.0
 11
21.992695312500018
 21
0.0
 31
0.0
  0
LINE
  5
377
100
AcDbEntity
  8
0
  6
CONTINUOUS
 62
               4
100
AcDbLine
 10
-11.007304687499982
 20
28.199999999999989
 30
0.0
 11
7.1126953125000227
 21
28.199999999999989
 31
0.0
  0
LINE
  5
378
100
AcDbEntity
  8
0
  6
CONTINUOUS
 62
               4
100
AcDbLine
 10
-12.007304687499982
 20
26.199999999999989
 30
0.0
 11
11.992695312500018
 21
26.199999999999989
 31
0.0
  0
LINE
  5
379
100
AcDbEntity
  8
0
  6
CONTINUOUS
 62
               4
100
AcDbLine
 10
-12.007304687499982
 20
26.199999999999989
 30
0.0
 11
-11.007304687499982
 21
28.199999999999989
 31
0.0
  0
LINE
  5
37A
100
AcDbEntity
  8
0
  6
CONTINUOUS
 62
               4
100
AcDbLine
 10
11.992695312500018
 20
26.199999999999989
 30
0.0
 11
11.242695312500018
 21
27.699999999999989
 31
0.0
  0
LINE
  5
37B
100
AcDbEntity
  8
0
  6
CONTINUOUS
 62
               4
100
AcDbLine
 10
5.9926953125000182
 20
28.199999999999989
 30
0.0
 11
5.9926953125000182
 21
26.199999999999989
 31
0.0
  0
LINE
  5
37C
100
AcDbEntity
  8
0
  6
CONTINUOUS
 62
               4
100
AcDbLine
 10
11.54269531250003
 20
26.800000000000011
 30
0.0
 11
6.4426953125000068
 21
26.800000000000011
 31
0.0
  0
LINE
  5
37D
100
AcDbEntity
  8
0
  6
CONTINUOUS
 62
               4
100
AcDbLine
 10
11.54269531250003
 20
26.800000000000011
 30
0.0
 11
11.54269531250003
 21
26.199999999999989
 31
0.0
  0
LINE
  5
37E
100
AcDbEntity
  8
0
  6
CONTINUOUS
 62
               4
100
AcDbLine
 10
6.4426953125000068
 20
26.800000000000011
 30
0.0
 11
6.4426953125000068
 21
26.199999999999989
 31
0.0
  0
LINE
  5
37F
100
AcDbEntity
  8
0
  6
CONTINUOUS
 62
               4
100
AcDbLine
 10
11.242695312500018
 20
28.060000000000002
 30
0.0
 11
11.242695312500018
 21
26.800000000000011
 31
0.0
  0
LINE
  5
380
100
AcDbEntity
  8
0
  6
CONTINUOUS
 62
               4
100
AcDbLine
 10
6.7426953125000182
 20
28.060000000000002
 30
0.0
 11
6.7426953125000182
 21
26.800000000000011
 31
0.0
  0
LINE
  5
381
100
AcDbEntity
  8
0
  6
CONTINUOUS
 62
               4
100
AcDbLine
 10
10.862695312500023
 20
28.199999999999989
 30
0.0
 11
10.992695312500018
 21
28.199999999999989
 31
0.0
  0
LINE
  5
382
100
AcDbEntity
  8
0
  6
CONTINUOUS
 62
               4
100
AcDbLine
 10
15.642695312499995
 20
36.0
 30
0.0
 11
15.642695312499995
 21
32.0
 31
0.0
  0
LINE
  5
383
100
AcDbEntity
  8
0
  6
CONTINUOUS
 62
               4
100
AcDbLine
 10
17.342695312500041
 20
36.0
 30
0.0
 11
17.342695312500041
 21
31.539999999999992
 31
0.0
  0
LINE
  5
384
100
AcDbEntity
  8
0
  6
CONTINUOUS
 62
               4
100
AcDbLine
 10
16.172695312500025
 20
46.0
 30
0.0
 11
16.172695312500025
 21
36.0
 31
0.0
  0
LINE
  5
385
100
AcDbEntity
  8
0
  6
CONTINUOUS
 62
               4
100
AcDbLine
 10
16.812695312500011
 20
46.0
 30
0.0
 11
16.812695312500011
 21
36.0
 31
0.0
  0
LINE
  5
386
100
AcDbEntity
  8
0
  6
CONTINUOUS
 62
               4
100
AcDbLine
 10
17.342695312500041
 20
36.0
 30
0.0
 11
15.642695312499995
 21
36.0
 31
0.0
  0
LINE
  5
387
100
AcDbEntity
  8
0
  6
CONTINUOUS
 62
               4
100
AcDbLine
 10
16.812695312500011
 20
46.0
 30
0.0
 11
16.172695312500025
 21
46.0
 31
0.0
  0
LINE
  5
388
100
AcDbEntity
  8
0
  6
CONTINUOUS
 62
             200
100
AcDbLine
 10
13.642695312499995
 20
30.980000000000004
 30
0.0
 11
19.342695312500041
 21
29.460000000000008
 31
0.0
  0
LINE
  5
389
100
AcDbEntity
  8
0
  6
CONTINUOUS
 62
             200
100
AcDbLine
 10
13.642695312499995
 20
32.539999999999992
 30
0.0
 11
19.342695312500041
 21
31.010000000000005
 31
0.0
  0
LINE
  5
38A
100
AcDbEntity
  8
0
  6
CONTINUOUS
 62
               4
100
AcDbLine
 10
17.342695312500041
 20
29.990000000000009
 30
0.0
 11
17.342695312500041
 21
26.0
 31
0.0
  0
LINE
  5
38B
100
AcDbEntity
  8
0
  6
CONTINUOUS
 62
               4
100
AcDbLine
 10
15.642695312499995
 20
30.450000000000003
 30
0.0
 11
15.642695312499995
 21
26.0
 31
0.0
  0
LINE
  5
38C
100
AcDbEntity
  8
0
  6
CONTINUOUS
 62
               4
100
AcDbLine
 10
12.992695312500018
 20
26.0
 30
0.0
 11
12.992695312500018
 21
24.5
 31
0.0
  0
LINE
  5
38D
100
AcDbEntity
  8
0
  6
CONTINUOUS
 62
               4
100
AcDbLine
 10
19.992695312500018
 20
26.0
 30
0.0
 11
12.992695312500018
 21
26.0
 31
0.0
  0
LINE
  5
38E
100
AcDbEntity
  8
0
  6
CONTINUOUS
 62
               4
100
AcDbLine
 10
19.992695312500018
 20
26.0
 30
0.0
 11
19.992695312500018
 21
24.5
 31
0.0
  0
LINE
  5
38F
100
AcDbEntity
  8
0
  6
CONTINUOUS
 62
               4
100
AcDbLine
 10
11.992695312500018
 20
24.5
 30
0.0
 11
21.992695312500018
 21
24.5
 31
0.0
  0
LINE
  5
390
100
AcDbEntity
  8
0
  6
CONTINUOUS
 62
               4
100
AcDbLine
 10
11.0126953125
 20
28.139999999999986
 30
0.0
 11
10.992695312500018
 21
28.199999999999989
 31
0.0
  0
ARC
  5
391
100
AcDbEntity
  8
0
  6
CONTINUOUS
 62
               4
100
AcDbCircle
 10
8.9926953125000182
 20
22.500015258789063
 30
0.0
 40
5.9979938581577796
100
AcDbArc
 50
67.967934872283351
 51
112.03206512771627
  0
ARC
  5
392
100
AcDbEntity
  8
0
  6
CONTINUOUS
 62
               4
100
AcDbCircle
 10
-9.0023046874999864
 20
22.499984741210938
 30
0.0
 40
6.0004832264100321
100
AcDbArc
 50
71.791561056789845
 51
108.20843894320979
  0
ENDBLK
  5
393
100
AcDbEntity
  8
0
100
AcDbBlockEnd
  0
BLOCK
  5
394
100
AcDbEntity
  8
0
100
AcDbBlockBegin
  2
MS_18
 70
               0
 10
0.0
 20
0.0
 30
0.0
  3
MS_18
  1

  0
LINE
  5
395
100
AcDbEntity
  8
0
  6
CONTINUOUS
 62
               4
100
AcDbLine
 10
11.992496948242191
 20
26.199999999999989
 30
0.0
 11
11.992496948242191
 21
0.0
 31
0.0
  0
LINE
  5
396
100
AcDbEntity
  8
0
  6
CONTINUOUS
 62
               4
100
AcDbLine
 10
-12.007503051757809
 20
26.199999999999989
 30
0.0
 11
-12.007503051757809
 21
0.0
 31
0.0
  0
LINE
  5
397
100
AcDbEntity
  8
0
  6
CONTINUOUS
 62
               4
100
AcDbLine
 10
11.992496948242191
 20
25.199999999999989
 30
0.0
 11
-12.007503051757809
 21
25.199999999999989
 31
0.0
  0
LINE
  5
398
100
AcDbEntity
  8
0
  6
CONTINUOUS
 62
               4
100
AcDbLine
 10
-22.007503051757809
 20
24.5
 30
0.0
 11
-22.007503051757809
 21
0.0
 31
0.0
  0
LINE
  5
399
100
AcDbEntity
  8
0
  6
CONTINUOUS
 62
               4
100
AcDbLine
 10
-11.007503051757809
 20
28.199999999999989
 30
0.0
 11
7.112496948242196
 21
28.199999999999989
 31
0.0
  0
LINE
  5
39A
100
AcDbEntity
  8
0
  6
CONTINUOUS
 62
               4
100
AcDbLine
 10
11.992496948242191
 20
26.199999999999989
 30
0.0
 11
-12.007503051757809
 21
26.199999999999989
 31
0.0
  0
LINE
  5
39B
100
AcDbEntity
  8
0
  6
CONTINUOUS
 62
               4
100
AcDbLine
 10
-12.007503051757809
 20
26.199999999999989
 30
0.0
 11
-11.007503051757809
 21
28.199999999999989
 31
0.0
  0
LINE
  5
39C
100
AcDbEntity
  8
0
  6
CONTINUOUS
 62
               4
100
AcDbLine
 10
11.992496948242191
 20
26.199999999999989
 30
0.0
 11
11.242496948242191
 21
27.699999999999989
 31
0.0
  0
LINE
  5
39D
100
AcDbEntity
  8
0
  6
CONTINUOUS
 62
               4
100
AcDbLine
 10
5.9924969482421915
 20
28.199999999999989
 30
0.0
 11
5.9924969482421915
 21
26.199999999999989
 31
0.0
  0
LINE
  5
39E
100
AcDbEntity
  8
0
  6
CONTINUOUS
 62
               4
100
AcDbLine
 10
11.542496948242189
 20
26.800000000000011
 30
0.0
 11
6.4424969482421943
 21
26.800000000000011
 31
0.0
  0
LINE
  5
39F
100
AcDbEntity
  8
0
  6
CONTINUOUS
 62
               4
100
AcDbLine
 10
11.542496948242189
 20
26.800000000000011
 30
0.0
 11
11.542496948242189
 21
26.199999999999989
 31
0.0
  0
LINE
  5
3A0
100
AcDbEntity
  8
0
  6
CONTINUOUS
 62
               4
100
AcDbLine
 10
6.4424969482421943
 20
26.800000000000011
 30
0.0
 11
6.4424969482421943
 21
26.199999999999989
 31
0.0
  0
LINE
  5
3A1
100
AcDbEntity
  8
0
  6
CONTINUOUS
 62
               4
100
AcDbLine
 10
11.242496948242191
 20
28.060000000000002
 30
0.0
 11
11.242496948242191
 21
26.800000000000011
 31
0.0
  0
LINE
  5
3A2
100
AcDbEntity
  8
0
  6
CONTINUOUS
 62
               4
100
AcDbLine
 10
6.7424969482421915
 20
28.060000000000002
 30
0.0
 11
6.7424969482421915
 21
26.800000000000011
 31
0.0
  0
LINE
  5
3A3
100
AcDbEntity
  8
0
  6
CONTINUOUS
 62
               4
100
AcDbLine
 10
10.862496948242196
 20
28.199999999999989
 30
0.0
 11
10.992496948242191
 21
28.199999999999989
 31
0.0
  0
LINE
  5
3A4
100
AcDbEntity
  8
0
  6
CONTINUOUS
 62
               4
100
AcDbLine
 10
-12.007503051757809
 20
24.5
 30
0.0
 11
-22.007503051757809
 21
24.5
 31
0.0
  0
LINE
  5
3A5
100
AcDbEntity
  8
0
  6
CONTINUOUS
 62
               4
100
AcDbLine
 10
-17.357503051757803
 20
36.0
 30
0.0
 11
-17.357503051757803
 21
32.0
 31
0.0
  0
LINE
  5
3A6
100
AcDbEntity
  8
0
  6
CONTINUOUS
 62
               4
100
AcDbLine
 10
-15.657503051757814
 20
36.0
 30
0.0
 11
-15.657503051757814
 21
31.539999999999992
 31
0.0
  0
LINE
  5
3A7
100
AcDbEntity
  8
0
  6
CONTINUOUS
 62
               4
100
AcDbLine
 10
-16.827503051757802
 20
46.0
 30
0.0
 11
-16.827503051757802
 21
36.0
 31
0.0
  0
LINE
  5
3A8
100
AcDbEntity
  8
0
  6
CONTINUOUS
 62
               4
100
AcDbLine
 10
-16.187503051757815
 20
46.0
 30
0.0
 11
-16.187503051757815
 21
36.0
 31
0.0
  0
LINE
  5
3A9
100
AcDbEntity
  8
0
  6
CONTINUOUS
 62
               4
100
AcDbLine
 10
-15.657503051757814
 20
36.0
 30
0.0
 11
-17.357503051757803
 21
36.0
 31
0.0
  0
LINE
  5
3AA
100
AcDbEntity
  8
0
  6
CONTINUOUS
 62
               4
100
AcDbLine
 10
-16.187503051757815
 20
46.0
 30
0.0
 11
-16.827503051757802
 21
46.0
 31
0.0
  0
LINE
  5
3AB
100
AcDbEntity
  8
0
  6
CONTINUOUS
 62
             200
100
AcDbLine
 10
-19.357503051757803
 20
30.980000000000004
 30
0.0
 11
-13.657503051757814
 21
29.460000000000008
 31
0.0
  0
LINE
  5
3AC
100
AcDbEntity
  8
0
  6
CONTINUOUS
 62
             200
100
AcDbLine
 10
-19.357503051757803
 20
32.539999999999992
 30
0.0
 11
-13.657503051757814
 21
31.010000000000005
 31
0.0
  0
LINE
  5
3AD
100
AcDbEntity
  8
0
  6
CONTINUOUS
 62
               4
100
AcDbLine
 10
-15.657503051757814
 20
29.990000000000009
 30
0.0
 11
-15.657503051757814
 21
26.0
 31
0.0
  0
LINE
  5
3AE
100
AcDbEntity
  8
0
  6
CONTINUOUS
 62
               4
100
AcDbLine
 10
-17.357503051757803
 20
30.450000000000003
 30
0.0
 11
-17.357503051757803
 21
26.0
 31
0.0
  0
LINE
  5
3AF
100
AcDbEntity
  8
0
  6
CONTINUOUS
 62
               4
100
AcDbLine
 10
-20.007503051757809
 20
26.0
 30
0.0
 11
-20.007503051757809
 21
24.5
 31
0.0
  0
LINE
  5
3B0
100
AcDbEntity
  8
0
  6
CONTINUOUS
 62
               4
100
AcDbLine
 10
-13.007503051757809
 20
26.0
 30
0.0
 11
-20.007503051757809
 21
26.0
 31
0.0
  0
LINE
  5
3B1
100
AcDbEntity
  8
0
  6
CONTINUOUS
 62
               4
100
AcDbLine
 10
-13.007503051757809
 20
26.0
 30
0.0
 11
-13.007503051757809
 21
24.5
 31
0.0
  0
LINE
  5
3B2
100
AcDbEntity
  8
0
  6
CONTINUOUS
 62
               4
100
AcDbLine
 10
11.012496948242188
 20
28.139999999999986
 30
0.0
 11
10.992496948242191
 21
28.199999999999989
 31
0.0
  0
LINE
  5
3B3
100
AcDbEntity
  8
0
  6
CONTINUOUS
 62
               4
100
AcDbLine
 10
-22.007503051757809
 20
0.0
 30
0.0
 11
-12.507503051757809
 21
0.0
 31
0.0
  0
ARC
  5
3B4
100
AcDbEntity
  8
0
  6
CONTINUOUS
 62
               4
100
AcDbCircle
 10
8.9924969482421915
 20
22.49993896484375
 30
0.0
 40
5.9980645807345869
100
AcDbArc
 50
67.968208259416016
 51
112.0317917405836
  0
ARC
  5
3B5
100
AcDbEntity
  8
0
  6
CONTINUOUS
 62
               4
100
AcDbCircle
 10
-9.0025030517578131
 20
22.499893188476563
 30
0.0
 40
6.0005701948044816
100
AcDbArc
 50
71.791834216395856
 51
108.20816578360375
  0
ENDBLK
  5
3B6
100
AcDbEntity
  8
0
100
AcDbBlockEnd
  0
BLOCK
  5
3B7
100
AcDbEntity
  8
0
100
AcDbBlockBegin
  2
MS_19
 70
               0
 10
0.0
 20
0.0
 30
0.0
  3
MS_19
  1

  0
LINE
  5
3B8
100
AcDbEntity
  8
0
  6
CONTINUOUS
 62
               4
100
AcDbLine
 10
-1.5075030517578227
 20
-22.5
 30
0.0
 11
-1.5075030517578227
 21
-25.5
 31
0.0
  0
LINE
  5
3B9
100
AcDbEntity
  8
0
  6
CONTINUOUS
 62
               4
100
AcDbLine
 10
1.4924969482421773
 20
-4.5
 30
0.0
 11
1.4924969482421773
 21
-1.5
 31
0.0
  0
LINE
  5
3BA
100
AcDbEntity
  8
0
  6
CONTINUOUS
 62
               4
100
AcDbLine
 10
4.4924969482421773
 20
-7.5
 30
0.0
 11
7.4924969482421773
 21
-7.5
 31
0.0
  0
LINE
  5
3BB
100
AcDbEntity
  8
0
  6
CONTINUOUS
 62
               4
100
AcDbLine
 10
-4.5075030517578227
 20
-19.5
 30
0.0
 11
-7.5075030517578227
 21
-19.5
 31
0.0
  0
LINE
  5
3BC
100
AcDbEntity
  8
0
  6
CONTINUOUS
 62
               4
100
AcDbLine
 10
1.4924969482421773
 20
-2.5
 30
0.0
 11
-6.5075030517578227
 21
-2.5
 31
0.0
  0
LINE
  5
3BD
100
AcDbEntity
  8
0
  6
CONTINUOUS
 62
               4
100
AcDbLine
 10
6.4924969482421773
 20
-24.5
 30
0.0
 11
-1.5075030517578227
 21
-24.5
 31
0.0
  0
LINE
  5
3BE
100
AcDbEntity
  8
0
  6
CONTINUOUS
 62
               4
100
AcDbLine
 10
6.4924969482421773
 20
-7.5
 30
0.0
 11
6.4924969482421773
 21
-24.5
 31
0.0
  0
LINE
  5
3BF
100
AcDbEntity
  8
0
  6
CONTINUOUS
 62
               4
100
AcDbLine
 10
-6.5075030517578227
 20
-2.5
 30
0.0
 11
-6.5075030517578227
 21
-19.5
 31
0.0
  0
LINE
  5
3C0
100
AcDbEntity
  8
0
  6
CONTINUOUS
 62
               4
100
AcDbLine
 10
7.4924969482421773
 20
-1.5
 30
0.0
 11
-7.5075030517578227
 21
-1.5
 31
0.0
  0
LINE
  5
3C1
100
AcDbEntity
  8
0
  6
CONTINUOUS
 62
               4
100
AcDbLine
 10
7.4924969482421773
 20
-1.5
 30
0.0
 11
7.4924969482421773
 21
-25.5
 31
0.0
  0
LINE
  5
3C2
100
AcDbEntity
  8
0
  6
CONTINUOUS
 62
               4
100
AcDbLine
 10
-7.5075030517578227
 20
-1.5
 30
0.0
 11
-7.5075030517578227
 21
-25.5
 31
0.0
  0
LINE
  5
3C3
100
AcDbEntity
  8
0
  6
CONTINUOUS
 62
               4
100
AcDbLine
 10
7.4924969482421773
 20
-25.5
 30
0.0
 11
-7.5075030517578227
 21
-25.5
 31
0.0
  0
LINE
  5
3C4
100
AcDbEntity
  8
0
  6
CONTINUOUS
 62
               4
100
AcDbLine
 10
6.9924969482421773
 20
-25.5
 30
0.0
 11
6.9924969482421773
 21
-35.5
 31
0.0
  0
LINE
  5
3C5
100
AcDbEntity
  8
0
  6
CONTINUOUS
 62
               4
100
AcDbLine
 10
6.9924969482421773
 20
-35.5
 30
0.0
 11
-7.0075030517578227
 21
-35.5
 31
0.0
  0
LINE
  5
3C6
100
AcDbEntity
  8
0
  6
CONTINUOUS
 62
               4
100
AcDbLine
 10
-7.0075030517578227
 20
-25.5
 30
0.0
 11
-7.0075030517578227
 21
-35.5
 31
0.0
  0
LINE
  5
3C7
100
AcDbEntity
  8
0
  6
CONTINUOUS
 62
               4
100
AcDbLine
 10
0.9924969482421773
 20
-26.5
 30
0.0
 11
-1.0075030517578227
 21
-26.5
 31
0.0
  0
LINE
  5
3C8
100
AcDbEntity
  8
0
  6
CONTINUOUS
 62
               4
100
AcDbLine
 10
0.9924969482421773
 20
-33.5
 30
0.0
 11
-1.0075030517578227
 21
-33.5
 31
0.0
  0
LINE
  5
3C9
100
AcDbEntity
  8
0
  6
CONTINUOUS
 62
               4
100
AcDbLine
 10
3.5724969482421898
 20
-5.4099999999999966
 30
0.0
 11
5.4024969482421739
 21
-3.5799999999999983
 31
0.0
  0
LINE
  5
3CA
100
AcDbEntity
  8
0
  6
CONTINUOUS
 62
               4
100
AcDbLine
 10
3.5724969482421898
 20
-3.5799999999999983
 30
0.0
 11
5.4024969482421739
 21
-5.4099999999999966
 31
0.0
  0
LINE
  5
3CB
100
AcDbEntity
  8
0
  6
CONTINUOUS
 62
               4
100
AcDbLine
 10
-5.4175030517578193
 20
-23.409999999999997
 30
0.0
 11
-3.5875030517578352
 21
-21.579999999999998
 31
0.0
  0
LINE
  5
3CC
100
AcDbEntity
  8
0
  6
CONTINUOUS
 62
               4
100
AcDbLine
 10
-5.4175030517578193
 20
-21.579999999999998
 30
0.0
 11
-3.5875030517578352
 21
-23.409999999999997
 31
0.0
  0
ARC
  5
3CD
100
AcDbEntity
  8
0
  6
CONTINUOUS
 62
               4
100
AcDbCircle
 10
-4.5074877929687602
 20
-22.499984741210938
 30
0.0
 40
2.9999847412497429
100
AcDbArc
 50
359.99970857711236
 51
90.000291422886662
  0
ARC
  5
3CE
100
AcDbEntity
  8
0
  6
CONTINUOUS
 62
               4
100
AcDbCircle
 10
4.4925122070312398
 20
-4.4999847412109375
 30
0.0
 40
3.0000152588278675
100
AcDbArc
 50
180.00029141992192
 51
269.99970858007708
  0
CIRCLE
  5
3CF
100
AcDbEntity
  8
0
  6
CONTINUOUS
 62
               4
100
AcDbCircle
 10
-4.5074725341796977
 20
-22.5
 30
0.0
 40
2.5500001907348633
  0
CIRCLE
  5
3D0
100
AcDbEntity
  8
0
  6
CONTINUOUS
 62
               4
100
AcDbCircle
 10
4.4925122070312398
 20
-4.4999847412109375
 30
0.0
 40
2.5500001907348633
  0
CIRCLE
  5
3D1
100
AcDbEntity
  8
0
  6
CONTINUOUS
 62
               4
100
AcDbCircle
 10
-4.5074725341796977
 20
-22.5
 30
0.0
 40
2.25
  0
CIRCLE
  5
3D2
100
AcDbEntity
  8
0
  6
CONTINUOUS
 62
               4
100
AcDbCircle
 10
4.4925122070312398
 20
-4.4999847412109375
 30
0.0
 40
2.25
  0
ARC
  5
3D3
100
AcDbEntity
  8
0
  6
CONTINUOUS
 62
               4
100
AcDbCircle
 10
0.9924969482421773
 20
-30.0
 30
0.0
 40
3.5
100
AcDbArc
 50
269.99999999999937
 51
89.999999999999801
  0
ARC
  5
3D4
100
AcDbEntity
  8
0
  6
CONTINUOUS
 62
               4
100
AcDbCircle
 10
-1.0075030517578227
 20
-30.0
 30
0.0
 40
3.5
100
AcDbArc
 50
89.999999999999801
 51
269.99999999999937
  0
CIRCLE
  5
3D5
100
AcDbEntity
  8
0
  6
CONTINUOUS
 62
               4
100
AcDbCircle
 10
-1.5074725341796977
 20
-29.999984741210937
 30
0.0
 40
0.8500000238418579
  0
CIRCLE
  5
3D6
100
AcDbEntity
  8
0
  6
CONTINUOUS
 62
               4
100
AcDbCircle
 10
1.4925274658203023
 20
-29.999984741210937
 30
0.0
 40
0.8500000238418579
  0
ENDBLK
  5
3D7
100
AcDbEntity
  8
0
100
AcDbBlockEnd
  0
BLOCK
  5
3D8
100
AcDbEntity
  8
0
100
AcDbBlockBegin
  2
MS_20
 70
               0
 10
0.0
 20
0.0
 30
0.0
  3
MS_20
  1

  0
LINE
  5
3D9
100
AcDbEntity
  8
0
  6
CONTINUOUS
 62
               4
100
AcDbLine
 10
-7.0075030517578227
 20
27.0
 30
0.0
 11
-7.0075030517578227
 21
35.5
 31
0.0
  0
LINE
  5
3DA
100
AcDbEntity
  8
0
  6
CONTINUOUS
 62
               4
100
AcDbLine
 10
-7.0075030517578227
 20
35.5
 30
0.0
 11
6.9924969482421773
 21
35.5
 31
0.0
  0
LINE
  5
3DB
100
AcDbEntity
  8
0
  6
CONTINUOUS
 62
               4
100
AcDbLine
 10
6.9924969482421773
 20
27.0
 30
0.0
 11
6.9924969482421773
 21
35.5
 31
0.0
  0
ENDBLK
  5
3DC
100
AcDbEntity
  8
0
100
AcDbBlockEnd
  0
BLOCK
  5
3DD
100
AcDbEntity
  8
0
100
AcDbBlockBegin
  2
MS_21
 70
               0
 10
0.0
 20
0.0
 30
0.0
  3
MS_21
  1

  0
LINE
  5
3DE
100
AcDbEntity
  8
0
  6
CONTINUOUS
 62
               4
100
AcDbLine
 10
-7.4925091552734386
 20
30.700000000000003
 30
0.0
 11
-7.4925091552734386
 21
0.0
 31
0.0
  0
LINE
  5
3DF
100
AcDbEntity
  8
0
  6
CONTINUOUS
 62
               4
100
AcDbLine
 10
7.5074908447265614
 20
30.700000000000003
 30
0.0
 11
7.5074908447265614
 21
0.0
 31
0.0
  0
LINE
  5
3E0
100
AcDbEntity
  8
0
  6
CONTINUOUS
 62
               4
100
AcDbLine
 10
-1.9925091552734386
 20
10.800000000000011
 30
0.0
 11
2.0074908447265614
 21
10.800000000000011
 31
0.0
  0
LINE
  5
3E1
100
AcDbEntity
  8
0
  6
CONTINUOUS
 62
               4
100
AcDbLine
 10
-1.9925091552734386
 20
8.8000000000000114
 30
0.0
 11
2.0074908447265614
 21
8.8000000000000114
 31
0.0
  0
LINE
  5
3E2
100
AcDbEntity
  8
0
  6
CONTINUOUS
 62
               4
100
AcDbLine
 10
2.0074908447265614
 20
10.800000000000011
 30
0.0
 11
2.0074908447265614
 21
8.8000000000000114
 31
0.0
  0
LINE
  5
3E3
100
AcDbEntity
  8
0
  6
CONTINUOUS
 62
               4
100
AcDbLine
 10
-1.9925091552734386
 20
10.800000000000011
 30
0.0
 11
-1.9925091552734386
 21
8.8000000000000114
 31
0.0
  0
LINE
  5
3E4
100
AcDbEntity
  8
0
  6
CONTINUOUS
 62
               4
100
AcDbLine
 10
-2.4925091552734386
 20
11.300000000000011
 30
0.0
 11
2.5074908447265614
 21
11.300000000000011
 31
0.0
  0
LINE
  5
3E5
100
AcDbEntity
  8
0
  6
CONTINUOUS
 62
               4
100
AcDbLine
 10
-2.4925091552734386
 20
11.300000000000011
 30
0.0
 11
-2.4925091552734386
 21
8.3000000000000114
 31
0.0
  0
LINE
  5
3E6
100
AcDbEntity
  8
0
  6
CONTINUOUS
 62
               4
100
AcDbLine
 10
-2.4925091552734386
 20
8.3000000000000114
 30
0.0
 11
2.5074908447265614
 21
8.3000000000000114
 31
0.0
  0
LINE
  5
3E7
100
AcDbEntity
  8
0
  6
CONTINUOUS
 62
               4
100
AcDbLine
 10
2.5074908447265614
 20
11.300000000000011
 30
0.0
 11
2.5074908447265614
 21
8.3000000000000114
 31
0.0
  0
LINE
  5
3E8
100
AcDbEntity
  8
0
  6
CONTINUOUS
 62
               4
100
AcDbLine
 10
4.2574908447265614
 20
42.5
 30
0.0
 11
4.2574908447265614
 21
37.129999999999995
 31
0.0
  0
LINE
  5
3E9
100
AcDbEntity
  8
0
  6
CONTINUOUS
 62
               4
100
AcDbLine
 10
2.5574908447265727
 20
42.5
 30
0.0
 11
2.5574908447265727
 21
37.590000000000003
 31
0.0
  0
LINE
  5
3EA
100
AcDbEntity
  8
0
  6
CONTINUOUS
 62
               4
100
AcDbLine
 10
3.0874908447265739
 20
50.5
 30
0.0
 11
3.0874908447265739
 21
42.5
 31
0.0
  0
LINE
  5
3EB
100
AcDbEntity
  8
0
  6
CONTINUOUS
 62
               4
100
AcDbLine
 10
3.7274908447265602
 20
50.5
 30
0.0
 11
3.7274908447265602
 21
42.5
 31
0.0
  0
LINE
  5
3EC
100
AcDbEntity
  8
0
  6
CONTINUOUS
 62
               4
100
AcDbLine
 10
2.5574908447265727
 20
42.5
 30
0.0
 11
4.2574908447265614
 21
42.5
 31
0.0
  0
LINE
  5
3ED
100
AcDbEntity
  8
0
  6
CONTINUOUS
 62
               4
100
AcDbLine
 10
3.0874908447265739
 20
50.5
 30
0.0
 11
3.7274908447265602
 21
50.5
 31
0.0
  0
LINE
  5
3EE
100
AcDbEntity
  8
0
  6
CONTINUOUS
 62
               4
100
AcDbLine
 10
-2.54250915527345
 20
42.5
 30
0.0
 11
-2.54250915527345
 21
38.960000000000008
 31
0.0
  0
LINE
  5
3EF
100
AcDbEntity
  8
0
  6
CONTINUOUS
 62
               4
100
AcDbLine
 10
-4.2425091552734386
 20
42.5
 30
0.0
 11
-4.2425091552734386
 21
39.409999999999997
 31
0.0
  0
LINE
  5
3F0
100
AcDbEntity
  8
0
  6
CONTINUOUS
 62
               4
100
AcDbLine
 10
-3.7125091552734375
 20
50.5
 30
0.0
 11
-3.7125091552734375
 21
42.5
 31
0.0
  0
LINE
  5
3F1
100
AcDbEntity
  8
0
  6
CONTINUOUS
 62
               4
100
AcDbLine
 10
-3.0725091552734511
 20
50.5
 30
0.0
 11
-3.0725091552734511
 21
42.5
 31
0.0
  0
LINE
  5
3F2
100
AcDbEntity
  8
0
  6
CONTINUOUS
 62
               4
100
AcDbLine
 10
-4.2425091552734386
 20
42.5
 30
0.0
 11
-2.54250915527345
 21
42.5
 31
0.0
  0
LINE
  5
3F3
100
AcDbEntity
  8
0
  6
CONTINUOUS
 62
               4
100
AcDbLine
 10
-3.7125091552734375
 20
50.5
 30
0.0
 11
-3.0725091552734511
 21
50.5
 31
0.0
  0
LINE
  5
3F4
100
AcDbEntity
  8
0
  6
CONTINUOUS
 62
               4
100
AcDbLine
 10
-0.3925091552734443
 20
42.5
 30
0.0
 11
-0.3925091552734443
 21
38.379999999999995
 31
0.0
  0
LINE
  5
3F5
100
AcDbEntity
  8
0
  6
CONTINUOUS
 62
               4
100
AcDbLine
 10
-2.092509155273433
 20
42.5
 30
0.0
 11
-2.092509155273433
 21
38.829999999999998
 31
0.0
  0
LINE
  5
3F6
100
AcDbEntity
  8
0
  6
CONTINUOUS
 62
               4
100
AcDbLine
 10
-1.5625091552734318
 20
50.5
 30
0.0
 11
-1.5625091552734318
 21
42.5
 31
0.0
  0
LINE
  5
3F7
100
AcDbEntity
  8
0
  6
CONTINUOUS
 62
               4
100
AcDbLine
 10
-0.9225091552734455
 20
50.5
 30
0.0
 11
-0.9225091552734455
 21
42.5
 31
0.0
  0
LINE
  5
3F8
100
AcDbEntity
  8
0
  6
CONTINUOUS
 62
               4
100
AcDbLine
 10
-2.092509155273433
 20
42.5
 30
0.0
 11
-0.3925091552734443
 21
42.5
 31
0.0
  0
LINE
  5
3F9
100
AcDbEntity
  8
0
  6
CONTINUOUS
 62
               4
100
AcDbLine
 10
-1.5625091552734318
 20
50.5
 30
0.0
 11
-0.9225091552734455
 21
50.5
 31
0.0
  0
LINE
  5
3FA
100
AcDbEntity
  8
0
  6
CONTINUOUS
 62
               4
100
AcDbLine
 10
2.1074908447265557
 20
42.5
 30
0.0
 11
2.1074908447265557
 21
37.710000000000008
 31
0.0
  0
LINE
  5
3FB
100
AcDbEntity
  8
0
  6
CONTINUOUS
 62
               4
100
AcDbLine
 10
0.4074908447265671
 20
42.5
 30
0.0
 11
0.4074908447265671
 21
38.159999999999997
 31
0.0
  0
LINE
  5
3FC
100
AcDbEntity
  8
0
  6
CONTINUOUS
 62
               4
100
AcDbLine
 10
0.9374908447265682
 20
50.5
 30
0.0
 11
0.9374908447265682
 21
42.5
 31
0.0
  0
LINE
  5
3FD
100
AcDbEntity
  8
0
  6
CONTINUOUS
 62
               4
100
AcDbLine
 10
1.5774908447265545
 20
50.5
 30
0.0
 11
1.5774908447265545
 21
42.5
 31
0.0
  0
LINE
  5
3FE
100
AcDbEntity
  8
0
  6
CONTINUOUS
 62
               4
100
AcDbLine
 10
0.4074908447265671
 20
42.5
 30
0.0
 11
2.1074908447265557
 21
42.5
 31
0.0
  0
LINE
  5
3FF
100
AcDbEntity
  8
0
  6
CONTINUOUS
 62
               4
100
AcDbLine
 10
0.9374908447265682
 20
50.5
 30
0.0
 11
1.5774908447265545
 21
50.5
 31
0.0
  0
LINE
  5
400
100
AcDbEntity
  8
0
  6
CONTINUOUS
 62
               4
100
AcDbLine
 10
6.0074908447265614
 20
30.700000000000003
 30
0.0
 11
7.5074908447265614
 21
30.700000000000003
 31
0.0
  0
LINE
  5
401
100
AcDbEntity
  8
0
  6
CONTINUOUS
 62
               4
100
AcDbLine
 10
-7.4925091552734386
 20
30.700000000000003
 30
0.0
 11
-5.9925091552734386
 21
30.700000000000003
 31
0.0
  0
LINE
  5
402
100
AcDbEntity
  8
0
  6
CONTINUOUS
 62
             200
100
AcDbLine
 10
-6.2425091552734386
 20
39.950000000000003
 30
0.0
 11
6.2574908447265614
 21
36.599999999999994
 31
0.0
  0
LINE
  5
403
100
AcDbEntity
  8
0
  6
CONTINUOUS
 62
             200
100
AcDbLine
 10
-6.2425091552734386
 20
38.390000000000001
 30
0.0
 11
6.2574908447265614
 21
35.039999999999992
 31
0.0
  0
LINE
  5
404
100
AcDbEntity
  8
0
  6
CONTINUOUS
 62
               4
100
AcDbLine
 10
-4.2425091552734386
 20
37.859999999999999
 30
0.0
 11
-4.2425091552734386
 21
32.5
 31
0.0
  0
LINE
  5
405
100
AcDbEntity
  8
0
  6
CONTINUOUS
 62
               4
100
AcDbLine
 10
-2.54250915527345
 20
37.400000000000006
 30
0.0
 11
-2.54250915527345
 21
32.5
 31
0.0
  0
LINE
  5
406
100
AcDbEntity
  8
0
  6
CONTINUOUS
 62
               4
100
AcDbLine
 10
-2.092509155273433
 20
37.280000000000001
 30
0.0
 11
-2.092509155273433
 21
32.5
 31
0.0
  0
LINE
  5
407
100
AcDbEntity
  8
0
  6
CONTINUOUS
 62
               4
100
AcDbLine
 10
-0.3925091552734443
 20
36.829999999999998
 30
0.0
 11
-0.3925091552734443
 21
32.5
 31
0.0
  0
LINE
  5
408
100
AcDbEntity
  8
0
  6
CONTINUOUS
 62
               4
100
AcDbLine
 10
0.4074908447265671
 20
36.609999999999999
 30
0.0
 11
0.4074908447265671
 21
32.5
 31
0.0
  0
LINE
  5
409
100
AcDbEntity
  8
0
  6
CONTINUOUS
 62
               4
100
AcDbLine
 10
2.1074908447265557
 20
36.159999999999997
 30
0.0
 11
2.1074908447265557
 21
32.5
 31
0.0
  0
LINE
  5
40A
100
AcDbEntity
  8
0
  6
CONTINUOUS
 62
               4
100
AcDbLine
 10
2.5574908447265727
 20
36.039999999999992
 30
0.0
 11
2.5574908447265727
 21
32.5
 31
0.0
  0
LINE
  5
40B
100
AcDbEntity
  8
0
  6
CONTINUOUS
 62
               4
100
AcDbLine
 10
4.2574908447265614
 20
35.579999999999998
 30
0.0
 11
4.2574908447265614
 21
32.5
 31
0.0
  0
LINE
  5
40C
100
AcDbEntity
  8
0
  6
CONTINUOUS
 62
               4
100
AcDbLine
 10
-7.4925091552734386
 20
30.5
 30
0.0
 11
7.5074908447265614
 21
30.5
 31
0.0
  0
LINE
  5
40D
100
AcDbEntity
  8
0
  6
CONTINUOUS
 62
               4
100
AcDbLine
 10
-5.9925091552734386
 20
32.5
 30
0.0
 11
6.0074908447265614
 21
32.5
 31
0.0
  0
LINE
  5
40E
100
AcDbEntity
  8
0
  6
CONTINUOUS
 62
               4
100
AcDbLine
 10
-5.9925091552734386
 20
32.5
 30
0.0
 11
-5.9925091552734386
 21
30.5
 31
0.0
  0
LINE
  5
40F
100
AcDbEntity
  8
0
  6
CONTINUOUS
 62
               4
100
AcDbLine
 10
6.0074908447265614
 20
32.5
 30
0.0
 11
6.0074908447265614
 21
30.5
 31
0.0
  0
LINE
  5
410
100
AcDbEntity
  8
0
  6
CONTINUOUS
 62
               4
100
AcDbLine
 10
-1.2625091552734489
 20
15.77000000000001
 30
0.0
 11
1.2774908447265716
 21
13.219999999999999
 31
0.0
  0
LINE
  5
411
100
AcDbEntity
  8
0
  6
CONTINUOUS
 62
               4
100
AcDbLine
 10
-1.2625091552734489
 20
13.219999999999999
 30
0.0
 11
1.2774908447265716
 21
15.77000000000001
 31
0.0
  0
ARC
  5
412
100
AcDbEntity
  8
0
  6
CONTINUOUS
 62
               4
100
AcDbCircle
 10
0.0074908447265614
 20
14.5
 30
0.0
 40
3.2486304806795117
100
AcDbArc
 50
279.92624550665107
 51
260.07375449334774
  0
CIRCLE
  5
413
100
AcDbEntity
  8
0
  6
CONTINUOUS
 62
               4
100
AcDbCircle
 10
0.0074908447265614
 20
14.5
 30
0.0
 40
3.0
  0
ENDBLK
  5
414
100
AcDbEntity
  8
0
100
AcDbBlockEnd
  0
BLOCK
  5
415
100
AcDbEntity
  8
0
100
AcDbBlockBegin
  2
MS_22
 70
               0
 10
0.0
 20
0.0
 30
0.0
  3
MS_22
  1

  0
LINE
  5
416
100
AcDbEntity
  8
0
  6
CONTINUOUS
 62
               4
100
AcDbLine
 10
-11.992509155273439
 20
25.199999999999989
 30
0.0
 11
13.007490844726561
 21
25.199999999999989
 31
0.0
  0
LINE
  5
417
100
AcDbEntity
  8
0
  6
CONTINUOUS
 62
               4
100
AcDbLine
 10
-11.992509155273439
 20
30.700000000000003
 30
0.0
 11
-11.992509155273439
 21
0.0
 31
0.0
  0
LINE
  5
418
100
AcDbEntity
  8
0
  6
CONTINUOUS
 62
               4
100
AcDbLine
 10
12.007490844726561
 20
25.199999999999989
 30
0.0
 11
12.007490844726561
 21
0.0
 31
0.0
  0
LINE
  5
419
100
AcDbEntity
  8
0
  6
CONTINUOUS
 62
               4
100
AcDbLine
 10
6.3074908447265585
 20
26.199999999999989
 30
0.0
 11
11.707490844726564
 21
26.199999999999989
 31
0.0
  0
LINE
  5
41A
100
AcDbEntity
  8
0
  6
CONTINUOUS
 62
               4
100
AcDbLine
 10
11.557490844726559
 20
26.800000000000011
 30
0.0
 11
6.4574908447265642
 21
26.800000000000011
 31
0.0
  0
LINE
  5
41B
100
AcDbEntity
  8
0
  6
CONTINUOUS
 62
               4
100
AcDbLine
 10
11.557490844726559
 20
26.800000000000011
 30
0.0
 11
11.557490844726559
 21
26.199999999999989
 31
0.0
  0
LINE
  5
41C
100
AcDbEntity
  8
0
  6
CONTINUOUS
 62
               4
100
AcDbLine
 10
6.4574908447265642
 20
26.800000000000011
 30
0.0
 11
6.4574908447265642
 21
26.199999999999989
 31
0.0
  0
LINE
  5
41D
100
AcDbEntity
  8
0
  6
CONTINUOUS
 62
               4
100
AcDbLine
 10
11.257490844726561
 20
28.060000000000002
 30
0.0
 11
11.257490844726561
 21
26.800000000000011
 31
0.0
  0
LINE
  5
41E
100
AcDbEntity
  8
0
  6
CONTINUOUS
 62
               4
100
AcDbLine
 10
6.7574908447265614
 20
28.060000000000002
 30
0.0
 11
6.7574908447265614
 21
26.800000000000011
 31
0.0
  0
LINE
  5
41F
100
AcDbEntity
  8
0
  6
CONTINUOUS
 62
               4
100
AcDbLine
 10
32.007490844726561
 20
30.5
 30
0.0
 11
32.007490844726561
 21
0.0
 31
0.0
  0
LINE
  5
420
100
AcDbEntity
  8
0
  6
CONTINUOUS
 62
               4
100
AcDbLine
 10
12.007490844726561
 20
25.0
 30
0.0
 11
13.007490844726561
 21
25.0
 31
0.0
  0
LINE
  5
421
100
AcDbEntity
  8
0
  6
CONTINUOUS
 62
               4
100
AcDbLine
 10
13.007490844726561
 20
25.0
 30
0.0
 11
13.007490844726561
 21
30.5
 31
0.0
  0
LINE
  5
422
100
AcDbEntity
  8
0
  6
CONTINUOUS
 62
               4
100
AcDbLine
 10
-11.992509155273439
 20
30.700000000000003
 30
0.0
 11
13.007490844726561
 21
30.700000000000003
 31
0.0
  0
LINE
  5
423
100
AcDbEntity
  8
0
  6
CONTINUOUS
 62
               4
100
AcDbLine
 10
6.3074908447265585
 20
30.700000000000003
 30
0.0
 11
6.3074908447265585
 21
26.199999999999989
 31
0.0
  0
LINE
  5
424
100
AcDbEntity
  8
0
  6
CONTINUOUS
 62
               4
100
AcDbLine
 10
11.707490844726564
 20
30.700000000000003
 30
0.0
 11
11.707490844726564
 21
26.199999999999989
 31
0.0
  0
LINE
  5
425
100
AcDbEntity
  8
0
  6
CONTINUOUS
 62
               4
100
AcDbLine
 10
15.857490844726556
 20
42.5
 30
0.0
 11
15.857490844726556
 21
38.039999999999992
 31
0.0
  0
LINE
  5
426
100
AcDbEntity
  8
0
  6
CONTINUOUS
 62
               4
100
AcDbLine
 10
14.157490844726567
 20
42.5
 30
0.0
 11
14.157490844726567
 21
38.5
 31
0.0
  0
LINE
  5
427
100
AcDbEntity
  8
0
  6
CONTINUOUS
 62
               4
100
AcDbLine
 10
14.687490844726568
 20
50.5
 30
0.0
 11
14.687490844726568
 21
42.5
 31
0.0
  0
LINE
  5
428
100
AcDbEntity
  8
0
  6
CONTINUOUS
 62
               4
100
AcDbLine
 10
15.327490844726555
 20
50.5
 30
0.0
 11
15.327490844726555
 21
42.5
 31
0.0
  0
LINE
  5
429
100
AcDbEntity
  8
0
  6
CONTINUOUS
 62
               4
100
AcDbLine
 10
14.157490844726567
 20
42.5
 30
0.0
 11
15.857490844726556
 21
42.5
 31
0.0
  0
LINE
  5
42A
100
AcDbEntity
  8
0
  6
CONTINUOUS
 62
               4
100
AcDbLine
 10
14.687490844726568
 20
50.5
 30
0.0
 11
15.327490844726555
 21
50.5
 31
0.0
  0
LINE
  5
42B
100
AcDbEntity
  8
0
  6
CONTINUOUS
 62
             200
100
AcDbLine
 10
12.157490844726567
 20
37.47999999999999
 30
0.0
 11
17.857490844726556
 21
35.960000000000008
 31
0.0
  0
LINE
  5
42C
100
AcDbEntity
  8
0
  6
CONTINUOUS
 62
             200
100
AcDbLine
 10
12.157490844726567
 20
39.039999999999992
 30
0.0
 11
17.857490844726556
 21
37.509999999999991
 31
0.0
  0
LINE
  5
42D
100
AcDbEntity
  8
0
  6
CONTINUOUS
 62
               4
100
AcDbLine
 10
14.157490844726567
 20
36.950000000000003
 30
0.0
 11
14.157490844726567
 21
32.5
 31
0.0
  0
LINE
  5
42E
100
AcDbEntity
  8
0
  6
CONTINUOUS
 62
               4
100
AcDbLine
 10
15.857490844726556
 20
36.490000000000009
 30
0.0
 11
15.857490844726556
 21
32.5
 31
0.0
  0
LINE
  5
42F
100
AcDbEntity
  8
0
  6
CONTINUOUS
 62
               4
100
AcDbLine
 10
13.007490844726561
 20
30.5
 30
0.0
 11
32.007490844726561
 21
30.5
 31
0.0
  0
LINE
  5
430
100
AcDbEntity
  8
0
  6
CONTINUOUS
 62
               4
100
AcDbLine
 10
13.007490844726561
 20
30.5
 30
0.0
 11
13.007490844726561
 21
32.5
 31
0.0
  0
LINE
  5
431
100
AcDbEntity
  8
0
  6
CONTINUOUS
 62
               4
100
AcDbLine
 10
18.007490844726561
 20
30.5
 30
0.0
 11
18.007490844726561
 21
32.5
 31
0.0
  0
LINE
  5
432
100
AcDbEntity
  8
0
  6
CONTINUOUS
 62
               4
100
AcDbLine
 10
13.007490844726561
 20
32.5
 30
0.0
 11
18.007490844726561
 21
32.5
 31
0.0
  0
LINE
  5
433
100
AcDbEntity
  8
0
  6
CONTINUOUS
 62
               4
100
AcDbLine
 10
32.007490844726561
 20
0.0
 30
0.0
 11
12.507490844726561
 21
0.0
 31
0.0
  0
ARC
  5
434
100
AcDbEntity
  8
0
  6
CONTINUOUS
 62
               4
100
AcDbCircle
 10
9.0074908447265614
 20
22.500015258789063
 30
0.0
 40
5.9979938581577796
100
AcDbArc
 50
67.967934872283351
 51
112.03206512771627
  0
ENDBLK
  5
435
100
AcDbEntity
  8
0
100
AcDbBlockEnd
  0
BLOCK
  5
436
100
AcDbEntity
  8
0
100
AcDbBlockBegin
  2
MS_23
 70
               0
 10
0.0
 20
0.0
 30
0.0
  3
MS_23
  1

  0
LINE
  5
437
100
AcDbEntity
  8
0
  6
CONTINUOUS
 62
               4
100
AcDbLine
 10
12.007353515625027
 20
25.199999999999989
 30
0.0
 11
-12.992646484374973
 21
25.199999999999989
 31
0.0
  0
LINE
  5
438
100
AcDbEntity
  8
0
  6
CONTINUOUS
 62
               4
100
AcDbLine
 10
-12.492646484374973
 20
0.0
 30
0.0
 11
-31.992646484374973
 21
0.0
 31
0.0
  0
LINE
  5
439
100
AcDbEntity
  8
0
  6
CONTINUOUS
 62
               4
100
AcDbLine
 10
12.007353515625027
 20
30.700000000000003
 30
0.0
 11
12.007353515625027
 21
0.0
 31
0.0
  0
LINE
  5
43A
100
AcDbEntity
  8
0
  6
CONTINUOUS
 62
               4
100
AcDbLine
 10
-11.992646484374973
 20
25.199999999999989
 30
0.0
 11
-11.992646484374973
 21
0.0
 31
0.0
  0
LINE
  5
43B
100
AcDbEntity
  8
0
  6
CONTINUOUS
 62
               4
100
AcDbLine
 10
11.557353515625039
 20
26.800000000000011
 30
0.0
 11
6.4573535156250159
 21
26.800000000000011
 31
0.0
  0
LINE
  5
43C
100
AcDbEntity
  8
0
  6
CONTINUOUS
 62
               4
100
AcDbLine
 10
11.557353515625039
 20
26.800000000000011
 30
0.0
 11
11.557353515625039
 21
26.199999999999989
 31
0.0
  0
LINE
  5
43D
100
AcDbEntity
  8
0
  6
CONTINUOUS
 62
               4
100
AcDbLine
 10
6.4573535156250159
 20
26.800000000000011
 30
0.0
 11
6.4573535156250159
 21
26.199999999999989
 31
0.0
  0
LINE
  5
43E
100
AcDbEntity
  8
0
  6
CONTINUOUS
 62
               4
100
AcDbLine
 10
11.257353515625027
 20
28.060000000000002
 30
0.0
 11
11.257353515625027
 21
26.800000000000011
 31
0.0
  0
LINE
  5
43F
100
AcDbEntity
  8
0
  6
CONTINUOUS
 62
               4
100
AcDbLine
 10
6.7573535156250273
 20
28.060000000000002
 30
0.0
 11
6.7573535156250273
 21
26.800000000000011
 31
0.0
  0
LINE
  5
440
100
AcDbEntity
  8
0
  6
CONTINUOUS
 62
               4
100
AcDbLine
 10
-31.992646484374973
 20
30.5
 30
0.0
 11
-31.992646484374973
 21
0.0
 31
0.0
  0
LINE
  5
441
100
AcDbEntity
  8
0
  6
CONTINUOUS
 62
               4
100
AcDbLine
 10
-12.992646484374973
 20
30.5
 30
0.0
 11
-31.992646484374973
 21
30.5
 31
0.0
  0
LINE
  5
442
100
AcDbEntity
  8
0
  6
CONTINUOUS
 62
               4
100
AcDbLine
 10
-12.992646484374973
 20
25.0
 30
0.0
 11
-12.992646484374973
 21
30.5
 31
0.0
  0
LINE
  5
443
100
AcDbEntity
  8
0
  6
CONTINUOUS
 62
               4
100
AcDbLine
 10
12.007353515625027
 20
30.700000000000003
 30
0.0
 11
-12.992646484374973
 21
30.700000000000003
 31
0.0
  0
LINE
  5
444
100
AcDbEntity
  8
0
  6
CONTINUOUS
 62
               4
100
AcDbLine
 10
6.3073535156250387
 20
30.700000000000003
 30
0.0
 11
6.3073535156250387
 21
26.199999999999989
 31
0.0
  0
LINE
  5
445
100
AcDbEntity
  8
0
  6
CONTINUOUS
 62
               4
100
AcDbLine
 10
-15.842646484374967
 20
42.5
 30
0.0
 11
-15.842646484374967
 21
38.5
 31
0.0
  0
LINE
  5
446
100
AcDbEntity
  8
0
  6
CONTINUOUS
 62
               4
100
AcDbLine
 10
-14.142646484374978
 20
42.5
 30
0.0
 11
-14.142646484374978
 21
38.039999999999992
 31
0.0
  0
LINE
  5
447
100
AcDbEntity
  8
0
  6
CONTINUOUS
 62
               4
100
AcDbLine
 10
-14.67264648437498
 20
50.5
 30
0.0
 11
-14.67264648437498
 21
42.5
 31
0.0
  0
LINE
  5
448
100
AcDbEntity
  8
0
  6
CONTINUOUS
 62
               4
100
AcDbLine
 10
-15.312646484374966
 20
50.5
 30
0.0
 11
-15.312646484374966
 21
42.5
 31
0.0
  0
LINE
  5
449
100
AcDbEntity
  8
0
  6
CONTINUOUS
 62
               4
100
AcDbLine
 10
-14.142646484374978
 20
42.5
 30
0.0
 11
-15.842646484374967
 21
42.5
 31
0.0
  0
LINE
  5
44A
100
AcDbEntity
  8
0
  6
CONTINUOUS
 62
               4
100
AcDbLine
 10
-14.67264648437498
 20
50.5
 30
0.0
 11
-15.312646484374966
 21
50.5
 31
0.0
  0
LINE
  5
44B
100
AcDbEntity
  8
0
  6
CONTINUOUS
 62
               4
100
AcDbLine
 10
6.3073535156250387
 20
26.199999999999989
 30
0.0
 11
12.007353515625027
 21
26.199999999999989
 31
0.0
  0
LINE
  5
44C
100
AcDbEntity
  8
0
  6
CONTINUOUS
 62
               4
100
AcDbLine
 10
-12.992646484374973
 20
25.0
 30
0.0
 11
-11.992646484374973
 21
25.0
 31
0.0
  0
LINE
  5
44D
100
AcDbEntity
  8
0
  6
CONTINUOUS
 62
             200
100
AcDbLine
 10
-17.842646484374967
 20
39.039999999999992
 30
0.0
 11
-12.142646484374978
 21
37.509999999999991
 31
0.0
  0
LINE
  5
44E
100
AcDbEntity
  8
0
  6
CONTINUOUS
 62
             200
100
AcDbLine
 10
-17.842646484374967
 20
37.47999999999999
 30
0.0
 11
-12.142646484374978
 21
35.960000000000008
 31
0.0
  0
LINE
  5
44F
100
AcDbEntity
  8
0
  6
CONTINUOUS
 62
               4
100
AcDbLine
 10
-15.842646484374967
 20
36.950000000000003
 30
0.0
 11
-15.842646484374967
 21
32.5
 31
0.0
  0
LINE
  5
450
100
AcDbEntity
  8
0
  6
CONTINUOUS
 62
               4
100
AcDbLine
 10
-14.142646484374978
 20
36.490000000000009
 30
0.0
 11
-14.142646484374978
 21
32.5
 31
0.0
  0
LINE
  5
451
100
AcDbEntity
  8
0
  6
CONTINUOUS
 62
               4
100
AcDbLine
 10
-12.992646484374973
 20
30.5
 30
0.0
 11
-12.992646484374973
 21
32.5
 31
0.0
  0
LINE
  5
452
100
AcDbEntity
  8
0
  6
CONTINUOUS
 62
               4
100
AcDbLine
 10
-17.992646484374973
 20
30.5
 30
0.0
 11
-17.992646484374973
 21
32.5
 31
0.0
  0
LINE
  5
453
100
AcDbEntity
  8
0
  6
CONTINUOUS
 62
               4
100
AcDbLine
 10
-12.992646484374973
 20
32.5
 30
0.0
 11
-17.992646484374973
 21
32.5
 31
0.0
  0
ARC
  5
454
100
AcDbEntity
  8
0
  6
CONTINUOUS
 62
               4
100
AcDbCircle
 10
9.0073535156250273
 20
22.49993896484375
 30
0.0
 40
5.9980645807345869
100
AcDbArc
 50
67.968208259416016
 51
112.0317917405836
  0
ENDBLK
  5
455
100
AcDbEntity
  8
0
100
AcDbBlockEnd
  0
BLOCK
  5
456
100
AcDbEntity
  8
0
100
AcDbBlockBegin
  2
MS_24
 70
               0
 10
0.0
 20
0.0
 30
0.0
  3
MS_24
  1

  0
LINE
  5
457
100
AcDbEntity
  8
0
  6
CONTINUOUS
 62
               4
100
AcDbLine
 10
7.5074908447265614
 20
-1.5
 30
0.0
 11
7.5074908447265614
 21
-45.5
 31
0.0
  0
LINE
  5
458
100
AcDbEntity
  8
0
  6
CONTINUOUS
 62
               4
100
AcDbLine
 10
7.5074908447265614
 20
-1.5
 30
0.0
 11
-7.4925091552734386
 21
-1.5
 31
0.0
  0
LINE
  5
459
100
AcDbEntity
  8
0
  6
CONTINUOUS
 62
               4
100
AcDbLine
 10
-7.4925091552734386
 20
-1.5
 30
0.0
 11
-7.4925091552734386
 21
-45.5
 31
0.0
  0
LINE
  5
45A
100
AcDbEntity
  8
0
  6
CONTINUOUS
 62
               4
100
AcDbLine
 10
7.5074908447265614
 20
-45.5
 30
0.0
 11
-7.4925091552734386
 21
-45.5
 31
0.0
  0
LINE
  5
45B
100
AcDbEntity
  8
0
  6
CONTINUOUS
 62
               4
100
AcDbLine
 10
7.5074908447265614
 20
-26.5
 30
0.0
 11
6.0074908447265614
 21
-26.5
 31
0.0
  0
LINE
  5
45C
100
AcDbEntity
  8
0
  6
CONTINUOUS
 62
               4
100
AcDbLine
 10
4.5074908447265614
 20
-7.2000000000000028
 30
0.0
 11
7.5074908447265614
 21
-7.2000000000000028
 31
0.0
  0
LINE
  5
45D
100
AcDbEntity
  8
0
  6
CONTINUOUS
 62
               4
100
AcDbLine
 10
-4.4925091552734386
 20
-19.799999999999997
 30
0.0
 11
-7.4925091552734386
 21
-19.799999999999997
 31
0.0
  0
LINE
  5
45E
100
AcDbEntity
  8
0
  6
CONTINUOUS
 62
               4
100
AcDbLine
 10
-4.4925091552734386
 20
-25.200000000000003
 30
0.0
 11
-7.4925091552734386
 21
-25.200000000000003
 31
0.0
  0
LINE
  5
45F
100
AcDbEntity
  8
0
  6
CONTINUOUS
 62
               4
100
AcDbLine
 10
1.8074908447265727
 20
-4.5
 30
0.0
 11
1.8074908447265727
 21
-1.5
 31
0.0
  0
LINE
  5
460
100
AcDbEntity
  8
0
  6
CONTINUOUS
 62
               4
100
AcDbLine
 10
-5.9925091552734386
 20
-26.5
 30
0.0
 11
-7.4925091552734386
 21
-26.5
 31
0.0
  0
LINE
  5
461
100
AcDbEntity
  8
0
  6
CONTINUOUS
 62
               4
100
AcDbLine
 10
6.0074908447265614
 20
-26.5
 30
0.0
 11
-5.9925091552734386
 21
-26.5
 31
0.0
  0
LINE
  5
462
100
AcDbEntity
  8
0
  6
CONTINUOUS
 62
               4
100
AcDbLine
 10
6.0074908447265614
 20
-26.5
 30
0.0
 11
6.0074908447265614
 21
-29.5
 31
0.0
  0
LINE
  5
463
100
AcDbEntity
  8
0
  6
CONTINUOUS
 62
               4
100
AcDbLine
 10
4.0074908447265614
 20
-31.5
 30
0.0
 11
-3.9925091552734386
 21
-31.5
 31
0.0
  0
LINE
  5
464
100
AcDbEntity
  8
0
  6
CONTINUOUS
 62
               4
100
AcDbLine
 10
-5.9925091552734386
 20
-26.5
 30
0.0
 11
-5.9925091552734386
 21
-29.5
 31
0.0
  0
LINE
  5
465
100
AcDbEntity
  8
0
  6
CONTINUOUS
 62
               4
100
AcDbLine
 10
3.5874908447265739
 20
-5.4099999999999966
 30
0.0
 11
5.417490844726558
 21
-3.5799999999999983
 31
0.0
  0
LINE
  5
466
100
AcDbEntity
  8
0
  6
CONTINUOUS
 62
               4
100
AcDbLine
 10
3.5874908447265739
 20
-3.5799999999999983
 30
0.0
 11
5.417490844726558
 21
-5.4099999999999966
 31
0.0
  0
LINE
  5
467
100
AcDbEntity
  8
0
  6
CONTINUOUS
 62
               4
100
AcDbLine
 10
-5.4025091552734352
 20
-23.409999999999997
 30
0.0
 11
-3.5725091552734511
 21
-21.579999999999998
 31
0.0
  0
LINE
  5
468
100
AcDbEntity
  8
0
  6
CONTINUOUS
 62
               4
100
AcDbLine
 10
-5.4025091552734352
 20
-21.579999999999998
 30
0.0
 11
-3.5725091552734511
 21
-23.409999999999997
 31
0.0
  0
ARC
  5
469
100
AcDbEntity
  8
0
  6
CONTINUOUS
 62
               4
100
AcDbCircle
 10
-4.4925091552734386
 20
-22.5
 30
0.0
 40
2.6999999999999993
100
AcDbArc
 50
269.99999999999937
 51
89.999999999999801
  0
ARC
  5
46A
100
AcDbEntity
  8
0
  6
CONTINUOUS
 62
               4
100
AcDbCircle
 10
4.5075061035156239
 20
-4.4999847412109375
 30
0.0
 40
2.7000152588321793
100
AcDbArc
 50
180.0003237997303
 51
269.99967620026865
  0
CIRCLE
  5
46B
100
AcDbEntity
  8
0
  6
CONTINUOUS
 62
               4
100
AcDbCircle
 10
-4.4924786376953136
 20
-22.5
 30
0.0
 40
2.5500001907348633
  0
CIRCLE
  5
46C
100
AcDbEntity
  8
0
  6
CONTINUOUS
 62
               4
100
AcDbCircle
 10
4.5075061035156239
 20
-4.4999847412109375
 30
0.0
 40
2.5500001907348633
  0
CIRCLE
  5
46D
100
AcDbEntity
  8
0
  6
CONTINUOUS
 62
               4
100
AcDbCircle
 10
-4.4924786376953136
 20
-22.5
 30
0.0
 40
2.25
  0
CIRCLE
  5
46E
100
AcDbEntity
  8
0
  6
CONTINUOUS
 62
               4
100
AcDbCircle
 10
4.5075061035156239
 20
-4.4999847412109375
 30
0.0
 40
2.25
  0
ARC
  5
46F
100
AcDbEntity
  8
0
  6
CONTINUOUS
 62
               4
100
AcDbCircle
 10
4.0074941825838835
 20
-29.500003337857322
 30
0.0
 40
1.9999966621454632
100
AcDbArc
 50
269.99990437727121
 51
0.0000956227281739
  0
ARC
  5
470
100
AcDbEntity
  8
0
  6
CONTINUOUS
 62
               4
100
AcDbCircle
 10
-3.9924857902398969
 20
-29.499976634966458
 30
0.0
 40
2.0000233651700214
100
AcDbArc
 50
180.00066935108492
 51
269.99933064891405
  0
CIRCLE
  5
471
100
AcDbEntity
  8
0
  6
CONTINUOUS
 62
               4
100
AcDbCircle
 10
-3.3924725341796886
 20
-28.5
 30
0.0
 40
0.8500000238418579
  0
CIRCLE
  5
472
100
AcDbEntity
  8
0
  6
CONTINUOUS
 62
               4
100
AcDbCircle
 10
-1.2424786376953136
 20
-28.499984741210938
 30
0.0
 40
0.8500000238418579
  0
CIRCLE
  5
473
100
AcDbEntity
  8
0
  6
CONTINUOUS
 62
               4
100
AcDbCircle
 10
1.2575213623046864
 20
-28.499984741210938
 30
0.0
 40
0.8500000238418579
  0
CIRCLE
  5
474
100
AcDbEntity
  8
0
  6
CONTINUOUS
 62
               4
100
AcDbCircle
 10
3.4075305175781239
 20
-28.499984741210938
 30
0.0
 40
0.8500000238418579
  0
ENDBLK
  5
475
100
AcDbEntity
  8
0
100
AcDbBlockEnd
  0
BLOCK
  5
476
100
AcDbEntity
  8
0
100
AcDbBlockBegin
  2
MS_25
 70
               0
 10
0.0
 20
0.0
 30
0.0
  3
MS_25
  1

  0
LINE
  5
477
100
AcDbEntity
  8
0
  6
CONTINUOUS
 62
               4
100
AcDbLine
 10
7.5074908447265614
 20
27.0
 30
0.0
 11
7.5074908447265614
 21
45.5
 31
0.0
  0
LINE
  5
478
100
AcDbEntity
  8
0
  6
CONTINUOUS
 62
               4
100
AcDbLine
 10
-7.4925091552734386
 20
27.0
 30
0.0
 11
-7.4925091552734386
 21
45.5
 31
0.0
  0
LINE
  5
479
100
AcDbEntity
  8
0
  6
CONTINUOUS
 62
               4
100
AcDbLine
 10
-7.4925091552734386
 20
45.5
 30
0.0
 11
7.5074908447265614
 21
45.5
 31
0.0
  0
ENDBLK
  5
47A
100
AcDbEntity
  8
0
100
AcDbBlockEnd
  0
ENDSEC
  0
SECTION
  2
ENTITIES
  0
LINE
  5
47C
100
AcDbEntity
  8
0
  6
CENTER
 62
               2
100
AcDbLine
 10
80.0374755859375
 20
-122.29992370605468
 30
0.0
 11
80.0374755859375
 21
-162.99992370605469
 31
0.0
  0
LINE
  5
47D
100
AcDbEntity
  8
0
  6
CENTER
 62
               2
100
AcDbLine
 10
260.03703008778956
 20
-122.3
 30
0.0
 11
260.03703008778956
 21
-163.0
 31
0.0
  0
LINE
  5
47E
100
AcDbEntity
  8
0
  6
CENTER
 62
               2
100
AcDbLine
 10
170.03736877441406
 20
-199.06981689453124
 30
0.0
 11
170.03736877441406
 21
-252.99981689453125
 31
0.0
  0
LINE
  5
47F
100
AcDbEntity
  8
0
  6
CENTER
 62
               2
100
AcDbLine
 10
170.03759765625
 20
-103.23006103515625
 30
0.0
 11
170.03759765625
 21
-163.00006103515625
 31
0.0
  0
LINE
  5
480
100
AcDbEntity
  8
0
  6
CENTER
 62
               2
100
AcDbLine
 10
170.03764343261719
 20
-36.999984741210938
 30
0.0
 11
170.03764343261719
 21
-90.989984741210932
 31
0.0
  0
LINE
  5
481
100
AcDbEntity
  8
0
  6
CENTER
 62
               2
100
AcDbLine
 10
-199.48751831054687
 20
-204.08992370605469
 30
0.0
 11
-199.48751831054687
 21
-252.99992370605469
 31
0.0
  0
LINE
  5
482
100
AcDbEntity
  8
0
  6
CENTER
 62
               2
100
AcDbLine
 10
-199.48738098144531
 20
-85.570015258789056
 30
0.0
 11
-199.48738098144531
 21
-37.000015258789063
 31
0.0
  0
LINE
  5
483
100
AcDbEntity
  8
0
  6
CENTER
 62
               2
100
AcDbLine
 10
-109.48753356933594
 20
-124.80006103515625
 30
0.0
 11
-109.48753356933594
 21
-163.00006103515625
 31
0.0
  0
LINE
  5
484
100
AcDbEntity
  8
0
  6
CENTER
 62
               2
100
AcDbLine
 10
-199.48750305175781
 20
-108.26003051757813
 30
0.0
 11
-199.48750305175781
 21
-163.00003051757813
 31
0.0
  0
LINE
  5
485
100
AcDbEntity
  8
0
  6
CENTER
 62
               2
100
AcDbLine
 10
-289.487060546875
 20
-124.80003051757812
 30
0.0
 11
-289.487060546875
 21
-163.00003051757813
 31
0.0
  0
LINE
  5
486
100
AcDbEntity
  8
0
  6
CENTER
 62
               2
100
AcDbLine
 10
175.37513732910156
 20
141.69999999999999
 30
0.0
 11
175.37513732910156
 21
103.5
 31
0.0
  0
LINE
  5
487
100
AcDbEntity
  8
0
  6
CENTER
 62
               2
100
AcDbLine
 10
362.375
 20
141.6999542236328
 30
0.0
 11
362.375
 21
103.49995422363281
 31
0.0
  0
LINE
  5
488
100
AcDbEntity
  8
0
  6
CENTER
 62
               2
100
AcDbLine
 10
266.374755859375
 20
80.040030517578131
 30
0.0
 11
266.374755859375
 21
13.500030517578125
 31
0.0
  0
LINE
  5
489
100
AcDbEntity
  8
0
  6
CENTER
 62
               2
100
AcDbLine
 10
266.37473824011886
 20
157.59999999999999
 30
0.0
 11
266.37473824011886
 21
103.5
 31
0.0
  0
LINE
  5
48A
100
AcDbEntity
  8
0
  6
CENTER
 62
               2
100
AcDbLine
 10
266.37465895326267
 20
229.5
 30
0.0
 11
266.37465895326267
 21
163.56999999999999
 31
0.0
  0
LINE
  5
48B
100
AcDbEntity
  8
0
  6
CENTER
 62
               2
100
AcDbLine
 10
93.525054931640625
 20
141.70003051757811
 30
0.0
 11
93.525054931640625
 21
103.50003051757812
 31
0.0
  0
LINE
  5
48C
100
AcDbEntity
  8
0
  6
CENTER
 62
               2
100
AcDbLine
 10
-2.4749994277954097
 20
87.780015258789064
 30
0.0
 11
-2.4749994277954097
 21
13.500015258789063
 31
0.0
  0
LINE
  5
48D
100
AcDbEntity
  8
0
  6
CENTER
 62
               2
100
AcDbLine
 10
-93.47491455078125
 20
141.69998474121093
 30
0.0
 11
-93.47491455078125
 21
103.49998474121094
 31
0.0
  0
LINE
  5
48E
100
AcDbEntity
  8
0
  6
CENTER
 62
               2
100
AcDbLine
 10
-2.4749937057495117
 20
142.62996948242187
 30
0.0
 11
-2.4749937057495117
 21
103.49996948242187
 31
0.0
  0
LINE
  5
48F
100
AcDbEntity
  8
0
  6
CENTER
 62
               2
100
AcDbLine
 10
-2.4749336242675772
 20
229.5
 30
0.0
 11
-2.4749336242675772
 21
157.15000000000001
 31
0.0
  0
LINE
  5
490
100
AcDbEntity
  8
0
  6
CENTER
 62
               2
100
AcDbLine
 10
-356.074951171875
 20
103.50004577636719
 30
0.0
 11
-356.074951171875
 21
141.70004577636718
 31
0.0
  0
LINE
  5
491
100
AcDbEntity
  8
0
  6
CENTER
 62
               2
100
AcDbLine
 10
-266.074951171875
 20
60.640015258789063
 30
0.0
 11
-266.074951171875
 21
13.500015258789063
 31
0.0
  0
LINE
  5
492
100
AcDbEntity
  8
0
  6
CENTER
 62
               2
100
AcDbLine
 10
-176.07501220703125
 20
141.70001525878905
 30
0.0
 11
-176.07501220703125
 21
103.50001525878906
 31
0.0
  0
LINE
  5
493
100
AcDbEntity
  8
0
  6
CENTER
 62
               2
100
AcDbLine
 10
-266.074951171875
 20
158.22999999999999
 30
0.0
 11
-266.074951171875
 21
103.5
 31
0.0
  0
LINE
  5
494
100
AcDbEntity
  8
0
  6
CENTER
 62
               2
100
AcDbLine
 10
-266.07470703125
 20
229.49998474121094
 30
0.0
 11
-266.07470703125
 21
182.60998474121095
 31
0.0
  0
INSERT
  5
495
100
AcDbEntity
  8
0
100
AcDbBlockReference
  2
MS_25
 10
170.03736877441406
 20
-247.99981689453125
 30
0.0
  0
INSERT
  5
496
100
AcDbEntity
  8
0
100
AcDbBlockReference
  2
MS_24
 10
170.03764343261719
 20
-41.999984741210938
 30
0.0
  0
INSERT
  5
497
100
AcDbEntity
  8
0
100
AcDbBlockReference
  2
MS_23
 10
260.03703008778956
 20
-158.0
 30
0.0
  0
INSERT
  5
498
100
AcDbEntity
  8
0
100
AcDbBlockReference
  2
MS_22
 10
80.0374755859375
 20
-157.99992370605469
 30
0.0
  0
INSERT
  5
499
100
AcDbEntity
  8
0
100
AcDbBlockReference
  2
MS_21
 10
170.03759765625
 20
-158.00006103515625
 30
0.0
  0
INSERT
  5
49A
100
AcDbEntity
  8
0
100
AcDbBlockReference
  2
MS_20
 10
-199.48751831054687
 20
-247.99992370605469
 30
0.0
  0
INSERT
  5
49B
100
AcDbEntity
  8
0
100
AcDbBlockReference
  2
MS_19
 10
-199.48738098144531
 20
-42.000015258789063
 30
0.0
  0
INSERT
  5
49C
100
AcDbEntity
  8
0
100
AcDbBlockReference
  2
MS_18
 10
-109.48753356933594
 20
-158.00006103515625
 30
0.0
  0
INSERT
  5
49D
100
AcDbEntity
  8
0
100
AcDbBlockReference
  2
MS_17
 10
-289.487060546875
 20
-158.00003051757812
 30
0.0
  0
INSERT
  5
49E
100
AcDbEntity
  8
0
100
AcDbBlockReference
  2
MS_16
 10
-199.48750305175781
 20
-158.00003051757812
 30
0.0
  0
INSERT
  5
49F
100
AcDbEntity
  8
0
100
AcDbBlockReference
  2
MS_15
 10
266.374755859375
 20
18.500030517578125
 30
0.0
  0
INSERT
  5
4A0
100
AcDbEntity
  8
0
100
AcDbBlockReference
  2
MS_14
 10
266.37465895326267
 20
224.5
 30
0.0
  0
INSERT
  5
4A1
100
AcDbEntity
  8
0
100
AcDbBlockReference
  2
MS_13
 10
362.375
 20
108.49995422363281
 30
0.0
  0
INSERT
  5
4A2
100
AcDbEntity
  8
0
100
AcDbBlockReference
  2
MS_12
 10
175.37513732910156
 20
108.5
 30
0.0
  0
INSERT
  5
4A3
100
AcDbEntity
  8
0
100
AcDbBlockReference
  2
MS_11
 10
266.37473824011886
 20
108.5
 30
0.0
  0
INSERT
  5
4A4
100
AcDbEntity
  8
0
100
AcDbBlockReference
  2
MS_10
 10
-2.4749994277954102
 20
18.500015258789063
 30
0.0
  0
INSERT
  5
4A5
100
AcDbEntity
  8
0
100
AcDbBlockReference
  2
MS_9
 10
-2.4749336242675777
 20
224.5
 30
0.0
  0
INSERT
  5
4A6
100
AcDbEntity
  8
0
100
AcDbBlockReference
  2
MS_8
 10
93.525054931640625
 20
108.50003051757812
 30
0.0
  0
INSERT
  5
4A7
100
AcDbEntity
  8
0
100
AcDbBlockReference
  2
MS_7
 10
-93.47491455078125
 20
108.49998474121094
 30
0.0
  0
INSERT
  5
4A8
100
AcDbEntity
  8
0
100
AcDbBlockReference
  2
MS_6
 10
-2.4749937057495117
 20
108.49996948242187
 30
0.0
  0
INSERT
  5
4A9
100
AcDbEntity
  8
0
100
AcDbBlockReference
  2
MS_5
 10
-266.074951171875
 20
18.500015258789063
 30
0.0
  0
INSERT
  5
4AA
100
AcDbEntity
  8
0
100
AcDbBlockReference
  2
MS_4
 10
-266.07470703125
 20
224.49998474121094
 30
0.0
  0
INSERT
  5
4AB
100
AcDbEntity
  8
0
100
AcDbBlockReference
  2
MS_3
 10
-176.07501220703125
 20
108.50001525878906
 30
0.0
  0
INSERT
  5
4AC
100
AcDbEntity
  8
0
100
AcDbBlockReference
  2
MS_2
 10
-356.074951171875
 20
108.50004577636719
 30
0.0
  0
INSERT
  5
4AD
100
AcDbEntity
  8
0
100
AcDbBlockReference
  2
MS_1
 10
-266.074951171875
 20
108.5
 30
0.0
  0
LINE
  5
4AE
100
AcDbEntity
  8
0
  6
CONTINUOUS
 62
               7
100
AcDbLine
 10
399.80000000000001
 20
276.25
 30
0.0
 11
399.80000000000001
 21
-276.75
 31
0.0
  0
LINE
  5
4AF
100
AcDbEntity
  8
0
  6
CONTINUOUS
 62
               7
100
AcDbLine
 10
-399.25
 20
276.25
 30
0.0
 11
-399.25
 21
-276.75
 31
0.0
  0
LINE
  5
4B0
100
AcDbEntity
  8
0
  6
CONTINUOUS
 62
               7
100
AcDbLine
 10
-399.25
 20
276.25
 30
0.0
 11
399.80000000000001
 21
276.25
 31
0.0
  0
LINE
  5
4B1
100
AcDbEntity
  8
0
  6
CONTINUOUS
 62
               7
100
AcDbLine
 10
-399.25
 20
-276.75
 30
0.0
 11
399.80000000000001
 21
-276.75
 31
0.0
  0
LINE
  5
4B2
100
AcDbEntity
  8
0
  6
CONTINUOUS
 62
               7
100
AcDbLine
 10
239.80000000000001
 20
-251.75
 30
0.0
 11
399.80000000000001
 21
-251.75
 31
0.0
  0
LINE
  5
4B3
100
AcDbEntity
  8
0
  6
CONTINUOUS
 62
               7
100
AcDbLine
 10
239.80000000000001
 20
251.25
 30
0.0
 11
399.80000000000001
 21
251.25
 31
0.0
  0
LINE
  5
4B4
100
AcDbEntity
  8
0
  6
CONTINUOUS
 62
               7
100
AcDbLine
 10
-399.25
 20
251.25
 30
0.0
 11
-239.25
 21
251.25
 31
0.0
  0
LINE
  5
4B5
100
AcDbEntity
  8
0
  6
CONTINUOUS
 62
               7
100
AcDbLine
 10
239.80000000000001
 20
-251.75
 30
0.0
 11
239.80000000000001
 21
-276.75
 31
0.0
  0
LINE
  5
4B6
100
AcDbEntity
  8
0
  6
CONTINUOUS
 62
               7
100
AcDbLine
 10
239.80000000000001
 20
251.25
 30
0.0
 11
239.80000000000001
 21
276.25
 31
0.0
  0
LINE
  5
4B7
100
AcDbEntity
  8
0
  6
CONTINUOUS
 62
               7
100
AcDbLine
 10
-239.25
 20
276.25
 30
0.0
 11
-239.25
 21
251.25
 31
0.0
  0
LINE
  5
4B8
100
AcDbEntity
  8
0
  6
CONTINUOUS
 62
               7
100
AcDbLine
 10
-399.25
 20
-0.25
 30
0.0
 11
399.80000000000001
 21
-0.25
 31
0.0
  0
LINE
  5
4B9
100
AcDbEntity
  8
0
  6
CONTINUOUS
 62
               7
100
AcDbLine
 10
-137.90000000000001
 20
276.25
 30
0.0
 11
-137.90000000000001
 21
-0.25
 31
0.0
  0
LINE
  5
4BA
100
AcDbEntity
  8
0
  6
CONTINUOUS
 62
               7
100
AcDbLine
 10
130.94999999999999
 20
276.25
 30
0.0
 11
130.94999999999999
 21
-0.25
 31
0.0
  0
LINE
  5
4BB
100
AcDbEntity
  8
0
  6
CONTINUOUS
 62
               7
100
AcDbLine
 10
0.27
 20
-0.25
 30
0.0
 11
0.27
 21
-276.75
 31
0.0
  0
LINE
  5
4BC
100
AcDbEntity
  8
0
  6
CONTINUOUS
 62
               7
100
AcDbLine
 10
-257.06999999999999
 20
18.5
 30
0.0
 11
-257.06999999999999
 21
45.5
 31
0.0
  0
LINE
  5
4BD
100
AcDbEntity
  8
0
  6
CONTINUOUS
 62
               7
100
AcDbLine
 10
-275.06999999999999
 20
18.5
 30
0.0
 11
-275.06999999999999
 21
45.5
 31
0.0
  0
LINE
  5
4BE
100
AcDbEntity
  8
0
  6
CONTINUOUS
 62
               7
100
AcDbLine
 10
-275.06999999999999
 20
45.5
 30
0.0
 11
-257.06999999999999
 21
45.5
 31
0.0
  0
LINE
  5
4BF
100
AcDbEntity
  8
0
  6
CONTINUOUS
 62
               7
100
AcDbLine
 10
-275.06999999999999
 20
18.5
 30
0.0
 11
-257.06999999999999
 21
18.5
 31
0.0
  0
LINE
  5
4C0
100
AcDbEntity
  8
0
  6
CONTINUOUS
 62
               7
100
AcDbLine
 10
-272.99000000000001
 20
41.579999999999998
 30
0.0
 11
-271.14999999999998
 21
43.409999999999997
 31
0.0
  0
LINE
  5
4C1
100
AcDbEntity
  8
0
  6
CONTINUOUS
 62
               7
100
AcDbLine
 10
-272.99000000000001
 20
43.409999999999997
 30
0.0
 11
-271.14999999999998
 21
41.579999999999998
 31
0.0
  0
LINE
  5
4C2
100
AcDbEntity
  8
0
  6
CONTINUOUS
 62
               7
100
AcDbLine
 10
-260.99000000000001
 20
22.41
 30
0.0
 11
-259.14999999999998
 21
20.579999999999998
 31
0.0
  0
LINE
  5
4C3
100
AcDbEntity
  8
0
  6
CONTINUOUS
 62
               7
100
AcDbLine
 10
-260.99000000000001
 20
20.579999999999998
 30
0.0
 11
-259.14999999999998
 21
22.41
 31
0.0
  0
LINE
  5
4C4
100
AcDbEntity
  8
0
  6
CONTINUOUS
 62
               7
100
AcDbLine
 10
-273.56999999999999
 20
108.5
 30
0.0
 11
-258.56999999999999
 21
108.5
 31
0.0
  0
LINE
  5
4C5
100
AcDbEntity
  8
0
  6
CONTINUOUS
 62
               7
100
AcDbLine
 10
-163.56999999999999
 20
108.5
 30
0.0
 11
-188.56999999999999
 21
108.5
 31
0.0
  0
LINE
  5
4C6
100
AcDbEntity
  8
0
  6
CONTINUOUS
 62
               7
100
AcDbLine
 10
-368.56999999999999
 20
108.5
 30
0.0
 11
-343.56999999999999
 21
108.5
 31
0.0
  0
LINE
  5
4C7
100
AcDbEntity
  8
0
  6
CONTINUOUS
 62
               7
100
AcDbLine
 10
-275.06999999999999
 20
224.5
 30
0.0
 11
-275.06999999999999
 21
197.5
 31
0.0
  0
LINE
  5
4C8
100
AcDbEntity
  8
0
  6
CONTINUOUS
 62
               7
100
AcDbLine
 10
-257.06999999999999
 20
224.5
 30
0.0
 11
-257.06999999999999
 21
197.5
 31
0.0
  0
LINE
  5
4C9
100
AcDbEntity
  8
0
  6
CONTINUOUS
 62
               7
100
AcDbLine
 10
-257.06999999999999
 20
197.5
 30
0.0
 11
-259.06999999999999
 21
197.5
 31
0.0
  0
LINE
  5
4CA
100
AcDbEntity
  8
0
  6
CONTINUOUS
 62
               7
100
AcDbLine
 10
-273.06999999999999
 20
197.5
 30
0.0
 11
-275.06999999999999
 21
197.5
 31
0.0
  0
LINE
  5
4CB
100
AcDbEntity
  8
0
  6
CONTINUOUS
 62
               7
100
AcDbLine
 10
-257.06999999999999
 20
197.5
 30
0.0
 11
-258.56999999999999
 21
199.0
 31
0.0
  0
LINE
  5
4CC
100
AcDbEntity
  8
0
  6
CONTINUOUS
 62
               7
100
AcDbLine
 10
-275.06999999999999
 20
197.5
 30
0.0
 11
-273.56999999999999
 21
199.0
 31
0.0
  0
LINE
  5
4CD
100
AcDbEntity
  8
0
  6
CONTINUOUS
 62
               7
100
AcDbLine
 10
-275.06999999999999
 20
224.5
 30
0.0
 11
-273.56999999999999
 21
223.0
 31
0.0
  0
LINE
  5
4CE
100
AcDbEntity
  8
0
  6
CONTINUOUS
 62
               7
100
AcDbLine
 10
-257.06999999999999
 20
224.5
 30
0.0
 11
-258.56999999999999
 21
223.0
 31
0.0
  0
LINE
  5
4CF
100
AcDbEntity
  8
0
  6
CONTINUOUS
 62
               7
100
AcDbLine
 10
-257.06999999999999
 20
224.5
 30
0.0
 11
-275.06999999999999
 21
224.5
 31
0.0
  0
LINE
  5
4D0
100
AcDbEntity
  8
0
  6
CONTINUOUS
 62
               7
100
AcDbLine
 10
-10.470000000000001
 20
108.5
 30
0.0
 11
5.5199999999999996
 21
108.5
 31
0.0
  0
LINE
  5
4D1
100
AcDbEntity
  8
0
  6
CONTINUOUS
 62
               7
100
AcDbLine
 10
106.02
 20
108.5
 30
0.0
 11
81.019999999999996
 21
108.5
 31
0.0
  0
LINE
  5
4D2
100
AcDbEntity
  8
0
  6
CONTINUOUS
 62
               7
100
AcDbLine
 10
-105.97
 20
108.5
 30
0.0
 11
-80.969999999999999
 21
108.5
 31
0.0
  0
LINE
  5
4D3
100
AcDbEntity
  8
0
  6
CONTINUOUS
 62
               7
100
AcDbLine
 10
-11.470000000000001
 20
224.5
 30
0.0
 11
-11.470000000000001
 21
197.5
 31
0.0
  0
LINE
  5
4D4
100
AcDbEntity
  8
0
  6
CONTINUOUS
 62
               7
100
AcDbLine
 10
6.5199999999999996
 20
224.5
 30
0.0
 11
6.5199999999999996
 21
197.5
 31
0.0
  0
LINE
  5
4D5
100
AcDbEntity
  8
0
  6
CONTINUOUS
 62
               7
100
AcDbLine
 10
6.5199999999999996
 20
197.5
 30
0.0
 11
4.5199999999999996
 21
197.5
 31
0.0
  0
LINE
  5
4D6
100
AcDbEntity
  8
0
  6
CONTINUOUS
 62
               7
100
AcDbLine
 10
-9.4700000000000006
 20
197.5
 30
0.0
 11
-11.470000000000001
 21
197.5
 31
0.0
  0
LINE
  5
4D7
100
AcDbEntity
  8
0
  6
CONTINUOUS
 62
               7
100
AcDbLine
 10
6.5199999999999996
 20
197.5
 30
0.0
 11
5.0199999999999996
 21
199.0
 31
0.0
  0
LINE
  5
4D8
100
AcDbEntity
  8
0
  6
CONTINUOUS
 62
               7
100
AcDbLine
 10
-11.470000000000001
 20
197.5
 30
0.0
 11
-9.9700000000000006
 21
199.0
 31
0.0
  0
LINE
  5
4D9
100
AcDbEntity
  8
0
  6
CONTINUOUS
 62
               7
100
AcDbLine
 10
-11.470000000000001
 20
224.5
 30
0.0
 11
-9.9700000000000006
 21
223.0
 31
0.0
  0
LINE
  5
4DA
100
AcDbEntity
  8
0
  6
CONTINUOUS
 62
               7
100
AcDbLine
 10
6.5199999999999996
 20
224.5
 30
0.0
 11
5.0199999999999996
 21
223.0
 31
0.0
  0
LINE
  5
4DB
100
AcDbEntity
  8
0
  6
CONTINUOUS
 62
               7
100
AcDbLine
 10
6.5199999999999996
 20
224.5
 30
0.0
 11
-11.470000000000001
 21
224.5
 31
0.0
  0
LINE
  5
4DC
100
AcDbEntity
  8
0
  6
CONTINUOUS
 62
               7
100
AcDbLine
 10
6.5199999999999996
 20
18.5
 30
0.0
 11
6.5199999999999996
 21
45.5
 31
0.0
  0
LINE
  5
4DD
100
AcDbEntity
  8
0
  6
CONTINUOUS
 62
               7
100
AcDbLine
 10
-11.470000000000001
 20
18.5
 30
0.0
 11
-11.470000000000001
 21
45.5
 31
0.0
  0
LINE
  5
4DE
100
AcDbEntity
  8
0
  6
CONTINUOUS
 62
               7
100
AcDbLine
 10
-11.470000000000001
 20
45.5
 30
0.0
 11
6.5199999999999996
 21
45.5
 31
0.0
  0
LINE
  5
4DF
100
AcDbEntity
  8
0
  6
CONTINUOUS
 62
               7
100
AcDbLine
 10
-11.470000000000001
 20
18.5
 30
0.0
 11
6.5199999999999996
 21
18.5
 31
0.0
  0
LINE
  5
4E0
100
AcDbEntity
  8
0
  6
CONTINUOUS
 62
               7
100
AcDbLine
 10
-9.3900000000000006
 20
41.579999999999998
 30
0.0
 11
-7.5499999999999998
 21
43.409999999999997
 31
0.0
  0
LINE
  5
4E1
100
AcDbEntity
  8
0
  6
CONTINUOUS
 62
               7
100
AcDbLine
 10
-9.3900000000000006
 20
43.409999999999997
 30
0.0
 11
-7.5499999999999998
 21
41.579999999999998
 31
0.0
  0
LINE
  5
4E2
100
AcDbEntity
  8
0
  6
CONTINUOUS
 62
               7
100
AcDbLine
 10
2.6000000000000001
 20
22.41
 30
0.0
 11
4.4400000000000004
 21
20.579999999999998
 31
0.0
  0
LINE
  5
4E3
100
AcDbEntity
  8
0
  6
CONTINUOUS
 62
               7
100
AcDbLine
 10
2.6000000000000001
 20
20.579999999999998
 30
0.0
 11
4.4400000000000004
 21
22.41
 31
0.0
  0
LINE
  5
4E4
100
AcDbEntity
  8
0
  6
CONTINUOUS
 62
               7
100
AcDbLine
 10
258.37
 20
108.5
 30
0.0
 11
274.37
 21
108.5
 31
0.0
  0
LINE
  5
4E5
100
AcDbEntity
  8
0
  6
CONTINUOUS
 62
               7
100
AcDbLine
 10
374.87
 20
108.5
 30
0.0
 11
349.87
 21
108.5
 31
0.0
  0
LINE
  5
4E6
100
AcDbEntity
  8
0
  6
CONTINUOUS
 62
               7
100
AcDbLine
 10
162.87
 20
108.5
 30
0.0
 11
187.87
 21
108.5
 31
0.0
  0
LINE
  5
4E7
100
AcDbEntity
  8
0
  6
CONTINUOUS
 62
               7
100
AcDbLine
 10
257.37
 20
224.5
 30
0.0
 11
257.37
 21
197.5
 31
0.0
  0
LINE
  5
4E8
100
AcDbEntity
  8
0
  6
CONTINUOUS
 62
               7
100
AcDbLine
 10
275.37
 20
224.5
 30
0.0
 11
275.37
 21
197.5
 31
0.0
  0
LINE
  5
4E9
100
AcDbEntity
  8
0
  6
CONTINUOUS
 62
               7
100
AcDbLine
 10
275.37
 20
197.5
 30
0.0
 11
273.87
 21
197.5
 31
0.0
  0
LINE
  5
4EA
100
AcDbEntity
  8
0
  6
CONTINUOUS
 62
               7
100
AcDbLine
 10
258.87
 20
197.5
 30
0.0
 11
257.37
 21
197.5
 31
0.0
  0
LINE
  5
4EB
100
AcDbEntity
  8
0
  6
CONTINUOUS
 62
               7
100
AcDbLine
 10
275.37
 20
197.5
 30
0.0
 11
273.87
 21
199.0
 31
0.0
  0
LINE
  5
4EC
100
AcDbEntity
  8
0
  6
CONTINUOUS
 62
               7
100
AcDbLine
 10
257.37
 20
197.5
 30
0.0
 11
258.87
 21
199.0
 31
0.0
  0
LINE
  5
4ED
100
AcDbEntity
  8
0
  6
CONTINUOUS
 62
               7
100
AcDbLine
 10
257.37
 20
224.5
 30
0.0
 11
258.87
 21
223.0
 31
0.0
  0
LINE
  5
4EE
100
AcDbEntity
  8
0
  6
CONTINUOUS
 62
               7
100
AcDbLine
 10
275.37
 20
224.5
 30
0.0
 11
273.87
 21
223.0
 31
0.0
  0
LINE
  5
4EF
100
AcDbEntity
  8
0
  6
CONTINUOUS
 62
               7
100
AcDbLine
 10
275.37
 20
224.5
 30
0.0
 11
257.37
 21
224.5
 31
0.0
  0
LINE
  5
4F0
100
AcDbEntity
  8
0
  6
CONTINUOUS
 62
               7
100
AcDbLine
 10
275.37
 20
18.5
 30
0.0
 11
275.37
 21
45.5
 31
0.0
  0
LINE
  5
4F1
100
AcDbEntity
  8
0
  6
CONTINUOUS
 62
               7
100
AcDbLine
 10
257.37
 20
18.5
 30
0.0
 11
257.37
 21
45.5
 31
0.0
  0
LINE
  5
4F2
100
AcDbEntity
  8
0
  6
CONTINUOUS
 62
               7
100
AcDbLine
 10
257.37
 20
45.5
 30
0.0
 11
275.37
 21
45.5
 31
0.0
  0
LINE
  5
4F3
100
AcDbEntity
  8
0
  6
CONTINUOUS
 62
               7
100
AcDbLine
 10
257.37
 20
18.5
 30
0.0
 11
275.37
 21
18.5
 31
0.0
  0
LINE
  5
4F4
100
AcDbEntity
  8
0
  6
CONTINUOUS
 62
               7
100
AcDbLine
 10
259.44999999999999
 20
41.579999999999998
 30
0.0
 11
261.29000000000002
 21
43.409999999999997
 31
0.0
  0
LINE
  5
4F5
100
AcDbEntity
  8
0
  6
CONTINUOUS
 62
               7
100
AcDbLine
 10
259.44999999999999
 20
43.409999999999997
 30
0.0
 11
261.29000000000002
 21
41.579999999999998
 31
0.0
  0
LINE
  5
4F6
100
AcDbEntity
  8
0
  6
CONTINUOUS
 62
               7
100
AcDbLine
 10
271.44999999999999
 20
22.41
 30
0.0
 11
273.29000000000002
 21
20.579999999999998
 31
0.0
  0
LINE
  5
4F7
100
AcDbEntity
  8
0
  6
CONTINUOUS
 62
               7
100
AcDbLine
 10
271.44999999999999
 20
20.579999999999998
 30
0.0
 11
273.29000000000002
 21
22.41
 31
0.0
  0
LINE
  5
4F8
100
AcDbEntity
  8
0
  6
CONTINUOUS
 62
               7
100
AcDbLine
 10
-207.47999999999999
 20
-158.0
 30
0.0
 11
-191.47999999999999
 21
-158.0
 31
0.0
  0
LINE
  5
4F9
100
AcDbEntity
  8
0
  6
CONTINUOUS
 62
               7
100
AcDbLine
 10
-96.980000000000004
 20
-158.0
 30
0.0
 11
-121.98
 21
-158.0
 31
0.0
  0
LINE
  5
4FA
100
AcDbEntity
  8
0
  6
CONTINUOUS
 62
               7
100
AcDbLine
 10
-301.98000000000002
 20
-158.0
 30
0.0
 11
-276.98000000000002
 21
-158.0
 31
0.0
  0
LINE
  5
4FB
100
AcDbEntity
  8
0
  6
CONTINUOUS
 62
               7
100
AcDbLine
 10
-208.47999999999999
 20
-42.0
 30
0.0
 11
-208.47999999999999
 21
-69.0
 31
0.0
  0
LINE
  5
4FC
100
AcDbEntity
  8
0
  6
CONTINUOUS
 62
               7
100
AcDbLine
 10
-190.47999999999999
 20
-42.0
 30
0.0
 11
-190.47999999999999
 21
-69.0
 31
0.0
  0
LINE
  5
4FD
100
AcDbEntity
  8
0
  6
CONTINUOUS
 62
               7
100
AcDbLine
 10
-190.47999999999999
 20
-69.0
 30
0.0
 11
-192.47999999999999
 21
-69.0
 31
0.0
  0
LINE
  5
4FE
100
AcDbEntity
  8
0
  6
CONTINUOUS
 62
               7
100
AcDbLine
 10
-206.47999999999999
 20
-69.0
 30
0.0
 11
-208.47999999999999
 21
-69.0
 31
0.0
  0
LINE
  5
4FF
100
AcDbEntity
  8
0
  6
CONTINUOUS
 62
               7
100
AcDbLine
 10
-190.47999999999999
 20
-69.0
 30
0.0
 11
-191.97999999999999
 21
-67.5
 31
0.0
  0
LINE
  5
500
100
AcDbEntity
  8
0
  6
CONTINUOUS
 62
               7
100
AcDbLine
 10
-208.47999999999999
 20
-68.989999999999995
 30
0.0
 11
-206.97999999999999
 21
-67.5
 31
0.0
  0
LINE
  5
501
100
AcDbEntity
  8
0
  6
CONTINUOUS
 62
               7
100
AcDbLine
 10
-208.47999999999999
 20
-42.0
 30
0.0
 11
-206.97999999999999
 21
-43.5
 31
0.0
  0
LINE
  5
502
100
AcDbEntity
  8
0
  6
CONTINUOUS
 62
               7
100
AcDbLine
 10
-190.47999999999999
 20
-42.0
 30
0.0
 11
-191.97999999999999
 21
-43.5
 31
0.0
  0
LINE
  5
503
100
AcDbEntity
  8
0
  6
CONTINUOUS
 62
               7
100
AcDbLine
 10
-190.47999999999999
 20
-42.0
 30
0.0
 11
-208.47999999999999
 21
-42.0
 31
0.0
  0
LINE
  5
504
100
AcDbEntity
  8
0
  6
CONTINUOUS
 62
               7
100
AcDbLine
 10
-190.47999999999999
 20
-248.0
 30
0.0
 11
-190.47999999999999
 21
-221.0
 31
0.0
  0
LINE
  5
505
100
AcDbEntity
  8
0
  6
CONTINUOUS
 62
               7
100
AcDbLine
 10
-208.47999999999999
 20
-248.0
 30
0.0
 11
-208.47999999999999
 21
-221.0
 31
0.0
  0
LINE
  5
506
100
AcDbEntity
  8
0
  6
CONTINUOUS
 62
               7
100
AcDbLine
 10
-208.47999999999999
 20
-221.0
 30
0.0
 11
-190.47999999999999
 21
-221.0
 31
0.0
  0
LINE
  5
507
100
AcDbEntity
  8
0
  6
CONTINUOUS
 62
               7
100
AcDbLine
 10
-208.47999999999999
 20
-248.0
 30
0.0
 11
-190.47999999999999
 21
-248.0
 31
0.0
  0
LINE
  5
508
100
AcDbEntity
  8
0
  6
CONTINUOUS
 62
               7
100
AcDbLine
 10
-206.40000000000001
 20
-224.91999999999999
 30
0.0
 11
-204.56
 21
-223.08000000000001
 31
0.0
  0
LINE
  5
509
100
AcDbEntity
  8
0
  6
CONTINUOUS
 62
               7
100
AcDbLine
 10
-206.40000000000001
 20
-223.08000000000001
 30
0.0
 11
-204.56
 21
-224.91999999999999
 31
0.0
  0
LINE
  5
50A
100
AcDbEntity
  8
0
  6
CONTINUOUS
 62
               7
100
AcDbLine
 10
-194.40000000000001
 20
-244.08000000000001
 30
0.0
 11
-192.56
 21
-245.91999999999999
 31
0.0
  0
LINE
  5
50B
100
AcDbEntity
  8
0
  6
CONTINUOUS
 62
               7
100
AcDbLine
 10
-194.40000000000001
 20
-245.91999999999999
 30
0.0
 11
-192.56
 21
-244.08000000000001
 31
0.0
  0
LINE
  5
50C
100
AcDbEntity
  8
0
  6
CONTINUOUS
 62
               7
100
AcDbLine
 10
162.03
 20
-158.0
 30
0.0
 11
178.03
 21
-158.0
 31
0.0
  0
LINE
  5
50D
100
AcDbEntity
  8
0
  6
CONTINUOUS
 62
               7
100
AcDbLine
 10
272.52999999999997
 20
-158.0
 30
0.0
 11
247.53
 21
-158.0
 31
0.0
  0
LINE
  5
50E
100
AcDbEntity
  8
0
  6
CONTINUOUS
 62
               7
100
AcDbLine
 10
67.530000000000001
 20
-158.0
 30
0.0
 11
92.530000000000001
 21
-158.0
 31
0.0
  0
LINE
  5
50F
100
AcDbEntity
  8
0
  6
CONTINUOUS
 62
               7
100
AcDbLine
 10
161.03
 20
-42.0
 30
0.0
 11
161.03
 21
-69.0
 31
0.0
  0
LINE
  5
510
100
AcDbEntity
  8
0
  6
CONTINUOUS
 62
               7
100
AcDbLine
 10
179.03
 20
-42.0
 30
0.0
 11
179.03
 21
-69.0
 31
0.0
  0
LINE
  5
511
100
AcDbEntity
  8
0
  6
CONTINUOUS
 62
               7
100
AcDbLine
 10
179.03
 20
-69.0
 30
0.0
 11
177.53
 21
-69.0
 31
0.0
  0
LINE
  5
512
100
AcDbEntity
  8
0
  6
CONTINUOUS
 62
               7
100
AcDbLine
 10
162.53
 20
-69.0
 30
0.0
 11
161.03
 21
-69.0
 31
0.0
  0
LINE
  5
513
100
AcDbEntity
  8
0
  6
CONTINUOUS
 62
               7
100
AcDbLine
 10
179.03
 20
-69.0
 30
0.0
 11
177.53
 21
-67.5
 31
0.0
  0
LINE
  5
514
100
AcDbEntity
  8
0
  6
CONTINUOUS
 62
               7
100
AcDbLine
 10
161.03
 20
-68.989999999999995
 30
0.0
 11
162.53
 21
-67.489999999999995
 31
0.0
  0
LINE
  5
515
100
AcDbEntity
  8
0
  6
CONTINUOUS
 62
               7
100
AcDbLine
 10
161.03
 20
-42.0
 30
0.0
 11
162.53
 21
-43.5
 31
0.0
  0
LINE
  5
516
100
AcDbEntity
  8
0
  6
CONTINUOUS
 62
               7
100
AcDbLine
 10
179.03
 20
-42.0
 30
0.0
 11
177.53
 21
-43.5
 31
0.0
  0
LINE
  5
517
100
AcDbEntity
  8
0
  6
CONTINUOUS
 62
               7
100
AcDbLine
 10
179.03
 20
-42.0
 30
0.0
 11
161.03
 21
-42.0
 31
0.0
  0
LINE
  5
518
100
AcDbEntity
  8
0
  6
CONTINUOUS
 62
               7
100
AcDbLine
 10
179.03
 20
-248.0
 30
0.0
 11
179.03
 21
-221.0
 31
0.0
  0
LINE
  5
519
100
AcDbEntity
  8
0
  6
CONTINUOUS
 62
               7
100
AcDbLine
 10
161.03
 20
-248.0
 30
0.0
 11
161.03
 21
-221.0
 31
0.0
  0
LINE
  5
51A
100
AcDbEntity
  8
0
  6
CONTINUOUS
 62
               7
100
AcDbLine
 10
161.03
 20
-221.0
 30
0.0
 11
179.03
 21
-221.0
 31
0.0
  0
LINE
  5
51B
100
AcDbEntity
  8
0
  6
CONTINUOUS
 62
               7
100
AcDbLine
 10
161.03
 20
-248.0
 30
0.0
 11
179.03
 21
-248.0
 31
0.0
  0
LINE
  5
51C
100
AcDbEntity
  8
0
  6
CONTINUOUS
 62
               7
100
AcDbLine
 10
163.11000000000001
 20
-224.91999999999999
 30
0.0
 11
164.94999999999999
 21
-223.08000000000001
 31
0.0
  0
LINE
  5
51D
100
AcDbEntity
  8
0
  6
CONTINUOUS
 62
               7
100
AcDbLine
 10
163.11000000000001
 20
-223.08000000000001
 30
0.0
 11
164.94999999999999
 21
-224.91999999999999
 31
0.0
  0
LINE
  5
51E
100
AcDbEntity
  8
0
  6
CONTINUOUS
 62
               7
100
AcDbLine
 10
175.11000000000001
 20
-244.08000000000001
 30
0.0
 11
176.94999999999999
 21
-245.91999999999999
 31
0.0
  0
LINE
  5
51F
100
AcDbEntity
  8
0
  6
CONTINUOUS
 62
               7
100
AcDbLine
 10
175.11000000000001
 20
-245.91999999999999
 30
0.0
 11
176.94999999999999
 21
-244.08000000000001
 31
0.0
  0
CIRCLE
  5
520
100
AcDbEntity
  8
0
  6
CONTINUOUS
 62
               7
100
AcDbCircle
 10
-272.074951171875
 20
42.5
 30
0.0
 40
2.2499990463256836
  0
CIRCLE
  5
521
100
AcDbEntity
  8
0
  6
CONTINUOUS
 62
               7
100
AcDbCircle
 10
-260.074951171875
 20
21.500030517578125
 30
0.0
 40
2.2499990463256836
  0
CIRCLE
  5
522
100
AcDbEntity
  8
0
  6
CONTINUOUS
 62
               7
100
AcDbCircle
 10
-260.074951171875
 20
21.500030517578125
 30
0.0
 40
2.4999990463256836
  0
CIRCLE
  5
523
100
AcDbEntity
  8
0
  6
CONTINUOUS
 62
               7
100
AcDbCircle
 10
-272.074951171875
 20
42.5
 30
0.0
 40
2.4999990463256836
  0
CIRCLE
  5
524
100
AcDbEntity
  8
0
  6
CONTINUOUS
 62
               7
100
AcDbCircle
 10
-8.4749908447265625
 20
42.5
 30
0.0
 40
2.2499990463256836
  0
CIRCLE
  5
525
100
AcDbEntity
  8
0
  6
CONTINUOUS
 62
               7
100
AcDbCircle
 10
3.52496337890625
 20
21.500030517578125
 30
0.0
 40
2.2499990463256836
  0
CIRCLE
  5
526
100
AcDbEntity
  8
0
  6
CONTINUOUS
 62
               7
100
AcDbCircle
 10
3.52496337890625
 20
21.500030517578125
 30
0.0
 40
2.4999990463256836
  0
CIRCLE
  5
527
100
AcDbEntity
  8
0
  6
CONTINUOUS
 62
               7
100
AcDbCircle
 10
-8.4749908447265625
 20
42.5
 30
0.0
 40
2.4999990463256836
  0
CIRCLE
  5
528
100
AcDbEntity
  8
0
  6
CONTINUOUS
 62
               7
100
AcDbCircle
 10
260.375
 20
42.5
 30
0.0
 40
2.2499990463256836
  0
CIRCLE
  5
529
100
AcDbEntity
  8
0
  6
CONTINUOUS
 62
               7
100
AcDbCircle
 10
272.374755859375
 20
21.500030517578125
 30
0.0
 40
2.2499990463256836
  0
CIRCLE
  5
52A
100
AcDbEntity
  8
0
  6
CONTINUOUS
 62
               7
100
AcDbCircle
 10
272.374755859375
 20
21.500030517578125
 30
0.0
 40
2.4999990463256836
  0
CIRCLE
  5
52B
100
AcDbEntity
  8
0
  6
CONTINUOUS
 62
               7
100
AcDbCircle
 10
260.375
 20
42.5
 30
0.0
 40
2.4999990463256836
  0
CIRCLE
  5
52C
100
AcDbEntity
  8
0
  6
CONTINUOUS
 62
               7
100
AcDbCircle
 10
-205.48750305175781
 20
-224.0
 30
0.0
 40
2.2499990463256836
  0
CIRCLE
  5
52D
100
AcDbEntity
  8
0
  6
CONTINUOUS
 62
               7
100
AcDbCircle
 10
-193.487548828125
 20
-244.99996948242187
 30
0.0
 40
2.2499990463256836
  0
CIRCLE
  5
52E
100
AcDbEntity
  8
0
  6
CONTINUOUS
 62
               7
100
AcDbCircle
 10
-193.487548828125
 20
-244.99996948242187
 30
0.0
 40
2.4999990463256836
  0
CIRCLE
  5
52F
100
AcDbEntity
  8
0
  6
CONTINUOUS
 62
               7
100
AcDbCircle
 10
-205.48750305175781
 20
-224.0
 30
0.0
 40
2.4999990463256836
  0
CIRCLE
  5
530
100
AcDbEntity
  8
0
  6
CONTINUOUS
 62
               7
100
AcDbCircle
 10
164.03749084472656
 20
-224.0
 30
0.0
 40
2.2499990463256836
  0
CIRCLE
  5
531
100
AcDbEntity
  8
0
  6
CONTINUOUS
 62
               7
100
AcDbCircle
 10
176.03744506835937
 20
-244.99996948242187
 30
0.0
 40
2.2499990463256836
  0
CIRCLE
  5
532
100
AcDbEntity
  8
0
  6
CONTINUOUS
 62
               7
100
AcDbCircle
 10
176.03744506835937
 20
-244.99996948242187
 30
0.0
 40
2.4999990463256836
  0
CIRCLE
  5
533
100
AcDbEntity
  8
0
  6
CONTINUOUS
 62
               7
100
AcDbCircle
 10
164.03749084472656
 20
-224.0
 30
0.0
 40
2.4999990463256836
  0
MTEXT
  5
534
100
AcDbEntity
  8
0
  6
CONTINUOUS
 62
               7
100
AcDbMText
 10
-353.68478991043366
 20
258.75
 30
0.0
 40
9.0
 41
0.0
 71
               4
 72
               1
  1
\W1.043;\A1;SOLENOID
  7
MX_NOTE_STANDARD
  0
MTEXT
  5
535
100
AcDbEntity
  8
0
  6
CONTINUOUS
 62
               7
100
AcDbMText
 10
245.88456275493564
 20
-264.25
 30
0.0
 40
12.5
 41
0.0
 71
               4
 72
               1
  1
\W1.121;\A1;KOGANEI CORP.
  7
MX_NOTE_STANDARD
  0
MTEXT
  5
536
100
AcDbEntity
  8
0
  6
CONTINUOUS
 62
               7
100
AcDbMText
 10
285.76701057054424
 20
263.75
 30
0.0
 40
9.0
 41
0.0
 71
               4
 72
               1
  1
\W1.311;\A1;Ver. 1.0
  7
MX_NOTE_STANDARD
  0
MTEXT
  5
537
100
AcDbEntity
  8
0
  6
CONTINUOUS
 62
               7
100
AcDbMText
 10
-383.11599996701955
 20
236.25
 30
0.0
 40
6.3000001907348633
 41
0.0
 71
               4
 72
               1
  1
\W1.080;\A1;MODEL:PSL
  7
MX_NOTE_STANDARD
  0
MTEXT
  5
538
100
AcDbEntity
  8
0
  6
CONTINUOUS
 62
               7
100
AcDbMText
 10
-121.76599386350394
 20
261.25
 30
0.0
 40
6.3000001907348633
 41
0.0
 71
               4
 72
               1
  1
\W1.080;\A1;MODEL:PLL
  7
MX_NOTE_STANDARD
  0
MTEXT
  5
539
100
AcDbEntity
  8
0
  6
CONTINUOUS
 62
               7
100
AcDbMText
 10
147.09546678561318
 20
261.25
 30
0.0
 40
6.3000001907348633
 41
0.0
 71
               4
 72
               1
  1
\W1.091;\A1;MODEL:39
  7
MX_NOTE_STANDARD
  0
MTEXT
  5
53A
100
AcDbEntity
  8
0
  6
CONTINUOUS
 62
               7
100
AcDbMText
 10
-383.08947365089551
 20
-15.25
 30
0.0
 40
6.3000001907348633
 41
0.0
 71
               4
 72
               1
  1
\W1.105;\A1;MODEL:L
  7
MX_NOTE_STANDARD
  0
MTEXT
  5
53B
100
AcDbEntity
  8
0
  6
CONTINUOUS
 62
               7
100
AcDbMText
 10
16.420448475066294
 20
-15.25
 30
0.0
 40
6.3000001907348633
 41
0.0
 71
               4
 72
               1
  1
\W1.091;\A1;MODEL:FA
  7
MX_NOTE_STANDARD
  0
MTEXT
  5
53C
100
AcDbEntity
  8
0
  6
CONTINUOUS
 62
               7
100
AcDbMText
 10
-376.11593383644868
 20
268.75
 30
0.0
 40
9.0
 41
0.0
 71
               4
 72
               1
  1
\W1.089;\A1;CS-030 SERIES
  7
MX_NOTE_STANDARD
  0
ENDSEC
  0
SECTION
  2
OBJECTS
  0
DICTIONARY
  5
19
100
AcDbDictionary
  3
ACAD_GROUP
350
1A
  3
ACAD_MLINESTYLE
350
1B
  0
DICTIONARY
  5
1A
102
{ACAD_REACTORS
330
19
102
}
100
AcDbDictionary
  0
DICTIONARY
  5
1B
102
{ACAD_REACTORS
330
19
102
}
100
AcDbDictionary
  3
STANDARD
350
1C
  0
MLINESTYLE
  5
1C
102
{ACAD_REACTORS
330
1B
102
}
100
AcDbMlineStyle
  2
Standard
 70
               0
  3

 62
               0
 51
90.0
 52
90.0
 71
               2
 49
0.5
 62
             256
  6
ByLayer
 49
-0.5
 62
             256
  6
ByLayer
  0
ENDSEC
  0
EOF
