  0
SECTION
  2
HEADER
  9
$ACADVER
  1
AC1012
  9
$DWGCODEPAGE
  3
dos932
  9
$INSBASE
 10
0.0
 20
0.0
 30
0.0
  9
$EXTMIN
 10
-194.25
 20
-133.5
 30
0.0
  9
$EXTMAX
 10
196.25000429153442
 20
132.59999999999999
 30
0.0
  9
$LIMMIN
 10
-194.25
 20
-133.5
  9
$LIMMAX
 10
196.25000429153442
 20
132.59999999999999
  9
$ORTHOMODE
 70
               0
  9
$REGENMODE
 70
               1
  9
$FILLMODE
 70
               1
  9
$QTEXTMODE
 70
               0
  9
$MIRRTEXT
 70
               1
  9
$DRAGMODE
 70
               2
  9
$LTSCALE
 40
1.0
  9
$OSMODE
 70
               0
  9
$ATTMODE
 70
               1
  9
$TEXTSIZE
 40
3.2000000476837158
  9
$TRACEWID
 40
0.05
  9
$TEXTSTYLE
  7
MX_NOTE_STANDARD
  9
$CLAYER
  8
0
  9
$CELTYPE
  6
CONTINUOUS
  9
$CECOLOR
 62
             256
  9
$CELTSCALE
 40
1.0
  9
$DELOBJ
 70
               1
  9
$DISPSILH
 70
               0
  9
$DIMSCALE
 40
1.0
  9
$DIMASZ
 40
2.5
  9
$DIMEXO
 40
1.5
  9
$DIMDLI
 40
3.75
  9
$DIMRND
 40
0.0
  9
$DIMDLE
 40
0.0
  9
$DIMEXE
 40
1.5
  9
$DIMTP
 40
0.0
  9
$DIMTM
 40
0.0
  9
$DIMTXT
 40
3.2000000476837158
  9
$DIMCEN
 40
2.5
  9
$DIMTSZ
 40
0.0
  9
$DIMTOL
 70
               0
  9
$DIMLIM
 70
               0
  9
$DIMTIH
 70
               0
  9
$DIMTOH
 70
               0
  9
$DIMSE1
 70
               0
  9
$DIMSE2
 70
               0
  9
$DIMTAD
 70
               1
  9
$DIMZIN
 70
               8
  9
$DIMBLK
  1

  9
$DIMASO
 70
               1
  9
$DIMSHO
 70
               1
  9
$DIMPOST
  1

  9
$DIMAPOST
  1

  9
$DIMALT
 70
               0
  9
$DIMALTD
 70
               4
  9
$DIMALTF
 40
0.0394
  9
$DIMLFAC
 40
1.0
  9
$DIMTOFL
 70
               1
  9
$DIMTVP
 40
0.0
  9
$DIMTIX
 70
               0
  9
$DIMSOXD
 70
               0
  9
$DIMSAH
 70
               0
  9
$DIMBLK1
  1

  9
$DIMBLK2
  1

  9
$DIMSTYLE
  2
MXDIMSTYLE
  9
$DIMCLRD
 70
               0
  9
$DIMCLRE
 70
               0
  9
$DIMCLRT
 70
               0
  9
$DIMTFAC
 40
1.0
  9
$DIMGAP
 40
1.0
  9
$DIMJUST
 70
               0
  9
$DIMSD1
 70
               0
  9
$DIMSD2
 70
               0
  9
$DIMTOLJ
 70
               1
  9
$DIMTZIN
 70
               0
  9
$DIMALTZ
 70
               0
  9
$DIMALTTZ
 70
               0
  9
$DIMFIT
 70
               3
  9
$DIMUPT
 70
               1
  9
$DIMUNIT
 70
               2
  9
$DIMDEC
 70
               4
  9
$DIMTDEC
 70
               4
  9
$DIMALTU
 70
               8
  9
$DIMALTTD
 70
               4
  9
$DIMTXSTY
  7
MX_NOTE_STANDARD
  9
$DIMAUNIT
 70
               0
  9
$LUNITS
 70
               2
  9
$LUPREC
 70
               4
  9
$SKETCHINC
 40
0.1
  9
$FILLETRAD
 40
0.0
  9
$AUNITS
 70
               0
  9
$AUPREC
 70
               0
  9
$MENU
  1
acad
  9
$ELEVATION
 40
0.0
  9
$PELEVATION
 40
0.0
  9
$THICKNESS
 40
0.0
  9
$LIMCHECK
 70
               0
  9
$BLIPMODE
 70
               1
  9
$CHAMFERA
 40
0.0
  9
$CHAMFERB
 40
0.0
  9
$CHAMFERC
 40
0.0
  9
$CHAMFERD
 40
0.0
  9
$SKPOLY
 70
               0
  9
$TDCREATE
 40
2452220.696770833
  9
$TDUPDATE
 40
2452220.696770833
  9
$TDINDWG
 40
0.0000000000
  9
$TDUSRTIMER
 40
0.0000000000
  9
$USRTIMER
 70
               1
  9
$ANGBASE
 50
0.0
  9
$ANGDIR
 70
               0
  9
$PDMODE
 70
               0
  9
$PDSIZE
 40
0.0
  9
$PLINEWID
 40
0.0
  9
$COORDS
 70
               1
  9
$SPLFRAME
 70
               0
  9
$SPLINETYPE
 70
               6
  9
$SPLINESEGS
 70
               8
  9
$ATTDIA
 70
               0
  9
$ATTREQ
 70
               1
  9
$HANDLING
 70
               1
  9
$HANDSEED
  5
3F6
  9
$SURFTAB1
 70
               6
  9
$SURFTAB2
 70
               6
  9
$SURFTYPE
 70
               6
  9
$SURFU
 70
               6
  9
$SURFV
 70
               6
  9
$UCSNAME
  2

  9
$UCSORG
 10
0.0
 20
0.0
 30
0.0
  9
$UCSXDIR
 10
1.0
 20
0.0
 30
0.0
  9
$UCSYDIR
 10
0.0
 20
1.0
 30
0.0
  9
$PUCSNAME
  2

  9
$PUCSORG
 10
0.0
 20
0.0
 30
0.0
  9
$PUCSXDIR
 10
1.0
 20
0.0
 30
0.0
  9
$PUCSYDIR
 10
0.0
 20
1.0
 30
0.0
  9
$USERI1
 70
               0
  9
$USERI2
 70
               0
  9
$USERI3
 70
               0
  9
$USERI4
 70
               0
  9
$USERI5
 70
               0
  9
$USERR1
 40
0.0
  9
$USERR2
 40
0.0
  9
$USERR3
 40
0.0
  9
$USERR4
 40
0.0
  9
$USERR5
 40
0.0
  9
$WORLDVIEW
 70
               1
  9
$SHADEDGE
 70
               3
  9
$SHADEDIF
 70
              70
  9
$TILEMODE
 70
               1
  9
$MAXACTVP
 70
              16
  9
$PINSBASE
 10
0.0
 20
0.0
 30
0.0
  9
$PLIMCHECK
 70
               0
  9
$PEXTMIN
 10
1.0000000000000000E+20
 20
1.0000000000000000E+20
 30
1.0000000000000000E+20
  9
$PEXTMAX
 10
-1.0000000000000000E+20
 20
-1.0000000000000000E+20
 30
-1.0000000000000000E+20
  9
$PLIMMIN
 10
0.0
 20
0.0
  9
$PLIMMAX
 10
12.0
 20
9.0
  9
$UNITMODE
 70
               0
  9
$VISRETAIN
 70
               0
  9
$PLINEGEN
 70
               1
  9
$PSLTSCALE
 70
               0
  9
$TREEDEPTH
 70
            3020
  9
$PICKSTYLE
 70
               1
  9
$CMLSTYLE
  2
Standard
  9
$CMLJUST
 70
               0
  9
$CMLSCALE
 40
1.0
  9
$SAVEIMAGES
 70
               0
  0
ENDSEC
  0
SECTION
  2
CLASSES
  0
CLASS
  1
LWPOLYLINE
  2
AcDbPolyline
  3
"AutoCAD"
 90
        0
280
               0
281
               1
  0
CLASS
  1
IMAGE
  2
AcDbRasterImage
  3
ISM
 90
      127
280
               0
281
               1
  0
CLASS
  1
OLE2FRAME
  2
AcDbOle2Frame
  3
""
 90
        0
280
               0
281
               1
  0
CLASS
  1
HATCH
  2
AcDbHatch
  3
"ACAD_SEDONA"
 90
        0
280
               0
281
               1
  0
CLASS
  1
DICTIONARYVAR
  2
AcDbDictionaryVar
  3
"AutoCAD"
 90
        0
280
               0
281
               0
  0
CLASS
  1
RASTERVARIABLES
  2
AcDbRasterVariables
  3
ISM
 90
        0
280
               0
281
               0
  0
CLASS
  1
IMAGEDEF
  2
AcDbRasterImageDef
  3
ISM
 90
        0
280
               0
281
               0
  0
CLASS
  1
IMAGEDEF_REACTOR
  2
AcDbRasterImageDefReactor
  3
ISM
 90
        1
280
               0
281
               0
  0
CLASS
  1
IDBUFFER
  2
AcDbIdBuffer
  3
"Acad"
 90
        0
280
               0
281
               0
  0
CLASS
  1
SPATIAL_FILTER
  2
AcDbSpatialFilter
  3
"Acad"
 90
        0
280
               0
281
               0
  0
CLASS
  1
XRECORD
  2
AcDbXrecord
  3
"<Built In>"
 90
        0
280
               0
281
               0
  0
CLASS
  1
SORTENTSTABLE
  2
AcDbSortentsTable
  3
"AutoCAD"
 90
        0
280
               0
281
               0
  0
CLASS
  1
LAYER_INDEX
  2
AcDbLayerIndex
  3
"Acad"
 90
        0
280
               0
281
               0
  0
CLASS
  1
SPATIAL_INDEX
  2
AcDbSpatialIndex
  3
"Acad"
 90
        0
280
               0
281
               0
  0
CLASS
  1
OBJECT_PTR
  2
CAseDLPNTableRecord
  3
"ASE-LPNTableRecord"
 90
        1
280
               0
281
               0
  0
CLASS
  1
LAYOUT
  2
AcDbLayout
  3
"AutoCAD 2000"
 90
        1
280
               0
281
               0
  0
CLASS
  1
PLOTSETTINGS
  2
AcDbPlotSettings
  3
"AutoCAD 2000"
 90
        1
280
               0
281
               0
  0
CLASS
  1
ACDBDICTIONARYWDFLT
  2
AcDbDictionaryWithDefault
  3
"AutoCAD 2000"
 90
        1
280
               0
281
               0
  0
CLASS
  1
ACDBPLACEHOLDER
  2
AcDbPlaceHolder
  3
"AutoCAD 2000"
 90
        1
280
               0
281
               0
  0
CLASS
  1
VBA_PROJECT
  2
AcDbVbaProject
  3
"acadvba"
 90
        1
280
               0
281
               0
  0
CLASS
  1
WIPEOUT
  2
AcDbWipeout
  3
WipeOut|AutoCAD Express Tool|expresstools@autodesk.com
 90
      127
280
               0
281
               1
  0
CLASS
  1
WIPEOUTVARIABLES
  2
AcDbWipeoutVariables
  3
WipeOut|AutoCAD Express Tool|expresstools@autodesk.com
 90
        0
280
               0
281
               0
  0
CLASS
  1
RTEXT
  2
RText
  3
RText|AutoCAD Express Tool|expresstools@autodesk.com
 90
        0
280
               0
281
               1
  0
CLASS
  1
ARCALIGNEDTEXT
  2
AcDbArcAlignedText
  3
ATEXT|AutoCAD Express Tool|expresstools@autodesk.com
 90
        0
280
               0
281
               1
  0
ENDSEC
  0
SECTION
  2
TABLES
  0
TABLE
  2
VPORT
  5
7
100
AcDbSymbolTable
 70
               1
  0
VPORT
  5
15
100
AcDbSymbolTableRecord
100
AcDbViewportTableRecord
  2
*ACTIVE
 70
               0
 10
0.0
 20
0.0
 11
1.0
 21
1.0
 12
1.0000021457672119
 22
-0.4499999999999886
 13
0.0
 23
0.0
 14
1.0
 24
1.0
 15
0.0
 25
0.0
 16
0.0
 26
0.0
 36
1.0
 17
0.0
 27
0.0
 37
0.0
 40
268.76100000000002
 41
1.7320508075688772
 42
50.0
 43
0.0
 44
0.0
 50
0.0
 51
0.0
 71
               0
 72
             100
 73
               1
 74
               1
 75
               0
 76
               0
 77
               0
 78
               0
  0
ENDTAB
  0
TABLE
  2
LTYPE
  5
4
100
AcDbSymbolTable
 70
               5
  0
LTYPE
  5
11
100
AcDbSymbolTableRecord
100
AcDbLinetypeTableRecord
  2
BYBLOCK
 70
              64
  3

 72
              65
 73
               0
 40
0.0
  0
LTYPE
  5
12
100
AcDbSymbolTableRecord
100
AcDbLinetypeTableRecord
  2
BYLAYER
 70
              64
  3

 72
              65
 73
               0
 40
0.0
  0
LTYPE
  5
13
100
AcDbSymbolTableRecord
100
AcDbLinetypeTableRecord
  2
CONTINUOUS
 70
              64
  3
Solid line
 72
              65
 73
               0
 40
0.0
  0
LTYPE
  5
30
100
AcDbSymbolTableRecord
100
AcDbLinetypeTableRecord
  2
CENTER
 70
              64
  3
Center ____ _ ____ _ ____ _ ____ _ ____ _ ____
 72
              65
 73
               4
 40
50.800000000000004
 49
31.75
 74
               0
 49
-6.3499999999999996
 74
               0
 49
6.3499999999999996
 74
               0
 49
-6.3499999999999996
 74
               0
  0
LTYPE
  5
BF
100
AcDbSymbolTableRecord
100
AcDbLinetypeTableRecord
  2
PHANTOM
 70
              64
  3
Phantom ______  __  __  ______  __  __  ______
 72
              65
 73
               6
 40
63.500000000000007
 49
31.75
 74
               0
 49
-6.3499999999999996
 74
               0
 49
6.3499999999999996
 74
               0
 49
-6.3499999999999996
 74
               0
 49
6.3499999999999996
 74
               0
 49
-6.3499999999999996
 74
               0
  0
ENDTAB
  0
TABLE
  2
LAYER
  5
2
100
AcDbSymbolTable
 70
               2
  0
LAYER
  5
14
100
AcDbSymbolTableRecord
100
AcDbLayerTableRecord
  2
0
 70
               0
 62
               7
  6
CONTINUOUS
  0
LAYER
  5
1D
100
AcDbSymbolTableRecord
100
AcDbLayerTableRecord
  2
DEFPOINTS
 70
               0
 62
               7
  6
CONTINUOUS
  0
ENDTAB
  0
TABLE
  2
STYLE
  5
3
100
AcDbSymbolTable
 70
               1
  0
STYLE
  5
17
100
AcDbSymbolTableRecord
100
AcDbTextStyleTableRecord
  2
MX_NOTE_STANDARD
 70
               0
 40
3.2000000476837158
 41
1.0
 50
0.0
 71
               0
 42
3.2000000476837158
  3
txt.shx
  4
extfont.shx
  0
ENDTAB
  0
TABLE
  2
VIEW
  5
5
100
AcDbSymbolTable
 70
               0
  0
ENDTAB
  0
TABLE
  2
UCS
  5
6
100
AcDbSymbolTable
 70
               0
  0
ENDTAB
  0
TABLE
  2
APPID
  5
8
100
AcDbSymbolTable
 70
               1
  0
APPID
  5
16
100
AcDbSymbolTableRecord
100
AcDbRegAppTableRecord
  2
ACAD
 70
               0
  0
ENDTAB
  0
TABLE
  2
DIMSTYLE
  5
9
100
AcDbSymbolTable
 70
               1
  0
DIMSTYLE
105
18
100
AcDbSymbolTableRecord
100
AcDbDimStyleTableRecord
  2
MXDIMSTYLE
 70
               0
  3

  4

  5

  6

  7

 40
1.0
 41
2.5
 42
1.5
 43
3.75
 44
1.5
 45
0.0
 46
0.0
 47
0.0
 48
0.0
 71
               0
 72
               0
 73
               0
 74
               0
 75
               0
 76
               0
 77
               1
 78
               8
140
3.2000000476837158
141
2.5
142
0.0
143
0.0394
144
1.0
145
0.0
146
1.0
147
1.0
170
               0
171
               4
172
               1
173
               0
174
               0
175
               0
176
               0
177
               0
178
               0
270
               2
271
               4
272
               4
273
               8
274
               4
275
               0
280
               0
281
               0
282
               0
283
               1
284
               0
285
               0
286
               0
287
               3
288
               1
340
17
  0
ENDTAB
  0
TABLE
  2
BLOCK_RECORD
  5
1
100
AcDbSymbolTable
 70
               9
  0
BLOCK_RECORD
  5
A
100
AcDbSymbolTableRecord
100
AcDbBlockTableRecord
  2
*MODEL_SPACE
  0
BLOCK_RECORD
  5
B
100
AcDbSymbolTableRecord
100
AcDbBlockTableRecord
  2
*PAPER_SPACE
  0
BLOCK_RECORD
  5
1E
100
AcDbSymbolTableRecord
100
AcDbBlockTableRecord
  2
MS_1
  0
BLOCK_RECORD
  5
1F
100
AcDbSymbolTableRecord
100
AcDbBlockTableRecord
  2
MS_2
  0
BLOCK_RECORD
  5
20
100
AcDbSymbolTableRecord
100
AcDbBlockTableRecord
  2
MS_3
  0
BLOCK_RECORD
  5
21
100
AcDbSymbolTableRecord
100
AcDbBlockTableRecord
  2
MS_4
  0
BLOCK_RECORD
  5
22
100
AcDbSymbolTableRecord
100
AcDbBlockTableRecord
  2
MS_5
  0
BLOCK_RECORD
  5
23
100
AcDbSymbolTableRecord
100
AcDbBlockTableRecord
  2
MS_6
  0
BLOCK_RECORD
  5
24
100
AcDbSymbolTableRecord
100
AcDbBlockTableRecord
  2
MS_7
  0
BLOCK_RECORD
  5
25
100
AcDbSymbolTableRecord
100
AcDbBlockTableRecord
  2
MS_8
  0
BLOCK_RECORD
  5
26
100
AcDbSymbolTableRecord
100
AcDbBlockTableRecord
  2
MS_9
  0
ENDTAB
  0
ENDSEC
  0
SECTION
  2
BLOCKS
  0
BLOCK
  5
D
100
AcDbEntity
  8
0
100
AcDbBlockBegin
  2
*MODEL_SPACE
 70
               0
 10
0.0
 20
0.0
 30
0.0
  3
*MODEL_SPACE
  1

  0
ENDBLK
  5
E
100
AcDbEntity
  8
0
100
AcDbBlockEnd
  0
BLOCK
  5
F
100
AcDbEntity
 67
               1
  8
0
100
AcDbBlockBegin
  2
*PAPER_SPACE
 70
               0
 10
0.0
 20
0.0
 30
0.0
  3
*PAPER_SPACE
  1

  0
ENDBLK
  5
10
100
AcDbEntity
 67
               1
  8
0
100
AcDbBlockEnd
  0
BLOCK
  5
27
100
AcDbEntity
  8
0
100
AcDbBlockBegin
  2
MS_1
 70
               0
 10
0.0
 20
0.0
 30
0.0
  3
MS_1
  1

  0
ARC
  5
28
100
AcDbEntity
  8
0
  6
CONTINUOUS
 62
             200
100
AcDbCircle
 10
20.8125
 20
-4.75
 30
0.0
 40
0.8125
100
AcDbArc
 50
112.61986494804019
 51
247.380135051959
  0
ARC
  5
29
100
AcDbEntity
  8
0
  6
CONTINUOUS
 62
             200
100
AcDbCircle
 10
20.1875
 20
-4.75
 30
0.0
 40
0.8125
100
AcDbArc
 50
292.61986494803978
 51
67.380135051959414
  0
ARC
  5
2A
100
AcDbEntity
  8
0
  6
CONTINUOUS
 62
             200
100
AcDbCircle
 10
20.1875
 20
-3.25
 30
0.0
 40
0.8125
100
AcDbArc
 50
292.61986494803978
 51
67.380135051959414
  0
ARC
  5
2B
100
AcDbEntity
  8
0
  6
CONTINUOUS
 62
             200
100
AcDbCircle
 10
17.187499999876007
 20
-10.75
 30
0.0
 40
0.8125000000476894
100
AcDbArc
 50
292.61986495611092
 51
67.380135043888274
  0
ARC
  5
2C
100
AcDbEntity
  8
0
  6
CONTINUOUS
 62
             200
100
AcDbCircle
 10
17.187499999876007
 20
-9.25
 30
0.0
 40
0.8125000000476894
100
AcDbArc
 50
292.61986495611092
 51
67.380135043888274
  0
ARC
  5
2D
100
AcDbEntity
  8
0
  6
CONTINUOUS
 62
             200
100
AcDbCircle
 10
17.812500000123993
 20
-9.25
 30
0.0
 40
0.8125000000476894
100
AcDbArc
 50
112.61986495611133
 51
247.38013504388789
  0
CIRCLE
  5
2E
100
AcDbEntity
  8
0
  6
CONTINUOUS
 62
               4
100
AcDbCircle
 10
-5.0
 20
-14.000022888183594
 30
0.0
 40
3.1499996185302734
  0
CIRCLE
  5
2F
100
AcDbEntity
  8
0
  6
CONTINUOUS
 62
               4
100
AcDbCircle
 10
0.0
 20
0.0
 30
0.0
 40
3.1499996185302734
  0
LINE
  5
31
100
AcDbEntity
  8
0
  6
CENTER
 62
             200
100
AcDbLine
 10
-9.0
 20
-14.0
 30
0.0
 11
-1.0
 21
-14.0
 31
0.0
  0
LINE
  5
32
100
AcDbEntity
  8
0
  6
CENTER
 62
             200
100
AcDbLine
 10
-4.0
 20
0.0
 30
0.0
 11
4.0
 21
0.0
 31
0.0
  0
LINE
  5
33
100
AcDbEntity
  8
0
  6
CENTER
 62
             200
100
AcDbLine
 10
-5.0
 20
-6.8200000000000003
 30
0.0
 11
-5.0
 21
-19.530000000000001
 31
0.0
  0
LINE
  5
34
100
AcDbEntity
  8
0
  6
CENTER
 62
             200
100
AcDbLine
 10
0.0
 20
5.3200000000000003
 30
0.0
 11
0.0
 21
-7.0999999999999996
 31
0.0
  0
LINE
  5
35
100
AcDbEntity
  8
0
  6
CONTINUOUS
 62
               4
100
AcDbLine
 10
3.75
 20
-6.0
 30
0.0
 11
11.75
 21
-6.0
 31
0.0
  0
LINE
  5
36
100
AcDbEntity
  8
0
  6
CONTINUOUS
 62
               4
100
AcDbLine
 10
1.0600000000000001
 20
-1.0600000000000001
 30
0.0
 11
-1.0600000000000001
 21
1.0600000000000001
 31
0.0
  0
LINE
  5
37
100
AcDbEntity
  8
0
  6
CONTINUOUS
 62
               4
100
AcDbLine
 10
-1.0600000000000001
 20
-1.0600000000000001
 30
0.0
 11
1.0600000000000001
 21
1.0600000000000001
 31
0.0
  0
LINE
  5
38
100
AcDbEntity
  8
0
  6
CONTINUOUS
 62
               4
100
AcDbLine
 10
-3.9300000000000002
 20
-15.06
 30
0.0
 11
-6.0599999999999996
 21
-12.93
 31
0.0
  0
LINE
  5
39
100
AcDbEntity
  8
0
  6
CONTINUOUS
 62
               4
100
AcDbLine
 10
-6.0599999999999996
 20
-15.06
 30
0.0
 11
-3.9300000000000002
 21
-12.93
 31
0.0
  0
LINE
  5
3A
100
AcDbEntity
  8
0
  6
CONTINUOUS
 62
               4
100
AcDbLine
 10
-10.25
 20
-2.0
 30
0.0
 11
-3.75
 21
-2.0
 31
0.0
  0
LINE
  5
3B
100
AcDbEntity
  8
0
  6
CONTINUOUS
 62
               4
100
AcDbLine
 10
-20.25
 20
-12.0
 30
0.0
 11
-8.75
 21
-12.0
 31
0.0
  0
LINE
  5
3C
100
AcDbEntity
  8
0
  6
CONTINUOUS
 62
               4
100
AcDbLine
 10
1.75
 20
-12.0
 30
0.0
 11
1.75
 21
-8.0
 31
0.0
  0
LINE
  5
3D
100
AcDbEntity
  8
0
  6
CONTINUOUS
 62
               4
100
AcDbLine
 10
11.75
 20
-5.5
 30
0.0
 11
20.5
 21
-5.5
 31
0.0
  0
LINE
  5
3E
100
AcDbEntity
  8
0
  6
CONTINUOUS
 62
               4
100
AcDbLine
 10
11.75
 20
-2.5
 30
0.0
 11
20.5
 21
-2.5
 31
0.0
  0
LINE
  5
3F
100
AcDbEntity
  8
0
  6
CONTINUOUS
 62
               4
100
AcDbLine
 10
-19.25
 20
-12.0
 30
0.0
 11
-19.25
 21
-8.0
 31
0.0
  0
LINE
  5
40
100
AcDbEntity
  8
0
  6
CONTINUOUS
 62
               4
100
AcDbLine
 10
-20.25
 20
-12.0
 30
0.0
 11
-20.25
 21
-8.0
 31
0.0
  0
LINE
  5
41
100
AcDbEntity
  8
0
  6
CENTER
 62
             200
100
AcDbLine
 10
-22.25
 20
-10.0
 30
0.0
 11
19.5
 21
-10.0
 31
0.0
  0
LINE
  5
42
100
AcDbEntity
  8
0
  6
CONTINUOUS
 62
               4
100
AcDbLine
 10
1.75
 20
-11.5
 30
0.0
 11
17.5
 21
-11.5
 31
0.0
  0
LINE
  5
43
100
AcDbEntity
  8
0
  6
CONTINUOUS
 62
               4
100
AcDbLine
 10
1.75
 20
-8.5
 30
0.0
 11
17.5
 21
-8.5
 31
0.0
  0
LINE
  5
44
100
AcDbEntity
  8
0
  6
CONTINUOUS
 62
               4
100
AcDbLine
 10
-1.25
 20
-8.0
 30
0.0
 11
1.75
 21
-8.0
 31
0.0
  0
LINE
  5
45
100
AcDbEntity
  8
0
  6
CONTINUOUS
 62
               4
100
AcDbLine
 10
-8.75
 20
-18.0
 30
0.0
 11
-1.25
 21
-18.0
 31
0.0
  0
LINE
  5
46
100
AcDbEntity
  8
0
  6
CONTINUOUS
 62
               4
100
AcDbLine
 10
-8.0
 20
-16.699999999999999
 30
0.0
 11
-6.6200000000000001
 21
-16.699999999999999
 31
0.0
  0
LINE
  5
47
100
AcDbEntity
  8
0
  6
CONTINUOUS
 62
               4
100
AcDbLine
 10
-8.0
 20
-16.699999999999999
 30
0.0
 11
-8.0
 21
-14.960000000000001
 31
0.0
  0
LINE
  5
48
100
AcDbEntity
  8
0
  6
CONTINUOUS
 62
               4
100
AcDbLine
 10
-2.0
 20
-16.699999999999999
 30
0.0
 11
-2.0
 21
-14.960000000000001
 31
0.0
  0
LINE
  5
49
100
AcDbEntity
  8
0
  6
CONTINUOUS
 62
               4
100
AcDbLine
 10
-3.3700000000000001
 20
-16.699999999999999
 30
0.0
 11
-2.0
 21
-16.699999999999999
 31
0.0
  0
LINE
  5
4A
100
AcDbEntity
  8
0
  6
CONTINUOUS
 62
               4
100
AcDbLine
 10
-2.0
 20
-13.039999999999999
 30
0.0
 11
-2.0
 21
-8.0
 31
0.0
  0
LINE
  5
4B
100
AcDbEntity
  8
0
  6
CONTINUOUS
 62
               4
100
AcDbLine
 10
-1.25
 20
-18.0
 30
0.0
 11
-1.25
 21
-7.2000000000000002
 31
0.0
  0
LINE
  5
4C
100
AcDbEntity
  8
0
  6
CONTINUOUS
 62
               4
100
AcDbLine
 10
-8.75
 20
-7.2000000000000002
 30
0.0
 11
-1.25
 21
-7.2000000000000002
 31
0.0
  0
LINE
  5
4D
100
AcDbEntity
  8
0
  6
CONTINUOUS
 62
               4
100
AcDbLine
 10
-8.0
 20
-8.0
 30
0.0
 11
-2.0
 21
-8.0
 31
0.0
  0
LINE
  5
4E
100
AcDbEntity
  8
0
  6
CONTINUOUS
 62
               4
100
AcDbLine
 10
-8.0
 20
-13.039999999999999
 30
0.0
 11
-8.0
 21
-8.0
 31
0.0
  0
LINE
  5
4F
100
AcDbEntity
  8
0
  6
CONTINUOUS
 62
               4
100
AcDbLine
 10
-8.75
 20
-18.0
 30
0.0
 11
-8.75
 21
-7.2000000000000002
 31
0.0
  0
LINE
  5
50
100
AcDbEntity
  8
0
  6
CONTINUOUS
 62
               4
100
AcDbLine
 10
-20.25
 20
-8.0
 30
0.0
 11
-8.75
 21
-8.0
 31
0.0
  0
LINE
  5
51
100
AcDbEntity
  8
0
  6
CONTINUOUS
 62
               4
100
AcDbLine
 10
1.6200000000000001
 20
2.7000000000000002
 30
0.0
 11
3.0
 21
2.7000000000000002
 31
0.0
  0
LINE
  5
52
100
AcDbEntity
  8
0
  6
CONTINUOUS
 62
               4
100
AcDbLine
 10
3.0
 20
-0.96
 30
0.0
 11
3.0
 21
-6.0
 31
0.0
  0
LINE
  5
53
100
AcDbEntity
  8
0
  6
CONTINUOUS
 62
               4
100
AcDbLine
 10
-3.0
 20
-0.96
 30
0.0
 11
-3.0
 21
-6.0
 31
0.0
  0
LINE
  5
54
100
AcDbEntity
  8
0
  6
CONTINUOUS
 62
               4
100
AcDbLine
 10
-3.0
 20
-6.0
 30
0.0
 11
3.0
 21
-6.0
 31
0.0
  0
LINE
  5
55
100
AcDbEntity
  8
0
  6
CONTINUOUS
 62
               4
100
AcDbLine
 10
-3.0
 20
2.7000000000000002
 30
0.0
 11
-1.6200000000000001
 21
2.7000000000000002
 31
0.0
  0
LINE
  5
56
100
AcDbEntity
  8
0
  6
CONTINUOUS
 62
               4
100
AcDbLine
 10
3.0
 20
2.7000000000000002
 30
0.0
 11
3.0
 21
0.96
 31
0.0
  0
LINE
  5
57
100
AcDbEntity
  8
0
  6
CONTINUOUS
 62
               4
100
AcDbLine
 10
-3.0
 20
2.7000000000000002
 30
0.0
 11
-3.0
 21
0.96
 31
0.0
  0
LINE
  5
58
100
AcDbEntity
  8
0
  6
CENTER
 62
             200
100
AcDbLine
 10
-12.25
 20
-4.0
 30
0.0
 11
22.5
 21
-4.0
 31
0.0
  0
LINE
  5
59
100
AcDbEntity
  8
0
  6
CONTINUOUS
 62
               4
100
AcDbLine
 10
-9.25
 20
-2.0
 30
0.0
 11
-9.25
 21
-6.0
 31
0.0
  0
LINE
  5
5A
100
AcDbEntity
  8
0
  6
CONTINUOUS
 62
               4
100
AcDbLine
 10
-10.25
 20
-2.0
 30
0.0
 11
-10.25
 21
-6.0
 31
0.0
  0
LINE
  5
5B
100
AcDbEntity
  8
0
  6
CONTINUOUS
 62
               4
100
AcDbLine
 10
11.75
 20
-2.0
 30
0.0
 11
11.75
 21
-6.0
 31
0.0
  0
LINE
  5
5C
100
AcDbEntity
  8
0
  6
CONTINUOUS
 62
               4
100
AcDbLine
 10
-10.25
 20
-6.0
 30
0.0
 11
-3.75
 21
-6.0
 31
0.0
  0
LINE
  5
5D
100
AcDbEntity
  8
0
  6
CONTINUOUS
 62
               4
100
AcDbLine
 10
3.75
 20
-2.0
 30
0.0
 11
11.75
 21
-2.0
 31
0.0
  0
LINE
  5
5E
100
AcDbEntity
  8
0
  6
CONTINUOUS
 62
               4
100
AcDbLine
 10
-3.75
 20
-6.7999999999999998
 30
0.0
 11
3.75
 21
-6.7999999999999998
 31
0.0
  0
LINE
  5
5F
100
AcDbEntity
  8
0
  6
CONTINUOUS
 62
               4
100
AcDbLine
 10
-3.75
 20
4.0
 30
0.0
 11
3.75
 21
4.0
 31
0.0
  0
LINE
  5
60
100
AcDbEntity
  8
0
  6
CONTINUOUS
 62
               4
100
AcDbLine
 10
-3.75
 20
4.0
 30
0.0
 11
-3.75
 21
-6.7999999999999998
 31
0.0
  0
LINE
  5
61
100
AcDbEntity
  8
0
  6
CONTINUOUS
 62
               4
100
AcDbLine
 10
3.75
 20
4.0
 30
0.0
 11
3.75
 21
-6.7999999999999998
 31
0.0
  0
LINE
  5
62
100
AcDbEntity
  8
0
  6
CONTINUOUS
 62
               4
100
AcDbLine
 10
-1.25
 20
-12.0
 30
0.0
 11
1.75
 21
-12.0
 31
0.0
  0
ENDBLK
  5
63
100
AcDbEntity
  8
0
100
AcDbBlockEnd
  0
BLOCK
  5
64
100
AcDbEntity
  8
0
100
AcDbBlockBegin
  2
MS_2
 70
               0
 10
0.0
 20
0.0
 30
0.0
  3
MS_2
  1

  0
ARC
  5
65
100
AcDbEntity
  8
0
  6
CONTINUOUS
 62
               4
100
AcDbCircle
 10
3.0193786621093741
 20
-14.0
 30
0.0
 40
3.4806234421748385
100
AcDbArc
 50
295.17533220632959
 51
64.824667793669619
  0
ARC
  5
66
100
AcDbEntity
  8
0
  6
CONTINUOUS
 62
               4
100
AcDbCircle
 10
3.0193786621093741
 20
0.0
 30
0.0
 40
3.480623442174839
100
AcDbArc
 50
295.17533220632959
 51
64.824667793669619
  0
LINE
  5
67
100
AcDbEntity
  8
0
  6
CONTINUOUS
 62
             200
100
AcDbLine
 10
-1.0
 20
-6.0
 30
0.0
 11
3.0
 21
-2.0
 31
0.0
  0
LINE
  5
68
100
AcDbEntity
  8
0
  6
CONTINUOUS
 62
             200
100
AcDbLine
 10
-1.0
 20
-8.0
 30
0.0
 11
3.0
 21
-12.0
 31
0.0
  0
LINE
  5
69
100
AcDbEntity
  8
0
  6
CONTINUOUS
 62
             200
100
AcDbLine
 10
3.0
 20
-8.0
 30
0.0
 11
-0.5
 21
-12.0
 31
0.0
  0
LINE
  5
6A
100
AcDbEntity
  8
0
  6
CONTINUOUS
 62
             200
100
AcDbLine
 10
-1.0
 20
-2.0
 30
0.0
 11
3.0
 21
-6.0
 31
0.0
  0
LINE
  5
6B
100
AcDbEntity
  8
0
  6
CONTINUOUS
 62
               4
100
AcDbLine
 10
-1.0
 20
-8.0
 30
0.0
 11
-1.0
 21
-12.0
 31
0.0
  0
LINE
  5
6C
100
AcDbEntity
  8
0
  6
CONTINUOUS
 62
               4
100
AcDbLine
 10
5.3099999999999996
 20
-1.1799999999999999
 30
0.0
 11
6.5
 21
0.0
 31
0.0
  0
LINE
  5
6D
100
AcDbEntity
  8
0
  6
CONTINUOUS
 62
               4
100
AcDbLine
 10
5.3099999999999996
 20
1.1799999999999999
 30
0.0
 11
6.5
 21
0.0
 31
0.0
  0
LINE
  5
6E
100
AcDbEntity
  8
0
  6
CONTINUOUS
 62
               4
100
AcDbLine
 10
5.3099999999999996
 20
-12.81
 30
0.0
 11
6.5
 21
-14.0
 31
0.0
  0
LINE
  5
6F
100
AcDbEntity
  8
0
  6
CONTINUOUS
 62
               4
100
AcDbLine
 10
5.3099999999999996
 20
-15.18
 30
0.0
 11
6.5
 21
-14.0
 31
0.0
  0
LINE
  5
70
100
AcDbEntity
  8
0
  6
CENTER
 62
             200
100
AcDbLine
 10
2.5
 20
-14.0
 30
0.0
 11
8.5
 21
-14.0
 31
0.0
  0
LINE
  5
71
100
AcDbEntity
  8
0
  6
CONTINUOUS
 62
               4
100
AcDbLine
 10
-1.0
 20
-18.0
 30
0.0
 11
-1.0
 21
-17.0
 31
0.0
  0
LINE
  5
72
100
AcDbEntity
  8
0
  6
CONTINUOUS
 62
               4
100
AcDbLine
 10
4.5
 20
-18.0
 30
0.0
 11
4.5
 21
-7.2000000000000002
 31
0.0
  0
LINE
  5
73
100
AcDbEntity
  8
0
  6
CONTINUOUS
 62
               4
100
AcDbLine
 10
3.0
 20
-12.0
 30
0.0
 11
3.0
 21
-8.0
 31
0.0
  0
LINE
  5
74
100
AcDbEntity
  8
0
  6
CONTINUOUS
 62
               4
100
AcDbLine
 10
-1.0
 20
-8.0
 30
0.0
 11
3.0
 21
-8.0
 31
0.0
  0
LINE
  5
75
100
AcDbEntity
  8
0
  6
CONTINUOUS
 62
               4
100
AcDbLine
 10
0.5
 20
-7.2000000000000002
 30
0.0
 11
4.5
 21
-7.2000000000000002
 31
0.0
  0
LINE
  5
76
100
AcDbEntity
  8
0
  6
CONTINUOUS
 62
               4
100
AcDbLine
 10
-1.0
 20
-18.0
 30
0.0
 11
4.5
 21
-18.0
 31
0.0
  0
LINE
  5
77
100
AcDbEntity
  8
0
  6
CONTINUOUS
 62
               4
100
AcDbLine
 10
0.5
 20
-8.0
 30
0.0
 11
0.5
 21
-7.2000000000000002
 31
0.0
  0
LINE
  5
78
100
AcDbEntity
  8
0
  6
CONTINUOUS
 62
               4
100
AcDbLine
 10
-1.0
 20
-12.0
 30
0.0
 11
3.0
 21
-12.0
 31
0.0
  0
LINE
  5
79
100
AcDbEntity
  8
0
  6
CONTINUOUS
 62
               4
100
AcDbLine
 10
0.5
 20
-6.0
 30
0.0
 11
0.5
 21
-6.7999999999999998
 31
0.0
  0
LINE
  5
7A
100
AcDbEntity
  8
0
  6
CENTER
 62
             200
100
AcDbLine
 10
2.5
 20
0.0
 30
0.0
 11
8.5
 21
0.0
 31
0.0
  0
LINE
  5
7B
100
AcDbEntity
  8
0
  6
CONTINUOUS
 62
               4
100
AcDbLine
 10
-1.0
 20
-2.0
 30
0.0
 11
-1.0
 21
-6.0
 31
0.0
  0
LINE
  5
7C
100
AcDbEntity
  8
0
  6
CONTINUOUS
 62
               4
100
AcDbLine
 10
-1.0
 20
4.0
 30
0.0
 11
-1.0
 21
3.0
 31
0.0
  0
LINE
  5
7D
100
AcDbEntity
  8
0
  6
CONTINUOUS
 62
               4
100
AcDbLine
 10
4.5
 20
4.0
 30
0.0
 11
4.5
 21
-6.7999999999999998
 31
0.0
  0
LINE
  5
7E
100
AcDbEntity
  8
0
  6
CONTINUOUS
 62
               4
100
AcDbLine
 10
3.0
 20
-2.0
 30
0.0
 11
3.0
 21
-6.0
 31
0.0
  0
LINE
  5
7F
100
AcDbEntity
  8
0
  6
CONTINUOUS
 62
               4
100
AcDbLine
 10
-1.0
 20
-6.0
 30
0.0
 11
3.0
 21
-6.0
 31
0.0
  0
LINE
  5
80
100
AcDbEntity
  8
0
  6
CONTINUOUS
 62
               4
100
AcDbLine
 10
0.5
 20
-6.7999999999999998
 30
0.0
 11
4.5
 21
-6.7999999999999998
 31
0.0
  0
LINE
  5
81
100
AcDbEntity
  8
0
  6
CONTINUOUS
 62
               4
100
AcDbLine
 10
-1.0
 20
4.0
 30
0.0
 11
4.5
 21
4.0
 31
0.0
  0
LINE
  5
82
100
AcDbEntity
  8
0
  6
CONTINUOUS
 62
               4
100
AcDbLine
 10
-1.0
 20
-2.0
 30
0.0
 11
3.0
 21
-2.0
 31
0.0
  0
ENDBLK
  5
83
100
AcDbEntity
  8
0
100
AcDbBlockEnd
  0
BLOCK
  5
84
100
AcDbEntity
  8
0
100
AcDbBlockBegin
  2
MS_3
 70
               0
 10
0.0
 20
0.0
 30
0.0
  3
MS_3
  1

  0
ARC
  5
85
100
AcDbEntity
  8
0
  6
CONTINUOUS
 62
               4
100
AcDbCircle
 10
0.0
 20
-3.0193710327148438
 30
0.0
 40
3.4806266876474856
100
AcDbArc
 50
205.17544586662331
 51
334.8245541333755
  0
ARC
  5
86
100
AcDbEntity
  8
0
  6
CONTINUOUS
 62
               4
100
AcDbCircle
 10
-5.0004579014281267
 20
-3.0192948330520393
 30
0.0
 40
3.4802447072157019
100
AcDbArc
 50
205.17978800157687
 51
315.92845838486187
  0
ARC
  5
87
100
AcDbEntity
  8
0
  6
CONTINUOUS
 62
             200
100
AcDbCircle
 10
20.1875
 20
-2.75
 30
0.0
 40
0.8125
100
AcDbArc
 50
292.61986494803978
 51
67.380135051959414
  0
ARC
  5
88
100
AcDbEntity
  8
0
  6
CONTINUOUS
 62
             200
100
AcDbCircle
 10
20.8125
 20
-2.75
 30
0.0
 40
0.8125
100
AcDbArc
 50
112.61986494804019
 51
247.380135051959
  0
ARC
  5
89
100
AcDbEntity
  8
0
  6
CONTINUOUS
 62
             200
100
AcDbCircle
 10
20.1875
 20
-1.25
 30
0.0
 40
0.8125
100
AcDbArc
 50
292.61986494803978
 51
67.380135051959414
  0
LINE
  5
8A
100
AcDbEntity
  8
0
  6
CONTINUOUS
 62
               4
100
AcDbLine
 10
3.75
 20
1.0
 30
0.0
 11
3.75
 21
-4.5
 31
0.0
  0
LINE
  5
8B
100
AcDbEntity
  8
0
  6
CENTER
 62
             200
100
AcDbLine
 10
0.0
 20
2.1099999999999999
 30
0.0
 11
0.0
 21
-8.0399999999999991
 31
0.0
  0
LINE
  5
8C
100
AcDbEntity
  8
0
  6
CONTINUOUS
 62
               4
100
AcDbLine
 10
-3.75
 20
-4.5
 30
0.0
 11
3.75
 21
-4.5
 31
0.0
  0
LINE
  5
8D
100
AcDbEntity
  8
0
  6
CONTINUOUS
 62
               4
100
AcDbLine
 10
0.0
 20
-6.5
 30
0.0
 11
1.21
 21
-5.2800000000000002
 31
0.0
  0
LINE
  5
8E
100
AcDbEntity
  8
0
  6
CONTINUOUS
 62
               4
100
AcDbLine
 10
-1.1399999999999999
 20
-5.3499999999999996
 30
0.0
 11
0.0
 21
-6.5
 31
0.0
  0
LINE
  5
8F
100
AcDbEntity
  8
0
  6
CONTINUOUS
 62
               4
100
AcDbLine
 10
-3.75
 20
1.0
 30
0.0
 11
-3.75
 21
-4.5
 31
0.0
  0
LINE
  5
90
100
AcDbEntity
  8
0
  6
CONTINUOUS
 62
               4
100
AcDbLine
 10
-10.25
 20
0.0
 30
0.0
 11
-3.75
 21
0.0
 31
0.0
  0
LINE
  5
91
100
AcDbEntity
  8
0
  6
CONTINUOUS
 62
               4
100
AcDbLine
 10
-10.25
 20
-4.0
 30
0.0
 11
-3.75
 21
-4.0
 31
0.0
  0
LINE
  5
92
100
AcDbEntity
  8
0
  6
CONTINUOUS
 62
               4
100
AcDbLine
 10
-9.3499999999999996
 20
0.0
 30
0.0
 11
-9.3499999999999996
 21
-4.0
 31
0.0
  0
LINE
  5
93
100
AcDbEntity
  8
0
  6
CONTINUOUS
 62
               4
100
AcDbLine
 10
-10.25
 20
0.0
 30
0.0
 11
-10.25
 21
-4.0
 31
0.0
  0
LINE
  5
94
100
AcDbEntity
  8
0
  6
CONTINUOUS
 62
               4
100
AcDbLine
 10
-15.25
 20
0.0
 30
0.0
 11
-10.25
 21
0.0
 31
0.0
  0
LINE
  5
95
100
AcDbEntity
  8
0
  6
CONTINUOUS
 62
               4
100
AcDbLine
 10
-6.1399999999999997
 20
-5.3499999999999996
 30
0.0
 11
-5.0
 21
-6.5
 31
0.0
  0
LINE
  5
96
100
AcDbEntity
  8
0
  6
CONTINUOUS
 62
               4
100
AcDbLine
 10
-5.0
 20
-6.5
 30
0.0
 11
-3.7799999999999998
 21
-5.2800000000000002
 31
0.0
  0
LINE
  5
97
100
AcDbEntity
  8
0
  6
CONTINUOUS
 62
               4
100
AcDbLine
 10
3.75
 20
0.0
 30
0.0
 11
11.75
 21
0.0
 31
0.0
  0
LINE
  5
98
100
AcDbEntity
  8
0
  6
CONTINUOUS
 62
               4
100
AcDbLine
 10
3.75
 20
-4.0
 30
0.0
 11
11.75
 21
-4.0
 31
0.0
  0
LINE
  5
99
100
AcDbEntity
  8
0
  6
CONTINUOUS
 62
               4
100
AcDbLine
 10
-8.75
 20
-4.5
 30
0.0
 11
-3.75
 21
-4.5
 31
0.0
  0
LINE
  5
9A
100
AcDbEntity
  8
0
  6
CONTINUOUS
 62
               4
100
AcDbLine
 10
-8.75
 20
-4.0
 30
0.0
 11
-8.75
 21
-4.5
 31
0.0
  0
LINE
  5
9B
100
AcDbEntity
  8
0
  6
CENTER
 62
             200
100
AcDbLine
 10
-5.0
 20
2.1099999999999999
 30
0.0
 11
-5.0
 21
-8.0399999999999991
 31
0.0
  0
LINE
  5
9C
100
AcDbEntity
  8
0
  6
CONTINUOUS
 62
               4
100
AcDbLine
 10
-15.25
 20
0.0
 30
0.0
 11
-15.25
 21
-4.0
 31
0.0
  0
LINE
  5
9D
100
AcDbEntity
  8
0
  6
CENTER
 62
             200
100
AcDbLine
 10
-19.149999999999999
 20
-2.0
 30
0.0
 11
22.5
 21
-2.0
 31
0.0
  0
LINE
  5
9E
100
AcDbEntity
  8
0
  6
CONTINUOUS
 62
               4
100
AcDbLine
 10
-15.25
 20
-4.0
 30
0.0
 11
-10.25
 21
-4.0
 31
0.0
  0
LINE
  5
9F
100
AcDbEntity
  8
0
  6
CONTINUOUS
 62
               4
100
AcDbLine
 10
-3.75
 20
1.0
 30
0.0
 11
3.75
 21
1.0
 31
0.0
  0
LINE
  5
A0
100
AcDbEntity
  8
0
  6
CONTINUOUS
 62
               4
100
AcDbLine
 10
11.75
 20
0.0
 30
0.0
 11
11.75
 21
-4.0
 31
0.0
  0
LINE
  5
A1
100
AcDbEntity
  8
0
  6
CONTINUOUS
 62
               4
100
AcDbLine
 10
-14.35
 20
0.0
 30
0.0
 11
-14.35
 21
-4.0
 31
0.0
  0
LINE
  5
A2
100
AcDbEntity
  8
0
  6
CONTINUOUS
 62
               4
100
AcDbLine
 10
11.75
 20
-3.5
 30
0.0
 11
20.5
 21
-3.5
 31
0.0
  0
LINE
  5
A3
100
AcDbEntity
  8
0
  6
CONTINUOUS
 62
               4
100
AcDbLine
 10
11.75
 20
-0.5
 30
0.0
 11
20.5
 21
-0.5
 31
0.0
  0
ENDBLK
  5
A4
100
AcDbEntity
  8
0
100
AcDbBlockEnd
  0
BLOCK
  5
A5
100
AcDbEntity
  8
0
100
AcDbBlockBegin
  2
MS_4
 70
               0
 10
0.0
 20
0.0
 30
0.0
  3
MS_4
  1

  0
ARC
  5
A6
100
AcDbEntity
  8
0
  6
CONTINUOUS
 62
             200
100
AcDbCircle
 10
14.562469482421875
 20
-10.25
 30
0.0
 40
0.8124882629582992
100
AcDbArc
 50
112.61787842550848
 51
247.38212157449072
  0
ARC
  5
A7
100
AcDbEntity
  8
0
  6
CONTINUOUS
 62
             200
100
AcDbCircle
 10
13.937469482421875
 20
-10.25
 30
0.0
 40
0.8125117380183813
100
AcDbArc
 50
292.62185141317696
 51
67.378148586822249
  0
ARC
  5
A8
100
AcDbEntity
  8
0
  6
CONTINUOUS
 62
             200
100
AcDbCircle
 10
13.937469482421875
 20
-11.75
 30
0.0
 40
0.8125117380183813
100
AcDbArc
 50
292.62185141317696
 51
67.378148586822249
  0
CIRCLE
  5
A9
100
AcDbEntity
  8
0
  6
CONTINUOUS
 62
               4
100
AcDbCircle
 10
-5.000030517578125
 20
-15.0
 30
0.0
 40
3.1499996185302734
  0
CIRCLE
  5
AA
100
AcDbEntity
  8
0
  6
CONTINUOUS
 62
               4
100
AcDbCircle
 10
0.0
 20
0.0
 30
0.0
 40
3.1499996185302734
  0
ARC
  5
AB
100
AcDbEntity
  8
0
  6
CONTINUOUS
 62
             200
100
AcDbCircle
 10
23.9375
 20
-3.25
 30
0.0
 40
0.8125
100
AcDbArc
 50
292.61986494803978
 51
67.380135051959414
  0
ARC
  5
AC
100
AcDbEntity
  8
0
  6
CONTINUOUS
 62
             200
100
AcDbCircle
 10
23.9375
 20
-4.75
 30
0.0
 40
0.8125
100
AcDbArc
 50
292.61986494803978
 51
67.380135051959414
  0
ARC
  5
AD
100
AcDbEntity
  8
0
  6
CONTINUOUS
 62
             200
100
AcDbCircle
 10
24.5625
 20
-4.75
 30
0.0
 40
0.8125
100
AcDbArc
 50
112.61986494804019
 51
247.380135051959
  0
LINE
  5
AE
100
AcDbEntity
  8
0
  6
CENTER
 62
             200
100
AcDbLine
 10
-8.5
 20
-15.0
 30
0.0
 11
-1.5
 21
-15.0
 31
0.0
  0
LINE
  5
AF
100
AcDbEntity
  8
0
  6
CENTER
 62
             200
100
AcDbLine
 10
0.0
 20
6.4100000000000001
 30
0.0
 11
0.0
 21
-8.8000000000000007
 31
0.0
  0
LINE
  5
B0
100
AcDbEntity
  8
0
  6
CENTER
 62
             200
100
AcDbLine
 10
-5.0
 20
-6.2000000000000002
 30
0.0
 11
-5.0
 21
-21.460000000000001
 31
0.0
  0
LINE
  5
B1
100
AcDbEntity
  8
0
  6
CONTINUOUS
 62
               4
100
AcDbLine
 10
-1.23
 20
-1.23
 30
0.0
 11
1.23
 21
1.23
 31
0.0
  0
LINE
  5
B2
100
AcDbEntity
  8
0
  6
CONTINUOUS
 62
               4
100
AcDbLine
 10
1.23
 20
-1.23
 30
0.0
 11
-1.23
 21
1.23
 31
0.0
  0
LINE
  5
B3
100
AcDbEntity
  8
0
  6
CONTINUOUS
 62
               4
100
AcDbLine
 10
-3.7599999999999998
 20
-16.23
 30
0.0
 11
-6.2300000000000004
 21
-13.76
 31
0.0
  0
LINE
  5
B4
100
AcDbEntity
  8
0
  6
CONTINUOUS
 62
               4
100
AcDbLine
 10
-6.2300000000000004
 20
-16.23
 30
0.0
 11
-3.7599999999999998
 21
-13.76
 31
0.0
  0
LINE
  5
B5
100
AcDbEntity
  8
0
  6
CONTINUOUS
 62
               4
100
AcDbLine
 10
11.75
 20
-5.5
 30
0.0
 11
24.25
 21
-5.5
 31
0.0
  0
LINE
  5
B6
100
AcDbEntity
  8
0
  6
CONTINUOUS
 62
               4
100
AcDbLine
 10
11.75
 20
-2.5
 30
0.0
 11
24.100000000000001
 21
-2.5
 31
0.0
  0
LINE
  5
B7
100
AcDbEntity
  8
0
  6
CONTINUOUS
 62
               4
100
AcDbLine
 10
11.75
 20
-2.0
 30
0.0
 11
11.75
 21
-6.0
 31
0.0
  0
LINE
  5
B8
100
AcDbEntity
  8
0
  6
CONTINUOUS
 62
               4
100
AcDbLine
 10
3.75
 20
-2.0
 30
0.0
 11
11.75
 21
-2.0
 31
0.0
  0
LINE
  5
B9
100
AcDbEntity
  8
0
  6
CONTINUOUS
 62
               4
100
AcDbLine
 10
3.75
 20
-6.0
 30
0.0
 11
11.75
 21
-6.0
 31
0.0
  0
LINE
  5
BA
100
AcDbEntity
  8
0
  6
CONTINUOUS
 62
               4
100
AcDbLine
 10
-10.25
 20
-6.0
 30
0.0
 11
-3.75
 21
-6.0
 31
0.0
  0
LINE
  5
BB
100
AcDbEntity
  8
0
  6
CENTER
 62
             200
100
AcDbLine
 10
-13.25
 20
-4.0
 30
0.0
 11
25.98
 21
-4.0
 31
0.0
  0
LINE
  5
BC
100
AcDbEntity
  8
0
  6
CONTINUOUS
 62
               4
100
AcDbLine
 10
-10.25
 20
-2.0
 30
0.0
 11
-3.75
 21
-2.0
 31
0.0
  0
LINE
  5
BD
100
AcDbEntity
  8
0
  6
CONTINUOUS
 62
               4
100
AcDbLine
 10
-9.25
 20
-2.0
 30
0.0
 11
-9.25
 21
-6.0
 31
0.0
  0
LINE
  5
BE
100
AcDbEntity
  8
0
  6
CONTINUOUS
 62
               4
100
AcDbLine
 10
-10.25
 20
-2.0
 30
0.0
 11
-10.25
 21
-6.0
 31
0.0
  0
LINE
  5
C0
100
AcDbEntity
  8
0
  6
PHANTOM
 62
             200
100
AcDbLine
 10
-23.25
 20
-11.0
 30
0.0
 11
16.25
 21
-11.0
 31
0.0
  0
LINE
  5
C1
100
AcDbEntity
  8
0
  6
CONTINUOUS
 62
               4
100
AcDbLine
 10
1.75
 20
-12.5
 30
0.0
 11
14.25
 21
-12.5
 31
0.0
  0
LINE
  5
C2
100
AcDbEntity
  8
0
  6
CONTINUOUS
 62
               4
100
AcDbLine
 10
1.75
 20
-9.5
 30
0.0
 11
14.25
 21
-9.5
 31
0.0
  0
LINE
  5
C3
100
AcDbEntity
  8
0
  6
CONTINUOUS
 62
               4
100
AcDbLine
 10
-8.75
 20
-20.5
 30
0.0
 11
-1.25
 21
-20.5
 31
0.0
  0
LINE
  5
C4
100
AcDbEntity
  8
0
  6
CONTINUOUS
 62
               4
100
AcDbLine
 10
-8.75
 20
-19.0
 30
0.0
 11
-1.25
 21
-19.0
 31
0.0
  0
LINE
  5
C5
100
AcDbEntity
  8
0
  6
CONTINUOUS
 62
               4
100
AcDbLine
 10
-3.3700000000000001
 20
-17.699999999999999
 30
0.0
 11
-2.0
 21
-17.699999999999999
 31
0.0
  0
LINE
  5
C6
100
AcDbEntity
  8
0
  6
CONTINUOUS
 62
               4
100
AcDbLine
 10
-8.0
 20
-17.699999999999999
 30
0.0
 11
-6.6200000000000001
 21
-17.699999999999999
 31
0.0
  0
LINE
  5
C7
100
AcDbEntity
  8
0
  6
CONTINUOUS
 62
               4
100
AcDbLine
 10
-20.25
 20
-13.0
 30
0.0
 11
-8.75
 21
-13.0
 31
0.0
  0
LINE
  5
C8
100
AcDbEntity
  8
0
  6
CONTINUOUS
 62
               4
100
AcDbLine
 10
-20.25
 20
-9.0
 30
0.0
 11
-8.75
 21
-9.0
 31
0.0
  0
LINE
  5
C9
100
AcDbEntity
  8
0
  6
CONTINUOUS
 62
               4
100
AcDbLine
 10
-8.0
 20
-9.0
 30
0.0
 11
-2.0
 21
-9.0
 31
0.0
  0
LINE
  5
CA
100
AcDbEntity
  8
0
  6
CONTINUOUS
 62
               4
100
AcDbLine
 10
-8.75
 20
-8.1999999999999993
 30
0.0
 11
-1.25
 21
-8.1999999999999993
 31
0.0
  0
LINE
  5
CB
100
AcDbEntity
  8
0
  6
CONTINUOUS
 62
               4
100
AcDbLine
 10
-1.25
 20
-9.0
 30
0.0
 11
1.75
 21
-9.0
 31
0.0
  0
LINE
  5
CC
100
AcDbEntity
  8
0
  6
CONTINUOUS
 62
               4
100
AcDbLine
 10
-1.25
 20
-13.0
 30
0.0
 11
1.75
 21
-13.0
 31
0.0
  0
LINE
  5
CD
100
AcDbEntity
  8
0
  6
CONTINUOUS
 62
               4
100
AcDbLine
 10
1.75
 20
-13.0
 30
0.0
 11
1.75
 21
-9.0
 31
0.0
  0
LINE
  5
CE
100
AcDbEntity
  8
0
  6
CONTINUOUS
 62
               4
100
AcDbLine
 10
-1.25
 20
-20.5
 30
0.0
 11
-1.25
 21
-8.1999999999999993
 31
0.0
  0
LINE
  5
CF
100
AcDbEntity
  8
0
  6
CONTINUOUS
 62
               4
100
AcDbLine
 10
-2.0
 20
-14.039999999999999
 30
0.0
 11
-2.0
 21
-9.0
 31
0.0
  0
LINE
  5
D0
100
AcDbEntity
  8
0
  6
CONTINUOUS
 62
               4
100
AcDbLine
 10
-2.0
 20
-17.699999999999999
 30
0.0
 11
-2.0
 21
-15.960000000000001
 31
0.0
  0
LINE
  5
D1
100
AcDbEntity
  8
0
  6
CONTINUOUS
 62
               4
100
AcDbLine
 10
-8.0
 20
-17.699999999999999
 30
0.0
 11
-8.0
 21
-15.960000000000001
 31
0.0
  0
LINE
  5
D2
100
AcDbEntity
  8
0
  6
CONTINUOUS
 62
               4
100
AcDbLine
 10
-8.0
 20
-14.039999999999999
 30
0.0
 11
-8.0
 21
-9.0
 31
0.0
  0
LINE
  5
D3
100
AcDbEntity
  8
0
  6
CONTINUOUS
 62
               4
100
AcDbLine
 10
-8.75
 20
-20.5
 30
0.0
 11
-8.75
 21
-8.1999999999999993
 31
0.0
  0
LINE
  5
D4
100
AcDbEntity
  8
0
  6
CONTINUOUS
 62
               4
100
AcDbLine
 10
-19.25
 20
-13.0
 30
0.0
 11
-19.25
 21
-9.0
 31
0.0
  0
LINE
  5
D5
100
AcDbEntity
  8
0
  6
CONTINUOUS
 62
               4
100
AcDbLine
 10
-20.25
 20
-13.0
 30
0.0
 11
-20.25
 21
-9.0
 31
0.0
  0
LINE
  5
D6
100
AcDbEntity
  8
0
  6
CONTINUOUS
 62
               4
100
AcDbLine
 10
1.6200000000000001
 20
2.7000000000000002
 30
0.0
 11
3.0
 21
2.7000000000000002
 31
0.0
  0
LINE
  5
D7
100
AcDbEntity
  8
0
  6
CONTINUOUS
 62
               4
100
AcDbLine
 10
3.0
 20
-0.96
 30
0.0
 11
3.0
 21
-6.0
 31
0.0
  0
LINE
  5
D8
100
AcDbEntity
  8
0
  6
CONTINUOUS
 62
               4
100
AcDbLine
 10
-3.0
 20
-0.96
 30
0.0
 11
-3.0
 21
-6.0
 31
0.0
  0
LINE
  5
D9
100
AcDbEntity
  8
0
  6
CONTINUOUS
 62
               4
100
AcDbLine
 10
3.0
 20
2.7000000000000002
 30
0.0
 11
3.0
 21
0.96
 31
0.0
  0
LINE
  5
DA
100
AcDbEntity
  8
0
  6
CONTINUOUS
 62
               4
100
AcDbLine
 10
-3.0
 20
2.7000000000000002
 30
0.0
 11
-3.0
 21
0.96
 31
0.0
  0
LINE
  5
DB
100
AcDbEntity
  8
0
  6
CONTINUOUS
 62
               4
100
AcDbLine
 10
-3.0
 20
-6.0
 30
0.0
 11
3.0
 21
-6.0
 31
0.0
  0
LINE
  5
DC
100
AcDbEntity
  8
0
  6
CONTINUOUS
 62
               4
100
AcDbLine
 10
-3.0
 20
2.7000000000000002
 30
0.0
 11
-1.6200000000000001
 21
2.7000000000000002
 31
0.0
  0
LINE
  5
DD
100
AcDbEntity
  8
0
  6
CONTINUOUS
 62
               4
100
AcDbLine
 10
3.75
 20
5.5
 30
0.0
 11
3.75
 21
-6.7999999999999998
 31
0.0
  0
LINE
  5
DE
100
AcDbEntity
  8
0
  6
CONTINUOUS
 62
               4
100
AcDbLine
 10
-3.75
 20
5.5
 30
0.0
 11
-3.75
 21
-6.7999999999999998
 31
0.0
  0
LINE
  5
DF
100
AcDbEntity
  8
0
  6
CONTINUOUS
 62
               4
100
AcDbLine
 10
-3.75
 20
-6.7999999999999998
 30
0.0
 11
3.75
 21
-6.7999999999999998
 31
0.0
  0
LINE
  5
E0
100
AcDbEntity
  8
0
  6
CONTINUOUS
 62
               4
100
AcDbLine
 10
-3.75
 20
4.0
 30
0.0
 11
3.75
 21
4.0
 31
0.0
  0
LINE
  5
E1
100
AcDbEntity
  8
0
  6
CONTINUOUS
 62
               4
100
AcDbLine
 10
-3.75
 20
5.5
 30
0.0
 11
3.75
 21
5.5
 31
0.0
  0
LINE
  5
E2
100
AcDbEntity
  8
0
  6
CENTER
 62
             200
100
AcDbLine
 10
-3.4100000000000001
 20
0.0
 30
0.0
 11
3.5699999999999998
 21
0.0
 31
0.0
  0
ENDBLK
  5
E3
100
AcDbEntity
  8
0
100
AcDbBlockEnd
  0
BLOCK
  5
E4
100
AcDbEntity
  8
0
100
AcDbBlockBegin
  2
MS_5
 70
               0
 10
0.0
 20
0.0
 30
0.0
  3
MS_5
  1

  0
ARC
  5
E5
100
AcDbEntity
  8
0
  6
CONTINUOUS
 62
               4
100
AcDbCircle
 10
4.0193710327148437
 20
-15.0
 30
0.0
 40
3.4806266876474852
100
AcDbArc
 50
295.17544586662308
 51
64.824554133376111
  0
ARC
  5
E6
100
AcDbEntity
  8
0
  6
CONTINUOUS
 62
               4
100
AcDbCircle
 10
4.0193710327148437
 20
0.0
 30
0.0
 40
3.4806266876474856
100
AcDbArc
 50
295.17544586662308
 51
64.824554133376111
  0
LINE
  5
E7
100
AcDbEntity
  8
0
  6
CONTINUOUS
 62
               4
100
AcDbLine
 10
6.3600000000000003
 20
-13.859999999999999
 30
0.0
 11
7.5
 21
-15.0
 31
0.0
  0
LINE
  5
E8
100
AcDbEntity
  8
0
  6
CONTINUOUS
 62
               4
100
AcDbLine
 10
6.3600000000000003
 20
-16.129999999999999
 30
0.0
 11
7.5
 21
-15.0
 31
0.0
  0
LINE
  5
E9
100
AcDbEntity
  8
0
  6
CONTINUOUS
 62
               4
100
AcDbLine
 10
6.3600000000000003
 20
1.1299999999999999
 30
0.0
 11
7.5
 21
0.0
 31
0.0
  0
LINE
  5
EA
100
AcDbEntity
  8
0
  6
CONTINUOUS
 62
               4
100
AcDbLine
 10
6.3600000000000003
 20
-1.1299999999999999
 30
0.0
 11
7.5
 21
0.0
 31
0.0
  0
LINE
  5
EB
100
AcDbEntity
  8
0
  6
CONTINUOUS
 62
               4
100
AcDbLine
 10
4.0
 20
-9.0
 30
0.0
 11
4.0
 21
-13.0
 31
0.0
  0
LINE
  5
EC
100
AcDbEntity
  8
0
  6
CONTINUOUS
 62
             200
100
AcDbLine
 10
0.0
 20
-9.0
 30
0.0
 11
4.0
 21
-13.0
 31
0.0
  0
LINE
  5
ED
100
AcDbEntity
  8
0
  6
CONTINUOUS
 62
             200
100
AcDbLine
 10
4.0
 20
-9.0
 30
0.0
 11
0.0
 21
-13.0
 31
0.0
  0
LINE
  5
EE
100
AcDbEntity
  8
0
  6
CONTINUOUS
 62
               4
100
AcDbLine
 10
0.5
 20
-8.1999999999999993
 30
0.0
 11
0.5
 21
-9.0
 31
0.0
  0
LINE
  5
EF
100
AcDbEntity
  8
0
  6
CONTINUOUS
 62
               4
100
AcDbLine
 10
0.5
 20
-6.0
 30
0.0
 11
0.5
 21
-6.7999999999999998
 31
0.0
  0
LINE
  5
F0
100
AcDbEntity
  8
0
  6
CONTINUOUS
 62
               4
100
AcDbLine
 10
0.5
 20
-8.1999999999999993
 30
0.0
 11
5.5
 21
-8.1999999999999993
 31
0.0
  0
LINE
  5
F1
100
AcDbEntity
  8
0
  6
CONTINUOUS
 62
               4
100
AcDbLine
 10
0.5
 20
-6.7999999999999998
 30
0.0
 11
5.5
 21
-6.7999999999999998
 31
0.0
  0
LINE
  5
F2
100
AcDbEntity
  8
0
  6
CENTER
 62
             200
100
AcDbLine
 10
3.5
 20
0.0
 30
0.0
 11
9.5
 21
0.0
 31
0.0
  0
LINE
  5
F3
100
AcDbEntity
  8
0
  6
CONTINUOUS
 62
             200
100
AcDbLine
 10
4.0
 20
-2.0
 30
0.0
 11
0.0
 21
-6.0
 31
0.0
  0
LINE
  5
F4
100
AcDbEntity
  8
0
  6
CONTINUOUS
 62
             200
100
AcDbLine
 10
0.0
 20
-2.0
 30
0.0
 11
4.0
 21
-6.0
 31
0.0
  0
LINE
  5
F5
100
AcDbEntity
  8
0
  6
CONTINUOUS
 62
               4
100
AcDbLine
 10
0.0
 20
-13.0
 30
0.0
 11
4.0
 21
-13.0
 31
0.0
  0
LINE
  5
F6
100
AcDbEntity
  8
0
  6
CONTINUOUS
 62
               4
100
AcDbLine
 10
4.0
 20
-2.0
 30
0.0
 11
4.0
 21
-6.0
 31
0.0
  0
LINE
  5
F7
100
AcDbEntity
  8
0
  6
CONTINUOUS
 62
               4
100
AcDbLine
 10
0.0
 20
-9.0
 30
0.0
 11
4.0
 21
-9.0
 31
0.0
  0
LINE
  5
F8
100
AcDbEntity
  8
0
  6
CONTINUOUS
 62
               4
100
AcDbLine
 10
0.0
 20
-6.0
 30
0.0
 11
4.0
 21
-6.0
 31
0.0
  0
LINE
  5
F9
100
AcDbEntity
  8
0
  6
CONTINUOUS
 62
               4
100
AcDbLine
 10
0.0
 20
-2.0
 30
0.0
 11
4.0
 21
-2.0
 31
0.0
  0
LINE
  5
FA
100
AcDbEntity
  8
0
  6
CONTINUOUS
 62
               4
100
AcDbLine
 10
1.3700000000000001
 20
-20.5
 30
0.0
 11
5.5
 21
-19.0
 31
0.0
  0
LINE
  5
FB
100
AcDbEntity
  8
0
  6
CONTINUOUS
 62
               4
100
AcDbLine
 10
-2.0
 20
-20.5
 30
0.0
 11
-2.0
 21
-19.5
 31
0.0
  0
LINE
  5
FC
100
AcDbEntity
  8
0
  6
CONTINUOUS
 62
               4
100
AcDbLine
 10
5.5
 20
-19.0
 30
0.0
 11
5.5
 21
-8.1999999999999993
 31
0.0
  0
LINE
  5
FD
100
AcDbEntity
  8
0
  6
CONTINUOUS
 62
               4
100
AcDbLine
 10
-2.0
 20
-20.5
 30
0.0
 11
1.3700000000000001
 21
-20.5
 31
0.0
  0
LINE
  5
FE
100
AcDbEntity
  8
0
  6
CENTER
 62
             200
100
AcDbLine
 10
3.5
 20
-15.0
 30
0.0
 11
9.5
 21
-15.0
 31
0.0
  0
LINE
  5
FF
100
AcDbEntity
  8
0
  6
CONTINUOUS
 62
               4
100
AcDbLine
 10
1.3700000000000001
 20
5.5
 30
0.0
 11
5.5
 21
4.0
 31
0.0
  0
LINE
  5
100
100
AcDbEntity
  8
0
  6
CONTINUOUS
 62
               4
100
AcDbLine
 10
-2.0
 20
5.5
 30
0.0
 11
-2.0
 21
4.5
 31
0.0
  0
LINE
  5
101
100
AcDbEntity
  8
0
  6
CONTINUOUS
 62
               4
100
AcDbLine
 10
5.5
 20
4.0
 30
0.0
 11
5.5
 21
-6.7999999999999998
 31
0.0
  0
LINE
  5
102
100
AcDbEntity
  8
0
  6
CONTINUOUS
 62
               4
100
AcDbLine
 10
-2.0
 20
5.5
 30
0.0
 11
1.3700000000000001
 21
5.5
 31
0.0
  0
ENDBLK
  5
103
100
AcDbEntity
  8
0
100
AcDbBlockEnd
  0
BLOCK
  5
104
100
AcDbEntity
  8
0
100
AcDbBlockBegin
  2
MS_6
 70
               0
 10
0.0
 20
0.0
 30
0.0
  3
MS_6
  1

  0
ARC
  5
105
100
AcDbEntity
  8
0
  6
CONTINUOUS
 62
               4
100
AcDbCircle
 10
0.0
 20
-4.0193710327148437
 30
0.0
 40
3.4806266876474856
100
AcDbArc
 50
205.17544586662331
 51
334.8245541333755
  0
ARC
  5
106
100
AcDbEntity
  8
0
  6
CONTINUOUS
 62
               4
100
AcDbCircle
 10
-5.0004587237513398
 20
-4.0192997757394346
 30
0.0
 40
3.480241860118249
100
AcDbArc
 50
205.1797201214369
 51
315.92852626500184
  0
ARC
  5
107
100
AcDbEntity
  8
0
  6
CONTINUOUS
 62
             200
100
AcDbCircle
 10
23.9375
 20
-2.75
 30
0.0
 40
0.8125
100
AcDbArc
 50
292.61986494803978
 51
67.380135051959414
  0
ARC
  5
108
100
AcDbEntity
  8
0
  6
CONTINUOUS
 62
             200
100
AcDbCircle
 10
24.5625
 20
-2.75
 30
0.0
 40
0.8125
100
AcDbArc
 50
112.61986494804019
 51
247.380135051959
  0
ARC
  5
109
100
AcDbEntity
  8
0
  6
CONTINUOUS
 62
             200
100
AcDbCircle
 10
23.9375
 20
-1.25
 30
0.0
 40
0.8125
100
AcDbArc
 50
292.61986494803978
 51
67.380135051959414
  0
LINE
  5
10A
100
AcDbEntity
  8
0
  6
CENTER
 62
             200
100
AcDbLine
 10
-21.739999999999998
 20
-2.0
 30
0.0
 11
25.949999999999999
 21
-2.0
 31
0.0
  0
LINE
  5
10B
100
AcDbEntity
  8
0
  6
CONTINUOUS
 62
               4
100
AcDbLine
 10
0.0
 20
-7.5
 30
0.0
 11
-0.9300000000000001
 21
-6.5700000000000003
 31
0.0
  0
LINE
  5
10C
100
AcDbEntity
  8
0
  6
CONTINUOUS
 62
               4
100
AcDbLine
 10
0.0
 20
-7.5
 30
0.0
 11
0.95
 21
-6.54
 31
0.0
  0
LINE
  5
10D
100
AcDbEntity
  8
0
  6
CONTINUOUS
 62
               4
100
AcDbLine
 10
-10.25
 20
0.0
 30
0.0
 11
-3.75
 21
0.0
 31
0.0
  0
LINE
  5
10E
100
AcDbEntity
  8
0
  6
CENTER
 62
             200
100
AcDbLine
 10
0.0
 20
4.0
 30
0.0
 11
0.0
 21
-9.5
 31
0.0
  0
LINE
  5
10F
100
AcDbEntity
  8
0
  6
CONTINUOUS
 62
               4
100
AcDbLine
 10
-3.75
 20
2.0
 30
0.0
 11
3.75
 21
2.0
 31
0.0
  0
LINE
  5
110
100
AcDbEntity
  8
0
  6
CONTINUOUS
 62
               4
100
AcDbLine
 10
3.75
 20
2.0
 30
0.0
 11
3.75
 21
-5.5
 31
0.0
  0
LINE
  5
111
100
AcDbEntity
  8
0
  6
CONTINUOUS
 62
               4
100
AcDbLine
 10
-3.75
 20
2.0
 30
0.0
 11
-3.75
 21
-5.5
 31
0.0
  0
LINE
  5
112
100
AcDbEntity
  8
0
  6
CONTINUOUS
 62
               4
100
AcDbLine
 10
-3.75
 20
-5.5
 30
0.0
 11
3.75
 21
-5.5
 31
0.0
  0
LINE
  5
113
100
AcDbEntity
  8
0
  6
CONTINUOUS
 62
               4
100
AcDbLine
 10
-3.75
 20
-1.3700000000000001
 30
0.0
 11
3.75
 21
-1.3700000000000001
 31
0.0
  0
LINE
  5
114
100
AcDbEntity
  8
0
  6
CONTINUOUS
 62
               4
100
AcDbLine
 10
-9.25
 20
0.0
 30
0.0
 11
-9.25
 21
-4.0
 31
0.0
  0
LINE
  5
115
100
AcDbEntity
  8
0
  6
CONTINUOUS
 62
               4
100
AcDbLine
 10
-10.25
 20
0.0
 30
0.0
 11
-10.25
 21
-4.0
 31
0.0
  0
LINE
  5
116
100
AcDbEntity
  8
0
  6
CONTINUOUS
 62
               4
100
AcDbLine
 10
-10.25
 20
-4.0
 30
0.0
 11
-3.75
 21
-4.0
 31
0.0
  0
LINE
  5
117
100
AcDbEntity
  8
0
  6
CONTINUOUS
 62
               4
100
AcDbLine
 10
-5.0
 20
-7.5
 30
0.0
 11
-5.9299999999999997
 21
-6.5700000000000003
 31
0.0
  0
LINE
  5
118
100
AcDbEntity
  8
0
  6
CONTINUOUS
 62
               4
100
AcDbLine
 10
-5.0
 20
-7.5
 30
0.0
 11
-4.04
 21
-6.54
 31
0.0
  0
LINE
  5
119
100
AcDbEntity
  8
0
  6
CONTINUOUS
 62
               4
100
AcDbLine
 10
-20.25
 20
0.0
 30
0.0
 11
-10.25
 21
0.0
 31
0.0
  0
LINE
  5
11A
100
AcDbEntity
  8
0
  6
CENTER
 62
             200
100
AcDbLine
 10
-5.0
 20
4.0
 30
0.0
 11
-5.0
 21
-9.5
 31
0.0
  0
LINE
  5
11B
100
AcDbEntity
  8
0
  6
CONTINUOUS
 62
               4
100
AcDbLine
 10
-8.75
 20
-4.0
 30
0.0
 11
-8.75
 21
-5.5
 31
0.0
  0
LINE
  5
11C
100
AcDbEntity
  8
0
  6
CONTINUOUS
 62
               4
100
AcDbLine
 10
-8.75
 20
-5.5
 30
0.0
 11
-3.75
 21
-5.5
 31
0.0
  0
LINE
  5
11D
100
AcDbEntity
  8
0
  6
CONTINUOUS
 62
               4
100
AcDbLine
 10
-19.25
 20
0.0
 30
0.0
 11
-19.25
 21
-4.0
 31
0.0
  0
LINE
  5
11E
100
AcDbEntity
  8
0
  6
CONTINUOUS
 62
               4
100
AcDbLine
 10
-20.25
 20
0.0
 30
0.0
 11
-20.25
 21
-4.0
 31
0.0
  0
LINE
  5
11F
100
AcDbEntity
  8
0
  6
CONTINUOUS
 62
               4
100
AcDbLine
 10
3.75
 20
-4.0
 30
0.0
 11
11.75
 21
-4.0
 31
0.0
  0
LINE
  5
120
100
AcDbEntity
  8
0
  6
CONTINUOUS
 62
               4
100
AcDbLine
 10
3.75
 20
0.0
 30
0.0
 11
11.75
 21
0.0
 31
0.0
  0
LINE
  5
121
100
AcDbEntity
  8
0
  6
CONTINUOUS
 62
               4
100
AcDbLine
 10
11.75
 20
-3.5
 30
0.0
 11
24.25
 21
-3.5
 31
0.0
  0
LINE
  5
122
100
AcDbEntity
  8
0
  6
CONTINUOUS
 62
               4
100
AcDbLine
 10
11.75
 20
-0.5
 30
0.0
 11
24.25
 21
-0.5
 31
0.0
  0
LINE
  5
123
100
AcDbEntity
  8
0
  6
CONTINUOUS
 62
               4
100
AcDbLine
 10
11.75
 20
0.0
 30
0.0
 11
11.75
 21
-4.0
 31
0.0
  0
LINE
  5
124
100
AcDbEntity
  8
0
  6
CONTINUOUS
 62
               4
100
AcDbLine
 10
-20.25
 20
-4.0
 30
0.0
 11
-10.25
 21
-4.0
 31
0.0
  0
ENDBLK
  5
125
100
AcDbEntity
  8
0
100
AcDbBlockEnd
  0
BLOCK
  5
126
100
AcDbEntity
  8
0
100
AcDbBlockBegin
  2
MS_7
 70
               0
 10
0.0
 20
0.0
 30
0.0
  3
MS_7
  1

  0
ARC
  5
127
100
AcDbEntity
  8
0
  6
CONTINUOUS
 62
             200
100
AcDbCircle
 10
19.562500000055106
 20
-3.25
 30
0.0
 40
0.8125000000211953
100
AcDbArc
 50
112.61986495162724
 51
247.38013504837195
  0
ARC
  5
128
100
AcDbEntity
  8
0
  6
CONTINUOUS
 62
             200
100
AcDbCircle
 10
18.937499999944894
 20
-3.25
 30
0.0
 40
0.8125000000211953
100
AcDbArc
 50
292.61986495162677
 51
67.380135048372409
  0
ARC
  5
129
100
AcDbEntity
  8
0
  6
CONTINUOUS
 62
             200
100
AcDbCircle
 10
18.937499999944894
 20
-4.75
 30
0.0
 40
0.8125000000211953
100
AcDbArc
 50
292.61986495162677
 51
67.380135048372409
  0
ARC
  5
12A
100
AcDbEntity
  8
0
  6
CONTINUOUS
 62
             200
100
AcDbCircle
 10
13.937499999944892
 20
-14.25
 30
0.0
 40
0.8125000000211953
100
AcDbArc
 50
292.61986495162694
 51
67.380135048372253
  0
ARC
  5
12B
100
AcDbEntity
  8
0
  6
CONTINUOUS
 62
             200
100
AcDbCircle
 10
13.937499999944892
 20
-15.75
 30
0.0
 40
0.8125000000211953
100
AcDbArc
 50
292.61986495162694
 51
67.380135048372253
  0
ARC
  5
12C
100
AcDbEntity
  8
0
  6
CONTINUOUS
 62
             200
100
AcDbCircle
 10
14.562500000055108
 20
-15.75
 30
0.0
 40
0.8125000000211953
100
AcDbArc
 50
112.61986495162735
 51
247.38013504837184
  0
CIRCLE
  5
12D
100
AcDbEntity
  8
0
  6
CONTINUOUS
 62
               4
100
AcDbCircle
 10
-5.0000019073486328
 20
-19.0
 30
0.0
 40
3.1499996185302734
  0
CIRCLE
  5
12E
100
AcDbEntity
  8
0
  6
CONTINUOUS
 62
               4
100
AcDbCircle
 10
0.0
 20
0.0
 30
0.0
 40
3.1499996185302734
  0
LINE
  5
12F
100
AcDbEntity
  8
0
  6
CENTER
 62
             200
100
AcDbLine
 10
-0.38
 20
-19.0
 30
0.0
 11
-9.6300000000000008
 21
-19.0
 31
0.0
  0
LINE
  5
130
100
AcDbEntity
  8
0
  6
CONTINUOUS
 62
               4
100
AcDbLine
 10
1.23
 20
-1.23
 30
0.0
 11
-1.23
 21
1.23
 31
0.0
  0
LINE
  5
131
100
AcDbEntity
  8
0
  6
CONTINUOUS
 62
               4
100
AcDbLine
 10
-1.23
 20
-1.23
 30
0.0
 11
1.23
 21
1.23
 31
0.0
  0
LINE
  5
132
100
AcDbEntity
  8
0
  6
CONTINUOUS
 62
               4
100
AcDbLine
 10
-3.7599999999999998
 20
-20.23
 30
0.0
 11
-6.2300000000000004
 21
-17.760000000000002
 31
0.0
  0
LINE
  5
133
100
AcDbEntity
  8
0
  6
CONTINUOUS
 62
               4
100
AcDbLine
 10
-6.2300000000000004
 20
-20.23
 30
0.0
 11
-3.7599999999999998
 21
-17.760000000000002
 31
0.0
  0
LINE
  5
134
100
AcDbEntity
  8
0
  6
CENTER
 62
             200
100
AcDbLine
 10
-13.25
 20
-4.0
 30
0.0
 11
22.25
 21
-4.0
 31
0.0
  0
LINE
  5
135
100
AcDbEntity
  8
0
  6
CONTINUOUS
 62
               4
100
AcDbLine
 10
10.75
 20
-5.5
 30
0.0
 11
19.25
 21
-5.5
 31
0.0
  0
LINE
  5
136
100
AcDbEntity
  8
0
  6
CONTINUOUS
 62
               4
100
AcDbLine
 10
10.75
 20
-2.5
 30
0.0
 11
19.25
 21
-2.5
 31
0.0
  0
LINE
  5
137
100
AcDbEntity
  8
0
  6
CONTINUOUS
 62
               4
100
AcDbLine
 10
0.75
 20
-13.5
 30
0.0
 11
14.25
 21
-13.5
 31
0.0
  0
LINE
  5
138
100
AcDbEntity
  8
0
  6
CONTINUOUS
 62
               4
100
AcDbLine
 10
0.75
 20
-16.5
 30
0.0
 11
14.25
 21
-16.5
 31
0.0
  0
LINE
  5
139
100
AcDbEntity
  8
0
  6
CONTINUOUS
 62
               4
100
AcDbLine
 10
-20.25
 20
-17.0
 30
0.0
 11
-20.25
 21
-13.0
 31
0.0
  0
LINE
  5
13A
100
AcDbEntity
  8
0
  6
CENTER
 62
             200
100
AcDbLine
 10
-23.25
 20
-15.0
 30
0.0
 11
17.25
 21
-15.0
 31
0.0
  0
LINE
  5
13B
100
AcDbEntity
  8
0
  6
CONTINUOUS
 62
               4
100
AcDbLine
 10
-1.25
 20
-13.0
 30
0.0
 11
0.75
 21
-13.0
 31
0.0
  0
LINE
  5
13C
100
AcDbEntity
  8
0
  6
CONTINUOUS
 62
               4
100
AcDbLine
 10
-1.25
 20
-17.0
 30
0.0
 11
0.75
 21
-17.0
 31
0.0
  0
LINE
  5
13D
100
AcDbEntity
  8
0
  6
CONTINUOUS
 62
               4
100
AcDbLine
 10
0.75
 20
-17.0
 30
0.0
 11
0.75
 21
-13.0
 31
0.0
  0
LINE
  5
13E
100
AcDbEntity
  8
0
  6
CONTINUOUS
 62
               4
100
AcDbLine
 10
-21.25
 20
-17.0
 30
0.0
 11
-21.25
 21
-13.0
 31
0.0
  0
LINE
  5
13F
100
AcDbEntity
  8
0
  6
CONTINUOUS
 62
               4
100
AcDbLine
 10
-21.25
 20
-13.0
 30
0.0
 11
-8.75
 21
-13.0
 31
0.0
  0
LINE
  5
140
100
AcDbEntity
  8
0
  6
CONTINUOUS
 62
               4
100
AcDbLine
 10
-21.25
 20
-17.0
 30
0.0
 11
-8.75
 21
-17.0
 31
0.0
  0
LINE
  5
141
100
AcDbEntity
  8
0
  6
CONTINUOUS
 62
               4
100
AcDbLine
 10
-2.0
 20
-18.039999999999999
 30
0.0
 11
-2.0
 21
-13.0
 31
0.0
  0
LINE
  5
142
100
AcDbEntity
  8
0
  6
CONTINUOUS
 62
               4
100
AcDbLine
 10
-6.6200000000000001
 20
-21.699999999999999
 30
0.0
 11
-8.0
 21
-21.699999999999999
 31
0.0
  0
LINE
  5
143
100
AcDbEntity
  8
0
  6
CONTINUOUS
 62
               4
100
AcDbLine
 10
-8.0
 20
-18.039999999999999
 30
0.0
 11
-8.0
 21
-13.0
 31
0.0
  0
LINE
  5
144
100
AcDbEntity
  8
0
  6
CONTINUOUS
 62
               4
100
AcDbLine
 10
-2.0
 20
-21.699999999999999
 30
0.0
 11
-2.0
 21
-19.960000000000001
 31
0.0
  0
LINE
  5
145
100
AcDbEntity
  8
0
  6
CONTINUOUS
 62
               4
100
AcDbLine
 10
-8.0
 20
-21.699999999999999
 30
0.0
 11
-8.0
 21
-19.960000000000001
 31
0.0
  0
LINE
  5
146
100
AcDbEntity
  8
0
  6
CONTINUOUS
 62
               4
100
AcDbLine
 10
-2.0
 20
-13.0
 30
0.0
 11
-8.0
 21
-13.0
 31
0.0
  0
LINE
  5
147
100
AcDbEntity
  8
0
  6
CONTINUOUS
 62
               4
100
AcDbLine
 10
-2.0
 20
-21.699999999999999
 30
0.0
 11
-3.3700000000000001
 21
-21.699999999999999
 31
0.0
  0
LINE
  5
148
100
AcDbEntity
  8
0
  6
CONTINUOUS
 62
               4
100
AcDbLine
 10
-1.25
 20
-27.0
 30
0.0
 11
-1.25
 21
-12.199999999999999
 31
0.0
  0
LINE
  5
149
100
AcDbEntity
  8
0
  6
CONTINUOUS
 62
               4
100
AcDbLine
 10
-8.75
 20
-27.0
 30
0.0
 11
-8.75
 21
-12.199999999999999
 31
0.0
  0
LINE
  5
14A
100
AcDbEntity
  8
0
  6
CONTINUOUS
 62
               4
100
AcDbLine
 10
-8.75
 20
-12.199999999999999
 30
0.0
 11
-1.25
 21
-12.199999999999999
 31
0.0
  0
LINE
  5
14B
100
AcDbEntity
  8
0
  6
CONTINUOUS
 62
               4
100
AcDbLine
 10
-8.75
 20
-23.0
 30
0.0
 11
-1.25
 21
-23.0
 31
0.0
  0
LINE
  5
14C
100
AcDbEntity
  8
0
  6
CONTINUOUS
 62
               4
100
AcDbLine
 10
-8.75
 20
-27.0
 30
0.0
 11
-1.25
 21
-27.0
 31
0.0
  0
LINE
  5
14D
100
AcDbEntity
  8
0
  6
CENTER
 62
             200
100
AcDbLine
 10
4.6200000000000001
 20
0.0
 30
0.0
 11
-4.6200000000000001
 21
0.0
 31
0.0
  0
LINE
  5
14E
100
AcDbEntity
  8
0
  6
CENTER
 62
             200
100
AcDbLine
 10
-5.0
 20
-29.0
 30
0.0
 11
-5.0
 21
-10.199999999999999
 31
0.0
  0
LINE
  5
14F
100
AcDbEntity
  8
0
  6
CONTINUOUS
 62
               4
100
AcDbLine
 10
-10.25
 20
-2.0
 30
0.0
 11
-10.25
 21
-6.0
 31
0.0
  0
LINE
  5
150
100
AcDbEntity
  8
0
  6
CONTINUOUS
 62
               4
100
AcDbLine
 10
3.75
 20
-6.0
 30
0.0
 11
10.75
 21
-6.0
 31
0.0
  0
LINE
  5
151
100
AcDbEntity
  8
0
  6
CONTINUOUS
 62
               4
100
AcDbLine
 10
3.75
 20
-2.0
 30
0.0
 11
10.75
 21
-2.0
 31
0.0
  0
LINE
  5
152
100
AcDbEntity
  8
0
  6
CONTINUOUS
 62
               4
100
AcDbLine
 10
10.75
 20
-2.0
 30
0.0
 11
10.75
 21
-6.0
 31
0.0
  0
LINE
  5
153
100
AcDbEntity
  8
0
  6
CONTINUOUS
 62
               4
100
AcDbLine
 10
-11.25
 20
-2.0
 30
0.0
 11
-11.25
 21
-6.0
 31
0.0
  0
LINE
  5
154
100
AcDbEntity
  8
0
  6
CONTINUOUS
 62
               4
100
AcDbLine
 10
-11.25
 20
-6.0
 30
0.0
 11
-3.75
 21
-6.0
 31
0.0
  0
LINE
  5
155
100
AcDbEntity
  8
0
  6
CONTINUOUS
 62
               4
100
AcDbLine
 10
-11.25
 20
-2.0
 30
0.0
 11
-3.75
 21
-2.0
 31
0.0
  0
LINE
  5
156
100
AcDbEntity
  8
0
  6
CONTINUOUS
 62
               4
100
AcDbLine
 10
3.0
 20
-0.96
 30
0.0
 11
3.0
 21
-6.0
 31
0.0
  0
LINE
  5
157
100
AcDbEntity
  8
0
  6
CONTINUOUS
 62
               4
100
AcDbLine
 10
-1.6200000000000001
 20
2.7000000000000002
 30
0.0
 11
-3.0
 21
2.7000000000000002
 31
0.0
  0
LINE
  5
158
100
AcDbEntity
  8
0
  6
CONTINUOUS
 62
               4
100
AcDbLine
 10
-3.0
 20
-0.96
 30
0.0
 11
-3.0
 21
-6.0
 31
0.0
  0
LINE
  5
159
100
AcDbEntity
  8
0
  6
CONTINUOUS
 62
               4
100
AcDbLine
 10
3.0
 20
2.7000000000000002
 30
0.0
 11
3.0
 21
0.96
 31
0.0
  0
LINE
  5
15A
100
AcDbEntity
  8
0
  6
CONTINUOUS
 62
               4
100
AcDbLine
 10
-3.0
 20
2.7000000000000002
 30
0.0
 11
-3.0
 21
0.96
 31
0.0
  0
LINE
  5
15B
100
AcDbEntity
  8
0
  6
CONTINUOUS
 62
               4
100
AcDbLine
 10
3.0
 20
-6.0
 30
0.0
 11
-3.0
 21
-6.0
 31
0.0
  0
LINE
  5
15C
100
AcDbEntity
  8
0
  6
CONTINUOUS
 62
               4
100
AcDbLine
 10
3.0
 20
2.7000000000000002
 30
0.0
 11
1.6200000000000001
 21
2.7000000000000002
 31
0.0
  0
LINE
  5
15D
100
AcDbEntity
  8
0
  6
CONTINUOUS
 62
               4
100
AcDbLine
 10
3.75
 20
8.0
 30
0.0
 11
3.75
 21
-6.7999999999999998
 31
0.0
  0
LINE
  5
15E
100
AcDbEntity
  8
0
  6
CONTINUOUS
 62
               4
100
AcDbLine
 10
-3.75
 20
8.0
 30
0.0
 11
-3.75
 21
-6.7999999999999998
 31
0.0
  0
LINE
  5
15F
100
AcDbEntity
  8
0
  6
CONTINUOUS
 62
               4
100
AcDbLine
 10
-3.75
 20
-6.7999999999999998
 30
0.0
 11
3.75
 21
-6.7999999999999998
 31
0.0
  0
LINE
  5
160
100
AcDbEntity
  8
0
  6
CONTINUOUS
 62
               4
100
AcDbLine
 10
-3.75
 20
4.0
 30
0.0
 11
3.75
 21
4.0
 31
0.0
  0
LINE
  5
161
100
AcDbEntity
  8
0
  6
CONTINUOUS
 62
               4
100
AcDbLine
 10
-3.75
 20
8.0
 30
0.0
 11
3.75
 21
8.0
 31
0.0
  0
LINE
  5
162
100
AcDbEntity
  8
0
  6
CENTER
 62
             200
100
AcDbLine
 10
0.0
 20
10.0
 30
0.0
 11
0.0
 21
-8.8000000000000007
 31
0.0
  0
ENDBLK
  5
163
100
AcDbEntity
  8
0
100
AcDbBlockEnd
  0
BLOCK
  5
164
100
AcDbEntity
  8
0
100
AcDbBlockBegin
  2
MS_8
 70
               0
 10
0.0
 20
0.0
 30
0.0
  3
MS_8
  1

  0
ARC
  5
165
100
AcDbEntity
  8
0
  6
CONTINUOUS
 62
               4
100
AcDbCircle
 10
4.0194396972513973
 20
-19.0
 30
0.0
 40
3.4805974788928165
100
AcDbArc
 50
295.17442291656278
 51
64.825577083436414
  0
ARC
  5
166
100
AcDbEntity
  8
0
  6
CONTINUOUS
 62
               4
100
AcDbCircle
 10
4.0193786621058178
 20
0.0
 30
0.0
 40
3.480623442176352
100
AcDbArc
 50
295.17533220638256
 51
64.824667793616641
  0
LINE
  5
167
100
AcDbEntity
  8
0
  6
CONTINUOUS
 62
             200
100
AcDbLine
 10
4.0
 20
-13.0
 30
0.0
 11
0.0
 21
-17.0
 31
0.0
  0
LINE
  5
168
100
AcDbEntity
  8
0
  6
CONTINUOUS
 62
             200
100
AcDbLine
 10
0.0
 20
-13.0
 30
0.0
 11
4.0
 21
-17.0
 31
0.0
  0
LINE
  5
169
100
AcDbEntity
  8
0
  6
CONTINUOUS
 62
             200
100
AcDbLine
 10
0.0
 20
-2.0
 30
0.0
 11
4.0
 21
-6.0
 31
0.0
  0
LINE
  5
16A
100
AcDbEntity
  8
0
  6
CONTINUOUS
 62
             200
100
AcDbLine
 10
0.0
 20
-6.0
 30
0.0
 11
4.0
 21
-2.0
 31
0.0
  0
LINE
  5
16B
100
AcDbEntity
  8
0
  6
CONTINUOUS
 62
               4
100
AcDbLine
 10
6.3799999999999999
 20
-1.1100000000000001
 30
0.0
 11
7.5
 21
0.0
 31
0.0
  0
LINE
  5
16C
100
AcDbEntity
  8
0
  6
CONTINUOUS
 62
               4
100
AcDbLine
 10
6.3799999999999999
 20
1.1100000000000001
 30
0.0
 11
7.5
 21
0.0
 31
0.0
  0
LINE
  5
16D
100
AcDbEntity
  8
0
  6
CONTINUOUS
 62
               4
100
AcDbLine
 10
6.3799999999999999
 20
-17.879999999999999
 30
0.0
 11
7.5
 21
-19.0
 31
0.0
  0
LINE
  5
16E
100
AcDbEntity
  8
0
  6
CONTINUOUS
 62
               4
100
AcDbLine
 10
6.3799999999999999
 20
-20.109999999999999
 30
0.0
 11
7.5
 21
-19.0
 31
0.0
  0
LINE
  5
16F
100
AcDbEntity
  8
0
  6
CENTER
 62
             200
100
AcDbLine
 10
-0.89
 20
0.0
 30
0.0
 11
8.2799999999999994
 21
0.0
 31
0.0
  0
LINE
  5
170
100
AcDbEntity
  8
0
  6
CONTINUOUS
 62
               4
100
AcDbLine
 10
-2.0
 20
-26.0
 30
0.0
 11
-2.0
 21
-27.0
 31
0.0
  0
LINE
  5
171
100
AcDbEntity
  8
0
  6
CONTINUOUS
 62
               4
100
AcDbLine
 10
0.0
 20
-17.0
 30
0.0
 11
4.0
 21
-17.0
 31
0.0
  0
LINE
  5
172
100
AcDbEntity
  8
0
  6
CONTINUOUS
 62
               4
100
AcDbLine
 10
-2.0
 20
-27.0
 30
0.0
 11
1.5
 21
-27.0
 31
0.0
  0
LINE
  5
173
100
AcDbEntity
  8
0
  6
CONTINUOUS
 62
               4
100
AcDbLine
 10
0.5
 20
-12.199999999999999
 30
0.0
 11
5.5
 21
-12.199999999999999
 31
0.0
  0
LINE
  5
174
100
AcDbEntity
  8
0
  6
CONTINUOUS
 62
               4
100
AcDbLine
 10
0.5
 20
-13.0
 30
0.0
 11
0.5
 21
-12.199999999999999
 31
0.0
  0
LINE
  5
175
100
AcDbEntity
  8
0
  6
CONTINUOUS
 62
               4
100
AcDbLine
 10
5.5
 20
-23.0
 30
0.0
 11
5.5
 21
-12.199999999999999
 31
0.0
  0
LINE
  5
176
100
AcDbEntity
  8
0
  6
CONTINUOUS
 62
               4
100
AcDbLine
 10
4.0
 20
-17.0
 30
0.0
 11
4.0
 21
-13.0
 31
0.0
  0
LINE
  5
177
100
AcDbEntity
  8
0
  6
CENTER
 62
             200
100
AcDbLine
 10
-0.8100000000000001
 20
-19.0
 30
0.0
 11
8.3499999999999996
 21
-19.0
 31
0.0
  0
LINE
  5
178
100
AcDbEntity
  8
0
  6
CONTINUOUS
 62
               4
100
AcDbLine
 10
0.0
 20
-13.0
 30
0.0
 11
4.0
 21
-13.0
 31
0.0
  0
LINE
  5
179
100
AcDbEntity
  8
0
  6
CONTINUOUS
 62
               4
100
AcDbLine
 10
5.5
 20
-23.0
 30
0.0
 11
1.5
 21
-27.0
 31
0.0
  0
LINE
  5
17A
100
AcDbEntity
  8
0
  6
CONTINUOUS
 62
               4
100
AcDbLine
 10
5.5
 20
4.0
 30
0.0
 11
1.5
 21
8.0
 31
0.0
  0
LINE
  5
17B
100
AcDbEntity
  8
0
  6
CONTINUOUS
 62
               4
100
AcDbLine
 10
0.5
 20
-6.0
 30
0.0
 11
0.5
 21
-6.7999999999999998
 31
0.0
  0
LINE
  5
17C
100
AcDbEntity
  8
0
  6
CONTINUOUS
 62
               4
100
AcDbLine
 10
0.0
 20
-6.0
 30
0.0
 11
4.0
 21
-6.0
 31
0.0
  0
LINE
  5
17D
100
AcDbEntity
  8
0
  6
CONTINUOUS
 62
               4
100
AcDbLine
 10
4.0
 20
-2.0
 30
0.0
 11
4.0
 21
-6.0
 31
0.0
  0
LINE
  5
17E
100
AcDbEntity
  8
0
  6
CONTINUOUS
 62
               4
100
AcDbLine
 10
0.0
 20
-2.0
 30
0.0
 11
4.0
 21
-2.0
 31
0.0
  0
LINE
  5
17F
100
AcDbEntity
  8
0
  6
CONTINUOUS
 62
               4
100
AcDbLine
 10
0.5
 20
-6.7999999999999998
 30
0.0
 11
5.5
 21
-6.7999999999999998
 31
0.0
  0
LINE
  5
180
100
AcDbEntity
  8
0
  6
CONTINUOUS
 62
               4
100
AcDbLine
 10
-2.0
 20
8.0
 30
0.0
 11
-2.0
 21
7.0
 31
0.0
  0
LINE
  5
181
100
AcDbEntity
  8
0
  6
CONTINUOUS
 62
               4
100
AcDbLine
 10
-2.0
 20
8.0
 30
0.0
 11
1.5
 21
8.0
 31
0.0
  0
LINE
  5
182
100
AcDbEntity
  8
0
  6
CONTINUOUS
 62
               4
100
AcDbLine
 10
5.5
 20
4.0
 30
0.0
 11
5.5
 21
-6.7999999999999998
 31
0.0
  0
ENDBLK
  5
183
100
AcDbEntity
  8
0
100
AcDbBlockEnd
  0
BLOCK
  5
184
100
AcDbEntity
  8
0
100
AcDbBlockBegin
  2
MS_9
 70
               0
 10
0.0
 20
0.0
 30
0.0
  3
MS_9
  1

  0
ARC
  5
185
100
AcDbEntity
  8
0
  6
CONTINUOUS
 62
               4
100
AcDbCircle
 10
0.0
 20
-4.0193710327148437
 30
0.0
 40
3.4806266876474856
100
AcDbArc
 50
205.17544586662331
 51
334.8245541333755
  0
ARC
  5
186
100
AcDbEntity
  8
0
  6
CONTINUOUS
 62
               4
100
AcDbCircle
 10
-5.0004579014281267
 20
-4.0192948330520393
 30
0.0
 40
3.4802447072157019
100
AcDbArc
 50
205.17978800157687
 51
315.92845838486187
  0
ARC
  5
187
100
AcDbEntity
  8
0
  6
CONTINUOUS
 62
             200
100
AcDbCircle
 10
19.562500000030997
 20
-1.25
 30
0.0
 40
0.8125000000119224
100
AcDbArc
 50
112.6198649500579
 51
247.38013504994132
  0
ARC
  5
188
100
AcDbEntity
  8
0
  6
CONTINUOUS
 62
             200
100
AcDbCircle
 10
18.937499999969003
 20
-1.25
 30
0.0
 40
0.8125000000119224
100
AcDbArc
 50
292.61986495005749
 51
67.380135049941714
  0
ARC
  5
189
100
AcDbEntity
  8
0
  6
CONTINUOUS
 62
             200
100
AcDbCircle
 10
18.937499999969003
 20
-2.75
 30
0.0
 40
0.8125000000119224
100
AcDbArc
 50
292.61986495005749
 51
67.380135049941714
  0
LINE
  5
18A
100
AcDbEntity
  8
0
  6
CONTINUOUS
 62
               4
100
AcDbLine
 10
-11.25
 20
0.0
 30
0.0
 11
-3.75
 21
0.0
 31
0.0
  0
LINE
  5
18B
100
AcDbEntity
  8
0
  6
CENTER
 62
             200
100
AcDbLine
 10
0.0
 20
4.0
 30
0.0
 11
0.0
 21
-8.3699999999999992
 31
0.0
  0
LINE
  5
18C
100
AcDbEntity
  8
0
  6
CONTINUOUS
 62
               4
100
AcDbLine
 10
-3.75
 20
2.0
 30
0.0
 11
-3.75
 21
-5.5
 31
0.0
  0
LINE
  5
18D
100
AcDbEntity
  8
0
  6
CONTINUOUS
 62
               4
100
AcDbLine
 10
3.75
 20
2.0
 30
0.0
 11
3.75
 21
-5.5
 31
0.0
  0
LINE
  5
18E
100
AcDbEntity
  8
0
  6
CONTINUOUS
 62
               4
100
AcDbLine
 10
-3.75
 20
-5.5
 30
0.0
 11
3.75
 21
-5.5
 31
0.0
  0
LINE
  5
18F
100
AcDbEntity
  8
0
  6
CONTINUOUS
 62
               4
100
AcDbLine
 10
0.0
 20
-7.5
 30
0.0
 11
1.2
 21
-6.29
 31
0.0
  0
LINE
  5
190
100
AcDbEntity
  8
0
  6
CONTINUOUS
 62
               4
100
AcDbLine
 10
0.0
 20
-7.5
 30
0.0
 11
-1.2
 21
-6.29
 31
0.0
  0
LINE
  5
191
100
AcDbEntity
  8
0
  6
CONTINUOUS
 62
               4
100
AcDbLine
 10
-11.25
 20
-4.0
 30
0.0
 11
-3.75
 21
-4.0
 31
0.0
  0
LINE
  5
192
100
AcDbEntity
  8
0
  6
CENTER
 62
             200
100
AcDbLine
 10
-13.630000000000001
 20
-2.0
 30
0.0
 11
21.0
 21
-2.0
 31
0.0
  0
LINE
  5
193
100
AcDbEntity
  8
0
  6
CONTINUOUS
 62
               4
100
AcDbLine
 10
-9.25
 20
0.0
 30
0.0
 11
-9.25
 21
-4.0
 31
0.0
  0
LINE
  5
194
100
AcDbEntity
  8
0
  6
CONTINUOUS
 62
               4
100
AcDbLine
 10
-10.25
 20
0.0
 30
0.0
 11
-10.25
 21
-4.0
 31
0.0
  0
LINE
  5
195
100
AcDbEntity
  8
0
  6
CONTINUOUS
 62
               4
100
AcDbLine
 10
-11.25
 20
0.0
 30
0.0
 11
-11.25
 21
-4.0
 31
0.0
  0
LINE
  5
196
100
AcDbEntity
  8
0
  6
CONTINUOUS
 62
               4
100
AcDbLine
 10
-5.0
 20
-7.5
 30
0.0
 11
-6.2000000000000002
 21
-6.29
 31
0.0
  0
LINE
  5
197
100
AcDbEntity
  8
0
  6
CONTINUOUS
 62
               4
100
AcDbLine
 10
-5.0
 20
-7.5
 30
0.0
 11
-3.79
 21
-6.29
 31
0.0
  0
LINE
  5
198
100
AcDbEntity
  8
0
  6
CONTINUOUS
 62
               4
100
AcDbLine
 10
-21.25
 20
0.0
 30
0.0
 11
-11.25
 21
0.0
 31
0.0
  0
LINE
  5
199
100
AcDbEntity
  8
0
  6
CONTINUOUS
 62
               4
100
AcDbLine
 10
-19.25
 20
0.0
 30
0.0
 11
-19.25
 21
-4.0
 31
0.0
  0
LINE
  5
19A
100
AcDbEntity
  8
0
  6
CONTINUOUS
 62
               4
100
AcDbLine
 10
-20.25
 20
0.0
 30
0.0
 11
-20.25
 21
-4.0
 31
0.0
  0
LINE
  5
19B
100
AcDbEntity
  8
0
  6
CONTINUOUS
 62
               4
100
AcDbLine
 10
-3.75
 20
-1.5
 30
0.0
 11
3.75
 21
-1.5
 31
0.0
  0
LINE
  5
19C
100
AcDbEntity
  8
0
  6
CONTINUOUS
 62
               4
100
AcDbLine
 10
-8.75
 20
-5.5
 30
0.0
 11
-3.75
 21
-5.5
 31
0.0
  0
LINE
  5
19D
100
AcDbEntity
  8
0
  6
CONTINUOUS
 62
               4
100
AcDbLine
 10
-3.75
 20
2.0
 30
0.0
 11
3.75
 21
2.0
 31
0.0
  0
LINE
  5
19E
100
AcDbEntity
  8
0
  6
CENTER
 62
             200
100
AcDbLine
 10
-5.0
 20
4.0
 30
0.0
 11
-5.0
 21
-8.3699999999999992
 31
0.0
  0
LINE
  5
19F
100
AcDbEntity
  8
0
  6
CONTINUOUS
 62
               4
100
AcDbLine
 10
-8.75
 20
-4.0
 30
0.0
 11
-8.75
 21
-5.5
 31
0.0
  0
LINE
  5
1A0
100
AcDbEntity
  8
0
  6
CONTINUOUS
 62
               4
100
AcDbLine
 10
3.75
 20
-4.0
 30
0.0
 11
10.75
 21
-4.0
 31
0.0
  0
LINE
  5
1A1
100
AcDbEntity
  8
0
  6
CONTINUOUS
 62
               4
100
AcDbLine
 10
10.75
 20
0.0
 30
0.0
 11
10.75
 21
-4.0
 31
0.0
  0
LINE
  5
1A2
100
AcDbEntity
  8
0
  6
CONTINUOUS
 62
               4
100
AcDbLine
 10
10.75
 20
-3.5
 30
0.0
 11
19.25
 21
-3.5
 31
0.0
  0
LINE
  5
1A3
100
AcDbEntity
  8
0
  6
CONTINUOUS
 62
               4
100
AcDbLine
 10
10.75
 20
-0.5
 30
0.0
 11
19.25
 21
-0.5
 31
0.0
  0
LINE
  5
1A4
100
AcDbEntity
  8
0
  6
CONTINUOUS
 62
               4
100
AcDbLine
 10
-10.25
 20
0.0
 30
0.0
 11
-10.25
 21
-4.0
 31
0.0
  0
LINE
  5
1A5
100
AcDbEntity
  8
0
  6
CONTINUOUS
 62
               4
100
AcDbLine
 10
-21.25
 20
0.0
 30
0.0
 11
-21.25
 21
-4.0
 31
0.0
  0
LINE
  5
1A6
100
AcDbEntity
  8
0
  6
CONTINUOUS
 62
               4
100
AcDbLine
 10
-21.25
 20
-4.0
 30
0.0
 11
-11.25
 21
-4.0
 31
0.0
  0
LINE
  5
1A7
100
AcDbEntity
  8
0
  6
CONTINUOUS
 62
               4
100
AcDbLine
 10
3.75
 20
0.0
 30
0.0
 11
10.75
 21
0.0
 31
0.0
  0
LINE
  5
1A8
100
AcDbEntity
  8
0
  6
CENTER
 62
             200
100
AcDbLine
 10
-23.550000000000001
 20
-2.0
 30
0.0
 11
-1.8999999999999999
 21
-2.0
 31
0.0
  0
ENDBLK
  5
1A9
100
AcDbEntity
  8
0
100
AcDbBlockEnd
  0
ENDSEC
  0
SECTION
  2
ENTITIES
  0
CIRCLE
  5
1AA
100
AcDbEntity
  8
0
  6
CONTINUOUS
 62
               7
100
AcDbCircle
 10
-43.630000000000003
 20
-33.270000000000003
 30
0.0
 40
3.4999999999999978
  0
LINE
  5
1AB
100
AcDbEntity
  8
0
  6
CONTINUOUS
 62
               7
100
AcDbLine
 10
-43.630000000000003
 20
-37.311451884327383
 30
0.0
 11
-40.129999999999995
 21
-35.290725942163689
 31
0.0
  0
LINE
  5
1AC
100
AcDbEntity
  8
0
  6
CONTINUOUS
 62
               7
100
AcDbLine
 10
-47.130000000000003
 20
-31.249274057836317
 30
0.0
 11
-43.630000000000003
 21
-29.228548115672627
 31
0.0
  0
LINE
  5
1AD
100
AcDbEntity
  8
0
  6
CONTINUOUS
 62
               7
100
AcDbLine
 10
-47.130000000000003
 20
-35.290725942163689
 30
0.0
 11
-43.630000000000003
 21
-37.311451884327383
 31
0.0
  0
LINE
  5
1AE
100
AcDbEntity
  8
0
  6
CONTINUOUS
 62
               7
100
AcDbLine
 10
-43.630000000000003
 20
-29.228548115672627
 30
0.0
 11
-40.130000000000003
 21
-31.249274057836317
 31
0.0
  0
LINE
  5
1AF
100
AcDbEntity
  8
0
  6
CONTINUOUS
 62
               7
100
AcDbLine
 10
-47.130000000000003
 20
-31.249274057836317
 30
0.0
 11
-47.130000000000003
 21
-35.290725942163689
 31
0.0
  0
LINE
  5
1B0
100
AcDbEntity
  8
0
  6
CONTINUOUS
 62
               7
100
AcDbLine
 10
-40.130000000000003
 20
-31.249274057836317
 30
0.0
 11
-40.130000000000003
 21
-35.290725942163689
 31
0.0
  0
CIRCLE
  5
1B1
100
AcDbEntity
  8
0
  6
CONTINUOUS
 62
               2
100
AcDbCircle
 10
-43.629669189453125
 20
-33.271469116210937
 30
0.0
 40
1.6514691162109365
  0
CIRCLE
  5
1B2
100
AcDbEntity
  8
0
  6
CONTINUOUS
 62
               7
100
AcDbCircle
 10
-43.629669189453125
 20
-33.271469116210937
 30
0.0
 40
2.0014691162109379
  0
INSERT
  5
1B3
100
AcDbEntity
  8
0
100
AcDbBlockReference
  2
MS_9
 10
163.27830505371094
 20
21.728485107421875
 30
0.0
  0
INSERT
  5
1B4
100
AcDbEntity
  8
0
100
AcDbBlockReference
  2
MS_8
 10
93.278244018554688
 20
-28.771484375
 30
0.0
  0
INSERT
  5
1B5
100
AcDbEntity
  8
0
100
AcDbBlockReference
  2
MS_7
 10
163.27830505371094
 20
-28.771453857421875
 30
0.0
  0
INSERT
  5
1B6
100
AcDbEntity
  8
0
100
AcDbBlockReference
  2
MS_6
 10
31.370361328125
 20
24.728485107421875
 30
0.0
  0
INSERT
  5
1B7
100
AcDbEntity
  8
0
100
AcDbBlockReference
  2
MS_5
 10
-36.629669189453125
 20
-25.771469116210938
 30
0.0
  0
INSERT
  5
1B8
100
AcDbEntity
  8
0
100
AcDbBlockReference
  2
MS_4
 10
31.370361328125
 20
-25.771484375
 30
0.0
  0
INSERT
  5
1B9
100
AcDbEntity
  8
0
100
AcDbBlockReference
  2
MS_3
 10
-98.0291748046875
 20
25.728485107421875
 30
0.0
  0
INSERT
  5
1BA
100
AcDbEntity
  8
0
100
AcDbBlockReference
  2
MS_2
 10
-167.02914428710937
 20
-24.271499633789063
 30
0.0
  0
INSERT
  5
1BB
100
AcDbEntity
  8
0
100
AcDbBlockReference
  2
MS_1
 10
-98.0291748046875
 20
-24.271484375
 30
0.0
  0
MTEXT
  5
1BC
100
AcDbEntity
  8
0
  6
CONTINUOUS
 62
               7
100
AcDbMText
 10
-191.44960474402583
 20
129.10000610351562
 30
0.0
 40
4.5
 41
0.0
 71
               4
 72
               1
  1
\W1.067;\A1;CS-MULTI MOUNT CYL
  7
MX_NOTE_STANDARD
  0
MTEXT
  5
1BD
100
AcDbEntity
  8
0
  6
CONTINUOUS
 62
               7
100
AcDbMText
 10
29.512281713806029
 20
89.600006103515625
 30
0.0
 40
4.5
 41
0.0
 71
               4
 72
               1
  1
\W1.105;\A1;CS11TA2
  7
MX_NOTE_STANDARD
  0
MTEXT
  5
1BE
100
AcDbEntity
  8
0
  6
CONTINUOUS
 62
               7
100
AcDbMText
 10
29.433334350585938
 20
95.600006103515625
 30
0.0
 40
4.5
 41
0.0
 71
               4
 72
               1
  1
\A1;CS5TA2
  7
MX_NOTE_STANDARD
  0
MTEXT
  5
1BF
100
AcDbEntity
  8
0
  6
CONTINUOUS
 62
               7
100
AcDbMText
 10
29.470834348239006
 20
101.60000610351562
 30
0.0
 40
4.5
 41
0.0
 71
               4
 72
               1
  1
\W1.050;\A1;ZC153A2
  7
MX_NOTE_STANDARD
  0
MTEXT
  5
1C0
100
AcDbEntity
  8
0
  6
CONTINUOUS
 62
               7
100
AcDbMText
 10
-55.998483831573274
 20
107.60000610351562
 30
0.0
 40
4.5
 41
0.0
 71
               4
 72
               1
  1
\W1.091;\A1;MODEL:CS-BDAS10*10-ZC130A2
  7
MX_NOTE_STANDARD
  0
MTEXT
  5
1C1
100
AcDbEntity
  8
0
  6
CONTINUOUS
 62
               7
100
AcDbMText
 10
-104.6710526367799
 20
89.600006103515625
 30
0.0
 40
4.5
 41
0.0
 71
               4
 72
               1
  1
\W1.105;\A1;CS11TA2
  7
MX_NOTE_STANDARD
  0
MTEXT
  5
1C2
100
AcDbEntity
  8
0
  6
CONTINUOUS
 62
               7
100
AcDbMText
 10
-104.75
 20
95.600006103515625
 30
0.0
 40
4.5
 41
0.0
 71
               4
 72
               1
  1
\A1;CS5TA2
  7
MX_NOTE_STANDARD
  0
MTEXT
  5
1C3
100
AcDbEntity
  8
0
  6
CONTINUOUS
 62
               7
100
AcDbMText
 10
-104.71250000234693
 20
101.60000610351562
 30
0.0
 40
4.5
 41
0.0
 71
               4
 72
               1
  1
\W1.050;\A1;ZC153A2
  7
MX_NOTE_STANDARD
  0
MTEXT
  5
1C4
100
AcDbEntity
  8
0
  6
CONTINUOUS
 62
               7
100
AcDbMText
 10
-185.6964285717707
 20
107.60000610351562
 30
0.0
 40
4.5
 41
0.0
 71
               4
 72
               1
  1
\W1.071;\A1;MODEL:CS-BDAS6*10-ZC130A2
  7
MX_NOTE_STANDARD
  0
MTEXT
  5
1C5
100
AcDbEntity
  8
0
  6
CONTINUOUS
 62
               7
100
AcDbMText
 10
159.19561606439197
 20
89.600006103515625
 30
0.0
 40
4.5
 41
0.0
 71
               4
 72
               1
  1
\W1.105;\A1;CS11TA2
  7
MX_NOTE_STANDARD
  0
MTEXT
  5
1C6
100
AcDbEntity
  8
0
  6
CONTINUOUS
 62
               7
100
AcDbMText
 10
159.11666870117187
 20
95.600006103515625
 30
0.0
 40
4.5
 41
0.0
 71
               4
 72
               1
  1
\A1;CS5TA2
  7
MX_NOTE_STANDARD
  0
MTEXT
  5
1C7
100
AcDbEntity
  8
0
  6
CONTINUOUS
 62
               7
100
AcDbMText
 10
159.15416869882495
 20
101.60000610351562
 30
0.0
 40
4.5
 41
0.0
 71
               4
 72
               1
  1
\W1.050;\A1;ZC153A2
  7
MX_NOTE_STANDARD
  0
MTEXT
  5
1C8
100
AcDbEntity
  8
0
  6
CONTINUOUS
 62
               7
100
AcDbMText
 10
73.679168700162947
 20
107.60000610351562
 30
0.0
 40
4.5
 41
0.0
 71
               4
 72
               1
  1
\W1.083;\A1;MODEL:CS-BDAS16*10-ZC130A2
  7
MX_NOTE_STANDARD
  0
MTEXT
  5
1C9
100
AcDbEntity
  8
0
  6
CONTINUOUS
 62
               7
100
AcDbMText
 10
-171.24440298843561
 20
121.10000610351562
 30
0.0
 40
4.5
 41
0.0
 71
               4
 72
               1
  1
\W1.007;\A1;SENSOR SW
  7
MX_NOTE_STANDARD
  0
MTEXT
  5
1CA
100
AcDbEntity
  8
0
  6
CONTINUOUS
 62
               7
100
AcDbMText
 10
115.5267259825148
 20
-126.0
 30
0.0
 40
6.3000001907348633
 41
0.0
 71
               4
 72
               1
  1
\W1.121;\A1;KOGANEI CORP.
  7
MX_NOTE_STANDARD
  0
MTEXT
  5
1CB
100
AcDbEntity
  8
0
  6
CONTINUOUS
 62
               7
100
AcDbMText
 10
137.50455163152421
 20
125.10000610351562
 30
0.0
 40
4.5
 41
0.0
 71
               4
 72
               1
  1
\W1.273;\A1;Ver.1.0
  7
MX_NOTE_STANDARD
  0
ARC
  5
1CC
100
AcDbEntity
  8
0
  6
CONTINUOUS
 62
               7
100
AcDbCircle
 10
113.00161158450845
 20
33.719999999999999
 30
0.0
 40
5.775719264397555
100
AcDbArc
 50
339.74021857776654
 51
20.25978142223267
  0
ARC
  5
1CD
100
AcDbEntity
  8
0
  6
CONTINUOUS
 62
               7
100
AcDbCircle
 10
113.00161158450845
 20
29.719999999999999
 30
0.0
 40
5.775719264397555
100
AcDbArc
 50
339.74021857776654
 51
20.25978142223267
  0
ARC
  5
1CE
100
AcDbEntity
  8
0
  6
CONTINUOUS
 62
               7
100
AcDbCircle
 10
121.35498631047365
 20
29.719999999999999
 30
0.0
 40
5.781909413751344
100
AcDbArc
 50
159.76285879966744
 51
200.23714120033176
  0
ARC
  5
1CF
100
AcDbEntity
  8
0
  6
CONTINUOUS
 62
               7
100
AcDbCircle
 10
121.35498631047365
 20
33.719999999999999
 30
0.0
 40
5.781909413751344
100
AcDbArc
 50
159.76285879966744
 51
200.23714120033176
  0
ARC
  5
1D0
100
AcDbEntity
  8
0
  6
CONTINUOUS
 62
               7
100
AcDbCircle
 10
116.20160853275314
 20
29.719999999999999
 30
0.0
 40
5.7757221273476791
100
AcDbArc
 50
339.74022906087237
 51
20.259770939126831
  0
ARC
  5
1D1
100
AcDbEntity
  8
0
  6
CONTINUOUS
 62
               7
100
AcDbCircle
 10
116.20160853275314
 20
33.719999999999999
 30
0.0
 40
5.7757221273476791
100
AcDbArc
 50
339.74022906087237
 51
20.259770939126831
  0
ARC
  5
1D2
100
AcDbEntity
  8
0
  6
CONTINUOUS
 62
               7
100
AcDbCircle
 10
124.55498325871834
 20
29.719999999999999
 30
0.0
 40
5.7819065503840736
100
AcDbArc
 50
159.7628483389858
 51
200.2371516610134
  0
ARC
  5
1D3
100
AcDbEntity
  8
0
  6
CONTINUOUS
 62
               7
100
AcDbCircle
 10
124.55498325871834
 20
33.719999999999999
 30
0.0
 40
5.7819065503840736
100
AcDbArc
 50
159.7628483389858
 51
200.2371516610134
  0
CIRCLE
  5
1D4
100
AcDbEntity
  8
0
  6
CONTINUOUS
 62
               7
100
AcDbCircle
 10
168.27828979492187
 20
32.52850341796875
 30
0.0
 40
2.0999994277954102
  0
CIRCLE
  5
1D5
100
AcDbEntity
  8
0
  6
CONTINUOUS
 62
               7
100
AcDbCircle
 10
145.27828979492187
 20
30.928497314453125
 30
0.0
 40
2.0999994277954102
  0
CIRCLE
  5
1D6
100
AcDbEntity
  8
0
  6
CONTINUOUS
 62
               2
100
AcDbCircle
 10
145.27828979492187
 20
30.928497314453125
 30
0.0
 40
2.5
  0
CIRCLE
  5
1D7
100
AcDbEntity
  8
0
  6
CONTINUOUS
 62
               2
100
AcDbCircle
 10
168.27828979492187
 20
32.52850341796875
 30
0.0
 40
2.5
  0
CIRCLE
  5
1D8
100
AcDbEntity
  8
0
  6
CONTINUOUS
 62
               7
100
AcDbCircle
 10
132.77828979492187
 20
28.728485107421875
 30
0.0
 40
2.0999994277954102
  0
CIRCLE
  5
1D9
100
AcDbEntity
  8
0
  6
CONTINUOUS
 62
               2
100
AcDbCircle
 10
132.77828979492187
 20
28.728485107421875
 30
0.0
 40
2.5
  0
ARC
  5
1DA
100
AcDbEntity
  8
0
  6
CONTINUOUS
 62
               7
100
AcDbCircle
 10
117.62295538664335
 20
-41.734999999999999
 30
0.0
 40
2.0494201475453275
100
AcDbArc
 50
145.69667114961396
 51
214.30332885038521
  0
ARC
  5
1DB
100
AcDbEntity
  8
0
  6
CONTINUOUS
 62
               7
100
AcDbCircle
 10
116.73365777244479
 20
-41.734999999999999
 30
0.0
 40
2.0439606425848504
100
AcDbArc
 50
325.5921966505947
 51
34.407803349404503
  0
ARC
  5
1DC
100
AcDbEntity
  8
0
  6
CONTINUOUS
 62
               7
100
AcDbCircle
 10
123.2210084325108
 20
-38.269999999999996
 30
0.0
 40
7.6481961247697816
100
AcDbArc
 50
162.42030906991332
 51
197.57969093008592
  0
ARC
  5
1DD
100
AcDbEntity
  8
0
  6
CONTINUOUS
 62
               7
100
AcDbCircle
 10
111.13560472657115
 20
-38.269999999999996
 30
0.0
 40
7.6418920758901541
100
AcDbArc
 50
342.4053334892381
 51
17.594666510761016
  0
ARC
  5
1DE
100
AcDbEntity
  8
0
  6
CONTINUOUS
 62
               7
100
AcDbCircle
 10
117.6231502670679
 20
-34.809988950950881
 30
0.0
 40
2.0467738614236577
100
AcDbArc
 50
154.22582536931196
 51
214.18488863410496
  0
ARC
  5
1DF
100
AcDbEntity
  8
0
  6
CONTINUOUS
 62
               7
100
AcDbCircle
 10
116.73342673635371
 20
-34.810472554143658
 30
0.0
 40
2.0410641152162539
100
AcDbArc
 50
325.72260613914602
 51
25.866679857436207
  0
ARC
  5
1E0
100
AcDbEntity
  8
0
  6
CONTINUOUS
 62
               7
100
AcDbCircle
 10
119.93365472068702
 20
-41.734999999999999
 30
0.0
 40
2.0439631603972686
100
AcDbArc
 50
325.59224499086599
 51
34.407755009133204
  0
ARC
  5
1E1
100
AcDbEntity
  8
0
  6
CONTINUOUS
 62
               7
100
AcDbCircle
 10
114.33560167481338
 20
-38.269999999999996
 30
0.0
 40
7.6418949848831215
100
AcDbArc
 50
342.40534040567962
 51
17.594659594319527
  0
ARC
  5
1E2
100
AcDbEntity
  8
0
  6
CONTINUOUS
 62
               7
100
AcDbCircle
 10
119.93342370130404
 20
-34.810472330978243
 30
0.0
 40
2.0410667488275736
100
AcDbArc
 50
325.72264894631178
 51
25.866637050270597
  0
ARC
  5
1E3
100
AcDbEntity
  8
0
  6
CONTINUOUS
 62
               7
100
AcDbCircle
 10
120.82295233488558
 20
-41.734999999999999
 30
0.0
 40
2.0494176265940895
100
AcDbArc
 50
145.69662306643141
 51
214.30337693356779
  0
ARC
  5
1E4
100
AcDbEntity
  8
0
  6
CONTINUOUS
 62
               7
100
AcDbCircle
 10
120.8231472319714
 20
-34.809989174119757
 30
0.0
 40
2.0467712253141919
100
AcDbArc
 50
154.22578279987877
 51
214.18493120353719
  0
ARC
  5
1E5
100
AcDbEntity
  8
0
  6
CONTINUOUS
 62
               7
100
AcDbCircle
 10
126.42100538075303
 20
-38.269999999999996
 30
0.0
 40
7.6481932155359251
100
AcDbArc
 50
162.4203021648637
 51
197.57969783513553
  0
CIRCLE
  5
1E6
100
AcDbEntity
  8
0
  6
CONTINUOUS
 62
               7
100
AcDbCircle
 10
150.77830505371094
 20
-50.271453857421875
 30
0.0
 40
3.7999992370605469
  0
CIRCLE
  5
1E7
100
AcDbEntity
  8
0
  6
CONTINUOUS
 62
               7
100
AcDbCircle
 10
150.77830505371094
 20
-26.271453857421875
 30
0.0
 40
3.7999992370605469
  0
CIRCLE
  5
1E8
100
AcDbEntity
  8
0
  6
CONTINUOUS
 62
               7
100
AcDbCircle
 10
150.77830505371094
 20
-50.271453857421875
 30
0.0
 40
2.25
  0
CIRCLE
  5
1E9
100
AcDbEntity
  8
0
  6
CONTINUOUS
 62
               7
100
AcDbCircle
 10
150.77830505371094
 20
-26.271453857421875
 30
0.0
 40
2.25
  0
ARC
  5
1EA
100
AcDbEntity
  8
0
  6
CONTINUOUS
 62
               7
100
AcDbCircle
 10
19.867988144698487
 20
-41.268516412219967
 30
0.0
 40
2.9952841989015431
100
AcDbArc
 50
20.695067799295078
 51
56.527437241432942
  0
ARC
  5
1EB
100
AcDbEntity
  8
0
  6
CONTINUOUS
 62
               7
100
AcDbCircle
 10
-5.6750573978844914
 20
29.969999999999999
 30
0.0
 40
5.0479878610520039
100
AcDbArc
 50
159.71605785360092
 51
200.28394214639826
  0
ARC
  5
1EC
100
AcDbEntity
  8
0
  6
CONTINUOUS
 62
               7
100
AcDbCircle
 10
-5.6750573978844914
 20
33.469999999999999
 30
0.0
 40
5.0479878610520039
100
AcDbArc
 50
159.71605785360092
 51
200.28394214639826
  0
ARC
  5
1ED
100
AcDbEntity
  8
0
  6
CONTINUOUS
 62
               7
100
AcDbCircle
 10
-15.784293178030483
 20
29.969999999999999
 30
0.0
 40
5.0567596105714365
100
AcDbArc
 50
339.75278679919649
 51
20.247213200802733
  0
ARC
  5
1EE
100
AcDbEntity
  8
0
  6
CONTINUOUS
 62
               7
100
AcDbCircle
 10
-8.0750512943754167
 20
29.969999999999999
 30
0.0
 40
5.0479935860593086
100
AcDbArc
 50
159.71608186973944
 51
200.28391813025976
  0
ARC
  5
1EF
100
AcDbEntity
  8
0
  6
CONTINUOUS
 62
               7
100
AcDbCircle
 10
-15.784293178030483
 20
33.469999999999999
 30
0.0
 40
5.0567596105714365
100
AcDbArc
 50
339.75278679919649
 51
20.247213200802733
  0
ARC
  5
1F0
100
AcDbEntity
  8
0
  6
CONTINUOUS
 62
               7
100
AcDbCircle
 10
-8.0750512943754167
 20
33.469999999999999
 30
0.0
 40
5.0479935860593086
100
AcDbArc
 50
159.71608186973944
 51
200.28391813025976
  0
CIRCLE
  5
1F1
100
AcDbEntity
  8
0
  6
CONTINUOUS
 62
               7
100
AcDbCircle
 10
14.370315551757813
 20
30.928482055664063
 30
0.0
 40
2.0999994277954102
  0
CIRCLE
  5
1F2
100
AcDbEntity
  8
0
  6
CONTINUOUS
 62
               7
100
AcDbCircle
 10
36.370346069335938
 20
32.528488159179688
 30
0.0
 40
2.0999994277954102
  0
CIRCLE
  5
1F3
100
AcDbEntity
  8
0
  6
CONTINUOUS
 62
               2
100
AcDbCircle
 10
36.370346069335938
 20
32.528488159179688
 30
0.0
 40
2.5
  0
CIRCLE
  5
1F4
100
AcDbEntity
  8
0
  6
CONTINUOUS
 62
               2
100
AcDbCircle
 10
14.370315551757813
 20
30.928482055664063
 30
0.0
 40
2.5
  0
CIRCLE
  5
1F5
100
AcDbEntity
  8
0
  6
CONTINUOUS
 62
               7
100
AcDbCircle
 10
2.8703155517578125
 20
29.728485107421875
 30
0.0
 40
1.25
  0
CIRCLE
  5
1F6
100
AcDbEntity
  8
0
  6
CONTINUOUS
 62
               2
100
AcDbCircle
 10
2.8703155517578125
 20
29.728485107421875
 30
0.0
 40
1.5
  0
ARC
  5
1F7
100
AcDbEntity
  8
0
  6
CONTINUOUS
 62
               7
100
AcDbCircle
 10
-13.384299281539572
 20
33.469999999999999
 30
0.0
 40
5.0567653369339673
100
AcDbArc
 50
339.75281073208771
 51
20.247189267911477
  0
ARC
  5
1F8
100
AcDbEntity
  8
0
  6
CONTINUOUS
 62
               7
100
AcDbCircle
 10
-13.384299281539572
 20
29.969999999999999
 30
0.0
 40
5.0567653369339673
100
AcDbArc
 50
339.75281073208771
 51
20.247189267911477
  0
CIRCLE
  5
1F9
100
AcDbEntity
  8
0
  6
CONTINUOUS
 62
               7
100
AcDbCircle
 10
19.870361328125
 20
-25.271484375
 30
0.0
 40
3.0
  0
ARC
  5
1FA
100
AcDbEntity
  8
0
  6
CONTINUOUS
 62
               7
100
AcDbCircle
 10
19.869212033138542
 20
-41.270520252394334
 30
0.0
 40
3.0009308728369497
100
AcDbArc
 50
123.5661328273311
 51
336.44041471057875
  0
CIRCLE
  5
1FB
100
AcDbEntity
  8
0
  6
CONTINUOUS
 62
               7
100
AcDbCircle
 10
19.870361328125
 20
-41.271484375
 30
0.0
 40
1.75
  0
CIRCLE
  5
1FC
100
AcDbEntity
  8
0
  6
CONTINUOUS
 62
               7
100
AcDbCircle
 10
19.870361328125
 20
-25.271484375
 30
0.0
 40
1.75
  0
ARC
  5
1FD
100
AcDbEntity
  8
0
  6
CONTINUOUS
 62
               7
100
AcDbCircle
 10
-15.01838838801315
 20
-33.262648713011927
 30
0.0
 40
6.6883924279552813
100
AcDbArc
 50
359.93702555468258
 51
17.512668184065678
  0
ARC
  5
1FE
100
AcDbEntity
  8
0
  6
CONTINUOUS
 62
               7
100
AcDbCircle
 10
-10.118743931009238
 20
-30.240000000000002
 30
0.0
 40
1.7907494558135855
100
AcDbArc
 50
325.66645111781912
 51
34.333548882180182
  0
ARC
  5
1FF
100
AcDbEntity
  8
0
  6
CONTINUOUS
 62
               7
100
AcDbCircle
 10
-4.0457271374690853
 20
-33.293548176242524
 30
0.0
 40
6.6843143416038995
100
AcDbArc
 50
162.19833751902979
 51
179.79815223584683
  0
ARC
  5
200
100
AcDbEntity
  8
0
  6
CONTINUOUS
 62
               7
100
AcDbCircle
 10
-8.9405807531702468
 20
-36.299999999999997
 30
0.0
 40
1.7830571844317624
100
AcDbArc
 50
145.49745424518139
 51
214.50254575481799
  0
ARC
  5
201
100
AcDbEntity
  8
0
  6
CONTINUOUS
 62
               7
100
AcDbCircle
 10
-10.118745415231643
 20
-36.299999999999997
 30
0.0
 40
1.790750681437427
100
AcDbArc
 50
325.66647790167087
 51
34.333522098328103
  0
ARC
  5
202
100
AcDbEntity
  8
0
  6
CONTINUOUS
 62
               7
100
AcDbCircle
 10
-4.0461734189563172
 20
-33.24652252181486
 30
0.0
 40
6.6838678141812498
100
AcDbArc
 50
180.20125520389425
 51
197.80225504122754
  0
ARC
  5
203
100
AcDbEntity
  8
0
  6
CONTINUOUS
 62
               7
100
AcDbCircle
 10
-15.017942376237222
 20
-33.27741973433983
 30
0.0
 40
6.6879464920352998
100
AcDbArc
 50
342.4867412266774
 51
0.0635650345728034
  0
ARC
  5
204
100
AcDbEntity
  8
0
  6
CONTINUOUS
 62
               7
100
AcDbCircle
 10
-8.9405822407868101
 20
-30.240000000000002
 30
0.0
 40
1.7830559584856314
100
AcDbArc
 50
145.49742716791806
 51
214.50257283208103
  0
ARC
  5
205
100
AcDbEntity
  8
0
  6
CONTINUOUS
 62
               7
100
AcDbCircle
 10
-17.417966225283131
 20
-33.277416074337744
 30
0.0
 40
6.6879703370070711
100
AcDbArc
 50
342.48677280853246
 51
0.0635334527179109
  0
ARC
  5
206
100
AcDbEntity
  8
0
  6
CONTINUOUS
 62
               7
100
AcDbCircle
 10
-12.518739311718299
 20
-36.299999999999997
 30
0.0
 40
1.7907456413519804
100
AcDbArc
 50
325.66636775918442
 51
34.333632240814588
  0
ARC
  5
207
100
AcDbEntity
  8
0
  6
CONTINUOUS
 62
               7
100
AcDbCircle
 10
-11.340574649656887
 20
-36.299999999999997
 30
0.0
 40
1.7830622143467079
100
AcDbArc
 50
145.49756533957361
 51
214.50243466042579
  0
ARC
  5
208
100
AcDbEntity
  8
0
  6
CONTINUOUS
 62
               7
100
AcDbCircle
 10
-6.4461972492638324
 20
-33.246526296913082
 30
0.0
 40
6.6838439707615098
100
AcDbArc
 50
180.20122356044203
 51
197.80228668467976
  0
ARC
  5
209
100
AcDbEntity
  8
0
  6
CONTINUOUS
 62
               7
100
AcDbCircle
 10
-12.518737827493664
 20
-30.240000000000002
 30
0.0
 40
1.7907444157279078
100
AcDbArc
 50
325.66634097514157
 51
34.333659024857702
  0
ARC
  5
20A
100
AcDbEntity
  8
0
  6
CONTINUOUS
 62
               7
100
AcDbCircle
 10
-17.418412235469241
 20
-33.262652372770035
 30
0.0
 40
6.6884162713755
100
AcDbArc
 50
359.93705713022126
 51
17.512636608526858
  0
ARC
  5
20B
100
AcDbEntity
  8
0
  6
CONTINUOUS
 62
               7
100
AcDbCircle
 10
-6.445750966183831
 20
-33.293544401396623
 30
0.0
 40
6.6842904997396335
100
AcDbArc
 50
162.19830588191988
 51
179.79818387295674
  0
ARC
  5
20C
100
AcDbEntity
  8
0
  6
CONTINUOUS
 62
               7
100
AcDbCircle
 10
-11.340576137271237
 20
-30.240000000000002
 30
0.0
 40
1.7830609884007673
100
AcDbArc
 50
145.49753826250333
 51
214.50246173749576
  0
ARC
  5
20D
100
AcDbEntity
  8
0
  6
CONTINUOUS
 62
               7
100
AcDbCircle
 10
-109.70355165879178
 20
-26.280000000000001
 30
0.0
 40
3.003568305704202
100
AcDbArc
 50
359.80924061138757
 51
0.1907593886116837
  0
CIRCLE
  5
20E
100
AcDbEntity
  8
0
  6
CONTINUOUS
 62
               7
100
AcDbCircle
 10
-125.5291748046875
 20
30.728485107421875
 30
0.0
 40
1.0
  0
CIRCLE
  5
20F
100
AcDbEntity
  8
0
  6
CONTINUOUS
 62
               2
100
AcDbCircle
 10
-125.5291748046875
 20
30.728485107421875
 30
0.0
 40
1.5
  0
ARC
  5
210
100
AcDbEntity
  8
0
  6
CONTINUOUS
 62
               7
100
AcDbCircle
 10
-139.40055170843451
 20
30.344999999999999
 30
0.0
 40
3.9758824239788124
100
AcDbArc
 50
339.76721362130678
 51
20.232786378692406
  0
ARC
  5
211
100
AcDbEntity
  8
0
  6
CONTINUOUS
 62
               7
100
AcDbCircle
 10
-139.40055170843451
 20
33.094999999999999
 30
0.0
 40
3.9758824239788124
100
AcDbArc
 50
339.76721362130678
 51
20.232786378692406
  0
ARC
  5
212
100
AcDbEntity
  8
0
  6
CONTINUOUS
 62
               7
100
AcDbCircle
 10
-133.25780398995983
 20
30.344999999999999
 30
0.0
 40
3.9680433638203807
100
AcDbArc
 50
159.72548844485701
 51
200.27451155514217
  0
ARC
  5
213
100
AcDbEntity
  8
0
  6
CONTINUOUS
 62
               7
100
AcDbCircle
 10
-133.25780398995983
 20
33.094999999999999
 30
0.0
 40
3.9680433638203807
100
AcDbArc
 50
159.72548844485701
 51
200.27451155514217
  0
ARC
  5
214
100
AcDbEntity
  8
0
  6
CONTINUOUS
 62
               7
100
AcDbCircle
 10
-141.2005395014244
 20
30.344999999999999
 30
0.0
 40
3.9758709702010946
100
AcDbArc
 50
339.76715278416242
 51
20.23284721583677
  0
ARC
  5
215
100
AcDbEntity
  8
0
  6
CONTINUOUS
 62
               7
100
AcDbCircle
 10
-135.0578223004749
 20
30.344999999999999
 30
0.0
 40
3.9680261877717098
100
AcDbArc
 50
159.72539682809216
 51
200.27460317190705
  0
ARC
  5
216
100
AcDbEntity
  8
0
  6
CONTINUOUS
 62
               7
100
AcDbCircle
 10
-141.2005395014244
 20
33.094999999999999
 30
0.0
 40
3.9758709702010946
100
AcDbArc
 50
339.76715278416242
 51
20.23284721583677
  0
ARC
  5
217
100
AcDbEntity
  8
0
  6
CONTINUOUS
 62
               7
100
AcDbCircle
 10
-135.0578223004749
 20
33.094999999999999
 30
0.0
 40
3.9680261877717098
100
AcDbArc
 50
159.72539682809216
 51
200.27460317190705
  0
CIRCLE
  5
218
100
AcDbEntity
  8
0
  6
CONTINUOUS
 62
               7
100
AcDbCircle
 10
-92.5291748046875
 20
32.528488159179688
 30
0.0
 40
2.0999994277954102
  0
CIRCLE
  5
219
100
AcDbEntity
  8
0
  6
CONTINUOUS
 62
               7
100
AcDbCircle
 10
-115.5291748046875
 20
30.928482055664063
 30
0.0
 40
2.0999994277954102
  0
CIRCLE
  5
21A
100
AcDbEntity
  8
0
  6
CONTINUOUS
 62
               2
100
AcDbCircle
 10
-92.5291748046875
 20
32.528488159179688
 30
0.0
 40
2.5
  0
CIRCLE
  5
21B
100
AcDbEntity
  8
0
  6
CONTINUOUS
 62
               2
100
AcDbCircle
 10
-115.5291748046875
 20
30.928482055664063
 30
0.0
 40
2.5
  0
ARC
  5
21C
100
AcDbEntity
  8
0
  6
CONTINUOUS
 62
               7
100
AcDbCircle
 10
-133.77834669429291
 20
-31.248820679476729
 30
0.0
 40
5.2516960124289422
100
AcDbArc
 50
180.23106610996231
 51
197.75142844416877
  0
ARC
  5
21D
100
AcDbEntity
  8
0
  6
CONTINUOUS
 62
               7
100
AcDbCircle
 10
-137.62345497128254
 20
-33.644999999999996
 30
0.0
 40
1.4034320088451289
100
AcDbArc
 50
145.49567240139521
 51
214.50432759860422
  0
ARC
  5
21E
100
AcDbEntity
  8
0
  6
CONTINUOUS
 62
               7
100
AcDbCircle
 10
-142.48675267695202
 20
-31.250358894634296
 30
0.0
 40
5.2567893699160333
100
AcDbArc
 50
359.78592350166446
 51
17.381319458563212
  0
ARC
  5
21F
100
AcDbEntity
  8
0
  6
CONTINUOUS
 62
               7
100
AcDbCircle
 10
-138.63486418747362
 20
-28.884999999999998
 30
0.0
 40
1.4102955630854881
100
AcDbArc
 50
325.68712817354015
 51
34.312871826458945
  0
ARC
  5
220
100
AcDbEntity
  8
0
  6
CONTINUOUS
 62
               7
100
AcDbCircle
 10
-133.77635873077568
 20
-31.281390136670492
 30
0.0
 40
5.253653616380733
100
AcDbArc
 50
162.25299201377382
 51
179.87578030106189
  0
ARC
  5
221
100
AcDbEntity
  8
0
  6
CONTINUOUS
 62
               7
100
AcDbCircle
 10
-137.62346709314988
 20
-28.884999999999998
 30
0.0
 40
1.4034220194322109
100
AcDbArc
 50
145.49539206490968
 51
214.50460793508964
  0
ARC
  5
222
100
AcDbEntity
  8
0
  6
CONTINUOUS
 62
               7
100
AcDbCircle
 10
-136.8348763944781
 20
-28.884999999999998
 30
0.0
 40
1.4103056457422114
100
AcDbArc
 50
325.68740773382945
 51
34.312592266169624
  0
ARC
  5
223
100
AcDbEntity
  8
0
  6
CONTINUOUS
 62
               7
100
AcDbCircle
 10
-136.83488848489827
 20
-33.644999999999996
 30
0.0
 40
1.4103156321365176
100
AcDbArc
 50
325.68768462020779
 51
34.312315379791201
  0
ARC
  5
224
100
AcDbEntity
  8
0
  6
CONTINUOUS
 62
               7
100
AcDbCircle
 10
-135.82343666084427
 20
-33.644999999999996
 30
0.0
 40
1.4034470982117617
100
AcDbArc
 50
145.49609585036052
 51
214.50390414963891
  0
ARC
  5
225
100
AcDbEntity
  8
0
  6
CONTINUOUS
 62
               7
100
AcDbCircle
 10
-140.68676460472344
 20
-31.250360695052532
 30
0.0
 40
5.2568012908775374
100
AcDbArc
 50
359.7859436106794
 51
17.381299349546289
  0
ARC
  5
226
100
AcDbEntity
  8
0
  6
CONTINUOUS
 62
               7
100
AcDbCircle
 10
-131.97832881893362
 20
-31.248817851097098
 30
0.0
 40
5.2517138990500163
100
AcDbArc
 50
180.23109618062543
 51
197.75139837350565
  0
ARC
  5
227
100
AcDbEntity
  8
0
  6
CONTINUOUS
 62
               7
100
AcDbCircle
 10
-131.97634085671513
 20
-31.28139294705737
 30
0.0
 40
5.253671496493018
100
AcDbArc
 50
162.25302224075315
 51
179.87575007408256
  0
ARC
  5
228
100
AcDbEntity
  8
0
  6
CONTINUOUS
 62
               7
100
AcDbCircle
 10
-142.48482515755921
 20
-31.280026558345405
 30
0.0
 40
5.2548347232229595
100
AcDbArc
 50
342.61641311780261
 51
0.1093240520544508
  0
ARC
  5
229
100
AcDbEntity
  8
0
  6
CONTINUOUS
 62
               7
100
AcDbCircle
 10
-135.82344878264286
 20
-28.884999999999998
 30
0.0
 40
1.403437108804753
100
AcDbArc
 50
145.49581552149311
 51
214.50418447850618
  0
ARC
  5
22A
100
AcDbEntity
  8
0
  6
CONTINUOUS
 62
               7
100
AcDbCircle
 10
-140.68483708632624
 20
-31.280024746380889
 30
0.0
 40
5.2548466485112169
100
AcDbArc
 50
342.61643312254273
 51
0.109304047316363
  0
ARC
  5
22B
100
AcDbEntity
  8
0
  6
CONTINUOUS
 62
               7
100
AcDbCircle
 10
-138.63487627793998
 20
-33.644999999999996
 30
0.0
 40
1.4103055494846837
100
AcDbArc
 50
325.68740506493532
 51
34.312594935063693
  0
ARC
  5
22C
100
AcDbEntity
  8
0
  6
CONTINUOUS
 62
               7
100
AcDbCircle
 10
-109.52187448902829
 20
-25.263510643799599
 30
0.0
 40
2.9959967383115305
100
AcDbArc
 50
340.3700024474129
 51
294.4885441995857
  0
ARC
  5
22D
100
AcDbEntity
  8
0
  6
CONTINUOUS
 62
               7
100
AcDbCircle
 10
-109.52650539810602
 20
-37.272538667022978
 30
0.0
 40
2.9961985157530218
100
AcDbArc
 50
160.45156802033648
 51
336.44306161127054
  0
ARC
  5
22E
100
AcDbEntity
  8
0
  6
CONTINUOUS
 62
               7
100
AcDbCircle
 10
-109.52500000000001
 20
-37.271487225063744
 30
0.0
 40
1.7499147584856394
100
AcDbArc
 50
145.0887924681231
 51
34.911207531876222
  0
CIRCLE
  5
22F
100
AcDbEntity
  8
0
  6
CONTINUOUS
 62
               7
100
AcDbCircle
 10
-109.5291748046875
 20
-25.271484375
 30
0.0
 40
1.75
  0
CIRCLE
  5
230
100
AcDbEntity
  8
0
  6
CONTINUOUS
 62
               2
100
AcDbCircle
 10
83.278244018554688
 20
-38.271484375
 30
0.0
 40
2.0999994277954102
  0
CIRCLE
  5
231
100
AcDbEntity
  8
0
  6
CONTINUOUS
 62
               7
100
AcDbCircle
 10
83.278244018554688
 20
-38.271484375
 30
0.0
 40
2.5
  0
CIRCLE
  5
232
100
AcDbEntity
  8
0
  6
CONTINUOUS
 62
               7
100
AcDbCircle
 10
83.278244018554688
 20
-38.271484375
 30
0.0
 40
4.0
  0
CIRCLE
  5
233
100
AcDbEntity
  8
0
  6
CONTINUOUS
 62
               7
100
AcDbCircle
 10
77.278244018554687
 20
-25.771484375
 30
0.0
 40
3.5
  0
CIRCLE
  5
234
100
AcDbEntity
  8
0
  6
CONTINUOUS
 62
               7
100
AcDbCircle
 10
89.278244018554688
 20
-50.771469116210937
 30
0.0
 40
3.5
  0
ARC
  5
235
100
AcDbEntity
  8
0
  6
CONTINUOUS
 62
               7
100
AcDbCircle
 10
77.274864427373814
 20
-25.774864427373821
 30
0.0
 40
5.0009775224504853
100
AcDbArc
 50
216.79187375143059
 51
53.208126248568796
  0
ARC
  5
236
100
AcDbEntity
  8
0
  6
CONTINUOUS
 62
               7
100
AcDbCircle
 10
89.27485634002737
 20
-50.774856340027384
 30
0.0
 40
4.9990333553620312
100
AcDbArc
 50
36.947822115402076
 51
233.05217788459731
  0
CIRCLE
  5
237
100
AcDbEntity
  8
0
  6
CONTINUOUS
 62
               7
100
AcDbCircle
 10
-48.129669189453125
 20
-23.771469116210938
 30
0.0
 40
2.25
  0
CIRCLE
  5
238
100
AcDbEntity
  8
0
  6
CONTINUOUS
 62
               7
100
AcDbCircle
 10
-39.129669189453125
 20
-42.771469116210938
 30
0.0
 40
2.25
  0
ARC
  5
239
100
AcDbEntity
  8
0
  6
CONTINUOUS
 62
               7
100
AcDbCircle
 10
-39.127110771964489
 20
-42.768903917391192
 30
0.0
 40
2.9979200147096887
100
AcDbArc
 50
33.597253826071714
 51
236.5406420869397
  0
ARC
  5
23A
100
AcDbEntity
  8
0
  6
CONTINUOUS
 62
               7
100
AcDbCircle
 10
-48.129100021483701
 20
-23.770899978516301
 30
0.0
 40
3.0011853631240522
100
AcDbArc
 50
213.56034282215734
 51
56.43965717784198
  0
CIRCLE
  5
23B
100
AcDbEntity
  8
0
  6
CONTINUOUS
 62
               7
100
AcDbCircle
 10
-173.02914428710937
 20
-31.271484375
 30
0.0
 40
1.5
  0
ARC
  5
23C
100
AcDbEntity
  8
0
  6
CONTINUOUS
 62
               7
100
AcDbCircle
 10
-176.52891022100906
 20
-23.771106608159091
 30
0.0
 40
3.0012526362746281
100
AcDbArc
 50
239.98978296544129
 51
56.44485726197788
  0
CIRCLE
  5
23D
100
AcDbEntity
  8
0
  6
CONTINUOUS
 62
               7
100
AcDbCircle
 10
-176.52914428710937
 20
-23.771484375
 30
0.0
 40
2.25
  0
CIRCLE
  5
23E
100
AcDbEntity
  8
0
  6
CONTINUOUS
 62
               7
100
AcDbCircle
 10
-169.52914428710937
 20
-38.771499633789063
 30
0.0
 40
2.25
  0
ARC
  5
23F
100
AcDbEntity
  8
0
  6
CONTINUOUS
 62
               7
100
AcDbCircle
 10
-169.52706634261844
 20
-38.768135494265096
 30
0.0
 40
2.9985856133785855
100
AcDbArc
 50
60.049111572880143
 51
236.54802908810765
  0
CIRCLE
  5
240
100
AcDbEntity
  8
0
  6
CONTINUOUS
 62
               2
100
AcDbCircle
 10
-173.02914428710937
 20
-31.271484375
 30
0.0
 40
1.25
  0
CIRCLE
  5
241
100
AcDbEntity
  8
0
  6
CONTINUOUS
 62
               7
100
AcDbCircle
 10
-173.02914428710937
 20
-31.271484375
 30
0.0
 40
2.75
  0
LINE
  5
242
100
AcDbEntity
  8
0
  6
CONTINUOUS
 62
               7
100
AcDbLine
 10
65.109999999999999
 20
132.59999999999999
 30
0.0
 11
65.109999999999999
 21
-133.5
 31
0.0
  0
LINE
  5
243
100
AcDbEntity
  8
0
  6
CONTINUOUS
 62
               7
100
AcDbLine
 10
-64.560000000000002
 20
132.59999999999999
 30
0.0
 11
-64.560000000000002
 21
-133.5
 31
0.0
  0
LINE
  5
244
100
AcDbEntity
  8
0
  6
CENTER
 62
               2
100
AcDbLine
 10
23.870000000000001
 20
-40.770000000000003
 30
0.0
 11
28.870000000000001
 21
-40.770000000000003
 31
0.0
  0
LINE
  5
245
100
AcDbEntity
  8
0
  6
CENTER
 62
               2
100
AcDbLine
 10
26.370000000000001
 20
-38.270000000000003
 30
0.0
 11
26.370000000000001
 21
-43.270000000000003
 31
0.0
  0
LINE
  5
246
100
AcDbEntity
  8
0
  6
CENTER
 62
               2
100
AcDbLine
 10
28.870000000000001
 20
-25.77
 30
0.0
 11
33.869999999999997
 21
-25.77
 31
0.0
  0
LINE
  5
247
100
AcDbEntity
  8
0
  6
CENTER
 62
               2
100
AcDbLine
 10
31.370000000000001
 20
-23.27
 30
0.0
 11
31.370000000000001
 21
-28.27
 31
0.0
  0
LINE
  5
248
100
AcDbEntity
  8
0
  6
CENTER
 62
               2
100
AcDbLine
 10
160.77000000000001
 20
-28.77
 30
0.0
 11
165.77000000000001
 21
-28.77
 31
0.0
  0
LINE
  5
249
100
AcDbEntity
  8
0
  6
CENTER
 62
               2
100
AcDbLine
 10
163.27000000000001
 20
-26.27
 30
0.0
 11
163.27000000000001
 21
-31.27
 31
0.0
  0
LINE
  5
24A
100
AcDbEntity
  8
0
  6
CENTER
 62
               2
100
AcDbLine
 10
155.77000000000001
 20
-47.770000000000003
 30
0.0
 11
160.77000000000001
 21
-47.770000000000003
 31
0.0
  0
LINE
  5
24B
100
AcDbEntity
  8
0
  6
CENTER
 62
               2
100
AcDbLine
 10
158.27000000000001
 20
-45.270000000000003
 30
0.0
 11
158.27000000000001
 21
-50.270000000000003
 31
0.0
  0
LINE
  5
24C
100
AcDbEntity
  8
0
  6
CENTER
 62
               2
100
AcDbLine
 10
-98.019999999999996
 20
-21.77
 30
0.0
 11
-98.019999999999996
 21
-26.77
 31
0.0
  0
LINE
  5
24D
100
AcDbEntity
  8
0
  6
CENTER
 62
               2
100
AcDbLine
 10
-100.53
 20
-24.27
 30
0.0
 11
-95.519999999999996
 21
-24.27
 31
0.0
  0
LINE
  5
24E
100
AcDbEntity
  8
0
  6
CONTINUOUS
 62
               7
100
AcDbLine
 10
180.77000000000001
 20
-45.270000000000003
 30
0.0
 11
180.77000000000001
 21
-54.770000000000003
 31
0.0
  0
LINE
  5
24F
100
AcDbEntity
  8
0
  6
CONTINUOUS
 62
               7
100
AcDbLine
 10
173.77000000000001
 20
-45.270000000000003
 30
0.0
 11
173.77000000000001
 21
-54.770000000000003
 31
0.0
  0
LINE
  5
250
100
AcDbEntity
  8
0
  6
CONTINUOUS
 62
               7
100
AcDbLine
 10
162.02000000000001
 20
-54.770000000000003
 30
0.0
 11
180.77000000000001
 21
-54.770000000000003
 31
0.0
  0
LINE
  5
251
100
AcDbEntity
  8
0
  6
CONTINUOUS
 62
               7
100
AcDbLine
 10
180.77000000000001
 20
-34.270000000000003
 30
0.0
 11
180.77000000000001
 21
-42.270000000000003
 31
0.0
  0
LINE
  5
252
100
AcDbEntity
  8
0
  6
CONTINUOUS
 62
               7
100
AcDbLine
 10
173.77000000000001
 20
-34.770000000000003
 30
0.0
 11
173.77000000000001
 21
-42.270000000000003
 31
0.0
  0
LINE
  5
253
100
AcDbEntity
  8
0
  6
CONTINUOUS
 62
               7
100
AcDbLine
 10
167.02000000000001
 20
-21.77
 30
0.0
 11
180.77000000000001
 21
-21.77
 31
0.0
  0
LINE
  5
254
100
AcDbEntity
  8
0
  6
CONTINUOUS
 62
               7
100
AcDbLine
 10
167.02000000000001
 20
21.719999999999999
 30
0.0
 11
180.77000000000001
 21
21.719999999999999
 31
0.0
  0
LINE
  5
255
100
AcDbEntity
  8
0
  6
CENTER
 62
               2
100
AcDbLine
 10
132.77000000000001
 20
32.719999999999999
 30
0.0
 11
132.77000000000001
 21
24.719999999999999
 31
0.0
  0
LINE
  5
256
100
AcDbEntity
  8
0
  6
CENTER
 62
               2
100
AcDbLine
 10
128.77000000000001
 20
28.719999999999999
 30
0.0
 11
136.77000000000001
 21
28.719999999999999
 31
0.0
  0
LINE
  5
257
100
AcDbEntity
  8
0
  6
CONTINUOUS
 62
               7
100
AcDbLine
 10
127.77
 20
34.719999999999999
 30
0.0
 11
131.97
 21
34.719999999999999
 31
0.0
  0
LINE
  5
258
100
AcDbEntity
  8
0
  6
CONTINUOUS
 62
               7
100
AcDbLine
 10
126.77
 20
28.719999999999999
 30
0.0
 11
127.77
 21
28.719999999999999
 31
0.0
  0
LINE
  5
259
100
AcDbEntity
  8
0
  6
CONTINUOUS
 62
               7
100
AcDbLine
 10
126.77
 20
34.719999999999999
 30
0.0
 11
127.77
 21
34.719999999999999
 31
0.0
  0
LINE
  5
25A
100
AcDbEntity
  8
0
  6
CONTINUOUS
 62
               7
100
AcDbLine
 10
119.13
 20
31.719999999999999
 30
0.0
 11
121.62
 21
31.719999999999999
 31
0.0
  0
LINE
  5
25B
100
AcDbEntity
  8
0
  6
CONTINUOUS
 62
               7
100
AcDbLine
 10
115.93000000000001
 20
31.719999999999999
 30
0.0
 11
118.42
 21
31.719999999999999
 31
0.0
  0
LINE
  5
25C
100
AcDbEntity
  8
0
  6
CENTER
 62
               2
100
AcDbLine
 10
141.27000000000001
 20
30.920000000000002
 30
0.0
 11
149.27000000000001
 21
30.920000000000002
 31
0.0
  0
LINE
  5
25D
100
AcDbEntity
  8
0
  6
CENTER
 62
               2
100
AcDbLine
 10
164.27000000000001
 20
32.520000000000003
 30
0.0
 11
172.27000000000001
 21
32.520000000000003
 31
0.0
  0
LINE
  5
25E
100
AcDbEntity
  8
0
  6
CENTER
 62
               2
100
AcDbLine
 10
168.27000000000001
 20
36.520000000000003
 30
0.0
 11
168.27000000000001
 21
28.52
 31
0.0
  0
LINE
  5
25F
100
AcDbEntity
  8
0
  6
CENTER
 62
               2
100
AcDbLine
 10
145.27000000000001
 20
34.920000000000002
 30
0.0
 11
145.27000000000001
 21
26.920000000000002
 31
0.0
  0
LINE
  5
260
100
AcDbEntity
  8
0
  6
CONTINUOUS
 62
               7
100
AcDbLine
 10
118.77
 20
35.719999999999999
 30
0.0
 11
118.77
 21
27.719999999999999
 31
0.0
  0
LINE
  5
261
100
AcDbEntity
  8
0
  6
CONTINUOUS
 62
               7
100
AcDbLine
 10
115.56999999999999
 20
27.719999999999999
 30
0.0
 11
118.77
 21
27.719999999999999
 31
0.0
  0
LINE
  5
262
100
AcDbEntity
  8
0
  6
CONTINUOUS
 62
               7
100
AcDbLine
 10
115.56999999999999
 20
35.719999999999999
 30
0.0
 11
115.56999999999999
 21
27.719999999999999
 31
0.0
  0
LINE
  5
263
100
AcDbEntity
  8
0
  6
CONTINUOUS
 62
               7
100
AcDbLine
 10
115.56999999999999
 20
35.719999999999999
 30
0.0
 11
118.77
 21
35.719999999999999
 31
0.0
  0
LINE
  5
264
100
AcDbEntity
  8
0
  6
CONTINUOUS
 62
               7
100
AcDbLine
 10
121.97
 20
35.719999999999999
 30
0.0
 11
121.97
 21
27.719999999999999
 31
0.0
  0
LINE
  5
265
100
AcDbEntity
  8
0
  6
CONTINUOUS
 62
               7
100
AcDbLine
 10
118.77
 20
35.719999999999999
 30
0.0
 11
121.97
 21
35.719999999999999
 31
0.0
  0
LINE
  5
266
100
AcDbEntity
  8
0
  6
CONTINUOUS
 62
               7
100
AcDbLine
 10
118.77
 20
27.719999999999999
 30
0.0
 11
121.97
 21
27.719999999999999
 31
0.0
  0
LINE
  5
267
100
AcDbEntity
  8
0
  6
CONTINUOUS
 62
               7
100
AcDbLine
 10
121.97
 20
29.219999999999999
 30
0.0
 11
126.27
 21
29.219999999999999
 31
0.0
  0
LINE
  5
268
100
AcDbEntity
  8
0
  6
CONTINUOUS
 62
               7
100
AcDbLine
 10
121.97
 20
34.219999999999999
 30
0.0
 11
126.27
 21
34.219999999999999
 31
0.0
  0
LINE
  5
269
100
AcDbEntity
  8
0
  6
CONTINUOUS
 62
               7
100
AcDbLine
 10
113.27
 20
34.219999999999999
 30
0.0
 11
113.27
 21
29.219999999999999
 31
0.0
  0
LINE
  5
26A
100
AcDbEntity
  8
0
  6
CONTINUOUS
 62
               7
100
AcDbLine
 10
124.77
 20
34.219999999999999
 30
0.0
 11
124.77
 21
29.219999999999999
 31
0.0
  0
LINE
  5
26B
100
AcDbEntity
  8
0
  6
CONTINUOUS
 62
               7
100
AcDbLine
 10
112.77
 20
29.719999999999999
 30
0.0
 11
113.27
 21
29.219999999999999
 31
0.0
  0
LINE
  5
26C
100
AcDbEntity
  8
0
  6
CONTINUOUS
 62
               7
100
AcDbLine
 10
112.77
 20
33.719999999999999
 30
0.0
 11
113.27
 21
34.219999999999999
 31
0.0
  0
LINE
  5
26D
100
AcDbEntity
  8
0
  6
CONTINUOUS
 62
               7
100
AcDbLine
 10
126.27
 20
29.219999999999999
 30
0.0
 11
126.77
 21
28.719999999999999
 31
0.0
  0
LINE
  5
26E
100
AcDbEntity
  8
0
  6
CONTINUOUS
 62
               7
100
AcDbLine
 10
126.27
 20
34.219999999999999
 30
0.0
 11
126.77
 21
34.719999999999999
 31
0.0
  0
LINE
  5
26F
100
AcDbEntity
  8
0
  6
CONTINUOUS
 62
               7
100
AcDbLine
 10
113.27
 20
29.219999999999999
 30
0.0
 11
115.56999999999999
 21
29.219999999999999
 31
0.0
  0
LINE
  5
270
100
AcDbEntity
  8
0
  6
CONTINUOUS
 62
               7
100
AcDbLine
 10
113.27
 20
34.219999999999999
 30
0.0
 11
115.56999999999999
 21
34.219999999999999
 31
0.0
  0
LINE
  5
271
100
AcDbEntity
  8
0
  6
CONTINUOUS
 62
               7
100
AcDbLine
 10
126.27
 20
34.219999999999999
 30
0.0
 11
126.27
 21
29.219999999999999
 31
0.0
  0
LINE
  5
272
100
AcDbEntity
  8
0
  6
CONTINUOUS
 62
               7
100
AcDbLine
 10
126.77
 20
34.719999999999999
 30
0.0
 11
126.77
 21
28.719999999999999
 31
0.0
  0
LINE
  5
273
100
AcDbEntity
  8
0
  6
CONTINUOUS
 62
               7
100
AcDbLine
 10
112.77
 20
33.719999999999999
 30
0.0
 11
112.77
 21
29.719999999999999
 31
0.0
  0
LINE
  5
274
100
AcDbEntity
  8
0
  6
CONTINUOUS
 62
               7
100
AcDbLine
 10
180.56999999999999
 20
22.219999999999999
 30
0.0
 11
176.56999999999999
 21
22.219999999999999
 31
0.0
  0
LINE
  5
275
100
AcDbEntity
  8
0
  6
CONTINUOUS
 62
               7
100
AcDbLine
 10
180.56999999999999
 20
29.219999999999999
 30
0.0
 11
176.56999999999999
 21
29.219999999999999
 31
0.0
  0
LINE
  5
276
100
AcDbEntity
  8
0
  6
CONTINUOUS
 62
               7
100
AcDbLine
 10
180.56999999999999
 20
22.219999999999999
 30
0.0
 11
180.56999999999999
 21
29.219999999999999
 31
0.0
  0
LINE
  5
277
100
AcDbEntity
  8
0
  6
CONTINUOUS
 62
               7
100
AcDbLine
 10
127.97
 20
41.219999999999999
 30
0.0
 11
131.97
 21
41.219999999999999
 31
0.0
  0
LINE
  5
278
100
AcDbEntity
  8
0
  6
CONTINUOUS
 62
               7
100
AcDbLine
 10
127.97
 20
41.219999999999999
 30
0.0
 11
127.97
 21
34.719999999999999
 31
0.0
  0
LINE
  5
279
100
AcDbEntity
  8
0
  6
CONTINUOUS
 62
               7
100
AcDbLine
 10
176.56999999999999
 20
29.920000000000002
 30
0.0
 11
180.77000000000001
 21
29.920000000000002
 31
0.0
  0
LINE
  5
27A
100
AcDbEntity
  8
0
  6
CONTINUOUS
 62
               7
100
AcDbLine
 10
131.97
 20
41.719999999999999
 30
0.0
 11
131.97
 21
34.719999999999999
 31
0.0
  0
LINE
  5
27B
100
AcDbEntity
  8
0
  6
CONTINUOUS
 62
               7
100
AcDbLine
 10
127.77
 20
41.719999999999999
 30
0.0
 11
127.77
 21
21.719999999999999
 31
0.0
  0
LINE
  5
27C
100
AcDbEntity
  8
0
  6
CONTINUOUS
 62
               7
100
AcDbLine
 10
176.56999999999999
 20
29.920000000000002
 30
0.0
 11
176.56999999999999
 21
21.719999999999999
 31
0.0
  0
LINE
  5
27D
100
AcDbEntity
  8
0
  6
CONTINUOUS
 62
               7
100
AcDbLine
 10
180.77000000000001
 20
41.719999999999999
 30
0.0
 11
180.77000000000001
 21
21.719999999999999
 31
0.0
  0
LINE
  5
27E
100
AcDbEntity
  8
0
  6
CONTINUOUS
 62
               7
100
AcDbLine
 10
127.77
 20
41.719999999999999
 30
0.0
 11
180.77000000000001
 21
41.719999999999999
 31
0.0
  0
LINE
  5
27F
100
AcDbEntity
  8
0
  6
CONTINUOUS
 62
               7
100
AcDbLine
 10
127.77
 20
21.719999999999999
 30
0.0
 11
159.52000000000001
 21
21.719999999999999
 31
0.0
  0
LINE
  5
280
100
AcDbEntity
  8
0
  6
CENTER
 62
               2
100
AcDbLine
 10
109.95999999999999
 20
31.719999999999999
 30
0.0
 11
183.77000000000001
 21
31.719999999999999
 31
0.0
  0
LINE
  5
281
100
AcDbEntity
  8
0
  6
CONTINUOUS
 62
               7
100
AcDbLine
 10
173.77000000000001
 20
41.719999999999999
 30
0.0
 11
173.77000000000001
 21
21.719999999999999
 31
0.0
  0
LINE
  5
282
100
AcDbEntity
  8
0
  6
CONTINUOUS
 62
               7
100
AcDbLine
 10
139.77000000000001
 20
41.719999999999999
 30
0.0
 11
139.77000000000001
 21
21.719999999999999
 31
0.0
  0
LINE
  5
283
100
AcDbEntity
  8
0
  6
CONTINUOUS
 62
               7
100
AcDbLine
 10
127.77
 20
-47.770000000000003
 30
0.0
 11
131.97
 21
-47.770000000000003
 31
0.0
  0
LINE
  5
284
100
AcDbEntity
  8
0
  6
CONTINUOUS
 62
               7
100
AcDbLine
 10
139.77000000000001
 20
-21.77
 30
0.0
 11
139.77000000000001
 21
-54.770000000000003
 31
0.0
  0
LINE
  5
285
100
AcDbEntity
  8
0
  6
CONTINUOUS
 62
               7
100
AcDbLine
 10
126.77
 20
-41.270000000000003
 30
0.0
 11
127.77
 21
-41.270000000000003
 31
0.0
  0
LINE
  5
286
100
AcDbEntity
  8
0
  6
CONTINUOUS
 62
               7
100
AcDbLine
 10
126.77
 20
-35.270000000000003
 30
0.0
 11
127.77
 21
-35.270000000000003
 31
0.0
  0
LINE
  5
287
100
AcDbEntity
  8
0
  6
CENTER
 62
               2
100
AcDbLine
 10
145.27000000000001
 20
-50.270000000000003
 30
0.0
 11
156.27000000000001
 21
-50.270000000000003
 31
0.0
  0
LINE
  5
288
100
AcDbEntity
  8
0
  6
CENTER
 62
               2
100
AcDbLine
 10
145.27000000000001
 20
-26.27
 30
0.0
 11
156.27000000000001
 21
-26.27
 31
0.0
  0
LINE
  5
289
100
AcDbEntity
  8
0
  6
CENTER
 62
               2
100
AcDbLine
 10
150.77000000000001
 20
-44.770000000000003
 30
0.0
 11
150.77000000000001
 21
-55.770000000000003
 31
0.0
  0
LINE
  5
28A
100
AcDbEntity
  8
0
  6
CENTER
 62
               2
100
AcDbLine
 10
150.77000000000001
 20
-20.77
 30
0.0
 11
150.77000000000001
 21
-31.77
 31
0.0
  0
LINE
  5
28B
100
AcDbEntity
  8
0
  6
CONTINUOUS
 62
               7
100
AcDbLine
 10
115.93000000000001
 20
-42.890000000000001
 30
0.0
 11
118.42
 21
-42.890000000000001
 31
0.0
  0
LINE
  5
28C
100
AcDbEntity
  8
0
  6
CONTINUOUS
 62
               7
100
AcDbLine
 10
118.77
 20
-42.270000000000003
 30
0.0
 11
118.42
 21
-42.890000000000001
 31
0.0
  0
LINE
  5
28D
100
AcDbEntity
  8
0
  6
CONTINUOUS
 62
               7
100
AcDbLine
 10
115.56999999999999
 20
-42.270000000000003
 30
0.0
 11
115.93000000000001
 21
-42.890000000000001
 31
0.0
  0
LINE
  5
28E
100
AcDbEntity
  8
0
  6
CONTINUOUS
 62
               7
100
AcDbLine
 10
115.93000000000001
 20
-40.579999999999998
 30
0.0
 11
118.42
 21
-40.579999999999998
 31
0.0
  0
LINE
  5
28F
100
AcDbEntity
  8
0
  6
CONTINUOUS
 62
               7
100
AcDbLine
 10
115.93000000000001
 20
-35.960000000000001
 30
0.0
 11
118.42
 21
-35.960000000000001
 31
0.0
  0
LINE
  5
290
100
AcDbEntity
  8
0
  6
CONTINUOUS
 62
               7
100
AcDbLine
 10
118.77
 20
-34.270000000000003
 30
0.0
 11
118.77
 21
-42.270000000000003
 31
0.0
  0
LINE
  5
291
100
AcDbEntity
  8
0
  6
CONTINUOUS
 62
               7
100
AcDbLine
 10
115.56999999999999
 20
-34.270000000000003
 30
0.0
 11
115.56999999999999
 21
-42.270000000000003
 31
0.0
  0
LINE
  5
292
100
AcDbEntity
  8
0
  6
CONTINUOUS
 62
               7
100
AcDbLine
 10
118.77
 20
-34.270000000000003
 30
0.0
 11
118.42
 21
-33.649999999999999
 31
0.0
  0
LINE
  5
293
100
AcDbEntity
  8
0
  6
CONTINUOUS
 62
               7
100
AcDbLine
 10
115.56999999999999
 20
-34.270000000000003
 30
0.0
 11
115.93000000000001
 21
-33.649999999999999
 31
0.0
  0
LINE
  5
294
100
AcDbEntity
  8
0
  6
CONTINUOUS
 62
               7
100
AcDbLine
 10
115.93000000000001
 20
-33.649999999999999
 30
0.0
 11
118.42
 21
-33.649999999999999
 31
0.0
  0
LINE
  5
295
100
AcDbEntity
  8
0
  6
CONTINUOUS
 62
               7
100
AcDbLine
 10
121.97
 20
-42.270000000000003
 30
0.0
 11
121.62
 21
-42.890000000000001
 31
0.0
  0
LINE
  5
296
100
AcDbEntity
  8
0
  6
CONTINUOUS
 62
               7
100
AcDbLine
 10
121.97
 20
-34.270000000000003
 30
0.0
 11
121.97
 21
-42.270000000000003
 31
0.0
  0
LINE
  5
297
100
AcDbEntity
  8
0
  6
CONTINUOUS
 62
               7
100
AcDbLine
 10
121.97
 20
-34.270000000000003
 30
0.0
 11
121.62
 21
-33.649999999999999
 31
0.0
  0
LINE
  5
298
100
AcDbEntity
  8
0
  6
CONTINUOUS
 62
               7
100
AcDbLine
 10
118.77
 20
-42.270000000000003
 30
0.0
 11
119.13
 21
-42.890000000000001
 31
0.0
  0
LINE
  5
299
100
AcDbEntity
  8
0
  6
CONTINUOUS
 62
               7
100
AcDbLine
 10
118.77
 20
-34.270000000000003
 30
0.0
 11
119.13
 21
-33.649999999999999
 31
0.0
  0
LINE
  5
29A
100
AcDbEntity
  8
0
  6
CONTINUOUS
 62
               7
100
AcDbLine
 10
119.13
 20
-42.890000000000001
 30
0.0
 11
121.62
 21
-42.890000000000001
 31
0.0
  0
LINE
  5
29B
100
AcDbEntity
  8
0
  6
CONTINUOUS
 62
               7
100
AcDbLine
 10
119.13
 20
-40.579999999999998
 30
0.0
 11
121.62
 21
-40.579999999999998
 31
0.0
  0
LINE
  5
29C
100
AcDbEntity
  8
0
  6
CONTINUOUS
 62
               7
100
AcDbLine
 10
119.13
 20
-35.960000000000001
 30
0.0
 11
121.62
 21
-35.960000000000001
 31
0.0
  0
LINE
  5
29D
100
AcDbEntity
  8
0
  6
CONTINUOUS
 62
               7
100
AcDbLine
 10
119.13
 20
-33.649999999999999
 30
0.0
 11
121.62
 21
-33.649999999999999
 31
0.0
  0
LINE
  5
29E
100
AcDbEntity
  8
0
  6
CONTINUOUS
 62
               7
100
AcDbLine
 10
121.97
 20
-35.770000000000003
 30
0.0
 11
126.27
 21
-35.770000000000003
 31
0.0
  0
LINE
  5
29F
100
AcDbEntity
  8
0
  6
CONTINUOUS
 62
               7
100
AcDbLine
 10
126.27
 20
-35.770000000000003
 30
0.0
 11
126.77
 21
-35.270000000000003
 31
0.0
  0
LINE
  5
2A0
100
AcDbEntity
  8
0
  6
CONTINUOUS
 62
               7
100
AcDbLine
 10
126.27
 20
-35.770000000000003
 30
0.0
 11
126.27
 21
-40.770000000000003
 31
0.0
  0
LINE
  5
2A1
100
AcDbEntity
  8
0
  6
CONTINUOUS
 62
               7
100
AcDbLine
 10
126.27
 20
-40.770000000000003
 30
0.0
 11
126.77
 21
-41.270000000000003
 31
0.0
  0
LINE
  5
2A2
100
AcDbEntity
  8
0
  6
CONTINUOUS
 62
               7
100
AcDbLine
 10
124.77
 20
-35.770000000000003
 30
0.0
 11
124.77
 21
-40.770000000000003
 31
0.0
  0
LINE
  5
2A3
100
AcDbEntity
  8
0
  6
CONTINUOUS
 62
               7
100
AcDbLine
 10
121.97
 20
-40.770000000000003
 30
0.0
 11
126.27
 21
-40.770000000000003
 31
0.0
  0
LINE
  5
2A4
100
AcDbEntity
  8
0
  6
CONTINUOUS
 62
               7
100
AcDbLine
 10
113.27
 20
-40.770000000000003
 30
0.0
 11
115.56999999999999
 21
-40.770000000000003
 31
0.0
  0
LINE
  5
2A5
100
AcDbEntity
  8
0
  6
CONTINUOUS
 62
               7
100
AcDbLine
 10
112.77
 20
-40.270000000000003
 30
0.0
 11
113.27
 21
-40.770000000000003
 31
0.0
  0
LINE
  5
2A6
100
AcDbEntity
  8
0
  6
CONTINUOUS
 62
               7
100
AcDbLine
 10
112.77
 20
-36.270000000000003
 30
0.0
 11
112.77
 21
-40.270000000000003
 31
0.0
  0
LINE
  5
2A7
100
AcDbEntity
  8
0
  6
CONTINUOUS
 62
               7
100
AcDbLine
 10
113.27
 20
-35.770000000000003
 30
0.0
 11
113.27
 21
-40.770000000000003
 31
0.0
  0
LINE
  5
2A8
100
AcDbEntity
  8
0
  6
CONTINUOUS
 62
               7
100
AcDbLine
 10
113.27
 20
-35.770000000000003
 30
0.0
 11
115.56999999999999
 21
-35.770000000000003
 31
0.0
  0
LINE
  5
2A9
100
AcDbEntity
  8
0
  6
CONTINUOUS
 62
               7
100
AcDbLine
 10
112.77
 20
-36.270000000000003
 30
0.0
 11
113.27
 21
-35.770000000000003
 31
0.0
  0
LINE
  5
2AA
100
AcDbEntity
  8
0
  6
CONTINUOUS
 62
               7
100
AcDbLine
 10
126.77
 20
-35.270000000000003
 30
0.0
 11
126.77
 21
-41.270000000000003
 31
0.0
  0
LINE
  5
2AB
100
AcDbEntity
  8
0
  6
CONTINUOUS
 62
               7
100
AcDbLine
 10
180.56999999999999
 20
-29.27
 30
0.0
 11
176.56999999999999
 21
-29.27
 31
0.0
  0
LINE
  5
2AC
100
AcDbEntity
  8
0
  6
CONTINUOUS
 62
               7
100
AcDbLine
 10
180.56999999999999
 20
-22.27
 30
0.0
 11
176.56999999999999
 21
-22.27
 31
0.0
  0
LINE
  5
2AD
100
AcDbEntity
  8
0
  6
CONTINUOUS
 62
               7
100
AcDbLine
 10
180.56999999999999
 20
-29.27
 30
0.0
 11
180.56999999999999
 21
-22.27
 31
0.0
  0
LINE
  5
2AE
100
AcDbEntity
  8
0
  6
CONTINUOUS
 62
               7
100
AcDbLine
 10
127.97
 20
-54.270000000000003
 30
0.0
 11
131.97
 21
-54.270000000000003
 31
0.0
  0
LINE
  5
2AF
100
AcDbEntity
  8
0
  6
CONTINUOUS
 62
               7
100
AcDbLine
 10
127.97
 20
-47.770000000000003
 30
0.0
 11
127.97
 21
-54.270000000000003
 31
0.0
  0
LINE
  5
2B0
100
AcDbEntity
  8
0
  6
CONTINUOUS
 62
               7
100
AcDbLine
 10
176.56999999999999
 20
-30.27
 30
0.0
 11
180.77000000000001
 21
-30.27
 31
0.0
  0
LINE
  5
2B1
100
AcDbEntity
  8
0
  6
CONTINUOUS
 62
               7
100
AcDbLine
 10
131.97
 20
-47.770000000000003
 30
0.0
 11
131.97
 21
-54.770000000000003
 31
0.0
  0
LINE
  5
2B2
100
AcDbEntity
  8
0
  6
CONTINUOUS
 62
               7
100
AcDbLine
 10
127.77
 20
-21.77
 30
0.0
 11
127.77
 21
-54.770000000000003
 31
0.0
  0
LINE
  5
2B3
100
AcDbEntity
  8
0
  6
CONTINUOUS
 62
               7
100
AcDbLine
 10
176.56999999999999
 20
-21.77
 30
0.0
 11
176.56999999999999
 21
-30.27
 31
0.0
  0
LINE
  5
2B4
100
AcDbEntity
  8
0
  6
CONTINUOUS
 62
               7
100
AcDbLine
 10
180.77000000000001
 20
-21.77
 30
0.0
 11
180.77000000000001
 21
-31.27
 31
0.0
  0
LINE
  5
2B5
100
AcDbEntity
  8
0
  6
CONTINUOUS
 62
               7
100
AcDbLine
 10
173.77000000000001
 20
-21.77
 30
0.0
 11
173.77000000000001
 21
-30.77
 31
0.0
  0
LINE
  5
2B6
100
AcDbEntity
  8
0
  6
CENTER
 62
               2
100
AcDbLine
 10
109.77
 20
-38.270000000000003
 30
0.0
 11
185.66999999999999
 21
-38.270000000000003
 31
0.0
  0
LINE
  5
2B7
100
AcDbEntity
  8
0
  6
CONTINUOUS
 62
               7
100
AcDbLine
 10
127.77
 20
-54.770000000000003
 30
0.0
 11
154.52000000000001
 21
-54.770000000000003
 31
0.0
  0
LINE
  5
2B8
100
AcDbEntity
  8
0
  6
CONTINUOUS
 62
               7
100
AcDbLine
 10
127.77
 20
-21.77
 30
0.0
 11
159.52000000000001
 21
-21.77
 31
0.0
  0
LINE
  5
2B9
100
AcDbEntity
  8
0
  6
CONTINUOUS
 62
               7
100
AcDbLine
 10
47.869999999999997
 20
-31.27
 30
0.0
 11
47.869999999999997
 21
-45.270000000000003
 31
0.0
  0
LINE
  5
2BA
100
AcDbEntity
  8
0
  6
CONTINUOUS
 62
               7
100
AcDbLine
 10
41.869999999999997
 20
-38.270000000000003
 30
0.0
 11
41.869999999999997
 21
-45.270000000000003
 31
0.0
  0
LINE
  5
2BB
100
AcDbEntity
  8
0
  6
CONTINUOUS
 62
               7
100
AcDbLine
 10
41.869999999999997
 20
-31.77
 30
0.0
 11
41.869999999999997
 21
-35.270000000000003
 31
0.0
  0
LINE
  5
2BC
100
AcDbEntity
  8
0
  6
CONTINUOUS
 62
               7
100
AcDbLine
 10
30.120000000000001
 20
-45.270000000000003
 30
0.0
 11
47.869999999999997
 21
-45.270000000000003
 31
0.0
  0
LINE
  5
2BD
100
AcDbEntity
  8
0
  6
CONTINUOUS
 62
               7
100
AcDbLine
 10
35.119999999999997
 20
-21.27
 30
0.0
 11
47.869999999999997
 21
-21.27
 31
0.0
  0
LINE
  5
2BE
100
AcDbEntity
  8
0
  6
CONTINUOUS
 62
               7
100
AcDbLine
 10
35.119999999999997
 20
24.719999999999999
 30
0.0
 11
47.869999999999997
 21
24.719999999999999
 31
0.0
  0
LINE
  5
2BF
100
AcDbEntity
  8
0
  6
CONTINUOUS
 62
               7
100
AcDbLine
 10
-3.1299999999999999
 20
34.219999999999999
 30
0.0
 11
-3.1299999999999999
 21
29.219999999999999
 31
0.0
  0
LINE
  5
2C0
100
AcDbEntity
  8
0
  6
CONTINUOUS
 62
               7
100
AcDbLine
 10
-3.6299999999999999
 20
29.719999999999999
 30
0.0
 11
-3.1299999999999999
 21
29.219999999999999
 31
0.0
  0
LINE
  5
2C1
100
AcDbEntity
  8
0
  6
CONTINUOUS
 62
               7
100
AcDbLine
 10
-3.6299999999999999
 20
33.719999999999999
 30
0.0
 11
-3.1299999999999999
 21
34.219999999999999
 31
0.0
  0
LINE
  5
2C2
100
AcDbEntity
  8
0
  6
CONTINUOUS
 62
               7
100
AcDbLine
 10
-3.1299999999999999
 20
29.219999999999999
 30
0.0
 11
-2.1299999999999999
 21
29.219999999999999
 31
0.0
  0
LINE
  5
2C3
100
AcDbEntity
  8
0
  6
CONTINUOUS
 62
               7
100
AcDbLine
 10
-3.1299999999999999
 20
34.219999999999999
 30
0.0
 11
-2.1299999999999999
 21
34.219999999999999
 31
0.0
  0
LINE
  5
2C4
100
AcDbEntity
  8
0
  6
CONTINUOUS
 62
               7
100
AcDbLine
 10
-3.6299999999999999
 20
33.719999999999999
 30
0.0
 11
-3.6299999999999999
 21
29.719999999999999
 31
0.0
  0
LINE
  5
2C5
100
AcDbEntity
  8
0
  6
CONTINUOUS
 62
               7
100
AcDbLine
 10
-2.1299999999999999
 20
33.920000000000002
 30
0.0
 11
1.3700000000000001
 21
33.920000000000002
 31
0.0
  0
LINE
  5
2C6
100
AcDbEntity
  8
0
  6
CENTER
 62
               2
100
AcDbLine
 10
2.8700000000000001
 20
32.219999999999999
 30
0.0
 11
2.8700000000000001
 21
27.219999999999999
 31
0.0
  0
LINE
  5
2C7
100
AcDbEntity
  8
0
  6
CENTER
 62
               2
100
AcDbLine
 10
0.37
 20
29.719999999999999
 30
0.0
 11
5.3700000000000001
 21
29.719999999999999
 31
0.0
  0
LINE
  5
2C8
100
AcDbEntity
  8
0
  6
CONTINUOUS
 62
               7
100
AcDbLine
 10
-2.1299999999999999
 20
24.719999999999999
 30
0.0
 11
27.620000000000001
 21
24.719999999999999
 31
0.0
  0
LINE
  5
2C9
100
AcDbEntity
  8
0
  6
CONTINUOUS
 62
               7
100
AcDbLine
 10
-10.41
 20
31.719999999999999
 30
0.0
 11
-8.6400000000000006
 21
31.719999999999999
 31
0.0
  0
LINE
  5
2CA
100
AcDbEntity
  8
0
  6
CONTINUOUS
 62
               7
100
AcDbLine
 10
-12.81
 20
31.719999999999999
 30
0.0
 11
-11.039999999999999
 21
31.719999999999999
 31
0.0
  0
LINE
  5
2CB
100
AcDbEntity
  8
0
  6
CONTINUOUS
 62
               7
100
AcDbLine
 10
-13.130000000000001
 20
28.219999999999999
 30
0.0
 11
-8.3300000000000001
 21
28.219999999999999
 31
0.0
  0
LINE
  5
2CC
100
AcDbEntity
  8
0
  6
CONTINUOUS
 62
               7
100
AcDbLine
 10
-13.130000000000001
 20
35.219999999999999
 30
0.0
 11
-8.3300000000000001
 21
35.219999999999999
 31
0.0
  0
LINE
  5
2CD
100
AcDbEntity
  8
0
  6
CONTINUOUS
 62
               7
100
AcDbLine
 10
-1.6299999999999999
 20
38.469999999999999
 30
0.0
 11
-1.6299999999999999
 21
33.920000000000002
 31
0.0
  0
LINE
  5
2CE
100
AcDbEntity
  8
0
  6
CONTINUOUS
 62
               7
100
AcDbLine
 10
-1.6299999999999999
 20
38.469999999999999
 30
0.0
 11
1.3700000000000001
 21
38.469999999999999
 31
0.0
  0
LINE
  5
2CF
100
AcDbEntity
  8
0
  6
CONTINUOUS
 62
               7
100
AcDbLine
 10
1.3700000000000001
 20
38.719999999999999
 30
0.0
 11
1.3700000000000001
 21
33.920000000000002
 31
0.0
  0
LINE
  5
2D0
100
AcDbEntity
  8
0
  6
CONTINUOUS
 62
               7
100
AcDbLine
 10
44.670000000000002
 20
24.719999999999999
 30
0.0
 11
44.670000000000002
 21
31.219999999999999
 31
0.0
  0
LINE
  5
2D1
100
AcDbEntity
  8
0
  6
CONTINUOUS
 62
               7
100
AcDbLine
 10
47.869999999999997
 20
31.219999999999999
 30
0.0
 11
44.670000000000002
 21
31.219999999999999
 31
0.0
  0
LINE
  5
2D2
100
AcDbEntity
  8
0
  6
CONTINUOUS
 62
               7
100
AcDbLine
 10
47.670000000000002
 20
24.969999999999999
 30
0.0
 11
47.670000000000002
 21
30.469999999999999
 31
0.0
  0
LINE
  5
2D3
100
AcDbEntity
  8
0
  6
CONTINUOUS
 62
               7
100
AcDbLine
 10
47.670000000000002
 20
30.469999999999999
 30
0.0
 11
44.670000000000002
 21
30.469999999999999
 31
0.0
  0
LINE
  5
2D4
100
AcDbEntity
  8
0
  6
CONTINUOUS
 62
               7
100
AcDbLine
 10
47.670000000000002
 20
24.969999999999999
 30
0.0
 11
44.670000000000002
 21
24.969999999999999
 31
0.0
  0
LINE
  5
2D5
100
AcDbEntity
  8
0
  6
CENTER
 62
               2
100
AcDbLine
 10
36.369999999999997
 20
36.520000000000003
 30
0.0
 11
36.369999999999997
 21
28.52
 31
0.0
  0
LINE
  5
2D6
100
AcDbEntity
  8
0
  6
CENTER
 62
               2
100
AcDbLine
 10
14.369999999999999
 20
34.920000000000002
 30
0.0
 11
14.369999999999999
 21
26.920000000000002
 31
0.0
  0
LINE
  5
2D7
100
AcDbEntity
  8
0
  6
CENTER
 62
               2
100
AcDbLine
 10
32.369999999999997
 20
32.520000000000003
 30
0.0
 11
40.369999999999997
 21
32.520000000000003
 31
0.0
  0
LINE
  5
2D8
100
AcDbEntity
  8
0
  6
CENTER
 62
               2
100
AcDbLine
 10
10.369999999999999
 20
30.920000000000002
 30
0.0
 11
18.370000000000001
 21
30.920000000000002
 31
0.0
  0
LINE
  5
2D9
100
AcDbEntity
  8
0
  6
CONTINUOUS
 62
               7
100
AcDbLine
 10
-2.1299999999999999
 20
38.719999999999999
 30
0.0
 11
47.869999999999997
 21
38.719999999999999
 31
0.0
  0
LINE
  5
2DA
100
AcDbEntity
  8
0
  6
CONTINUOUS
 62
               7
100
AcDbLine
 10
47.869999999999997
 20
38.719999999999999
 30
0.0
 11
47.869999999999997
 21
24.719999999999999
 31
0.0
  0
LINE
  5
2DB
100
AcDbEntity
  8
0
  6
CONTINUOUS
 62
               7
100
AcDbLine
 10
41.869999999999997
 20
38.719999999999999
 30
0.0
 11
41.869999999999997
 21
24.719999999999999
 31
0.0
  0
LINE
  5
2DC
100
AcDbEntity
  8
0
  6
CONTINUOUS
 62
               7
100
AcDbLine
 10
8.8699999999999992
 20
38.719999999999999
 30
0.0
 11
8.8699999999999992
 21
24.719999999999999
 31
0.0
  0
LINE
  5
2DD
100
AcDbEntity
  8
0
  6
CONTINUOUS
 62
               7
100
AcDbLine
 10
-2.1299999999999999
 20
38.719999999999999
 30
0.0
 11
-2.1299999999999999
 21
24.719999999999999
 31
0.0
  0
LINE
  5
2DE
100
AcDbEntity
  8
0
  6
CENTER
 62
               2
100
AcDbLine
 10
-18.609999999999999
 20
31.719999999999999
 30
0.0
 11
50.869999999999997
 21
31.719999999999999
 31
0.0
  0
LINE
  5
2DF
100
AcDbEntity
  8
0
  6
CONTINUOUS
 62
               7
100
AcDbLine
 10
-8.3300000000000001
 20
28.219999999999999
 30
0.0
 11
-8.3300000000000001
 21
31.719999999999999
 31
0.0
  0
LINE
  5
2E0
100
AcDbEntity
  8
0
  6
CONTINUOUS
 62
               7
100
AcDbLine
 10
-8.3300000000000001
 20
35.219999999999999
 30
0.0
 11
-8.3300000000000001
 21
31.719999999999999
 31
0.0
  0
LINE
  5
2E1
100
AcDbEntity
  8
0
  6
CONTINUOUS
 62
               7
100
AcDbLine
 10
-13.130000000000001
 20
28.219999999999999
 30
0.0
 11
-13.130000000000001
 21
31.719999999999999
 31
0.0
  0
LINE
  5
2E2
100
AcDbEntity
  8
0
  6
CONTINUOUS
 62
               7
100
AcDbLine
 10
-10.73
 20
35.219999999999999
 30
0.0
 11
-10.73
 21
28.219999999999999
 31
0.0
  0
LINE
  5
2E3
100
AcDbEntity
  8
0
  6
CONTINUOUS
 62
               7
100
AcDbLine
 10
-13.130000000000001
 20
35.219999999999999
 30
0.0
 11
-13.130000000000001
 21
31.719999999999999
 31
0.0
  0
LINE
  5
2E4
100
AcDbEntity
  8
0
  6
CONTINUOUS
 62
               7
100
AcDbLine
 10
-8.3300000000000001
 20
33.719999999999999
 30
0.0
 11
-3.6299999999999999
 21
33.719999999999999
 31
0.0
  0
LINE
  5
2E5
100
AcDbEntity
  8
0
  6
CONTINUOUS
 62
               7
100
AcDbLine
 10
-8.3300000000000001
 20
29.719999999999999
 30
0.0
 11
-3.6299999999999999
 21
29.719999999999999
 31
0.0
  0
LINE
  5
2E6
100
AcDbEntity
  8
0
  6
CONTINUOUS
 62
               7
100
AcDbLine
 10
-14.630000000000001
 20
33.719999999999999
 30
0.0
 11
-14.630000000000001
 21
29.719999999999999
 31
0.0
  0
LINE
  5
2E7
100
AcDbEntity
  8
0
  6
CONTINUOUS
 62
               7
100
AcDbLine
 10
-14.630000000000001
 20
29.719999999999999
 30
0.0
 11
-15.130000000000001
 21
30.219999999999999
 31
0.0
  0
LINE
  5
2E8
100
AcDbEntity
  8
0
  6
CONTINUOUS
 62
               7
100
AcDbLine
 10
-15.130000000000001
 20
33.219999999999999
 30
0.0
 11
-14.630000000000001
 21
33.719999999999999
 31
0.0
  0
LINE
  5
2E9
100
AcDbEntity
  8
0
  6
CONTINUOUS
 62
               7
100
AcDbLine
 10
-14.630000000000001
 20
29.719999999999999
 30
0.0
 11
-13.130000000000001
 21
29.719999999999999
 31
0.0
  0
LINE
  5
2EA
100
AcDbEntity
  8
0
  6
CONTINUOUS
 62
               7
100
AcDbLine
 10
-14.630000000000001
 20
33.719999999999999
 30
0.0
 11
-13.130000000000001
 21
33.719999999999999
 31
0.0
  0
LINE
  5
2EB
100
AcDbEntity
  8
0
  6
CONTINUOUS
 62
               7
100
AcDbLine
 10
-5.1299999999999999
 20
33.719999999999999
 30
0.0
 11
-5.1299999999999999
 21
29.719999999999999
 31
0.0
  0
LINE
  5
2EC
100
AcDbEntity
  8
0
  6
CONTINUOUS
 62
               7
100
AcDbLine
 10
-15.130000000000001
 20
33.219999999999999
 30
0.0
 11
-15.130000000000001
 21
30.219999999999999
 31
0.0
  0
LINE
  5
2ED
100
AcDbEntity
  8
0
  6
CONTINUOUS
 62
               7
100
AcDbLine
 10
-3.1299999999999999
 20
-30.77
 30
0.0
 11
-3.1299999999999999
 21
-35.770000000000003
 31
0.0
  0
LINE
  5
2EE
100
AcDbEntity
  8
0
  6
CONTINUOUS
 62
               7
100
AcDbLine
 10
-3.6299999999999999
 20
-35.270000000000003
 30
0.0
 11
-3.1299999999999999
 21
-35.770000000000003
 31
0.0
  0
LINE
  5
2EF
100
AcDbEntity
  8
0
  6
CONTINUOUS
 62
               7
100
AcDbLine
 10
-3.6299999999999999
 20
-31.27
 30
0.0
 11
-3.1299999999999999
 21
-30.77
 31
0.0
  0
LINE
  5
2F0
100
AcDbEntity
  8
0
  6
CONTINUOUS
 62
               7
100
AcDbLine
 10
-3.1299999999999999
 20
-35.770000000000003
 30
0.0
 11
-2.1299999999999999
 21
-35.770000000000003
 31
0.0
  0
LINE
  5
2F1
100
AcDbEntity
  8
0
  6
CONTINUOUS
 62
               7
100
AcDbLine
 10
-3.1299999999999999
 20
-30.77
 30
0.0
 11
-2.1299999999999999
 21
-30.77
 31
0.0
  0
LINE
  5
2F2
100
AcDbEntity
  8
0
  6
CONTINUOUS
 62
               7
100
AcDbLine
 10
-3.6299999999999999
 20
-31.27
 30
0.0
 11
-3.6299999999999999
 21
-35.270000000000003
 31
0.0
  0
LINE
  5
2F3
100
AcDbEntity
  8
0
  6
CONTINUOUS
 62
               7
100
AcDbLine
 10
-2.1299999999999999
 20
-40.460000000000001
 30
0.0
 11
1.3700000000000001
 21
-40.460000000000001
 31
0.0
  0
LINE
  5
2F4
100
AcDbEntity
  8
0
  6
CONTINUOUS
 62
               7
100
AcDbLine
 10
1.3700000000000001
 20
-40.460000000000001
 30
0.0
 11
1.3700000000000001
 21
-45.270000000000003
 31
0.0
  0
LINE
  5
2F5
100
AcDbEntity
  8
0
  6
CONTINUOUS
 62
               7
100
AcDbLine
 10
41.869999999999997
 20
-21.27
 30
0.0
 11
41.869999999999997
 21
-27.77
 31
0.0
  0
LINE
  5
2F6
100
AcDbEntity
  8
0
  6
CONTINUOUS
 62
               7
100
AcDbLine
 10
8.8699999999999992
 20
-21.27
 30
0.0
 11
8.8699999999999992
 21
-45.270000000000003
 31
0.0
  0
LINE
  5
2F7
100
AcDbEntity
  8
0
  6
CENTER
 62
               2
100
AcDbLine
 10
15.869999999999999
 20
-25.27
 30
0.0
 11
23.870000000000001
 21
-25.27
 31
0.0
  0
LINE
  5
2F8
100
AcDbEntity
  8
0
  6
CENTER
 62
               2
100
AcDbLine
 10
15.869999999999999
 20
-41.270000000000003
 30
0.0
 11
23.870000000000001
 21
-41.270000000000003
 31
0.0
  0
LINE
  5
2F9
100
AcDbEntity
  8
0
  6
CENTER
 62
               2
100
AcDbLine
 10
19.870000000000001
 20
-37.270000000000003
 30
0.0
 11
19.870000000000001
 21
-45.270000000000003
 31
0.0
  0
LINE
  5
2FA
100
AcDbEntity
  8
0
  6
CENTER
 62
               2
100
AcDbLine
 10
19.870000000000001
 20
-21.27
 30
0.0
 11
19.870000000000001
 21
-29.27
 31
0.0
  0
LINE
  5
2FB
100
AcDbEntity
  8
0
  6
CONTINUOUS
 62
               7
100
AcDbLine
 10
-2.1299999999999999
 20
-45.270000000000003
 30
0.0
 11
22.620000000000001
 21
-45.270000000000003
 31
0.0
  0
LINE
  5
2FC
100
AcDbEntity
  8
0
  6
CONTINUOUS
 62
               7
100
AcDbLine
 10
-2.1299999999999999
 20
-21.27
 30
0.0
 11
27.620000000000001
 21
-21.27
 31
0.0
  0
LINE
  5
2FD
100
AcDbEntity
  8
0
  6
CONTINUOUS
 62
               7
100
AcDbLine
 10
-10.73
 20
-29.77
 30
0.0
 11
-10.73
 21
-36.770000000000003
 31
0.0
  0
LINE
  5
2FE
100
AcDbEntity
  8
0
  6
CONTINUOUS
 62
               7
100
AcDbLine
 10
-8.3300000000000001
 20
-36.770000000000003
 30
0.0
 11
-8.3300000000000001
 21
-33.270000000000003
 31
0.0
  0
LINE
  5
2FF
100
AcDbEntity
  8
0
  6
CONTINUOUS
 62
               7
100
AcDbLine
 10
-8.3300000000000001
 20
-31.27
 30
0.0
 11
-3.6299999999999999
 21
-31.27
 31
0.0
  0
LINE
  5
300
100
AcDbEntity
  8
0
  6
CONTINUOUS
 62
               7
100
AcDbLine
 10
-8.3300000000000001
 20
-35.270000000000003
 30
0.0
 11
-3.6299999999999999
 21
-35.270000000000003
 31
0.0
  0
LINE
  5
301
100
AcDbEntity
  8
0
  6
CONTINUOUS
 62
               7
100
AcDbLine
 10
-14.630000000000001
 20
-31.27
 30
0.0
 11
-14.630000000000001
 21
-35.270000000000003
 31
0.0
  0
LINE
  5
302
100
AcDbEntity
  8
0
  6
CONTINUOUS
 62
               7
100
AcDbLine
 10
-14.630000000000001
 20
-35.270000000000003
 30
0.0
 11
-15.130000000000001
 21
-34.770000000000003
 31
0.0
  0
LINE
  5
303
100
AcDbEntity
  8
0
  6
CONTINUOUS
 62
               7
100
AcDbLine
 10
-15.130000000000001
 20
-31.77
 30
0.0
 11
-14.630000000000001
 21
-31.27
 31
0.0
  0
LINE
  5
304
100
AcDbEntity
  8
0
  6
CONTINUOUS
 62
               7
100
AcDbLine
 10
-14.630000000000001
 20
-35.270000000000003
 30
0.0
 11
-13.130000000000001
 21
-35.270000000000003
 31
0.0
  0
LINE
  5
305
100
AcDbEntity
  8
0
  6
CONTINUOUS
 62
               7
100
AcDbLine
 10
-14.630000000000001
 20
-31.27
 30
0.0
 11
-13.130000000000001
 21
-31.27
 31
0.0
  0
LINE
  5
306
100
AcDbEntity
  8
0
  6
CONTINUOUS
 62
               7
100
AcDbLine
 10
-5.1299999999999999
 20
-31.27
 30
0.0
 11
-5.1299999999999999
 21
-35.270000000000003
 31
0.0
  0
LINE
  5
307
100
AcDbEntity
  8
0
  6
CONTINUOUS
 62
               7
100
AcDbLine
 10
-13.130000000000001
 20
-29.77
 30
0.0
 11
-13.130000000000001
 21
-33.270000000000003
 31
0.0
  0
LINE
  5
308
100
AcDbEntity
  8
0
  6
CONTINUOUS
 62
               7
100
AcDbLine
 10
-8.3300000000000001
 20
-29.77
 30
0.0
 11
-8.3300000000000001
 21
-33.270000000000003
 31
0.0
  0
LINE
  5
309
100
AcDbEntity
  8
0
  6
CONTINUOUS
 62
               7
100
AcDbLine
 10
-13.130000000000001
 20
-36.770000000000003
 30
0.0
 11
-13.130000000000001
 21
-33.270000000000003
 31
0.0
  0
LINE
  5
30A
100
AcDbEntity
  8
0
  6
CONTINUOUS
 62
               7
100
AcDbLine
 10
-15.130000000000001
 20
-31.77
 30
0.0
 11
-15.130000000000001
 21
-34.770000000000003
 31
0.0
  0
LINE
  5
30B
100
AcDbEntity
  8
0
  6
CONTINUOUS
 62
               7
100
AcDbLine
 10
-1.6299999999999999
 20
-40.460000000000001
 30
0.0
 11
-1.6299999999999999
 21
-45.020000000000003
 31
0.0
  0
LINE
  5
30C
100
AcDbEntity
  8
0
  6
CONTINUOUS
 62
               7
100
AcDbLine
 10
-1.6299999999999999
 20
-45.020000000000003
 30
0.0
 11
1.3700000000000001
 21
-45.020000000000003
 31
0.0
  0
LINE
  5
30D
100
AcDbEntity
  8
0
  6
CONTINUOUS
 62
               7
100
AcDbLine
 10
47.670000000000002
 20
-27.02
 30
0.0
 11
47.670000000000002
 21
-21.52
 31
0.0
  0
LINE
  5
30E
100
AcDbEntity
  8
0
  6
CONTINUOUS
 62
               7
100
AcDbLine
 10
44.670000000000002
 20
-27.77
 30
0.0
 11
44.670000000000002
 21
-21.27
 31
0.0
  0
LINE
  5
30F
100
AcDbEntity
  8
0
  6
CONTINUOUS
 62
               7
100
AcDbLine
 10
47.670000000000002
 20
-21.52
 30
0.0
 11
44.670000000000002
 21
-21.52
 31
0.0
  0
LINE
  5
310
100
AcDbEntity
  8
0
  6
CONTINUOUS
 62
               7
100
AcDbLine
 10
47.670000000000002
 20
-27.02
 30
0.0
 11
44.670000000000002
 21
-27.02
 31
0.0
  0
LINE
  5
311
100
AcDbEntity
  8
0
  6
CONTINUOUS
 62
               7
100
AcDbLine
 10
47.869999999999997
 20
-27.77
 30
0.0
 11
44.670000000000002
 21
-27.77
 31
0.0
  0
LINE
  5
312
100
AcDbEntity
  8
0
  6
CONTINUOUS
 62
               7
100
AcDbLine
 10
-10.41
 20
-35.289999999999999
 30
0.0
 11
-9.5299999999999994
 21
-35.289999999999999
 31
0.0
  0
LINE
  5
313
100
AcDbEntity
  8
0
  6
CONTINUOUS
 62
               7
100
AcDbLine
 10
-10.41
 20
-37.310000000000002
 30
0.0
 11
-9.5299999999999994
 21
-37.310000000000002
 31
0.0
  0
LINE
  5
314
100
AcDbEntity
  8
0
  6
CONTINUOUS
 62
               7
100
AcDbLine
 10
-10.73
 20
-36.770000000000003
 30
0.0
 11
-10.41
 21
-37.310000000000002
 31
0.0
  0
LINE
  5
315
100
AcDbEntity
  8
0
  6
CONTINUOUS
 62
               7
100
AcDbLine
 10
-8.6400000000000006
 20
-37.310000000000002
 30
0.0
 11
-9.5299999999999994
 21
-37.310000000000002
 31
0.0
  0
LINE
  5
316
100
AcDbEntity
  8
0
  6
CONTINUOUS
 62
               7
100
AcDbLine
 10
-8.3300000000000001
 20
-36.770000000000003
 30
0.0
 11
-8.6400000000000006
 21
-37.310000000000002
 31
0.0
  0
LINE
  5
317
100
AcDbEntity
  8
0
  6
CONTINUOUS
 62
               7
100
AcDbLine
 10
-8.6400000000000006
 20
-35.289999999999999
 30
0.0
 11
-9.5299999999999994
 21
-35.289999999999999
 31
0.0
  0
LINE
  5
318
100
AcDbEntity
  8
0
  6
CONTINUOUS
 62
               7
100
AcDbLine
 10
-10.41
 20
-29.23
 30
0.0
 11
-9.5299999999999994
 21
-29.23
 31
0.0
  0
LINE
  5
319
100
AcDbEntity
  8
0
  6
CONTINUOUS
 62
               7
100
AcDbLine
 10
-10.73
 20
-29.77
 30
0.0
 11
-10.41
 21
-29.23
 31
0.0
  0
LINE
  5
31A
100
AcDbEntity
  8
0
  6
CONTINUOUS
 62
               7
100
AcDbLine
 10
-10.41
 20
-31.25
 30
0.0
 11
-9.5299999999999994
 21
-31.25
 31
0.0
  0
LINE
  5
31B
100
AcDbEntity
  8
0
  6
CONTINUOUS
 62
               7
100
AcDbLine
 10
-8.3300000000000001
 20
-29.77
 30
0.0
 11
-8.6400000000000006
 21
-29.23
 31
0.0
  0
LINE
  5
31C
100
AcDbEntity
  8
0
  6
CONTINUOUS
 62
               7
100
AcDbLine
 10
-8.6400000000000006
 20
-31.25
 30
0.0
 11
-9.5299999999999994
 21
-31.25
 31
0.0
  0
LINE
  5
31D
100
AcDbEntity
  8
0
  6
CONTINUOUS
 62
               7
100
AcDbLine
 10
-8.6400000000000006
 20
-29.23
 30
0.0
 11
-9.5299999999999994
 21
-29.23
 31
0.0
  0
LINE
  5
31E
100
AcDbEntity
  8
0
  6
CONTINUOUS
 62
               7
100
AcDbLine
 10
-11.039999999999999
 20
-35.289999999999999
 30
0.0
 11
-11.93
 21
-35.289999999999999
 31
0.0
  0
LINE
  5
31F
100
AcDbEntity
  8
0
  6
CONTINUOUS
 62
               7
100
AcDbLine
 10
-11.039999999999999
 20
-37.310000000000002
 30
0.0
 11
-11.93
 21
-37.310000000000002
 31
0.0
  0
LINE
  5
320
100
AcDbEntity
  8
0
  6
CONTINUOUS
 62
               7
100
AcDbLine
 10
-10.73
 20
-36.770000000000003
 30
0.0
 11
-11.039999999999999
 21
-37.310000000000002
 31
0.0
  0
LINE
  5
321
100
AcDbEntity
  8
0
  6
CONTINUOUS
 62
               7
100
AcDbLine
 10
-12.81
 20
-37.310000000000002
 30
0.0
 11
-11.93
 21
-37.310000000000002
 31
0.0
  0
LINE
  5
322
100
AcDbEntity
  8
0
  6
CONTINUOUS
 62
               7
100
AcDbLine
 10
-13.130000000000001
 20
-36.770000000000003
 30
0.0
 11
-12.81
 21
-37.310000000000002
 31
0.0
  0
LINE
  5
323
100
AcDbEntity
  8
0
  6
CONTINUOUS
 62
               7
100
AcDbLine
 10
-12.81
 20
-35.289999999999999
 30
0.0
 11
-11.93
 21
-35.289999999999999
 31
0.0
  0
LINE
  5
324
100
AcDbEntity
  8
0
  6
CONTINUOUS
 62
               7
100
AcDbLine
 10
-11.039999999999999
 20
-29.23
 30
0.0
 11
-11.93
 21
-29.23
 31
0.0
  0
LINE
  5
325
100
AcDbEntity
  8
0
  6
CONTINUOUS
 62
               7
100
AcDbLine
 10
-10.73
 20
-29.77
 30
0.0
 11
-11.039999999999999
 21
-29.23
 31
0.0
  0
LINE
  5
326
100
AcDbEntity
  8
0
  6
CONTINUOUS
 62
               7
100
AcDbLine
 10
-11.039999999999999
 20
-31.25
 30
0.0
 11
-11.93
 21
-31.25
 31
0.0
  0
LINE
  5
327
100
AcDbEntity
  8
0
  6
CONTINUOUS
 62
               7
100
AcDbLine
 10
-13.130000000000001
 20
-29.77
 30
0.0
 11
-12.81
 21
-29.23
 31
0.0
  0
LINE
  5
328
100
AcDbEntity
  8
0
  6
CONTINUOUS
 62
               7
100
AcDbLine
 10
-12.81
 20
-31.25
 30
0.0
 11
-11.93
 21
-31.25
 31
0.0
  0
LINE
  5
329
100
AcDbEntity
  8
0
  6
CONTINUOUS
 62
               7
100
AcDbLine
 10
-12.81
 20
-29.23
 30
0.0
 11
-11.93
 21
-29.23
 31
0.0
  0
LINE
  5
32A
100
AcDbEntity
  8
0
  6
CENTER
 62
               2
100
AcDbLine
 10
-19.16
 20
-33.270000000000003
 30
0.0
 11
50.869999999999997
 21
-33.270000000000003
 31
0.0
  0
LINE
  5
32B
100
AcDbEntity
  8
0
  6
CONTINUOUS
 62
               7
100
AcDbLine
 10
47.869999999999997
 20
-21.27
 30
0.0
 11
47.869999999999997
 21
-28.27
 31
0.0
  0
LINE
  5
32C
100
AcDbEntity
  8
0
  6
CONTINUOUS
 62
               7
100
AcDbLine
 10
-2.1299999999999999
 20
-21.27
 30
0.0
 11
-2.1299999999999999
 21
-45.270000000000003
 31
0.0
  0
LINE
  5
32D
100
AcDbEntity
  8
0
  6
CONTINUOUS
 62
               7
100
AcDbLine
 10
-94.269999999999996
 20
25.719999999999999
 30
0.0
 11
-82.519999999999996
 21
25.719999999999999
 31
0.0
  0
LINE
  5
32E
100
AcDbEntity
  8
0
  6
CONTINUOUS
 62
               7
100
AcDbLine
 10
-82.519999999999996
 20
-29.77
 30
0.0
 11
-82.519999999999996
 21
-32.770000000000003
 31
0.0
  0
LINE
  5
32F
100
AcDbEntity
  8
0
  6
CONTINUOUS
 62
               7
100
AcDbLine
 10
-82.519999999999996
 20
-35.770000000000003
 30
0.0
 11
-82.519999999999996
 21
-41.270000000000003
 31
0.0
  0
LINE
  5
330
100
AcDbEntity
  8
0
  6
CONTINUOUS
 62
               7
100
AcDbLine
 10
-94.269999999999996
 20
-21.27
 30
0.0
 11
-82.519999999999996
 21
-21.27
 31
0.0
  0
LINE
  5
331
100
AcDbEntity
  8
0
  6
CONTINUOUS
 62
               7
100
AcDbLine
 10
-99.269999999999996
 20
-41.270000000000003
 30
0.0
 11
-82.519999999999996
 21
-41.270000000000003
 31
0.0
  0
LINE
  5
332
100
AcDbEntity
  8
0
  6
CONTINUOUS
 62
               7
100
AcDbLine
 10
-87.519999999999996
 20
-35.770000000000003
 30
0.0
 11
-87.519999999999996
 21
-41.270000000000003
 31
0.0
  0
LINE
  5
333
100
AcDbEntity
  8
0
  6
CONTINUOUS
 62
               7
100
AcDbLine
 10
-87.519999999999996
 20
-30.27
 30
0.0
 11
-87.519999999999996
 21
-32.770000000000003
 31
0.0
  0
LINE
  5
334
100
AcDbEntity
  8
0
  6
CENTER
 62
               2
100
AcDbLine
 10
-125.53
 20
33.719999999999999
 30
0.0
 11
-125.53
 21
27.719999999999999
 31
0.0
  0
LINE
  5
335
100
AcDbEntity
  8
0
  6
CENTER
 62
               2
100
AcDbLine
 10
-128.53
 20
30.719999999999999
 30
0.0
 11
-122.53
 21
30.719999999999999
 31
0.0
  0
LINE
  5
336
100
AcDbEntity
  8
0
  6
CONTINUOUS
 62
               7
100
AcDbLine
 10
-130.53
 20
33.57
 30
0.0
 11
-127.03
 21
33.57
 31
0.0
  0
LINE
  5
337
100
AcDbEntity
  8
0
  6
CONTINUOUS
 62
               7
100
AcDbLine
 10
-136.97999999999999
 20
31.719999999999999
 30
0.0
 11
-135.66999999999999
 21
31.719999999999999
 31
0.0
  0
LINE
  5
338
100
AcDbEntity
  8
0
  6
CONTINUOUS
 62
               7
100
AcDbLine
 10
-138.78
 20
31.719999999999999
 30
0.0
 11
-137.47
 21
31.719999999999999
 31
0.0
  0
LINE
  5
339
100
AcDbEntity
  8
0
  6
CONTINUOUS
 62
               7
100
AcDbLine
 10
-135.43000000000001
 20
28.969999999999999
 30
0.0
 11
-135.43000000000001
 21
31.719999999999999
 31
0.0
  0
LINE
  5
33A
100
AcDbEntity
  8
0
  6
CONTINUOUS
 62
               7
100
AcDbLine
 10
-135.43000000000001
 20
34.469999999999999
 30
0.0
 11
-137.22999999999999
 21
34.469999999999999
 31
0.0
  0
LINE
  5
33B
100
AcDbEntity
  8
0
  6
CONTINUOUS
 62
               7
100
AcDbLine
 10
-135.43000000000001
 20
28.969999999999999
 30
0.0
 11
-137.22999999999999
 21
28.969999999999999
 31
0.0
  0
LINE
  5
33C
100
AcDbEntity
  8
0
  6
CONTINUOUS
 62
               7
100
AcDbLine
 10
-135.43000000000001
 20
34.469999999999999
 30
0.0
 11
-135.43000000000001
 21
31.719999999999999
 31
0.0
  0
LINE
  5
33D
100
AcDbEntity
  8
0
  6
CONTINUOUS
 62
               7
100
AcDbLine
 10
-137.22999999999999
 20
28.969999999999999
 30
0.0
 11
-137.22999999999999
 21
31.719999999999999
 31
0.0
  0
LINE
  5
33E
100
AcDbEntity
  8
0
  6
CONTINUOUS
 62
               7
100
AcDbLine
 10
-139.03
 20
28.969999999999999
 30
0.0
 11
-137.22999999999999
 21
28.969999999999999
 31
0.0
  0
LINE
  5
33F
100
AcDbEntity
  8
0
  6
CONTINUOUS
 62
               7
100
AcDbLine
 10
-139.03
 20
28.969999999999999
 30
0.0
 11
-139.03
 21
31.719999999999999
 31
0.0
  0
LINE
  5
340
100
AcDbEntity
  8
0
  6
CONTINUOUS
 62
               7
100
AcDbLine
 10
-137.22999999999999
 20
34.469999999999999
 30
0.0
 11
-137.22999999999999
 21
31.719999999999999
 31
0.0
  0
LINE
  5
341
100
AcDbEntity
  8
0
  6
CONTINUOUS
 62
               7
100
AcDbLine
 10
-139.03
 20
34.469999999999999
 30
0.0
 11
-137.22999999999999
 21
34.469999999999999
 31
0.0
  0
LINE
  5
342
100
AcDbEntity
  8
0
  6
CONTINUOUS
 62
               7
100
AcDbLine
 10
-135.43000000000001
 20
30.219999999999999
 30
0.0
 11
-130.53
 21
30.219999999999999
 31
0.0
  0
LINE
  5
343
100
AcDbEntity
  8
0
  6
CONTINUOUS
 62
               7
100
AcDbLine
 10
-135.43000000000001
 20
33.219999999999999
 30
0.0
 11
-130.53
 21
33.219999999999999
 31
0.0
  0
LINE
  5
344
100
AcDbEntity
  8
0
  6
CONTINUOUS
 62
               7
100
AcDbLine
 10
-139.03
 20
34.469999999999999
 30
0.0
 11
-139.03
 21
31.719999999999999
 31
0.0
  0
LINE
  5
345
100
AcDbEntity
  8
0
  6
CONTINUOUS
 62
               7
100
AcDbLine
 10
-133.53
 20
33.219999999999999
 30
0.0
 11
-133.53
 21
30.219999999999999
 31
0.0
  0
LINE
  5
346
100
AcDbEntity
  8
0
  6
CONTINUOUS
 62
               7
100
AcDbLine
 10
-140.03
 20
33.219999999999999
 30
0.0
 11
-140.03
 21
30.219999999999999
 31
0.0
  0
LINE
  5
347
100
AcDbEntity
  8
0
  6
CONTINUOUS
 62
               7
100
AcDbLine
 10
-140.53
 20
30.719999999999999
 30
0.0
 11
-140.03
 21
30.219999999999999
 31
0.0
  0
LINE
  5
348
100
AcDbEntity
  8
0
  6
CONTINUOUS
 62
               7
100
AcDbLine
 10
-140.53
 20
32.719999999999999
 30
0.0
 11
-140.03
 21
33.219999999999999
 31
0.0
  0
LINE
  5
349
100
AcDbEntity
  8
0
  6
CONTINUOUS
 62
               7
100
AcDbLine
 10
-140.53
 20
32.719999999999999
 30
0.0
 11
-140.53
 21
30.719999999999999
 31
0.0
  0
LINE
  5
34A
100
AcDbEntity
  8
0
  6
CONTINUOUS
 62
               7
100
AcDbLine
 10
-140.03
 20
30.219999999999999
 30
0.0
 11
-139.03
 21
30.219999999999999
 31
0.0
  0
LINE
  5
34B
100
AcDbEntity
  8
0
  6
CONTINUOUS
 62
               7
100
AcDbLine
 10
-140.03
 20
33.219999999999999
 30
0.0
 11
-139.03
 21
33.219999999999999
 31
0.0
  0
LINE
  5
34C
100
AcDbEntity
  8
0
  6
CENTER
 62
               2
100
AcDbLine
 10
-92.519999999999996
 20
36.520000000000003
 30
0.0
 11
-92.519999999999996
 21
28.52
 31
0.0
  0
LINE
  5
34D
100
AcDbEntity
  8
0
  6
CENTER
 62
               2
100
AcDbLine
 10
-115.53
 20
34.920000000000002
 30
0.0
 11
-115.53
 21
26.920000000000002
 31
0.0
  0
LINE
  5
34E
100
AcDbEntity
  8
0
  6
CENTER
 62
               2
100
AcDbLine
 10
-96.519999999999996
 20
32.520000000000003
 30
0.0
 11
-88.519999999999996
 21
32.520000000000003
 31
0.0
  0
LINE
  5
34F
100
AcDbEntity
  8
0
  6
CENTER
 62
               2
100
AcDbLine
 10
-119.53
 20
30.920000000000002
 30
0.0
 11
-111.53
 21
30.920000000000002
 31
0.0
  0
LINE
  5
350
100
AcDbEntity
  8
0
  6
CONTINUOUS
 62
               7
100
AcDbLine
 10
-129.63
 20
33.57
 30
0.0
 11
-129.63
 21
37.469999999999999
 31
0.0
  0
LINE
  5
351
100
AcDbEntity
  8
0
  6
CONTINUOUS
 62
               7
100
AcDbLine
 10
-127.03
 20
33.57
 30
0.0
 11
-127.03
 21
37.719999999999999
 31
0.0
  0
LINE
  5
352
100
AcDbEntity
  8
0
  6
CONTINUOUS
 62
               7
100
AcDbLine
 10
-129.63
 20
37.469999999999999
 30
0.0
 11
-127.03
 21
37.469999999999999
 31
0.0
  0
LINE
  5
353
100
AcDbEntity
  8
0
  6
CONTINUOUS
 62
               7
100
AcDbLine
 10
-87.519999999999996
 20
37.719999999999999
 30
0.0
 11
-87.519999999999996
 21
25.719999999999999
 31
0.0
  0
LINE
  5
354
100
AcDbEntity
  8
0
  6
CONTINUOUS
 62
               7
100
AcDbLine
 10
-120.53
 20
37.719999999999999
 30
0.0
 11
-120.53
 21
25.719999999999999
 31
0.0
  0
LINE
  5
355
100
AcDbEntity
  8
0
  6
CENTER
 62
               2
100
AcDbLine
 10
-138.72999999999999
 20
31.719999999999999
 30
0.0
 11
-79.519999999999996
 21
31.719999999999999
 31
0.0
  0
LINE
  5
356
100
AcDbEntity
  8
0
  6
CONTINUOUS
 62
               7
100
AcDbLine
 10
-130.53
 20
25.719999999999999
 30
0.0
 11
-101.78
 21
25.719999999999999
 31
0.0
  0
LINE
  5
357
100
AcDbEntity
  8
0
  6
CONTINUOUS
 62
               7
100
AcDbLine
 10
-130.53
 20
37.719999999999999
 30
0.0
 11
-82.519999999999996
 21
37.719999999999999
 31
0.0
  0
LINE
  5
358
100
AcDbEntity
  8
0
  6
CONTINUOUS
 62
               7
100
AcDbLine
 10
-82.519999999999996
 20
37.719999999999999
 30
0.0
 11
-82.519999999999996
 21
25.719999999999999
 31
0.0
  0
LINE
  5
359
100
AcDbEntity
  8
0
  6
CONTINUOUS
 62
               7
100
AcDbLine
 10
-130.53
 20
37.719999999999999
 30
0.0
 11
-130.53
 21
25.719999999999999
 31
0.0
  0
LINE
  5
35A
100
AcDbEntity
  8
0
  6
CONTINUOUS
 62
               7
100
AcDbLine
 10
-82.620000000000005
 20
30.469999999999999
 30
0.0
 11
-82.620000000000005
 21
25.969999999999999
 31
0.0
  0
LINE
  5
35B
100
AcDbEntity
  8
0
  6
CONTINUOUS
 62
               7
100
AcDbLine
 10
-85.219999999999999
 20
31.219999999999999
 30
0.0
 11
-85.219999999999999
 21
25.719999999999999
 31
0.0
  0
LINE
  5
35C
100
AcDbEntity
  8
0
  6
CONTINUOUS
 62
               7
100
AcDbLine
 10
-82.620000000000005
 20
25.969999999999999
 30
0.0
 11
-85.219999999999999
 21
25.969999999999999
 31
0.0
  0
LINE
  5
35D
100
AcDbEntity
  8
0
  6
CONTINUOUS
 62
               7
100
AcDbLine
 10
-82.620000000000005
 20
30.469999999999999
 30
0.0
 11
-85.219999999999999
 21
30.469999999999999
 31
0.0
  0
LINE
  5
35E
100
AcDbEntity
  8
0
  6
CONTINUOUS
 62
               7
100
AcDbLine
 10
-82.519999999999996
 20
31.219999999999999
 30
0.0
 11
-85.219999999999999
 21
31.219999999999999
 31
0.0
  0
LINE
  5
35F
100
AcDbEntity
  8
0
  6
CENTER
 62
               2
100
AcDbLine
 10
-105.47
 20
-38.270000000000003
 30
0.0
 11
-100.68000000000001
 21
-38.270000000000003
 31
0.0
  0
LINE
  5
360
100
AcDbEntity
  8
0
  6
CONTINUOUS
 62
               7
100
AcDbLine
 10
-99.269999999999996
 20
-36.270000000000003
 30
0.0
 11
-82.519999999999996
 21
-36.270000000000003
 31
0.0
  0
LINE
  5
361
100
AcDbEntity
  8
0
  6
CONTINUOUS
 62
               7
100
AcDbLine
 10
-106.7
 20
-26.27
 30
0.0
 11
-101.78
 21
-26.27
 31
0.0
  0
LINE
  5
362
100
AcDbEntity
  8
0
  6
CONTINUOUS
 62
               7
100
AcDbLine
 10
-136.97999999999999
 20
-32.850000000000001
 30
0.0
 11
-136.33000000000001
 21
-32.850000000000001
 31
0.0
  0
LINE
  5
363
100
AcDbEntity
  8
0
  6
CONTINUOUS
 62
               7
100
AcDbLine
 10
-136.97999999999999
 20
-34.439999999999998
 30
0.0
 11
-136.33000000000001
 21
-34.439999999999998
 31
0.0
  0
LINE
  5
364
100
AcDbEntity
  8
0
  6
CONTINUOUS
 62
               7
100
AcDbLine
 10
-137.22999999999999
 20
-34.020000000000003
 30
0.0
 11
-136.97999999999999
 21
-34.439999999999998
 31
0.0
  0
LINE
  5
365
100
AcDbEntity
  8
0
  6
CONTINUOUS
 62
               7
100
AcDbLine
 10
-135.66999999999999
 20
-32.850000000000001
 30
0.0
 11
-136.33000000000001
 21
-32.850000000000001
 31
0.0
  0
LINE
  5
366
100
AcDbEntity
  8
0
  6
CONTINUOUS
 62
               7
100
AcDbLine
 10
-135.66999999999999
 20
-34.439999999999998
 30
0.0
 11
-136.33000000000001
 21
-34.439999999999998
 31
0.0
  0
LINE
  5
367
100
AcDbEntity
  8
0
  6
CONTINUOUS
 62
               7
100
AcDbLine
 10
-135.43000000000001
 20
-34.020000000000003
 30
0.0
 11
-135.43000000000001
 21
-31.27
 31
0.0
  0
LINE
  5
368
100
AcDbEntity
  8
0
  6
CONTINUOUS
 62
               7
100
AcDbLine
 10
-135.43000000000001
 20
-34.020000000000003
 30
0.0
 11
-135.66999999999999
 21
-34.439999999999998
 31
0.0
  0
LINE
  5
369
100
AcDbEntity
  8
0
  6
CONTINUOUS
 62
               7
100
AcDbLine
 10
-136.97999999999999
 20
-29.68
 30
0.0
 11
-136.33000000000001
 21
-29.68
 31
0.0
  0
LINE
  5
36A
100
AcDbEntity
  8
0
  6
CONTINUOUS
 62
               7
100
AcDbLine
 10
-136.97999999999999
 20
-28.09
 30
0.0
 11
-136.33000000000001
 21
-28.09
 31
0.0
  0
LINE
  5
36B
100
AcDbEntity
  8
0
  6
CONTINUOUS
 62
               7
100
AcDbLine
 10
-137.22999999999999
 20
-28.52
 30
0.0
 11
-136.97999999999999
 21
-28.09
 31
0.0
  0
LINE
  5
36C
100
AcDbEntity
  8
0
  6
CONTINUOUS
 62
               7
100
AcDbLine
 10
-135.43000000000001
 20
-28.52
 30
0.0
 11
-135.66999999999999
 21
-28.09
 31
0.0
  0
LINE
  5
36D
100
AcDbEntity
  8
0
  6
CONTINUOUS
 62
               7
100
AcDbLine
 10
-135.66999999999999
 20
-29.68
 30
0.0
 11
-136.33000000000001
 21
-29.68
 31
0.0
  0
LINE
  5
36E
100
AcDbEntity
  8
0
  6
CONTINUOUS
 62
               7
100
AcDbLine
 10
-135.66999999999999
 20
-28.09
 30
0.0
 11
-136.33000000000001
 21
-28.09
 31
0.0
  0
LINE
  5
36F
100
AcDbEntity
  8
0
  6
CONTINUOUS
 62
               7
100
AcDbLine
 10
-135.43000000000001
 20
-28.52
 30
0.0
 11
-135.43000000000001
 21
-31.27
 31
0.0
  0
LINE
  5
370
100
AcDbEntity
  8
0
  6
CONTINUOUS
 62
               7
100
AcDbLine
 10
-137.47
 20
-32.850000000000001
 30
0.0
 11
-138.13
 21
-32.850000000000001
 31
0.0
  0
LINE
  5
371
100
AcDbEntity
  8
0
  6
CONTINUOUS
 62
               7
100
AcDbLine
 10
-137.47
 20
-34.439999999999998
 30
0.0
 11
-138.13
 21
-34.439999999999998
 31
0.0
  0
LINE
  5
372
100
AcDbEntity
  8
0
  6
CONTINUOUS
 62
               7
100
AcDbLine
 10
-137.22999999999999
 20
-34.020000000000003
 30
0.0
 11
-137.22999999999999
 21
-31.27
 31
0.0
  0
LINE
  5
373
100
AcDbEntity
  8
0
  6
CONTINUOUS
 62
               7
100
AcDbLine
 10
-137.22999999999999
 20
-34.020000000000003
 30
0.0
 11
-137.47
 21
-34.439999999999998
 31
0.0
  0
LINE
  5
374
100
AcDbEntity
  8
0
  6
CONTINUOUS
 62
               7
100
AcDbLine
 10
-138.78
 20
-32.850000000000001
 30
0.0
 11
-138.13
 21
-32.850000000000001
 31
0.0
  0
LINE
  5
375
100
AcDbEntity
  8
0
  6
CONTINUOUS
 62
               7
100
AcDbLine
 10
-138.78
 20
-34.439999999999998
 30
0.0
 11
-138.13
 21
-34.439999999999998
 31
0.0
  0
LINE
  5
376
100
AcDbEntity
  8
0
  6
CONTINUOUS
 62
               7
100
AcDbLine
 10
-139.03
 20
-34.020000000000003
 30
0.0
 11
-139.03
 21
-31.27
 31
0.0
  0
LINE
  5
377
100
AcDbEntity
  8
0
  6
CONTINUOUS
 62
               7
100
AcDbLine
 10
-139.03
 20
-34.020000000000003
 30
0.0
 11
-138.78
 21
-34.439999999999998
 31
0.0
  0
LINE
  5
378
100
AcDbEntity
  8
0
  6
CONTINUOUS
 62
               7
100
AcDbLine
 10
-137.47
 20
-29.68
 30
0.0
 11
-138.13
 21
-29.68
 31
0.0
  0
LINE
  5
379
100
AcDbEntity
  8
0
  6
CONTINUOUS
 62
               7
100
AcDbLine
 10
-137.47
 20
-28.09
 30
0.0
 11
-138.13
 21
-28.09
 31
0.0
  0
LINE
  5
37A
100
AcDbEntity
  8
0
  6
CONTINUOUS
 62
               7
100
AcDbLine
 10
-137.22999999999999
 20
-28.52
 30
0.0
 11
-137.22999999999999
 21
-31.27
 31
0.0
  0
LINE
  5
37B
100
AcDbEntity
  8
0
  6
CONTINUOUS
 62
               7
100
AcDbLine
 10
-137.22999999999999
 20
-28.52
 30
0.0
 11
-137.47
 21
-28.09
 31
0.0
  0
LINE
  5
37C
100
AcDbEntity
  8
0
  6
CONTINUOUS
 62
               7
100
AcDbLine
 10
-139.03
 20
-28.52
 30
0.0
 11
-138.78
 21
-28.09
 31
0.0
  0
LINE
  5
37D
100
AcDbEntity
  8
0
  6
CONTINUOUS
 62
               7
100
AcDbLine
 10
-138.78
 20
-29.68
 30
0.0
 11
-138.13
 21
-29.68
 31
0.0
  0
LINE
  5
37E
100
AcDbEntity
  8
0
  6
CONTINUOUS
 62
               7
100
AcDbLine
 10
-138.78
 20
-28.09
 30
0.0
 11
-138.13
 21
-28.09
 31
0.0
  0
LINE
  5
37F
100
AcDbEntity
  8
0
  6
CONTINUOUS
 62
               7
100
AcDbLine
 10
-135.43000000000001
 20
-32.770000000000003
 30
0.0
 11
-130.53
 21
-32.770000000000003
 31
0.0
  0
LINE
  5
380
100
AcDbEntity
  8
0
  6
CONTINUOUS
 62
               7
100
AcDbLine
 10
-135.43000000000001
 20
-29.77
 30
0.0
 11
-130.53
 21
-29.77
 31
0.0
  0
LINE
  5
381
100
AcDbEntity
  8
0
  6
CONTINUOUS
 62
               7
100
AcDbLine
 10
-139.03
 20
-28.52
 30
0.0
 11
-139.03
 21
-31.27
 31
0.0
  0
LINE
  5
382
100
AcDbEntity
  8
0
  6
CONTINUOUS
 62
               7
100
AcDbLine
 10
-133.53
 20
-29.77
 30
0.0
 11
-133.53
 21
-32.770000000000003
 31
0.0
  0
LINE
  5
383
100
AcDbEntity
  8
0
  6
CONTINUOUS
 62
               7
100
AcDbLine
 10
-140.03
 20
-29.77
 30
0.0
 11
-140.03
 21
-32.770000000000003
 31
0.0
  0
LINE
  5
384
100
AcDbEntity
  8
0
  6
CONTINUOUS
 62
               7
100
AcDbLine
 10
-140.53
 20
-32.270000000000003
 30
0.0
 11
-140.03
 21
-32.770000000000003
 31
0.0
  0
LINE
  5
385
100
AcDbEntity
  8
0
  6
CONTINUOUS
 62
               7
100
AcDbLine
 10
-140.53
 20
-30.27
 30
0.0
 11
-140.03
 21
-29.77
 31
0.0
  0
LINE
  5
386
100
AcDbEntity
  8
0
  6
CONTINUOUS
 62
               7
100
AcDbLine
 10
-140.53
 20
-30.27
 30
0.0
 11
-140.53
 21
-32.270000000000003
 31
0.0
  0
LINE
  5
387
100
AcDbEntity
  8
0
  6
CONTINUOUS
 62
               7
100
AcDbLine
 10
-140.03
 20
-32.770000000000003
 30
0.0
 11
-139.03
 21
-32.770000000000003
 31
0.0
  0
LINE
  5
388
100
AcDbEntity
  8
0
  6
CONTINUOUS
 62
               7
100
AcDbLine
 10
-140.03
 20
-29.77
 30
0.0
 11
-139.03
 21
-29.77
 31
0.0
  0
LINE
  5
389
100
AcDbEntity
  8
0
  6
CONTINUOUS
 62
               7
100
AcDbLine
 10
-82.519999999999996
 20
-21.27
 30
0.0
 11
-82.519999999999996
 21
-26.77
 31
0.0
  0
LINE
  5
38A
100
AcDbEntity
  8
0
  6
CONTINUOUS
 62
               7
100
AcDbLine
 10
-87.519999999999996
 20
-21.27
 30
0.0
 11
-87.519999999999996
 21
-26.27
 31
0.0
  0
LINE
  5
38B
100
AcDbEntity
  8
0
  6
CONTINUOUS
 62
               7
100
AcDbLine
 10
-129.63
 20
-36.520000000000003
 30
0.0
 11
-129.63
 21
-41.020000000000003
 31
0.0
  0
LINE
  5
38C
100
AcDbEntity
  8
0
  6
CONTINUOUS
 62
               7
100
AcDbLine
 10
-127.03
 20
-36.270000000000003
 30
0.0
 11
-127.03
 21
-41.270000000000003
 31
0.0
  0
LINE
  5
38D
100
AcDbEntity
  8
0
  6
CONTINUOUS
 62
               7
100
AcDbLine
 10
-129.63
 20
-41.020000000000003
 30
0.0
 11
-127.03
 21
-41.020000000000003
 31
0.0
  0
LINE
  5
38E
100
AcDbEntity
  8
0
  6
CONTINUOUS
 62
               7
100
AcDbLine
 10
-129.63
 20
-36.520000000000003
 30
0.0
 11
-127.03
 21
-36.520000000000003
 31
0.0
  0
LINE
  5
38F
100
AcDbEntity
  8
0
  6
CONTINUOUS
 62
               7
100
AcDbLine
 10
-82.620000000000005
 20
-26.02
 30
0.0
 11
-82.620000000000005
 21
-21.52
 31
0.0
  0
LINE
  5
390
100
AcDbEntity
  8
0
  6
CONTINUOUS
 62
               7
100
AcDbLine
 10
-85.219999999999999
 20
-26.77
 30
0.0
 11
-85.219999999999999
 21
-21.27
 31
0.0
  0
LINE
  5
391
100
AcDbEntity
  8
0
  6
CONTINUOUS
 62
               7
100
AcDbLine
 10
-82.620000000000005
 20
-21.52
 30
0.0
 11
-85.219999999999999
 21
-21.52
 31
0.0
  0
LINE
  5
392
100
AcDbEntity
  8
0
  6
CONTINUOUS
 62
               7
100
AcDbLine
 10
-82.620000000000005
 20
-26.02
 30
0.0
 11
-85.219999999999999
 21
-26.02
 31
0.0
  0
LINE
  5
393
100
AcDbEntity
  8
0
  6
CONTINUOUS
 62
               7
100
AcDbLine
 10
-82.519999999999996
 20
-26.77
 30
0.0
 11
-85.219999999999999
 21
-26.77
 31
0.0
  0
LINE
  5
394
100
AcDbEntity
  8
0
  6
CENTER
 62
               2
100
AcDbLine
 10
-103.03
 20
-35.810000000000002
 30
0.0
 11
-103.03
 21
-40.369999999999997
 31
0.0
  0
LINE
  5
395
100
AcDbEntity
  8
0
  6
CENTER
 62
               2
100
AcDbLine
 10
-109.53
 20
-33.210000000000001
 30
0.0
 11
-109.53
 21
-41.770000000000003
 31
0.0
  0
LINE
  5
396
100
AcDbEntity
  8
0
  6
CENTER
 62
               2
100
AcDbLine
 10
-109.53
 20
-20.77
 30
0.0
 11
-109.53
 21
-29.48
 31
0.0
  0
LINE
  5
397
100
AcDbEntity
  8
0
  6
CENTER
 62
               2
100
AcDbLine
 10
-113.78
 20
-25.27
 30
0.0
 11
-100.53
 21
-25.27
 31
0.0
  0
LINE
  5
398
100
AcDbEntity
  8
0
  6
CENTER
 62
               2
100
AcDbLine
 10
-113.56999999999999
 20
-37.270000000000003
 30
0.0
 11
-105.17
 21
-37.270000000000003
 31
0.0
  0
LINE
  5
399
100
AcDbEntity
  8
0
  6
CONTINUOUS
 62
               7
100
AcDbLine
 10
-120.53
 20
-21.27
 30
0.0
 11
-120.53
 21
-41.270000000000003
 31
0.0
  0
LINE
  5
39A
100
AcDbEntity
  8
0
  6
CENTER
 62
               2
100
AcDbLine
 10
-143.75
 20
-31.27
 30
0.0
 11
-79.519999999999996
 21
-31.27
 31
0.0
  0
LINE
  5
39B
100
AcDbEntity
  8
0
  6
CONTINUOUS
 62
               7
100
AcDbLine
 10
-130.53
 20
-41.270000000000003
 30
0.0
 11
-106.78
 21
-41.270000000000003
 31
0.0
  0
LINE
  5
39C
100
AcDbEntity
  8
0
  6
CONTINUOUS
 62
               7
100
AcDbLine
 10
-130.53
 20
-36.270000000000003
 30
0.0
 11
-112.34999999999999
 21
-36.270000000000003
 31
0.0
  0
LINE
  5
39D
100
AcDbEntity
  8
0
  6
CONTINUOUS
 62
               7
100
AcDbLine
 10
-130.53
 20
-26.27
 30
0.0
 11
-112.34999999999999
 21
-26.27
 31
0.0
  0
LINE
  5
39E
100
AcDbEntity
  8
0
  6
CONTINUOUS
 62
               7
100
AcDbLine
 10
-130.53
 20
-21.27
 30
0.0
 11
-101.78
 21
-21.27
 31
0.0
  0
LINE
  5
39F
100
AcDbEntity
  8
0
  6
CONTINUOUS
 62
               7
100
AcDbLine
 10
-130.53
 20
-21.27
 30
0.0
 11
-130.53
 21
-41.270000000000003
 31
0.0
  0
LINE
  5
3A0
100
AcDbEntity
  8
0
  6
CENTER
 62
               2
100
AcDbLine
 10
72.290000000000006
 20
-38.270000000000003
 30
0.0
 11
94.260000000000005
 21
-38.270000000000003
 31
0.0
  0
LINE
  5
3A1
100
AcDbEntity
  8
0
  6
CONTINUOUS
 62
               7
100
AcDbLine
 10
75.379999999999995
 20
-26.859999999999999
 30
0.0
 11
75.379999999999995
 21
-24.670000000000002
 31
0.0
  0
LINE
  5
3A2
100
AcDbEntity
  8
0
  6
CONTINUOUS
 62
               7
100
AcDbLine
 10
77.269999999999996
 20
-23.579999999999998
 30
0.0
 11
75.379999999999995
 21
-24.670000000000002
 31
0.0
  0
LINE
  5
3A3
100
AcDbEntity
  8
0
  6
CONTINUOUS
 62
               7
100
AcDbLine
 10
79.170000000000002
 20
-24.670000000000002
 30
0.0
 11
77.269999999999996
 21
-23.579999999999998
 31
0.0
  0
LINE
  5
3A4
100
AcDbEntity
  8
0
  6
CONTINUOUS
 62
               7
100
AcDbLine
 10
79.170000000000002
 20
-26.859999999999999
 30
0.0
 11
79.170000000000002
 21
-24.670000000000002
 31
0.0
  0
LINE
  5
3A5
100
AcDbEntity
  8
0
  6
CONTINUOUS
 62
               7
100
AcDbLine
 10
79.170000000000002
 20
-26.859999999999999
 30
0.0
 11
77.269999999999996
 21
-27.960000000000001
 31
0.0
  0
LINE
  5
3A6
100
AcDbEntity
  8
0
  6
CONTINUOUS
 62
               7
100
AcDbLine
 10
77.269999999999996
 20
-27.960000000000001
 30
0.0
 11
75.379999999999995
 21
-26.859999999999999
 31
0.0
  0
LINE
  5
3A7
100
AcDbEntity
  8
0
  6
CONTINUOUS
 62
               7
100
AcDbLine
 10
87.379999999999995
 20
-51.859999999999999
 30
0.0
 11
87.379999999999995
 21
-49.670000000000002
 31
0.0
  0
LINE
  5
3A8
100
AcDbEntity
  8
0
  6
CONTINUOUS
 62
               7
100
AcDbLine
 10
89.269999999999996
 20
-48.579999999999998
 30
0.0
 11
87.379999999999995
 21
-49.670000000000002
 31
0.0
  0
LINE
  5
3A9
100
AcDbEntity
  8
0
  6
CONTINUOUS
 62
               7
100
AcDbLine
 10
91.170000000000002
 20
-49.670000000000002
 30
0.0
 11
89.269999999999996
 21
-48.579999999999998
 31
0.0
  0
LINE
  5
3AA
100
AcDbEntity
  8
0
  6
CONTINUOUS
 62
               7
100
AcDbLine
 10
91.170000000000002
 20
-51.859999999999999
 30
0.0
 11
91.170000000000002
 21
-49.670000000000002
 31
0.0
  0
LINE
  5
3AB
100
AcDbEntity
  8
0
  6
CONTINUOUS
 62
               7
100
AcDbLine
 10
91.170000000000002
 20
-51.859999999999999
 30
0.0
 11
89.269999999999996
 21
-52.960000000000001
 31
0.0
  0
LINE
  5
3AC
100
AcDbEntity
  8
0
  6
CONTINUOUS
 62
               7
100
AcDbLine
 10
89.269999999999996
 20
-52.960000000000001
 30
0.0
 11
87.379999999999995
 21
-51.859999999999999
 31
0.0
  0
LINE
  5
3AD
100
AcDbEntity
  8
0
  6
CONTINUOUS
 62
               7
100
AcDbLine
 10
83.269999999999996
 20
-42.890000000000001
 30
0.0
 11
87.269999999999996
 21
-40.579999999999998
 31
0.0
  0
LINE
  5
3AE
100
AcDbEntity
  8
0
  6
CONTINUOUS
 62
               7
100
AcDbLine
 10
79.269999999999996
 20
-35.960000000000001
 30
0.0
 11
83.269999999999996
 21
-33.649999999999999
 31
0.0
  0
LINE
  5
3AF
100
AcDbEntity
  8
0
  6
CONTINUOUS
 62
               7
100
AcDbLine
 10
83.269999999999996
 20
-33.649999999999999
 30
0.0
 11
87.269999999999996
 21
-35.960000000000001
 31
0.0
  0
LINE
  5
3B0
100
AcDbEntity
  8
0
  6
CONTINUOUS
 62
               7
100
AcDbLine
 10
79.269999999999996
 20
-40.579999999999998
 30
0.0
 11
83.269999999999996
 21
-42.890000000000001
 31
0.0
  0
LINE
  5
3B1
100
AcDbEntity
  8
0
  6
CONTINUOUS
 62
               7
100
AcDbLine
 10
87.269999999999996
 20
-35.960000000000001
 30
0.0
 11
87.269999999999996
 21
-40.579999999999998
 31
0.0
  0
LINE
  5
3B2
100
AcDbEntity
  8
0
  6
CONTINUOUS
 62
               7
100
AcDbLine
 10
79.269999999999996
 20
-35.960000000000001
 30
0.0
 11
79.269999999999996
 21
-40.579999999999998
 31
0.0
  0
LINE
  5
3B3
100
AcDbEntity
  8
0
  6
CONTINUOUS
 62
               7
100
AcDbLine
 10
73.269999999999996
 20
-21.77
 30
0.0
 11
73.269999999999996
 21
-54.770000000000003
 31
0.0
  0
LINE
  5
3B4
100
AcDbEntity
  8
0
  6
CONTINUOUS
 62
               7
100
AcDbLine
 10
93.269999999999996
 20
-21.77
 30
0.0
 11
93.269999999999996
 21
-54.770000000000003
 31
0.0
  0
LINE
  5
3B5
100
AcDbEntity
  8
0
  6
CONTINUOUS
 62
               7
100
AcDbLine
 10
73.269999999999996
 20
-21.77
 30
0.0
 11
93.269999999999996
 21
-21.77
 31
0.0
  0
LINE
  5
3B6
100
AcDbEntity
  8
0
  6
CONTINUOUS
 62
               7
100
AcDbLine
 10
73.269999999999996
 20
-54.770000000000003
 30
0.0
 11
93.269999999999996
 21
-54.770000000000003
 31
0.0
  0
LINE
  5
3B7
100
AcDbEntity
  8
0
  6
CENTER
 62
               2
100
AcDbLine
 10
83.269999999999996
 20
-56.280000000000001
 30
0.0
 11
83.269999999999996
 21
-19.93
 31
0.0
  0
LINE
  5
3B8
100
AcDbEntity
  8
0
  6
CONTINUOUS
 62
               7
100
AcDbLine
 10
-49.340000000000003
 20
-24.469999999999999
 30
0.0
 11
-49.340000000000003
 21
-23.059999999999999
 31
0.0
  0
LINE
  5
3B9
100
AcDbEntity
  8
0
  6
CONTINUOUS
 62
               7
100
AcDbLine
 10
-48.130000000000003
 20
-22.359999999999999
 30
0.0
 11
-49.340000000000003
 21
-23.059999999999999
 31
0.0
  0
LINE
  5
3BA
100
AcDbEntity
  8
0
  6
CONTINUOUS
 62
               7
100
AcDbLine
 10
-46.909999999999997
 20
-23.059999999999999
 30
0.0
 11
-48.130000000000003
 21
-22.359999999999999
 31
0.0
  0
LINE
  5
3BB
100
AcDbEntity
  8
0
  6
CONTINUOUS
 62
               7
100
AcDbLine
 10
-46.909999999999997
 20
-24.469999999999999
 30
0.0
 11
-46.909999999999997
 21
-23.059999999999999
 31
0.0
  0
LINE
  5
3BC
100
AcDbEntity
  8
0
  6
CONTINUOUS
 62
               7
100
AcDbLine
 10
-46.909999999999997
 20
-24.469999999999999
 30
0.0
 11
-48.130000000000003
 21
-25.170000000000002
 31
0.0
  0
LINE
  5
3BD
100
AcDbEntity
  8
0
  6
CONTINUOUS
 62
               7
100
AcDbLine
 10
-48.130000000000003
 20
-25.170000000000002
 30
0.0
 11
-49.340000000000003
 21
-24.469999999999999
 31
0.0
  0
LINE
  5
3BE
100
AcDbEntity
  8
0
  6
CONTINUOUS
 62
               7
100
AcDbLine
 10
-40.340000000000003
 20
-43.469999999999999
 30
0.0
 11
-40.340000000000003
 21
-42.060000000000002
 31
0.0
  0
LINE
  5
3BF
100
AcDbEntity
  8
0
  6
CONTINUOUS
 62
               7
100
AcDbLine
 10
-39.130000000000003
 20
-41.359999999999999
 30
0.0
 11
-40.340000000000003
 21
-42.060000000000002
 31
0.0
  0
LINE
  5
3C0
100
AcDbEntity
  8
0
  6
CONTINUOUS
 62
               7
100
AcDbLine
 10
-37.909999999999997
 20
-42.060000000000002
 30
0.0
 11
-39.130000000000003
 21
-41.359999999999999
 31
0.0
  0
LINE
  5
3C1
100
AcDbEntity
  8
0
  6
CONTINUOUS
 62
               7
100
AcDbLine
 10
-37.909999999999997
 20
-43.469999999999999
 30
0.0
 11
-37.909999999999997
 21
-42.060000000000002
 31
0.0
  0
LINE
  5
3C2
100
AcDbEntity
  8
0
  6
CONTINUOUS
 62
               7
100
AcDbLine
 10
-37.909999999999997
 20
-43.469999999999999
 30
0.0
 11
-39.130000000000003
 21
-44.170000000000002
 31
0.0
  0
LINE
  5
3C3
100
AcDbEntity
  8
0
  6
CONTINUOUS
 62
               7
100
AcDbLine
 10
-39.130000000000003
 20
-44.170000000000002
 30
0.0
 11
-40.340000000000003
 21
-43.469999999999999
 31
0.0
  0
LINE
  5
3C4
100
AcDbEntity
  8
0
  6
CONTINUOUS
 62
               7
100
AcDbLine
 10
-50.630000000000003
 20
-45.270000000000003
 30
0.0
 11
-36.630000000000003
 21
-45.270000000000003
 31
0.0
  0
LINE
  5
3C5
100
AcDbEntity
  8
0
  6
CONTINUOUS
 62
               7
100
AcDbLine
 10
-50.630000000000003
 20
-21.27
 30
0.0
 11
-50.630000000000003
 21
-45.270000000000003
 31
0.0
  0
LINE
  5
3C6
100
AcDbEntity
  8
0
  6
CONTINUOUS
 62
               7
100
AcDbLine
 10
-50.630000000000003
 20
-21.27
 30
0.0
 11
-36.630000000000003
 21
-21.27
 31
0.0
  0
LINE
  5
3C7
100
AcDbEntity
  8
0
  6
CONTINUOUS
 62
               7
100
AcDbLine
 10
-36.630000000000003
 20
-21.27
 30
0.0
 11
-36.630000000000003
 21
-45.270000000000003
 31
0.0
  0
LINE
  5
3C8
100
AcDbEntity
  8
0
  6
CENTER
 62
               2
100
AcDbLine
 10
-50.630000000000003
 20
-33.270000000000003
 30
0.0
 11
-34.630000000000003
 21
-33.270000000000003
 31
0.0
  0
LINE
  5
3C9
100
AcDbEntity
  8
0
  6
CENTER
 62
               2
100
AcDbLine
 10
-43.630000000000003
 20
-20.27
 30
0.0
 11
-43.630000000000003
 21
-46.270000000000003
 31
0.0
  0
LINE
  5
3CA
100
AcDbEntity
  8
0
  6
CONTINUOUS
 62
               7
100
AcDbLine
 10
-177.74000000000001
 20
-24.469999999999999
 30
0.0
 11
-177.74000000000001
 21
-23.059999999999999
 31
0.0
  0
LINE
  5
3CB
100
AcDbEntity
  8
0
  6
CONTINUOUS
 62
               7
100
AcDbLine
 10
-176.53
 20
-22.359999999999999
 30
0.0
 11
-177.74000000000001
 21
-23.059999999999999
 31
0.0
  0
LINE
  5
3CC
100
AcDbEntity
  8
0
  6
CONTINUOUS
 62
               7
100
AcDbLine
 10
-175.31
 20
-23.059999999999999
 30
0.0
 11
-176.53
 21
-22.359999999999999
 31
0.0
  0
LINE
  5
3CD
100
AcDbEntity
  8
0
  6
CONTINUOUS
 62
               7
100
AcDbLine
 10
-175.31
 20
-24.469999999999999
 30
0.0
 11
-175.31
 21
-23.059999999999999
 31
0.0
  0
LINE
  5
3CE
100
AcDbEntity
  8
0
  6
CONTINUOUS
 62
               7
100
AcDbLine
 10
-175.31
 20
-24.469999999999999
 30
0.0
 11
-176.53
 21
-25.170000000000002
 31
0.0
  0
LINE
  5
3CF
100
AcDbEntity
  8
0
  6
CONTINUOUS
 62
               7
100
AcDbLine
 10
-176.53
 20
-25.170000000000002
 30
0.0
 11
-177.74000000000001
 21
-24.469999999999999
 31
0.0
  0
LINE
  5
3D0
100
AcDbEntity
  8
0
  6
CONTINUOUS
 62
               7
100
AcDbLine
 10
-169.53
 20
-37.359999999999999
 30
0.0
 11
-168.31
 21
-38.060000000000002
 31
0.0
  0
LINE
  5
3D1
100
AcDbEntity
  8
0
  6
CONTINUOUS
 62
               7
100
AcDbLine
 10
-168.31
 20
-38.060000000000002
 30
0.0
 11
-168.31
 21
-39.469999999999999
 31
0.0
  0
LINE
  5
3D2
100
AcDbEntity
  8
0
  6
CONTINUOUS
 62
               7
100
AcDbLine
 10
-169.53
 20
-40.170000000000002
 30
0.0
 11
-168.31
 21
-39.469999999999999
 31
0.0
  0
LINE
  5
3D3
100
AcDbEntity
  8
0
  6
CONTINUOUS
 62
               7
100
AcDbLine
 10
-170.74000000000001
 20
-39.469999999999999
 30
0.0
 11
-169.53
 21
-40.170000000000002
 31
0.0
  0
LINE
  5
3D4
100
AcDbEntity
  8
0
  6
CONTINUOUS
 62
               7
100
AcDbLine
 10
-170.74000000000001
 20
-38.060000000000002
 30
0.0
 11
-170.74000000000001
 21
-39.469999999999999
 31
0.0
  0
LINE
  5
3D5
100
AcDbEntity
  8
0
  6
CONTINUOUS
 62
               7
100
AcDbLine
 10
-170.74000000000001
 20
-38.060000000000002
 30
0.0
 11
-169.53
 21
-37.359999999999999
 31
0.0
  0
LINE
  5
3D6
100
AcDbEntity
  8
0
  6
CONTINUOUS
 62
               7
100
AcDbLine
 10
-168.03
 20
-26.27
 30
0.0
 11
-167.03
 21
-26.27
 31
0.0
  0
LINE
  5
3D7
100
AcDbEntity
  8
0
  6
CONTINUOUS
 62
               7
100
AcDbLine
 10
-175.78
 20
-29.68
 30
0.0
 11
-175.78
 21
-32.850000000000001
 31
0.0
  0
LINE
  5
3D8
100
AcDbEntity
  8
0
  6
CONTINUOUS
 62
               7
100
AcDbLine
 10
-173.03
 20
-28.09
 30
0.0
 11
-175.78
 21
-29.68
 31
0.0
  0
LINE
  5
3D9
100
AcDbEntity
  8
0
  6
CONTINUOUS
 62
               7
100
AcDbLine
 10
-170.28
 20
-29.68
 30
0.0
 11
-173.03
 21
-28.09
 31
0.0
  0
LINE
  5
3DA
100
AcDbEntity
  8
0
  6
CONTINUOUS
 62
               7
100
AcDbLine
 10
-170.28
 20
-32.850000000000001
 30
0.0
 11
-170.28
 21
-29.68
 31
0.0
  0
LINE
  5
3DB
100
AcDbEntity
  8
0
  6
CONTINUOUS
 62
               7
100
AcDbLine
 10
-173.03
 20
-34.439999999999998
 30
0.0
 11
-170.28
 21
-32.850000000000001
 31
0.0
  0
LINE
  5
3DC
100
AcDbEntity
  8
0
  6
CONTINUOUS
 62
               7
100
AcDbLine
 10
-175.78
 20
-32.850000000000001
 30
0.0
 11
-173.03
 21
-34.439999999999998
 31
0.0
  0
LINE
  5
3DD
100
AcDbEntity
  8
0
  6
CONTINUOUS
 62
               7
100
AcDbLine
 10
-168.03
 20
-26.27
 30
0.0
 11
-168.03
 21
-36.270000000000003
 31
0.0
  0
LINE
  5
3DE
100
AcDbEntity
  8
0
  6
CONTINUOUS
 62
               7
100
AcDbLine
 10
-168.03
 20
-36.270000000000003
 30
0.0
 11
-167.03
 21
-36.270000000000003
 31
0.0
  0
LINE
  5
3DF
100
AcDbEntity
  8
0
  6
CONTINUOUS
 62
               7
100
AcDbLine
 10
-167.03
 20
-36.270000000000003
 30
0.0
 11
-167.03
 21
-41.270000000000003
 31
0.0
  0
LINE
  5
3E0
100
AcDbEntity
  8
0
  6
CONTINUOUS
 62
               7
100
AcDbLine
 10
-179.03
 20
-41.270000000000003
 30
0.0
 11
-167.03
 21
-41.270000000000003
 31
0.0
  0
LINE
  5
3E1
100
AcDbEntity
  8
0
  6
CONTINUOUS
 62
               7
100
AcDbLine
 10
-179.03
 20
-36.270000000000003
 30
0.0
 11
-179.03
 21
-41.270000000000003
 31
0.0
  0
LINE
  5
3E2
100
AcDbEntity
  8
0
  6
CONTINUOUS
 62
               7
100
AcDbLine
 10
-179.03
 20
-36.270000000000003
 30
0.0
 11
-178.03
 21
-36.270000000000003
 31
0.0
  0
LINE
  5
3E3
100
AcDbEntity
  8
0
  6
CONTINUOUS
 62
               7
100
AcDbLine
 10
-179.03
 20
-26.27
 30
0.0
 11
-178.03
 21
-26.27
 31
0.0
  0
LINE
  5
3E4
100
AcDbEntity
  8
0
  6
CONTINUOUS
 62
               7
100
AcDbLine
 10
-179.03
 20
-21.27
 30
0.0
 11
-179.03
 21
-26.27
 31
0.0
  0
LINE
  5
3E5
100
AcDbEntity
  8
0
  6
CONTINUOUS
 62
               7
100
AcDbLine
 10
-179.03
 20
-21.27
 30
0.0
 11
-167.03
 21
-21.27
 31
0.0
  0
LINE
  5
3E6
100
AcDbEntity
  8
0
  6
CONTINUOUS
 62
               7
100
AcDbLine
 10
-167.03
 20
-21.27
 30
0.0
 11
-167.03
 21
-26.27
 31
0.0
  0
LINE
  5
3E7
100
AcDbEntity
  8
0
  6
CONTINUOUS
 62
               7
100
AcDbLine
 10
-178.03
 20
-26.27
 30
0.0
 11
-178.03
 21
-36.270000000000003
 31
0.0
  0
LINE
  5
3E8
100
AcDbEntity
  8
0
  6
CENTER
 62
               2
100
AcDbLine
 10
-181.03
 20
-31.27
 30
0.0
 11
-165.03
 21
-31.27
 31
0.0
  0
LINE
  5
3E9
100
AcDbEntity
  8
0
  6
CENTER
 62
               2
100
AcDbLine
 10
-173.03
 20
-18.27
 30
0.0
 11
-173.03
 21
-44.270000000000003
 31
0.0
  0
LINE
  5
3EA
100
AcDbEntity
  8
0
  6
CONTINUOUS
 62
               7
100
AcDbLine
 10
-109.25
 20
132.59999999999999
 30
0.0
 11
-109.25
 21
117.59999999999999
 31
0.0
  0
LINE
  5
3EB
100
AcDbEntity
  8
0
  6
CONTINUOUS
 62
               7
100
AcDbLine
 10
-194.25
 20
117.59999999999999
 30
0.0
 11
-109.25
 21
117.59999999999999
 31
0.0
  0
LINE
  5
3EC
100
AcDbEntity
  8
0
  6
CONTINUOUS
 62
               7
100
AcDbLine
 10
109.8
 20
117.59999999999999
 30
0.0
 11
194.80000000000001
 21
117.59999999999999
 31
0.0
  0
LINE
  5
3ED
100
AcDbEntity
  8
0
  6
CONTINUOUS
 62
               7
100
AcDbLine
 10
109.8
 20
132.59999999999999
 30
0.0
 11
109.8
 21
117.59999999999999
 31
0.0
  0
LINE
  5
3EE
100
AcDbEntity
  8
0
  6
CONTINUOUS
 62
               7
100
AcDbLine
 10
109.8
 20
-118.5
 30
0.0
 11
194.80000000000001
 21
-118.5
 31
0.0
  0
LINE
  5
3EF
100
AcDbEntity
  8
0
  6
CONTINUOUS
 62
               7
100
AcDbLine
 10
109.8
 20
-118.5
 30
0.0
 11
109.8
 21
-133.5
 31
0.0
  0
LINE
  5
3F0
100
AcDbEntity
  8
0
  6
CONTINUOUS
 62
               7
100
AcDbLine
 10
-194.25
 20
-133.5
 30
0.0
 11
194.80000000000001
 21
-133.5
 31
0.0
  0
LINE
  5
3F1
100
AcDbEntity
  8
0
  6
CONTINUOUS
 62
               7
100
AcDbLine
 10
-194.25
 20
132.59999999999999
 30
0.0
 11
-194.25
 21
-133.5
 31
0.0
  0
LINE
  5
3F2
100
AcDbEntity
  8
0
  6
CONTINUOUS
 62
               7
100
AcDbLine
 10
194.80000000000001
 20
132.59999999999999
 30
0.0
 11
194.80000000000001
 21
-133.5
 31
0.0
  0
LINE
  5
3F3
100
AcDbEntity
  8
0
  6
CONTINUOUS
 62
               7
100
AcDbLine
 10
-194.25
 20
132.59999999999999
 30
0.0
 11
194.80000000000001
 21
132.59999999999999
 31
0.0
  0
ENDSEC
  0
SECTION
  2
OBJECTS
  0
DICTIONARY
  5
19
100
AcDbDictionary
  3
ACAD_GROUP
350
1A
  3
ACAD_MLINESTYLE
350
1B
  0
DICTIONARY
  5
1A
102
{ACAD_REACTORS
330
19
102
}
100
AcDbDictionary
  0
DICTIONARY
  5
1B
102
{ACAD_REACTORS
330
19
102
}
100
AcDbDictionary
  3
STANDARD
350
1C
  0
MLINESTYLE
  5
1C
102
{ACAD_REACTORS
330
1B
102
}
100
AcDbMlineStyle
  2
Standard
 70
               0
  3

 62
               0
 51
90.0
 52
90.0
 71
               2
 49
0.5
 62
             256
  6
ByLayer
 49
-0.5
 62
             256
  6
ByLayer
  0
ENDSEC
  0
EOF
