  0
SECTION
  2
HEADER
  9
$ACADVER
  1
AC1012
  9
$DWGCODEPAGE
  3
dos932
  9
$INSBASE
 10
0.0
 20
0.0
 30
0.0
  9
$EXTMIN
 10
-281.25
 20
-195.0
 30
0.0
  9
$EXTMAX
 10
285.59998798370361
 20
195.5
 30
0.0
  9
$LIMMIN
 10
-281.25
 20
-195.0
  9
$LIMMAX
 10
285.59998798370361
 20
195.5
  9
$ORTHOMODE
 70
               0
  9
$REGENMODE
 70
               1
  9
$FILLMODE
 70
               1
  9
$QTEXTMODE
 70
               0
  9
$MIRRTEXT
 70
               1
  9
$DRAGMODE
 70
               2
  9
$LTSCALE
 40
1.0
  9
$OSMODE
 70
               0
  9
$ATTMODE
 70
               1
  9
$TEXTSIZE
 40
3.2000000476837158
  9
$TRACEWID
 40
0.05
  9
$TEXTSTYLE
  7
MX_NOTE_STANDARD
  9
$CLAYER
  8
0
  9
$CELTYPE
  6
CONTINUOUS
  9
$CECOLOR
 62
             256
  9
$CELTSCALE
 40
1.0
  9
$DELOBJ
 70
               1
  9
$DISPSILH
 70
               0
  9
$DIMSCALE
 40
1.0
  9
$DIMASZ
 40
2.5
  9
$DIMEXO
 40
1.5
  9
$DIMDLI
 40
3.75
  9
$DIMRND
 40
0.0
  9
$DIMDLE
 40
0.0
  9
$DIMEXE
 40
1.5
  9
$DIMTP
 40
0.0
  9
$DIMTM
 40
0.0
  9
$DIMTXT
 40
3.2000000476837158
  9
$DIMCEN
 40
2.5
  9
$DIMTSZ
 40
0.0
  9
$DIMTOL
 70
               0
  9
$DIMLIM
 70
               0
  9
$DIMTIH
 70
               0
  9
$DIMTOH
 70
               0
  9
$DIMSE1
 70
               0
  9
$DIMSE2
 70
               0
  9
$DIMTAD
 70
               1
  9
$DIMZIN
 70
               8
  9
$DIMBLK
  1

  9
$DIMASO
 70
               1
  9
$DIMSHO
 70
               1
  9
$DIMPOST
  1

  9
$DIMAPOST
  1

  9
$DIMALT
 70
               0
  9
$DIMALTD
 70
               4
  9
$DIMALTF
 40
0.0394
  9
$DIMLFAC
 40
1.0
  9
$DIMTOFL
 70
               1
  9
$DIMTVP
 40
0.0
  9
$DIMTIX
 70
               0
  9
$DIMSOXD
 70
               0
  9
$DIMSAH
 70
               0
  9
$DIMBLK1
  1

  9
$DIMBLK2
  1

  9
$DIMSTYLE
  2
MXDIMSTYLE
  9
$DIMCLRD
 70
               0
  9
$DIMCLRE
 70
               0
  9
$DIMCLRT
 70
               0
  9
$DIMTFAC
 40
1.0
  9
$DIMGAP
 40
1.0
  9
$DIMJUST
 70
               0
  9
$DIMSD1
 70
               0
  9
$DIMSD2
 70
               0
  9
$DIMTOLJ
 70
               1
  9
$DIMTZIN
 70
               0
  9
$DIMALTZ
 70
               0
  9
$DIMALTTZ
 70
               0
  9
$DIMFIT
 70
               3
  9
$DIMUPT
 70
               1
  9
$DIMUNIT
 70
               2
  9
$DIMDEC
 70
               4
  9
$DIMTDEC
 70
               4
  9
$DIMALTU
 70
               8
  9
$DIMALTTD
 70
               4
  9
$DIMTXSTY
  7
MX_NOTE_STANDARD
  9
$DIMAUNIT
 70
               0
  9
$LUNITS
 70
               2
  9
$LUPREC
 70
               4
  9
$SKETCHINC
 40
0.1
  9
$FILLETRAD
 40
0.0
  9
$AUNITS
 70
               0
  9
$AUPREC
 70
               0
  9
$MENU
  1
acad
  9
$ELEVATION
 40
0.0
  9
$PELEVATION
 40
0.0
  9
$THICKNESS
 40
0.0
  9
$LIMCHECK
 70
               0
  9
$BLIPMODE
 70
               1
  9
$CHAMFERA
 40
0.0
  9
$CHAMFERB
 40
0.0
  9
$CHAMFERC
 40
0.0
  9
$CHAMFERD
 40
0.0
  9
$SKPOLY
 70
               0
  9
$TDCREATE
 40
2452220.696875000
  9
$TDUPDATE
 40
2452220.696875000
  9
$TDINDWG
 40
0.0000000000
  9
$TDUSRTIMER
 40
0.0000000000
  9
$USRTIMER
 70
               1
  9
$ANGBASE
 50
0.0
  9
$ANGDIR
 70
               0
  9
$PDMODE
 70
               0
  9
$PDSIZE
 40
0.0
  9
$PLINEWID
 40
0.0
  9
$COORDS
 70
               1
  9
$SPLFRAME
 70
               0
  9
$SPLINETYPE
 70
               6
  9
$SPLINESEGS
 70
               8
  9
$ATTDIA
 70
               0
  9
$ATTREQ
 70
               1
  9
$HANDLING
 70
               1
  9
$HANDSEED
  5
1F4
  9
$SURFTAB1
 70
               6
  9
$SURFTAB2
 70
               6
  9
$SURFTYPE
 70
               6
  9
$SURFU
 70
               6
  9
$SURFV
 70
               6
  9
$UCSNAME
  2

  9
$UCSORG
 10
0.0
 20
0.0
 30
0.0
  9
$UCSXDIR
 10
1.0
 20
0.0
 30
0.0
  9
$UCSYDIR
 10
0.0
 20
1.0
 30
0.0
  9
$PUCSNAME
  2

  9
$PUCSORG
 10
0.0
 20
0.0
 30
0.0
  9
$PUCSXDIR
 10
1.0
 20
0.0
 30
0.0
  9
$PUCSYDIR
 10
0.0
 20
1.0
 30
0.0
  9
$USERI1
 70
               0
  9
$USERI2
 70
               0
  9
$USERI3
 70
               0
  9
$USERI4
 70
               0
  9
$USERI5
 70
               0
  9
$USERR1
 40
0.0
  9
$USERR2
 40
0.0
  9
$USERR3
 40
0.0
  9
$USERR4
 40
0.0
  9
$USERR5
 40
0.0
  9
$WORLDVIEW
 70
               1
  9
$SHADEDGE
 70
               3
  9
$SHADEDIF
 70
              70
  9
$TILEMODE
 70
               1
  9
$MAXACTVP
 70
              16
  9
$PINSBASE
 10
0.0
 20
0.0
 30
0.0
  9
$PLIMCHECK
 70
               0
  9
$PEXTMIN
 10
1.0000000000000000E+20
 20
1.0000000000000000E+20
 30
1.0000000000000000E+20
  9
$PEXTMAX
 10
-1.0000000000000000E+20
 20
-1.0000000000000000E+20
 30
-1.0000000000000000E+20
  9
$PLIMMIN
 10
0.0
 20
0.0
  9
$PLIMMAX
 10
12.0
 20
9.0
  9
$UNITMODE
 70
               0
  9
$VISRETAIN
 70
               0
  9
$PLINEGEN
 70
               1
  9
$PSLTSCALE
 70
               0
  9
$TREEDEPTH
 70
            3020
  9
$PICKSTYLE
 70
               1
  9
$CMLSTYLE
  2
Standard
  9
$CMLJUST
 70
               0
  9
$CMLSCALE
 40
1.0
  9
$SAVEIMAGES
 70
               0
  0
ENDSEC
  0
SECTION
  2
CLASSES
  0
CLASS
  1
LWPOLYLINE
  2
AcDbPolyline
  3
"AutoCAD"
 90
        0
280
               0
281
               1
  0
CLASS
  1
IMAGE
  2
AcDbRasterImage
  3
ISM
 90
      127
280
               0
281
               1
  0
CLASS
  1
OLE2FRAME
  2
AcDbOle2Frame
  3
""
 90
        0
280
               0
281
               1
  0
CLASS
  1
HATCH
  2
AcDbHatch
  3
"ACAD_SEDONA"
 90
        0
280
               0
281
               1
  0
CLASS
  1
DICTIONARYVAR
  2
AcDbDictionaryVar
  3
"AutoCAD"
 90
        0
280
               0
281
               0
  0
CLASS
  1
RASTERVARIABLES
  2
AcDbRasterVariables
  3
ISM
 90
        0
280
               0
281
               0
  0
CLASS
  1
IMAGEDEF
  2
AcDbRasterImageDef
  3
ISM
 90
        0
280
               0
281
               0
  0
CLASS
  1
IMAGEDEF_REACTOR
  2
AcDbRasterImageDefReactor
  3
ISM
 90
        1
280
               0
281
               0
  0
CLASS
  1
IDBUFFER
  2
AcDbIdBuffer
  3
"Acad"
 90
        0
280
               0
281
               0
  0
CLASS
  1
SPATIAL_FILTER
  2
AcDbSpatialFilter
  3
"Acad"
 90
        0
280
               0
281
               0
  0
CLASS
  1
XRECORD
  2
AcDbXrecord
  3
"<Built In>"
 90
        0
280
               0
281
               0
  0
CLASS
  1
SORTENTSTABLE
  2
AcDbSortentsTable
  3
"AutoCAD"
 90
        0
280
               0
281
               0
  0
CLASS
  1
LAYER_INDEX
  2
AcDbLayerIndex
  3
"Acad"
 90
        0
280
               0
281
               0
  0
CLASS
  1
SPATIAL_INDEX
  2
AcDbSpatialIndex
  3
"Acad"
 90
        0
280
               0
281
               0
  0
CLASS
  1
OBJECT_PTR
  2
CAseDLPNTableRecord
  3
"ASE-LPNTableRecord"
 90
        1
280
               0
281
               0
  0
CLASS
  1
LAYOUT
  2
AcDbLayout
  3
"AutoCAD 2000"
 90
        1
280
               0
281
               0
  0
CLASS
  1
PLOTSETTINGS
  2
AcDbPlotSettings
  3
"AutoCAD 2000"
 90
        1
280
               0
281
               0
  0
CLASS
  1
ACDBDICTIONARYWDFLT
  2
AcDbDictionaryWithDefault
  3
"AutoCAD 2000"
 90
        1
280
               0
281
               0
  0
CLASS
  1
ACDBPLACEHOLDER
  2
AcDbPlaceHolder
  3
"AutoCAD 2000"
 90
        1
280
               0
281
               0
  0
CLASS
  1
VBA_PROJECT
  2
AcDbVbaProject
  3
"acadvba"
 90
        1
280
               0
281
               0
  0
CLASS
  1
WIPEOUT
  2
AcDbWipeout
  3
WipeOut|AutoCAD Express Tool|expresstools@autodesk.com
 90
      127
280
               0
281
               1
  0
CLASS
  1
WIPEOUTVARIABLES
  2
AcDbWipeoutVariables
  3
WipeOut|AutoCAD Express Tool|expresstools@autodesk.com
 90
        0
280
               0
281
               0
  0
CLASS
  1
RTEXT
  2
RText
  3
RText|AutoCAD Express Tool|expresstools@autodesk.com
 90
        0
280
               0
281
               1
  0
CLASS
  1
ARCALIGNEDTEXT
  2
AcDbArcAlignedText
  3
ATEXT|AutoCAD Express Tool|expresstools@autodesk.com
 90
        0
280
               0
281
               1
  0
ENDSEC
  0
SECTION
  2
TABLES
  0
TABLE
  2
VPORT
  5
7
100
AcDbSymbolTable
 70
               1
  0
VPORT
  5
15
100
AcDbSymbolTableRecord
100
AcDbViewportTableRecord
  2
*ACTIVE
 70
               0
 10
0.0
 20
0.0
 11
1.0
 21
1.0
 12
2.1749939918518066
 22
0.25
 13
0.0
 23
0.0
 14
1.0
 24
1.0
 15
0.0
 25
0.0
 16
0.0
 26
0.0
 36
1.0
 17
0.0
 27
0.0
 37
0.0
 40
394.40500000000003
 41
1.7320508075688772
 42
50.0
 43
0.0
 44
0.0
 50
0.0
 51
0.0
 71
               0
 72
             100
 73
               1
 74
               1
 75
               0
 76
               0
 77
               0
 78
               0
  0
ENDTAB
  0
TABLE
  2
LTYPE
  5
4
100
AcDbSymbolTable
 70
               6
  0
LTYPE
  5
11
100
AcDbSymbolTableRecord
100
AcDbLinetypeTableRecord
  2
BYBLOCK
 70
              64
  3

 72
              65
 73
               0
 40
0.0
  0
LTYPE
  5
12
100
AcDbSymbolTableRecord
100
AcDbLinetypeTableRecord
  2
BYLAYER
 70
              64
  3

 72
              65
 73
               0
 40
0.0
  0
LTYPE
  5
13
100
AcDbSymbolTableRecord
100
AcDbLinetypeTableRecord
  2
CONTINUOUS
 70
              64
  3
Solid line
 72
              65
 73
               0
 40
0.0
  0
LTYPE
  5
3B
100
AcDbSymbolTableRecord
100
AcDbLinetypeTableRecord
  2
DASHED
 70
              64
  3
Dashed __ __ __ __ __ __ __ __ __ __ __ __ __ _
 72
              65
 73
               2
 40
19.049999999999997
 49
12.699999999999999
 74
               0
 49
-6.3499999999999996
 74
               0
  0
LTYPE
  5
44
100
AcDbSymbolTableRecord
100
AcDbLinetypeTableRecord
  2
CENTER
 70
              64
  3
Center ____ _ ____ _ ____ _ ____ _ ____ _ ____
 72
              65
 73
               4
 40
50.800000000000004
 49
31.75
 74
               0
 49
-6.3499999999999996
 74
               0
 49
6.3499999999999996
 74
               0
 49
-6.3499999999999996
 74
               0
  0
LTYPE
  5
1E3
100
AcDbSymbolTableRecord
100
AcDbLinetypeTableRecord
  2
PHANTOM
 70
              64
  3
Phantom ______  __  __  ______  __  __  ______
 72
              65
 73
               6
 40
63.500000000000007
 49
31.75
 74
               0
 49
-6.3499999999999996
 74
               0
 49
6.3499999999999996
 74
               0
 49
-6.3499999999999996
 74
               0
 49
6.3499999999999996
 74
               0
 49
-6.3499999999999996
 74
               0
  0
ENDTAB
  0
TABLE
  2
LAYER
  5
2
100
AcDbSymbolTable
 70
               2
  0
LAYER
  5
14
100
AcDbSymbolTableRecord
100
AcDbLayerTableRecord
  2
0
 70
               0
 62
               7
  6
CONTINUOUS
  0
LAYER
  5
1D
100
AcDbSymbolTableRecord
100
AcDbLayerTableRecord
  2
DEFPOINTS
 70
               0
 62
               7
  6
CONTINUOUS
  0
ENDTAB
  0
TABLE
  2
STYLE
  5
3
100
AcDbSymbolTable
 70
               1
  0
STYLE
  5
17
100
AcDbSymbolTableRecord
100
AcDbTextStyleTableRecord
  2
MX_NOTE_STANDARD
 70
               0
 40
3.2000000476837158
 41
1.0
 50
0.0
 71
               0
 42
3.2000000476837158
  3
txt.shx
  4
extfont.shx
  0
ENDTAB
  0
TABLE
  2
VIEW
  5
5
100
AcDbSymbolTable
 70
               0
  0
ENDTAB
  0
TABLE
  2
UCS
  5
6
100
AcDbSymbolTable
 70
               0
  0
ENDTAB
  0
TABLE
  2
APPID
  5
8
100
AcDbSymbolTable
 70
               1
  0
APPID
  5
16
100
AcDbSymbolTableRecord
100
AcDbRegAppTableRecord
  2
ACAD
 70
               0
  0
ENDTAB
  0
TABLE
  2
DIMSTYLE
  5
9
100
AcDbSymbolTable
 70
               1
  0
DIMSTYLE
105
18
100
AcDbSymbolTableRecord
100
AcDbDimStyleTableRecord
  2
MXDIMSTYLE
 70
               0
  3

  4

  5

  6

  7

 40
1.0
 41
2.5
 42
1.5
 43
3.75
 44
1.5
 45
0.0
 46
0.0
 47
0.0
 48
0.0
 71
               0
 72
               0
 73
               0
 74
               0
 75
               0
 76
               0
 77
               1
 78
               8
140
3.2000000476837158
141
2.5
142
0.0
143
0.0394
144
1.0
145
0.0
146
1.0
147
1.0
170
               0
171
               4
172
               1
173
               0
174
               0
175
               0
176
               0
177
               0
178
               0
270
               2
271
               4
272
               4
273
               8
274
               4
275
               0
280
               0
281
               0
282
               0
283
               1
284
               0
285
               0
286
               0
287
               3
288
               1
340
17
  0
ENDTAB
  0
TABLE
  2
BLOCK_RECORD
  5
1
100
AcDbSymbolTable
 70
               6
  0
BLOCK_RECORD
  5
A
100
AcDbSymbolTableRecord
100
AcDbBlockTableRecord
  2
*MODEL_SPACE
  0
BLOCK_RECORD
  5
B
100
AcDbSymbolTableRecord
100
AcDbBlockTableRecord
  2
*PAPER_SPACE
  0
BLOCK_RECORD
  5
1E
100
AcDbSymbolTableRecord
100
AcDbBlockTableRecord
  2
MS_1
  0
BLOCK_RECORD
  5
1F
100
AcDbSymbolTableRecord
100
AcDbBlockTableRecord
  2
MS_2
  0
BLOCK_RECORD
  5
20
100
AcDbSymbolTableRecord
100
AcDbBlockTableRecord
  2
MS_3
  0
BLOCK_RECORD
  5
21
100
AcDbSymbolTableRecord
100
AcDbBlockTableRecord
  2
MS_4
  0
BLOCK_RECORD
  5
22
100
AcDbSymbolTableRecord
100
AcDbBlockTableRecord
  2
MS_5
  0
BLOCK_RECORD
  5
23
100
AcDbSymbolTableRecord
100
AcDbBlockTableRecord
  2
MS_6
  0
ENDTAB
  0
ENDSEC
  0
SECTION
  2
BLOCKS
  0
BLOCK
  5
D
100
AcDbEntity
  8
0
100
AcDbBlockBegin
  2
*MODEL_SPACE
 70
               0
 10
0.0
 20
0.0
 30
0.0
  3
*MODEL_SPACE
  1

  0
ENDBLK
  5
E
100
AcDbEntity
  8
0
100
AcDbBlockEnd
  0
BLOCK
  5
F
100
AcDbEntity
 67
               1
  8
0
100
AcDbBlockBegin
  2
*PAPER_SPACE
 70
               0
 10
0.0
 20
0.0
 30
0.0
  3
*PAPER_SPACE
  1

  0
ENDBLK
  5
10
100
AcDbEntity
 67
               1
  8
0
100
AcDbBlockEnd
  0
BLOCK
  5
24
100
AcDbEntity
  8
0
100
AcDbBlockBegin
  2
MS_1
 70
               0
 10
0.0
 20
0.0
 30
0.0
  3
MS_1
  1

  0
SPLINE
  5
25
100
AcDbEntity
  8
0
  6
CONTINUOUS
 62
               7
100
AcDbSpline
210
0.0
220
0.0
230
1.0
 70
               0
 71
               3
 72
               0
 73
               0
 74
               5
 44
0.000001
 12
-0.526202723994931
 22
-0.8503591554515743
 32
0.0
 13
0.5262030564226355
 23
-0.8503589497450337
 33
0.0
 11
-14.94
 21
-13.27
 31
0.0
 11
-16.427142757241324
 21
-16.453222606043166
 31
0.0
 11
-17.0
 21
-19.91
 31
0.0
 11
-16.427142796403036
 21
-23.366777603278148
 31
0.0
 11
-14.939999999999998
 21
-26.550000000000001
 31
0.0
  0
SPLINE
  5
26
100
AcDbEntity
  8
0
  6
CONTINUOUS
 62
               7
100
AcDbSpline
210
0.0
220
0.0
230
1.0
 70
               0
 71
               3
 72
               0
 73
               0
 74
               9
 44
0.000001
 12
-0.2955760038262869
 22
-0.9553192272544727
 32
0.0
 13
0.2955759960149176
 23
-0.9553192296713122
 33
0.0
 11
-14.94
 21
13.27
 31
0.0
 11
-15.82038960694616
 21
10.024235021188307
 31
0.0
 11
-16.46645749063434
 21
6.7179530712204727
 31
0.0
 11
-16.864296629005352
 21
3.3701945856424036
 31
0.0
 11
-17.0
 21
0.0
 31
0.0
 11
-16.864296343867782
 21
-3.3701948108978494
 31
0.0
 11
-16.466457103694012
 21
-6.7179536719016646
 31
0.0
 11
-15.820389311673239
 21
-10.024235696954648
 31
0.0
 11
-14.94
 21
-13.270000000000007
 31
0.0
  0
SPLINE
  5
27
100
AcDbEntity
  8
0
  6
CONTINUOUS
 62
               7
100
AcDbSpline
210
0.0
220
0.0
230
1.0
 70
               0
 71
               3
 72
               0
 73
               0
 74
               5
 44
0.000001
 12
-0.5262028368672188
 22
-0.8503590856061286
 32
0.0
 13
0.5262029209312227
 23
-0.8503590335872545
 33
0.0
 11
-14.94
 21
26.550000000000001
 31
0.0
 11
-16.427142737326193
 21
23.366776459551456
 31
0.0
 11
-17.0
 21
19.91
 31
0.0
 11
-16.4271423473309
 21
16.453223126192693
 31
0.0
 11
-14.94
 21
13.27
 31
0.0
  0
SPLINE
  5
28
100
AcDbEntity
  8
0
  6
CONTINUOUS
 62
               7
100
AcDbSpline
210
0.0
220
0.0
230
1.0
 70
               0
 71
               3
 72
               0
 73
               0
 74
               5
 44
0.000001
 12
0.5262041870601808
 22
-0.8503582501042336
 32
0.0
 13
-0.5262041584740418
 23
-0.8503582677934198
 33
0.0
 11
-37.340000000000003
 21
-5.4800000000000004
 31
0.0
 11
-36.731179567455996
 21
-6.7947081199091475
 31
0.0
 11
-36.5
 21
-8.2200000000000006
 31
0.0
 11
-36.731179719756256
 21
-9.6514946022211365
 31
0.0
 11
-37.340000000000003
 21
-10.970000000000001
 31
0.0
  0
SPLINE
  5
29
100
AcDbEntity
  8
0
  6
CONTINUOUS
 62
               7
100
AcDbSpline
210
0.0
220
0.0
230
1.0
 70
               0
 71
               3
 72
               0
 73
               0
 74
               5
 44
0.000001
 12
-0.5262032759781005
 22
-0.8503588138838305
 32
0.0
 13
0.5262033602650075
 23
-0.8503587617269636
 33
0.0
 11
-43.649999999999999
 21
-5.4800000000000004
 31
0.0
 11
-44.263820077417982
 21
-6.7947057433431537
 31
0.0
 11
-44.5
 21
-8.2200000000000006
 31
0.0
 11
-44.263819999521075
 21
-9.651494543296538
 31
0.0
 11
-43.649999999999999
 21
-10.969999999999999
 31
0.0
  0
SPLINE
  5
2A
100
AcDbEntity
  8
0
  6
CONTINUOUS
 62
               7
100
AcDbSpline
210
0.0
220
0.0
230
1.0
 70
               0
 71
               3
 72
               0
 73
               0
 74
               5
 44
0.000001
 12
0.526204404700336
 22
-0.8503581154278267
 32
0.0
 13
-0.5262044047003361
 23
-0.8503581154278266
 33
0.0
 11
-37.340000000000003
 21
10.970000000000001
 31
0.0
 11
-36.731179640222734
 21
9.6527017026532107
 31
0.0
 11
-36.5
 21
8.2200000000000006
 31
0.0
 11
-36.731179641122118
 21
6.7935049272380814
 31
0.0
 11
-37.340000000000003
 21
5.4800000000000004
 31
0.0
  0
SPLINE
  5
2B
100
AcDbEntity
  8
0
  6
CONTINUOUS
 62
               7
100
AcDbSpline
210
0.0
220
0.0
230
1.0
 70
               0
 71
               3
 72
               0
 73
               0
 74
               5
 44
0.000001
 12
-0.5262035038598082
 22
-0.8503586728702547
 32
0.0
 13
0.5262035038598075
 23
-0.8503586728702551
 33
0.0
 11
-43.649999999999999
 21
10.970000000000001
 31
0.0
 11
-44.263820000218914
 21
9.6526991918277112
 31
0.0
 11
-44.5
 21
8.2200000000000006
 31
0.0
 11
-44.263819996985909
 21
6.7935049647747894
 31
0.0
 11
-43.649999999999999
 21
5.4799999999999995
 31
0.0
  0
SPLINE
  5
2C
100
AcDbEntity
  8
0
  6
CONTINUOUS
 62
               7
100
AcDbSpline
210
0.0
220
0.0
230
1.0
 70
               0
 71
               3
 72
               0
 73
               0
 74
               5
 44
0.000001
 12
0.2955770385822958
 22
-0.955318907100095
 32
0.0
 13
-0.2955770632238514
 23
-0.9553188994759622
 33
0.0
 11
-37.340000000000003
 21
5.4800000000000004
 31
0.0
 11
-36.7149407120814
 21
2.7742626463800431
 31
0.0
 11
-36.5
 21
0.0
 31
0.0
 11
-36.714940832653085
 21
-2.7742628951553074
 31
0.0
 11
-37.340000000000003
 21
-5.4799999999999978
 31
0.0
  0
SPLINE
  5
2D
100
AcDbEntity
  8
0
  6
CONTINUOUS
 62
               7
100
AcDbSpline
210
0.0
220
0.0
230
1.0
 70
               0
 71
               3
 72
               0
 73
               0
 74
               5
 44
0.000001
 12
-0.2955763936263464
 22
-0.9553191066501513
 32
0.0
 13
0.2955764390042567
 23
-0.9553190926101932
 33
0.0
 11
-43.649999999999999
 21
5.4800000000000004
 31
0.0
 11
-44.280058799696036
 21
2.7742623864975737
 31
0.0
 11
-44.5
 21
0.0
 31
0.0
 11
-44.28005872895374
 21
-2.7742625525706242
 31
0.0
 11
-43.649999999999999
 21
-5.4799999999999995
 31
0.0
  0
SPLINE
  5
2E
100
AcDbEntity
  8
0
  6
CONTINUOUS
 62
               7
100
AcDbSpline
210
0.0
220
0.0
230
1.0
 70
               0
 71
               3
 72
               0
 73
               0
 74
               5
 44
0.000001
 12
0.4588314491336239
 22
-0.8885233262475097
 32
0.0
 13
-0.4588314491336238
 23
-0.8885233262475099
 33
0.0
 11
-22.0
 21
3.8700000000000001
 31
0.0
 11
-21.270584335048568
 21
1.9947918046513402
 31
0.0
 11
-21.0
 21
0.0
 31
0.0
 11
-21.270584335048568
 21
-1.99479180465134
 31
0.0
 11
-22.0
 21
-3.8700000000000001
 31
0.0
  0
SPLINE
  5
2F
100
AcDbEntity
  8
0
  6
CONTINUOUS
 62
               7
100
AcDbSpline
210
0.0
220
0.0
230
1.0
 70
               0
 71
               3
 72
               0
 73
               0
 74
               5
 44
0.000001
 12
-0.4588314491336242
 22
-0.8885233262475096
 32
0.0
 13
0.4588314491336239
 23
-0.8885233262475097
 33
0.0
 11
-26.0
 21
3.8700000000000001
 31
0.0
 11
-26.729415664951432
 21
1.9947918046513402
 31
0.0
 11
-27.0
 21
0.0
 31
0.0
 11
-26.729415664951432
 21
-1.99479180465134
 31
0.0
 11
-26.0
 21
-3.8700000000000001
 31
0.0
  0
CIRCLE
  5
30
100
AcDbEntity
  8
0
  6
CONTINUOUS
 62
               7
100
AcDbCircle
 10
5.0
 20
0.0
 30
0.0
 40
2.0669994354248047
  0
CIRCLE
  5
31
100
AcDbEntity
  8
0
  6
CONTINUOUS
 62
               2
100
AcDbCircle
 10
5.0
 20
0.0
 30
0.0
 40
2.5
  0
CIRCLE
  5
32
100
AcDbEntity
  8
0
  6
CONTINUOUS
 62
               7
100
AcDbCircle
 10
5.0
 20
0.0
 30
0.0
 40
4.25
  0
CIRCLE
  5
33
100
AcDbEntity
  8
0
  6
CONTINUOUS
 62
               7
100
AcDbCircle
 10
22.0
 20
0.0
 30
0.0
 40
7.0
  0
CIRCLE
  5
34
100
AcDbEntity
  8
0
  6
CONTINUOUS
 62
               7
100
AcDbCircle
 10
118.0
 20
0.0
 30
0.0
 40
7.0
  0
CIRCLE
  5
35
100
AcDbEntity
  8
0
  6
CONTINUOUS
 62
               7
100
AcDbCircle
 10
22.0
 20
0.0
 30
0.0
 40
2.5
  0
CIRCLE
  5
36
100
AcDbEntity
  8
0
  6
CONTINUOUS
 62
               7
100
AcDbCircle
 10
22.0
 20
0.0
 30
0.0
 40
5.0
  0
CIRCLE
  5
37
100
AcDbEntity
  8
0
  6
CONTINUOUS
 62
               7
100
AcDbCircle
 10
118.0
 20
0.0
 30
0.0
 40
2.5
  0
CIRCLE
  5
38
100
AcDbEntity
  8
0
  6
CONTINUOUS
 62
               7
100
AcDbCircle
 10
118.0
 20
0.0
 30
0.0
 40
5.0
  0
LINE
  5
39
100
AcDbEntity
  8
0
  6
CONTINUOUS
 62
               7
100
AcDbLine
 10
107.0
 20
26.0
 30
0.0
 11
130.0
 21
26.0
 31
0.0
  0
LINE
  5
3A
100
AcDbEntity
  8
0
  6
CONTINUOUS
 62
               7
100
AcDbLine
 10
107.0
 20
-26.0
 30
0.0
 11
130.0
 21
-26.0
 31
0.0
  0
LINE
  5
3C
100
AcDbEntity
  8
0
  6
DASHED
 62
               2
100
AcDbLine
 10
111.42
 20
26.0
 30
0.0
 11
111.70999999999999
 21
16.600000000000001
 31
0.0
  0
LINE
  5
3D
100
AcDbEntity
  8
0
  6
DASHED
 62
               2
100
AcDbLine
 10
112.27
 20
26.0
 30
0.0
 11
112.56999999999999
 21
16.600000000000001
 31
0.0
  0
LINE
  5
3E
100
AcDbEntity
  8
0
  6
DASHED
 62
               2
100
AcDbLine
 10
123.72
 20
26.0
 30
0.0
 11
123.42
 21
16.600000000000001
 31
0.0
  0
LINE
  5
3F
100
AcDbEntity
  8
0
  6
DASHED
 62
               2
100
AcDbLine
 10
124.56999999999999
 20
26.0
 30
0.0
 11
124.28
 21
16.600000000000001
 31
0.0
  0
LINE
  5
40
100
AcDbEntity
  8
0
  6
DASHED
 62
               2
100
AcDbLine
 10
15.42
 20
26.0
 30
0.0
 11
15.710000000000001
 21
16.600000000000001
 31
0.0
  0
LINE
  5
41
100
AcDbEntity
  8
0
  6
DASHED
 62
               2
100
AcDbLine
 10
16.27
 20
26.0
 30
0.0
 11
16.57
 21
16.600000000000001
 31
0.0
  0
LINE
  5
42
100
AcDbEntity
  8
0
  6
DASHED
 62
               2
100
AcDbLine
 10
27.719999999999999
 20
26.0
 30
0.0
 11
27.420000000000002
 21
16.600000000000001
 31
0.0
  0
LINE
  5
43
100
AcDbEntity
  8
0
  6
DASHED
 62
               2
100
AcDbLine
 10
28.57
 20
26.0
 30
0.0
 11
28.280000000000001
 21
16.600000000000001
 31
0.0
  0
LINE
  5
45
100
AcDbEntity
  8
0
  6
CENTER
 62
               2
100
AcDbLine
 10
5.0
 20
5.5
 30
0.0
 11
5.0
 21
-5.5
 31
0.0
  0
LINE
  5
46
100
AcDbEntity
  8
0
  6
CENTER
 62
               2
100
AcDbLine
 10
118.0
 20
9.1099999999999994
 30
0.0
 11
118.0
 21
-9.0
 31
0.0
  0
LINE
  5
47
100
AcDbEntity
  8
0
  6
CENTER
 62
               2
100
AcDbLine
 10
118.0
 20
33.710000000000001
 30
0.0
 11
118.0
 21
12.949999999999999
 31
0.0
  0
LINE
  5
48
100
AcDbEntity
  8
0
  6
CENTER
 62
               2
100
AcDbLine
 10
22.0
 20
9.1099999999999994
 30
0.0
 11
22.0
 21
-9.0
 31
0.0
  0
LINE
  5
49
100
AcDbEntity
  8
0
  6
CONTINUOUS
 62
               7
100
AcDbLine
 10
0.0
 20
26.0
 30
0.0
 11
0.0
 21
-26.0
 31
0.0
  0
LINE
  5
4A
100
AcDbEntity
  8
0
  6
CONTINUOUS
 62
               7
100
AcDbLine
 10
-17.0
 20
-23.0
 30
0.0
 11
-17.0
 21
23.0
 31
0.0
  0
LINE
  5
4B
100
AcDbEntity
  8
0
  6
CONTINUOUS
 62
               2
100
AcDbLine
 10
133.25999999999999
 20
18.0
 30
0.0
 11
135.0
 21
17.0
 31
0.0
  0
LINE
  5
4C
100
AcDbEntity
  8
0
  6
CONTINUOUS
 62
               2
100
AcDbLine
 10
133.25999999999999
 20
-18.0
 30
0.0
 11
135.0
 21
-17.0
 31
0.0
  0
LINE
  5
4D
100
AcDbEntity
  8
0
  6
CONTINUOUS
 62
               2
100
AcDbLine
 10
135.0
 20
-17.0
 30
0.0
 11
149.58000000000001
 21
-17.0
 31
0.0
  0
LINE
  5
4E
100
AcDbEntity
  8
0
  6
CONTINUOUS
 62
               2
100
AcDbLine
 10
135.0
 20
17.0
 30
0.0
 11
149.58000000000001
 21
17.0
 31
0.0
  0
LINE
  5
4F
100
AcDbEntity
  8
0
  6
CONTINUOUS
 62
               7
100
AcDbLine
 10
148.74000000000001
 20
-18.0
 30
0.0
 11
148.74000000000001
 21
18.0
 31
0.0
  0
LINE
  5
50
100
AcDbEntity
  8
0
  6
CONTINUOUS
 62
               7
100
AcDbLine
 10
135.0
 20
18.0
 30
0.0
 11
135.0
 21
-18.0
 31
0.0
  0
LINE
  5
51
100
AcDbEntity
  8
0
  6
CONTINUOUS
 62
               7
100
AcDbLine
 10
150.0
 20
-16.5
 30
0.0
 11
150.0
 21
16.5
 31
0.0
  0
LINE
  5
52
100
AcDbEntity
  8
0
  6
CONTINUOUS
 62
               7
100
AcDbLine
 10
148.74000000000001
 20
-18.0
 30
0.0
 11
150.0
 21
-16.5
 31
0.0
  0
LINE
  5
53
100
AcDbEntity
  8
0
  6
CONTINUOUS
 62
               7
100
AcDbLine
 10
148.74000000000001
 20
18.0
 30
0.0
 11
150.0
 21
16.5
 31
0.0
  0
LINE
  5
54
100
AcDbEntity
  8
0
  6
CONTINUOUS
 62
               7
100
AcDbLine
 10
130.0
 20
-18.0
 30
0.0
 11
148.74000000000001
 21
-18.0
 31
0.0
  0
LINE
  5
55
100
AcDbEntity
  8
0
  6
CONTINUOUS
 62
               7
100
AcDbLine
 10
130.0
 20
18.0
 30
0.0
 11
148.74000000000001
 21
18.0
 31
0.0
  0
LINE
  5
56
100
AcDbEntity
  8
0
  6
CONTINUOUS
 62
               2
100
AcDbLine
 10
-5.0
 20
17.0
 30
0.0
 11
-3.2599999999999998
 21
18.0
 31
0.0
  0
LINE
  5
57
100
AcDbEntity
  8
0
  6
CONTINUOUS
 62
               2
100
AcDbLine
 10
-5.0
 20
-17.0
 30
0.0
 11
-3.2599999999999998
 21
-18.0
 31
0.0
  0
LINE
  5
58
100
AcDbEntity
  8
0
  6
CONTINUOUS
 62
               2
100
AcDbLine
 10
-6.0
 20
17.0
 30
0.0
 11
-5.0
 21
17.0
 31
0.0
  0
LINE
  5
59
100
AcDbEntity
  8
0
  6
CONTINUOUS
 62
               2
100
AcDbLine
 10
-6.0
 20
-17.0
 30
0.0
 11
-5.0
 21
-17.0
 31
0.0
  0
LINE
  5
5A
100
AcDbEntity
  8
0
  6
CONTINUOUS
 62
               2
100
AcDbLine
 10
-19.579999999999998
 20
-17.0
 30
0.0
 11
-17.0
 21
-17.0
 31
0.0
  0
LINE
  5
5B
100
AcDbEntity
  8
0
  6
CONTINUOUS
 62
               2
100
AcDbLine
 10
-19.579999999999998
 20
17.0
 30
0.0
 11
-17.0
 21
17.0
 31
0.0
  0
LINE
  5
5C
100
AcDbEntity
  8
0
  6
CENTER
 62
               2
100
AcDbLine
 10
-56.960000000000001
 20
0.0
 30
0.0
 11
152.87
 21
0.0
 31
0.0
  0
LINE
  5
5D
100
AcDbEntity
  8
0
  6
CONTINUOUS
 62
               7
100
AcDbLine
 10
19.550000000000001
 20
-0.5
 30
0.0
 11
24.440000000000001
 21
-0.5
 31
0.0
  0
LINE
  5
5E
100
AcDbEntity
  8
0
  6
CONTINUOUS
 62
               7
100
AcDbLine
 10
19.550000000000001
 20
0.5
 30
0.0
 11
24.440000000000001
 21
0.5
 31
0.0
  0
LINE
  5
5F
100
AcDbEntity
  8
0
  6
CONTINUOUS
 62
               7
100
AcDbLine
 10
17.0
 20
-2.8799999999999999
 30
0.0
 11
22.0
 21
-5.7699999999999996
 31
0.0
  0
LINE
  5
60
100
AcDbEntity
  8
0
  6
CONTINUOUS
 62
               7
100
AcDbLine
 10
22.0
 20
5.7699999999999996
 30
0.0
 11
27.0
 21
2.8799999999999999
 31
0.0
  0
LINE
  5
61
100
AcDbEntity
  8
0
  6
CONTINUOUS
 62
               7
100
AcDbLine
 10
22.0
 20
-5.7699999999999996
 30
0.0
 11
27.0
 21
-2.8799999999999999
 31
0.0
  0
LINE
  5
62
100
AcDbEntity
  8
0
  6
CONTINUOUS
 62
               7
100
AcDbLine
 10
17.0
 20
2.8799999999999999
 30
0.0
 11
22.0
 21
5.7699999999999996
 31
0.0
  0
LINE
  5
63
100
AcDbEntity
  8
0
  6
CONTINUOUS
 62
               7
100
AcDbLine
 10
27.0
 20
2.8799999999999999
 30
0.0
 11
27.0
 21
-2.8799999999999999
 31
0.0
  0
LINE
  5
64
100
AcDbEntity
  8
0
  6
CONTINUOUS
 62
               7
100
AcDbLine
 10
17.0
 20
2.8799999999999999
 30
0.0
 11
17.0
 21
-2.8799999999999999
 31
0.0
  0
LINE
  5
65
100
AcDbEntity
  8
0
  6
CONTINUOUS
 62
               7
100
AcDbLine
 10
115.55
 20
-0.5
 30
0.0
 11
120.45
 21
-0.5
 31
0.0
  0
LINE
  5
66
100
AcDbEntity
  8
0
  6
CONTINUOUS
 62
               7
100
AcDbLine
 10
115.55
 20
0.5
 30
0.0
 11
120.45
 21
0.5
 31
0.0
  0
LINE
  5
67
100
AcDbEntity
  8
0
  6
CONTINUOUS
 62
               7
100
AcDbLine
 10
113.0
 20
-2.8799999999999999
 30
0.0
 11
118.0
 21
-5.7699999999999996
 31
0.0
  0
LINE
  5
68
100
AcDbEntity
  8
0
  6
CONTINUOUS
 62
               7
100
AcDbLine
 10
118.0
 20
5.7699999999999996
 30
0.0
 11
123.0
 21
2.8799999999999999
 31
0.0
  0
LINE
  5
69
100
AcDbEntity
  8
0
  6
CONTINUOUS
 62
               7
100
AcDbLine
 10
118.0
 20
-5.7699999999999996
 30
0.0
 11
123.0
 21
-2.8799999999999999
 31
0.0
  0
LINE
  5
6A
100
AcDbEntity
  8
0
  6
CONTINUOUS
 62
               7
100
AcDbLine
 10
113.0
 20
2.8799999999999999
 30
0.0
 11
118.0
 21
5.7699999999999996
 31
0.0
  0
LINE
  5
6B
100
AcDbEntity
  8
0
  6
CONTINUOUS
 62
               7
100
AcDbLine
 10
123.0
 20
2.8799999999999999
 30
0.0
 11
123.0
 21
-2.8799999999999999
 31
0.0
  0
LINE
  5
6C
100
AcDbEntity
  8
0
  6
CONTINUOUS
 62
               7
100
AcDbLine
 10
113.0
 20
2.8799999999999999
 30
0.0
 11
113.0
 21
-2.8799999999999999
 31
0.0
  0
LINE
  5
6D
100
AcDbEntity
  8
0
  6
CENTER
 62
               2
100
AcDbLine
 10
22.0
 20
33.710000000000001
 30
0.0
 11
22.0
 21
12.949999999999999
 31
0.0
  0
LINE
  5
6E
100
AcDbEntity
  8
0
  6
CONTINUOUS
 62
               7
100
AcDbLine
 10
107.0
 20
-26.0
 30
0.0
 11
107.0
 21
0.0
 31
0.0
  0
LINE
  5
6F
100
AcDbEntity
  8
0
  6
CONTINUOUS
 62
               7
100
AcDbLine
 10
107.0
 20
26.0
 30
0.0
 11
107.0
 21
0.0
 31
0.0
  0
LINE
  5
70
100
AcDbEntity
  8
0
  6
CONTINUOUS
 62
               7
100
AcDbLine
 10
130.0
 20
26.0
 30
0.0
 11
130.0
 21
-26.0
 31
0.0
  0
LINE
  5
71
100
AcDbEntity
  8
0
  6
CONTINUOUS
 62
               7
100
AcDbLine
 10
130.0
 20
16.5
 30
0.0
 11
130.0
 21
-16.5
 31
0.0
  0
LINE
  5
72
100
AcDbEntity
  8
0
  6
CONTINUOUS
 62
               7
100
AcDbLine
 10
0.0
 20
-26.0
 30
0.0
 11
107.0
 21
-26.0
 31
0.0
  0
LINE
  5
73
100
AcDbEntity
  8
0
  6
CONTINUOUS
 62
               7
100
AcDbLine
 10
33.0
 20
-26.0
 30
0.0
 11
33.0
 21
0.0
 31
0.0
  0
LINE
  5
74
100
AcDbEntity
  8
0
  6
CONTINUOUS
 62
               7
100
AcDbLine
 10
33.0
 20
26.0
 30
0.0
 11
33.0
 21
0.0
 31
0.0
  0
LINE
  5
75
100
AcDbEntity
  8
0
  6
CONTINUOUS
 62
               7
100
AcDbLine
 10
0.0
 20
26.0
 30
0.0
 11
107.0
 21
26.0
 31
0.0
  0
LINE
  5
76
100
AcDbEntity
  8
0
  6
CONTINUOUS
 62
               7
100
AcDbLine
 10
10.0
 20
26.0
 30
0.0
 11
10.0
 21
-26.0
 31
0.0
  0
LINE
  5
77
100
AcDbEntity
  8
0
  6
CONTINUOUS
 62
               7
100
AcDbLine
 10
-5.0
 20
18.0
 30
0.0
 11
-5.0
 21
-18.0
 31
0.0
  0
LINE
  5
78
100
AcDbEntity
  8
0
  6
CONTINUOUS
 62
               7
100
AcDbLine
 10
10.0
 20
16.5
 30
0.0
 11
10.0
 21
-16.5
 31
0.0
  0
LINE
  5
79
100
AcDbEntity
  8
0
  6
CONTINUOUS
 62
               7
100
AcDbLine
 10
-6.0
 20
-18.0
 30
0.0
 11
0.0
 21
-18.0
 31
0.0
  0
LINE
  5
7A
100
AcDbEntity
  8
0
  6
CONTINUOUS
 62
               7
100
AcDbLine
 10
-6.0
 20
18.0
 30
0.0
 11
0.0
 21
18.0
 31
0.0
  0
LINE
  5
7B
100
AcDbEntity
  8
0
  6
CONTINUOUS
 62
               7
100
AcDbLine
 10
-6.5
 20
-23.0
 30
0.0
 11
-6.0
 21
-23.0
 31
0.0
  0
LINE
  5
7C
100
AcDbEntity
  8
0
  6
CONTINUOUS
 62
               7
100
AcDbLine
 10
-6.5
 20
23.0
 30
0.0
 11
-6.0
 21
23.0
 31
0.0
  0
LINE
  5
7D
100
AcDbEntity
  8
0
  6
CONTINUOUS
 62
               7
100
AcDbLine
 10
-6.5
 20
26.550000000000001
 30
0.0
 11
-6.5
 21
-26.550000000000001
 31
0.0
  0
LINE
  5
7E
100
AcDbEntity
  8
0
  6
CONTINUOUS
 62
               7
100
AcDbLine
 10
-6.0
 20
23.0
 30
0.0
 11
-6.0
 21
-23.0
 31
0.0
  0
LINE
  5
7F
100
AcDbEntity
  8
0
  6
CONTINUOUS
 62
               7
100
AcDbLine
 10
-14.94
 20
13.27
 30
0.0
 11
-6.5
 21
13.27
 31
0.0
  0
LINE
  5
80
100
AcDbEntity
  8
0
  6
CONTINUOUS
 62
               7
100
AcDbLine
 10
-14.94
 20
-13.27
 30
0.0
 11
-6.5
 21
-13.27
 31
0.0
  0
LINE
  5
81
100
AcDbEntity
  8
0
  6
CONTINUOUS
 62
               7
100
AcDbLine
 10
-17.0
 20
23.0
 30
0.0
 11
-14.94
 21
26.550000000000001
 31
0.0
  0
LINE
  5
82
100
AcDbEntity
  8
0
  6
CONTINUOUS
 62
               7
100
AcDbLine
 10
-17.0
 20
-23.0
 30
0.0
 11
-14.94
 21
-26.550000000000001
 31
0.0
  0
LINE
  5
83
100
AcDbEntity
  8
0
  6
CONTINUOUS
 62
               7
100
AcDbLine
 10
-14.94
 20
-26.550000000000001
 30
0.0
 11
-6.5
 21
-26.550000000000001
 31
0.0
  0
LINE
  5
84
100
AcDbEntity
  8
0
  6
CONTINUOUS
 62
               7
100
AcDbLine
 10
-14.94
 20
26.550000000000001
 30
0.0
 11
-6.5
 21
26.550000000000001
 31
0.0
  0
LINE
  5
85
100
AcDbEntity
  8
0
  6
CONTINUOUS
 62
               7
100
AcDbLine
 10
-18.739999999999998
 20
-18.0
 30
0.0
 11
-18.739999999999998
 21
18.0
 31
0.0
  0
LINE
  5
86
100
AcDbEntity
  8
0
  6
CONTINUOUS
 62
               7
100
AcDbLine
 10
-20.0
 20
-16.5
 30
0.0
 11
-18.739999999999998
 21
-18.0
 31
0.0
  0
LINE
  5
87
100
AcDbEntity
  8
0
  6
CONTINUOUS
 62
               7
100
AcDbLine
 10
-20.0
 20
16.5
 30
0.0
 11
-18.739999999999998
 21
18.0
 31
0.0
  0
LINE
  5
88
100
AcDbEntity
  8
0
  6
CONTINUOUS
 62
               7
100
AcDbLine
 10
-20.0
 20
16.5
 30
0.0
 11
-20.0
 21
-16.5
 31
0.0
  0
LINE
  5
89
100
AcDbEntity
  8
0
  6
CONTINUOUS
 62
               7
100
AcDbLine
 10
-18.739999999999998
 20
18.0
 30
0.0
 11
-17.0
 21
18.0
 31
0.0
  0
LINE
  5
8A
100
AcDbEntity
  8
0
  6
CONTINUOUS
 62
               7
100
AcDbLine
 10
-18.739999999999998
 20
-18.0
 30
0.0
 11
-17.0
 21
-18.0
 31
0.0
  0
LINE
  5
8B
100
AcDbEntity
  8
0
  6
CONTINUOUS
 62
               7
100
AcDbLine
 10
-36.5
 20
-7.0
 30
0.0
 11
-27.0
 21
-7.0
 31
0.0
  0
LINE
  5
8C
100
AcDbEntity
  8
0
  6
CONTINUOUS
 62
               2
100
AcDbLine
 10
-36.5
 20
-6.1799999999999997
 30
0.0
 11
-29.0
 21
-6.1799999999999997
 31
0.0
  0
LINE
  5
8D
100
AcDbEntity
  8
0
  6
CONTINUOUS
 62
               7
100
AcDbLine
 10
-36.5
 20
7.0
 30
0.0
 11
-27.0
 21
7.0
 31
0.0
  0
LINE
  5
8E
100
AcDbEntity
  8
0
  6
CONTINUOUS
 62
               2
100
AcDbLine
 10
-36.5
 20
6.1799999999999997
 30
0.0
 11
-29.0
 21
6.1799999999999997
 31
0.0
  0
LINE
  5
8F
100
AcDbEntity
  8
0
  6
CONTINUOUS
 62
               7
100
AcDbLine
 10
-36.5
 20
-9.5
 30
0.0
 11
-36.5
 21
9.5
 31
0.0
  0
LINE
  5
90
100
AcDbEntity
  8
0
  6
CONTINUOUS
 62
               7
100
AcDbLine
 10
-43.649999999999999
 20
5.4800000000000004
 30
0.0
 11
-37.340000000000003
 21
5.4800000000000004
 31
0.0
  0
LINE
  5
91
100
AcDbEntity
  8
0
  6
CONTINUOUS
 62
               7
100
AcDbLine
 10
-43.649999999999999
 20
-5.4800000000000004
 30
0.0
 11
-37.340000000000003
 21
-5.4800000000000004
 31
0.0
  0
LINE
  5
92
100
AcDbEntity
  8
0
  6
CONTINUOUS
 62
               7
100
AcDbLine
 10
-44.5
 20
-9.5
 30
0.0
 11
-43.649999999999999
 21
-10.970000000000001
 31
0.0
  0
LINE
  5
93
100
AcDbEntity
  8
0
  6
CONTINUOUS
 62
               7
100
AcDbLine
 10
-44.5
 20
-9.5
 30
0.0
 11
-44.5
 21
-5.4800000000000004
 31
0.0
  0
LINE
  5
94
100
AcDbEntity
  8
0
  6
CONTINUOUS
 62
               7
100
AcDbLine
 10
-44.5
 20
-5.4800000000000004
 30
0.0
 11
-44.5
 21
9.5
 31
0.0
  0
LINE
  5
95
100
AcDbEntity
  8
0
  6
CONTINUOUS
 62
               7
100
AcDbLine
 10
-37.340000000000003
 20
-10.970000000000001
 30
0.0
 11
-36.5
 21
-9.5
 31
0.0
  0
LINE
  5
96
100
AcDbEntity
  8
0
  6
CONTINUOUS
 62
               7
100
AcDbLine
 10
-37.340000000000003
 20
10.970000000000001
 30
0.0
 11
-36.5
 21
9.5
 31
0.0
  0
LINE
  5
97
100
AcDbEntity
  8
0
  6
CONTINUOUS
 62
               7
100
AcDbLine
 10
-43.649999999999999
 20
10.970000000000001
 30
0.0
 11
-44.5
 21
9.5
 31
0.0
  0
LINE
  5
98
100
AcDbEntity
  8
0
  6
CONTINUOUS
 62
               7
100
AcDbLine
 10
-43.649999999999999
 20
-10.970000000000001
 30
0.0
 11
-37.340000000000003
 21
-10.970000000000001
 31
0.0
  0
LINE
  5
99
100
AcDbEntity
  8
0
  6
CONTINUOUS
 62
               7
100
AcDbLine
 10
-43.649999999999999
 20
10.970000000000001
 30
0.0
 11
-37.340000000000003
 21
10.970000000000001
 31
0.0
  0
LINE
  5
9A
100
AcDbEntity
  8
0
  6
CONTINUOUS
 62
               7
100
AcDbLine
 10
-26.0
 20
-8.0
 30
0.0
 11
-20.0
 21
-8.0
 31
0.0
  0
LINE
  5
9B
100
AcDbEntity
  8
0
  6
CONTINUOUS
 62
               7
100
AcDbLine
 10
-26.0
 20
8.0
 30
0.0
 11
-20.0
 21
8.0
 31
0.0
  0
LINE
  5
9C
100
AcDbEntity
  8
0
  6
CONTINUOUS
 62
               7
100
AcDbLine
 10
-26.0
 20
-8.0
 30
0.0
 11
-26.0
 21
-3.8700000000000001
 31
0.0
  0
LINE
  5
9D
100
AcDbEntity
  8
0
  6
CONTINUOUS
 62
               2
100
AcDbLine
 10
-22.0
 20
3.8700000000000001
 30
0.0
 11
-26.0
 21
-3.8700000000000001
 31
0.0
  0
LINE
  5
9E
100
AcDbEntity
  8
0
  6
CONTINUOUS
 62
               2
100
AcDbLine
 10
-26.0
 20
3.8700000000000001
 30
0.0
 11
-22.0
 21
-3.8700000000000001
 31
0.0
  0
LINE
  5
9F
100
AcDbEntity
  8
0
  6
CONTINUOUS
 62
               7
100
AcDbLine
 10
-26.0
 20
-3.8700000000000001
 30
0.0
 11
-22.0
 21
-3.8700000000000001
 31
0.0
  0
LINE
  5
A0
100
AcDbEntity
  8
0
  6
CONTINUOUS
 62
               7
100
AcDbLine
 10
-26.0
 20
3.8700000000000001
 30
0.0
 11
-22.0
 21
3.8700000000000001
 31
0.0
  0
LINE
  5
A1
100
AcDbEntity
  8
0
  6
CONTINUOUS
 62
               7
100
AcDbLine
 10
-22.0
 20
-3.8700000000000001
 30
0.0
 11
-22.0
 21
3.8700000000000001
 31
0.0
  0
LINE
  5
A2
100
AcDbEntity
  8
0
  6
CONTINUOUS
 62
               7
100
AcDbLine
 10
-26.0
 20
3.8700000000000001
 30
0.0
 11
-26.0
 21
8.0
 31
0.0
  0
LINE
  5
A3
100
AcDbEntity
  8
0
  6
CONTINUOUS
 62
               7
100
AcDbLine
 10
-27.0
 20
-7.0
 30
0.0
 11
-26.0
 21
-8.0
 31
0.0
  0
LINE
  5
A4
100
AcDbEntity
  8
0
  6
CONTINUOUS
 62
               7
100
AcDbLine
 10
-27.0
 20
7.0
 30
0.0
 11
-26.0
 21
8.0
 31
0.0
  0
LINE
  5
A5
100
AcDbEntity
  8
0
  6
CONTINUOUS
 62
               7
100
AcDbLine
 10
-27.0
 20
-7.0
 30
0.0
 11
-27.0
 21
7.0
 31
0.0
  0
LINE
  5
A6
100
AcDbEntity
  8
0
  6
CONTINUOUS
 62
               2
100
AcDbLine
 10
-29.0
 20
-6.1799999999999997
 30
0.0
 11
-27.59
 21
-7.0
 31
0.0
  0
LINE
  5
A7
100
AcDbEntity
  8
0
  6
CONTINUOUS
 62
               2
100
AcDbLine
 10
-29.0
 20
6.1799999999999997
 30
0.0
 11
-27.59
 21
7.0
 31
0.0
  0
LINE
  5
A8
100
AcDbEntity
  8
0
  6
CONTINUOUS
 62
               7
100
AcDbLine
 10
-51.18
 20
7.0
 30
0.0
 11
-51.18
 21
-7.0
 31
0.0
  0
LINE
  5
A9
100
AcDbEntity
  8
0
  6
CONTINUOUS
 62
               7
100
AcDbLine
 10
-52.0
 20
-6.1799999999999997
 30
0.0
 11
-51.18
 21
-7.0
 31
0.0
  0
LINE
  5
AA
100
AcDbEntity
  8
0
  6
CONTINUOUS
 62
               7
100
AcDbLine
 10
-52.0
 20
6.1799999999999997
 30
0.0
 11
-51.18
 21
7.0
 31
0.0
  0
LINE
  5
AB
100
AcDbEntity
  8
0
  6
CONTINUOUS
 62
               7
100
AcDbLine
 10
-29.0
 20
7.0
 30
0.0
 11
-29.0
 21
-7.0
 31
0.0
  0
LINE
  5
AC
100
AcDbEntity
  8
0
  6
CONTINUOUS
 62
               7
100
AcDbLine
 10
-52.0
 20
6.1799999999999997
 30
0.0
 11
-52.0
 21
-6.1799999999999997
 31
0.0
  0
LINE
  5
AD
100
AcDbEntity
  8
0
  6
CONTINUOUS
 62
               7
100
AcDbLine
 10
-51.18
 20
-7.0
 30
0.0
 11
-44.5
 21
-7.0
 31
0.0
  0
LINE
  5
AE
100
AcDbEntity
  8
0
  6
CONTINUOUS
 62
               2
100
AcDbLine
 10
-52.0
 20
-6.1799999999999997
 30
0.0
 11
-44.5
 21
-6.1799999999999997
 31
0.0
  0
LINE
  5
AF
100
AcDbEntity
  8
0
  6
CONTINUOUS
 62
               2
100
AcDbLine
 10
-52.0
 20
6.1799999999999997
 30
0.0
 11
-44.5
 21
6.1799999999999997
 31
0.0
  0
LINE
  5
B0
100
AcDbEntity
  8
0
  6
CONTINUOUS
 62
               7
100
AcDbLine
 10
-51.18
 20
7.0
 30
0.0
 11
-44.5
 21
7.0
 31
0.0
  0
ENDBLK
  5
B1
100
AcDbEntity
  8
0
100
AcDbBlockEnd
  0
BLOCK
  5
B2
100
AcDbEntity
  8
0
100
AcDbBlockBegin
  2
MS_2
 70
               0
 10
0.0
 20
0.0
 30
0.0
  3
MS_2
  1

  0
SPLINE
  5
B3
100
AcDbEntity
  8
0
  6
CONTINUOUS
 62
               7
100
AcDbSpline
210
0.0
220
0.0
230
1.0
 70
               0
 71
               3
 72
               0
 73
               0
 74
               5
 44
0.000001
 12
0.5160406521158438
 22
-0.8565640929690286
 32
0.0
 13
-0.5160406521158435
 23
-0.8565640929690288
 33
0.0
 11
29.260000000000002
 21
5.75
 31
0.0
 11
29.576841587066898
 21
5.0584134054463155
 31
0.0
 11
29.699999999999999
 21
4.3099999999999996
 31
0.0
 11
29.57684158759108
 21
3.5615865945536846
 31
0.0
 11
29.260000000000002
 21
2.8699999999999992
 31
0.0
  0
SPLINE
  5
B4
100
AcDbEntity
  8
0
  6
CONTINUOUS
 62
               7
100
AcDbSpline
210
0.0
220
0.0
230
1.0
 70
               0
 71
               3
 72
               0
 73
               0
 74
               5
 44
0.000001
 12
0.5160406521158438
 22
-0.8565640929690286
 32
0.0
 13
-0.5160406521158443
 23
-0.8565640929690284
 33
0.0
 11
29.260000000000002
 21
-2.8700000000000001
 31
0.0
 11
29.576841587066898
 21
-3.5615865945536846
 31
0.0
 11
29.699999999999999
 21
-4.3099999999999996
 31
0.0
 11
29.57684158759108
 21
-5.0584134054463146
 31
0.0
 11
29.260000000000002
 21
-5.7499999999999991
 31
0.0
  0
SPLINE
  5
B5
100
AcDbEntity
  8
0
  6
CONTINUOUS
 62
               7
100
AcDbSpline
210
0.0
220
0.0
230
1.0
 70
               0
 71
               3
 72
               0
 73
               0
 74
               5
 44
0.000001
 12
0.2884256235275011
 22
-0.9575023027088615
 32
0.0
 13
-0.288425623527501
 23
-0.9575023027088615
 33
0.0
 11
29.260000000000002
 21
2.8700000000000001
 31
0.0
 11
29.584822015484871
 21
1.4520873624140389
 31
0.0
 11
29.699999999999999
 21
0.0
 31
0.0
 11
29.584822015733831
 21
-1.4520873624140387
 31
0.0
 11
29.260000000000002
 21
-2.870000000000001
 31
0.0
  0
SPLINE
  5
B6
100
AcDbEntity
  8
0
  6
CONTINUOUS
 62
               7
100
AcDbSpline
210
0.0
220
0.0
230
1.0
 70
               0
 71
               3
 72
               0
 73
               0
 74
               5
 44
0.000001
 12
-0.5160406236227639
 22
-0.8565641101348042
 32
0.0
 13
0.5160406236227643
 23
-0.8565641101348039
 33
0.0
 11
26.530000000000001
 21
-2.8700000000000001
 31
0.0
 11
26.21815846325703
 21
-3.5615865256599299
 31
0.0
 11
26.100000000000001
 21
-4.3099999999999996
 31
0.0
 11
26.218158462732848
 21
-5.0584134743400693
 31
0.0
 11
26.530000000000001
 21
-5.75
 31
0.0
  0
SPLINE
  5
B7
100
AcDbEntity
  8
0
  6
CONTINUOUS
 62
               7
100
AcDbSpline
210
0.0
220
0.0
230
1.0
 70
               0
 71
               3
 72
               0
 73
               0
 74
               5
 44
0.000001
 12
-0.2884256340544003
 22
-0.9575022995378744
 32
0.0
 13
0.2884256340544004
 23
-0.9575022995378743
 33
0.0
 11
26.530000000000001
 21
2.8700000000000001
 31
0.0
 11
26.210178009957165
 21
1.4520872212322948
 31
0.0
 11
26.100000000000001
 21
0.0
 31
0.0
 11
26.210178009708205
 21
-1.4520872212322946
 31
0.0
 11
26.530000000000001
 21
-2.8699999999999988
 31
0.0
  0
SPLINE
  5
B8
100
AcDbEntity
  8
0
  6
CONTINUOUS
 62
               7
100
AcDbSpline
210
0.0
220
0.0
230
1.0
 70
               0
 71
               3
 72
               0
 73
               0
 74
               5
 44
0.000001
 12
-0.5160406236227639
 22
-0.8565641101348042
 32
0.0
 13
0.516040623622764
 23
-0.8565641101348041
 33
0.0
 11
26.530000000000001
 21
5.75
 31
0.0
 11
26.21815846325703
 21
5.0584134743400702
 31
0.0
 11
26.100000000000001
 21
4.3099999999999996
 31
0.0
 11
26.218158462732848
 21
3.5615865256599299
 31
0.0
 11
26.530000000000001
 21
2.8700000000000001
 31
0.0
  0
ARC
  5
B9
100
AcDbEntity
  8
0
  6
CONTINUOUS
 62
               7
100
AcDbCircle
 10
0.0024619955883676
 20
0.0014219367390176
 30
0.0
 40
25.997912382373006
100
AcDbArc
 50
92.209834513348738
 51
147.81326260263728
  0
ARC
  5
BA
100
AcDbEntity
  8
0
  6
CONTINUOUS
 62
               7
100
AcDbCircle
 10
-0.0024619955883676
 20
-0.0014219367390176
 30
0.0
 40
25.997912382373006
100
AcDbArc
 50
272.20983451334831
 51
327.81326260263688
  0
ARC
  5
BB
100
AcDbEntity
  8
0
  6
CONTINUOUS
 62
               7
100
AcDbCircle
 10
0.0024619955883676
 20
-0.0014219367390176
 30
0.0
 40
25.997912382373006
100
AcDbArc
 50
212.18673739736192
 51
267.79016548665044
  0
ARC
  5
BC
100
AcDbEntity
  8
0
  6
CONTINUOUS
 62
               7
100
AcDbCircle
 10
0.0
 20
0.0
 30
0.0
 40
25.997969151454889
100
AcDbArc
 50
152.21271913215691
 51
207.7872808678423
  0
ARC
  5
BD
100
AcDbEntity
  8
0
  6
CONTINUOUS
 62
               7
100
AcDbCircle
 10
-0.0024619955883676
 20
0.0014219367390176
 30
0.0
 40
25.997912382373006
100
AcDbArc
 50
32.18673739736235
 51
87.790165486650864
  0
ARC
  5
BE
100
AcDbEntity
  8
0
  6
CONTINUOUS
 62
               7
100
AcDbCircle
 10
0.0010157483454059
 20
0.0041050127857911
 30
0.0
 40
25.998984575727444
100
AcDbArc
 50
332.20367227519239
 51
359.99095349636497
  0
ARC
  5
BF
100
AcDbEntity
  8
0
  6
CONTINUOUS
 62
               7
100
AcDbCircle
 10
0.0010157483454059
 20
-0.0041050127857911
 30
0.0
 40
25.998984575727444
100
AcDbArc
 50
0.0090465036342187
 51
27.796327724806826
  0
CIRCLE
  5
C0
100
AcDbEntity
  8
0
  6
CONTINUOUS
 62
               7
100
AcDbCircle
 10
0.0
 20
0.0
 30
0.0
 40
18.0
  0
CIRCLE
  5
C1
100
AcDbEntity
  8
0
  6
CONTINUOUS
 62
               2
100
AcDbCircle
 10
0.0
 20
0.0
 30
0.0
 40
16.5
  0
CIRCLE
  5
C2
100
AcDbEntity
  8
0
  6
CONTINUOUS
 62
               7
100
AcDbCircle
 10
0.0
 20
0.0
 30
0.0
 40
23.0
  0
CIRCLE
  5
C3
100
AcDbEntity
  8
0
  6
CONTINUOUS
 62
               2
100
AcDbCircle
 10
0.0
 20
0.0
 30
0.0
 40
6.1879997253417969
  0
CIRCLE
  5
C4
100
AcDbEntity
  8
0
  6
CONTINUOUS
 62
               7
100
AcDbCircle
 10
0.0
 20
0.0
 30
0.0
 40
7.0
  0
CIRCLE
  5
C5
100
AcDbEntity
  8
0
  6
CONTINUOUS
 62
               7
100
AcDbCircle
 10
0.0
 20
0.0
 30
0.0
 40
9.5
  0
LINE
  5
C6
100
AcDbEntity
  8
0
  6
CONTINUOUS
 62
               7
100
AcDbLine
 10
29.899999999999999
 20
2.5
 30
0.0
 11
29.899999999999999
 21
-2.5
 31
0.0
  0
LINE
  5
C7
100
AcDbEntity
  8
0
  6
CONTINUOUS
 62
               7
100
AcDbLine
 10
30.399999999999999
 20
-2.0
 30
0.0
 11
29.899999999999999
 21
-2.5
 31
0.0
  0
LINE
  5
C8
100
AcDbEntity
  8
0
  6
CONTINUOUS
 62
               7
100
AcDbLine
 10
29.899999999999999
 20
2.5
 30
0.0
 11
30.399999999999999
 21
2.0
 31
0.0
  0
LINE
  5
C9
100
AcDbEntity
  8
0
  6
CONTINUOUS
 62
               7
100
AcDbLine
 10
30.399999999999999
 20
-2.0
 30
0.0
 11
31.899999999999999
 21
-2.0
 31
0.0
  0
LINE
  5
CA
100
AcDbEntity
  8
0
  6
CONTINUOUS
 62
               7
100
AcDbLine
 10
30.399999999999999
 20
2.0
 30
0.0
 11
31.899999999999999
 21
2.0
 31
0.0
  0
LINE
  5
CB
100
AcDbEntity
  8
0
  6
CONTINUOUS
 62
               7
100
AcDbLine
 10
-20.629999999999999
 20
-14.98
 30
0.0
 11
-20.420000000000002
 21
-14.76
 31
0.0
  0
LINE
  5
CC
100
AcDbEntity
  8
0
  6
CENTER
 62
               2
100
AcDbLine
 10
-28.670000000000002
 20
0.0
 30
0.0
 11
33.289999999999999
 21
0.0
 31
0.0
  0
LINE
  5
CD
100
AcDbEntity
  8
0
  6
CONTINUOUS
 62
               2
100
AcDbLine
 10
29.699999999999999
 20
2.1000000000000001
 30
0.0
 11
30.300000000000001
 21
2.1000000000000001
 31
0.0
  0
LINE
  5
CE
100
AcDbEntity
  8
0
  6
CONTINUOUS
 62
               2
100
AcDbLine
 10
29.699999999999999
 20
-2.1000000000000001
 30
0.0
 11
30.300000000000001
 21
-2.1000000000000001
 31
0.0
  0
LINE
  5
CF
100
AcDbEntity
  8
0
  6
CONTINUOUS
 62
               7
100
AcDbLine
 10
30.399999999999999
 20
2.0
 30
0.0
 11
30.399999999999999
 21
-2.0
 31
0.0
  0
LINE
  5
D0
100
AcDbEntity
  8
0
  6
CONTINUOUS
 62
               7
100
AcDbLine
 10
29.699999999999999
 20
2.5
 30
0.0
 11
29.899999999999999
 21
2.5
 31
0.0
  0
LINE
  5
D1
100
AcDbEntity
  8
0
  6
CONTINUOUS
 62
               7
100
AcDbLine
 10
29.699999999999999
 20
-2.5
 30
0.0
 11
29.899999999999999
 21
-2.5
 31
0.0
  0
LINE
  5
D2
100
AcDbEntity
  8
0
  6
CONTINUOUS
 62
               7
100
AcDbLine
 10
31.899999999999999
 20
2.0
 30
0.0
 11
31.899999999999999
 21
-2.0
 31
0.0
  0
LINE
  5
D3
100
AcDbEntity
  8
0
  6
CONTINUOUS
 62
               7
100
AcDbLine
 10
26.100000000000001
 20
-5.0
 30
0.0
 11
26.530000000000001
 21
-5.75
 31
0.0
  0
LINE
  5
D4
100
AcDbEntity
  8
0
  6
CONTINUOUS
 62
               7
100
AcDbLine
 10
29.260000000000002
 20
5.75
 30
0.0
 11
29.699999999999999
 21
5.0
 31
0.0
  0
LINE
  5
D5
100
AcDbEntity
  8
0
  6
CONTINUOUS
 62
               7
100
AcDbLine
 10
29.260000000000002
 20
-5.75
 30
0.0
 11
29.699999999999999
 21
-5.0
 31
0.0
  0
LINE
  5
D6
100
AcDbEntity
  8
0
  6
CONTINUOUS
 62
               7
100
AcDbLine
 10
26.100000000000001
 20
5.0
 30
0.0
 11
26.530000000000001
 21
5.75
 31
0.0
  0
LINE
  5
D7
100
AcDbEntity
  8
0
  6
CONTINUOUS
 62
               7
100
AcDbLine
 10
29.699999999999999
 20
5.0
 30
0.0
 11
29.699999999999999
 21
-5.0
 31
0.0
  0
LINE
  5
D8
100
AcDbEntity
  8
0
  6
CONTINUOUS
 62
               7
100
AcDbLine
 10
26.530000000000001
 20
-2.8700000000000001
 30
0.0
 11
29.260000000000002
 21
-2.8700000000000001
 31
0.0
  0
LINE
  5
D9
100
AcDbEntity
  8
0
  6
CONTINUOUS
 62
               7
100
AcDbLine
 10
26.530000000000001
 20
2.8700000000000001
 30
0.0
 11
29.260000000000002
 21
2.8700000000000001
 31
0.0
  0
LINE
  5
DA
100
AcDbEntity
  8
0
  6
CONTINUOUS
 62
               7
100
AcDbLine
 10
26.530000000000001
 20
-5.75
 30
0.0
 11
29.260000000000002
 21
-5.75
 31
0.0
  0
LINE
  5
DB
100
AcDbEntity
  8
0
  6
CONTINUOUS
 62
               7
100
AcDbLine
 10
26.530000000000001
 20
5.75
 30
0.0
 11
29.260000000000002
 21
5.75
 31
0.0
  0
LINE
  5
DC
100
AcDbEntity
  8
0
  6
CONTINUOUS
 62
               7
100
AcDbLine
 10
25.23
 20
-6.25
 30
0.0
 11
26.100000000000001
 21
-6.25
 31
0.0
  0
LINE
  5
DD
100
AcDbEntity
  8
0
  6
CONTINUOUS
 62
               7
100
AcDbLine
 10
25.23
 20
6.25
 30
0.0
 11
26.100000000000001
 21
6.25
 31
0.0
  0
LINE
  5
DE
100
AcDbEntity
  8
0
  6
CONTINUOUS
 62
               7
100
AcDbLine
 10
26.100000000000001
 20
6.25
 30
0.0
 11
26.100000000000001
 21
-6.25
 31
0.0
  0
LINE
  5
DF
100
AcDbEntity
  8
0
  6
CONTINUOUS
 62
               7
100
AcDbLine
 10
-23.0
 20
-13.27
 30
0.0
 11
0.0
 21
-26.550000000000001
 31
0.0
  0
LINE
  5
E0
100
AcDbEntity
  8
0
  6
CONTINUOUS
 62
               7
100
AcDbLine
 10
0.0
 20
26.550000000000001
 30
0.0
 11
23.0
 21
13.27
 31
0.0
  0
LINE
  5
E1
100
AcDbEntity
  8
0
  6
CONTINUOUS
 62
               7
100
AcDbLine
 10
0.0
 20
-26.550000000000001
 30
0.0
 11
23.0
 21
-13.27
 31
0.0
  0
LINE
  5
E2
100
AcDbEntity
  8
0
  6
CONTINUOUS
 62
               7
100
AcDbLine
 10
-23.0
 20
13.27
 30
0.0
 11
0.0
 21
26.550000000000001
 31
0.0
  0
LINE
  5
E3
100
AcDbEntity
  8
0
  6
CONTINUOUS
 62
               7
100
AcDbLine
 10
23.0
 20
13.27
 30
0.0
 11
23.0
 21
-13.27
 31
0.0
  0
LINE
  5
E4
100
AcDbEntity
  8
0
  6
CONTINUOUS
 62
               7
100
AcDbLine
 10
-23.0
 20
13.27
 30
0.0
 11
-23.0
 21
-13.27
 31
0.0
  0
LINE
  5
E5
100
AcDbEntity
  8
0
  6
CONTINUOUS
 62
               7
100
AcDbLine
 10
-9.5
 20
-5.4800000000000004
 30
0.0
 11
0.0
 21
-10.970000000000001
 31
0.0
  0
LINE
  5
E6
100
AcDbEntity
  8
0
  6
CONTINUOUS
 62
               7
100
AcDbLine
 10
0.0
 20
10.970000000000001
 30
0.0
 11
9.5
 21
5.4800000000000004
 31
0.0
  0
LINE
  5
E7
100
AcDbEntity
  8
0
  6
CONTINUOUS
 62
               7
100
AcDbLine
 10
0.0
 20
-10.970000000000001
 30
0.0
 11
9.5
 21
-5.4800000000000004
 31
0.0
  0
LINE
  5
E8
100
AcDbEntity
  8
0
  6
CONTINUOUS
 62
               7
100
AcDbLine
 10
-9.5
 20
5.4800000000000004
 30
0.0
 11
0.0
 21
10.970000000000001
 31
0.0
  0
LINE
  5
E9
100
AcDbEntity
  8
0
  6
CONTINUOUS
 62
               7
100
AcDbLine
 10
9.5
 20
5.4800000000000004
 30
0.0
 11
9.5
 21
-5.4800000000000004
 31
0.0
  0
LINE
  5
EA
100
AcDbEntity
  8
0
  6
CONTINUOUS
 62
               7
100
AcDbLine
 10
-9.5
 20
5.4800000000000004
 30
0.0
 11
-9.5
 21
-5.4800000000000004
 31
0.0
  0
LINE
  5
EB
100
AcDbEntity
  8
0
  6
CENTER
 62
               2
100
AcDbLine
 10
0.0
 20
29.120000000000001
 30
0.0
 11
0.0
 21
-29.100000000000001
 31
0.0
  0
ENDBLK
  5
EC
100
AcDbEntity
  8
0
100
AcDbBlockEnd
  0
BLOCK
  5
ED
100
AcDbEntity
  8
0
100
AcDbBlockBegin
  2
MS_3
 70
               0
 10
0.0
 20
0.0
 30
0.0
  3
MS_3
  1

  0
SPLINE
  5
EE
100
AcDbEntity
  8
0
  6
CONTINUOUS
 62
               7
100
AcDbSpline
210
0.0
220
0.0
230
1.0
 70
               0
 71
               3
 72
               0
 73
               0
 74
               5
 44
0.000001
 12
-0.5160406521158439
 22
-0.8565640929690286
 32
0.0
 13
0.5160406521158435
 23
-0.8565640929690288
 33
0.0
 11
-29.260000000000002
 21
5.75
 31
0.0
 11
-29.576841587066898
 21
5.0584134054463155
 31
0.0
 11
-29.699999999999999
 21
4.3099999999999996
 31
0.0
 11
-29.57684158759108
 21
3.5615865945536846
 31
0.0
 11
-29.260000000000002
 21
2.8699999999999992
 31
0.0
  0
SPLINE
  5
EF
100
AcDbEntity
  8
0
  6
CONTINUOUS
 62
               7
100
AcDbSpline
210
0.0
220
0.0
230
1.0
 70
               0
 71
               3
 72
               0
 73
               0
 74
               5
 44
0.000001
 12
-0.5160406521158439
 22
-0.8565640929690286
 32
0.0
 13
0.5160406521158444
 23
-0.8565640929690283
 33
0.0
 11
-29.260000000000002
 21
-2.8700000000000001
 31
0.0
 11
-29.576841587066898
 21
-3.5615865945536846
 31
0.0
 11
-29.699999999999999
 21
-4.3099999999999996
 31
0.0
 11
-29.57684158759108
 21
-5.0584134054463146
 31
0.0
 11
-29.260000000000002
 21
-5.7499999999999991
 31
0.0
  0
SPLINE
  5
F0
100
AcDbEntity
  8
0
  6
CONTINUOUS
 62
               7
100
AcDbSpline
210
0.0
220
0.0
230
1.0
 70
               0
 71
               3
 72
               0
 73
               0
 74
               5
 44
0.000001
 12
-0.2884256235275012
 22
-0.9575023027088615
 32
0.0
 13
0.2884256235275008
 23
-0.9575023027088616
 33
0.0
 11
-29.260000000000002
 21
2.8700000000000001
 31
0.0
 11
-29.584822015484871
 21
1.4520873624140389
 31
0.0
 11
-29.699999999999999
 21
0.0
 31
0.0
 11
-29.584822015733831
 21
-1.4520873624140387
 31
0.0
 11
-29.260000000000002
 21
-2.870000000000001
 31
0.0
  0
SPLINE
  5
F1
100
AcDbEntity
  8
0
  6
CONTINUOUS
 62
               7
100
AcDbSpline
210
0.0
220
0.0
230
1.0
 70
               0
 71
               3
 72
               0
 73
               0
 74
               5
 44
0.000001
 12
0.516040623622764
 22
-0.8565641101348041
 32
0.0
 13
-0.5160406236227644
 23
-0.8565641101348039
 33
0.0
 11
-26.530000000000001
 21
-2.8700000000000001
 31
0.0
 11
-26.21815846325703
 21
-3.5615865256599299
 31
0.0
 11
-26.100000000000001
 21
-4.3099999999999996
 31
0.0
 11
-26.218158462732848
 21
-5.0584134743400693
 31
0.0
 11
-26.530000000000001
 21
-5.75
 31
0.0
  0
SPLINE
  5
F2
100
AcDbEntity
  8
0
  6
CONTINUOUS
 62
               7
100
AcDbSpline
210
0.0
220
0.0
230
1.0
 70
               0
 71
               3
 72
               0
 73
               0
 74
               5
 44
0.000001
 12
0.2884256340544001
 22
-0.9575022995378744
 32
0.0
 13
-0.2884256340544003
 23
-0.9575022995378744
 33
0.0
 11
-26.530000000000001
 21
2.8700000000000001
 31
0.0
 11
-26.210178009957165
 21
1.4520872212322948
 31
0.0
 11
-26.100000000000001
 21
0.0
 31
0.0
 11
-26.210178009708205
 21
-1.4520872212322946
 31
0.0
 11
-26.530000000000001
 21
-2.8699999999999988
 31
0.0
  0
SPLINE
  5
F3
100
AcDbEntity
  8
0
  6
CONTINUOUS
 62
               7
100
AcDbSpline
210
0.0
220
0.0
230
1.0
 70
               0
 71
               3
 72
               0
 73
               0
 74
               5
 44
0.000001
 12
0.516040623622764
 22
-0.8565641101348041
 32
0.0
 13
-0.5160406236227639
 23
-0.8565641101348042
 33
0.0
 11
-26.530000000000001
 21
5.75
 31
0.0
 11
-26.21815846325703
 21
5.0584134743400702
 31
0.0
 11
-26.100000000000001
 21
4.3099999999999996
 31
0.0
 11
-26.218158462732848
 21
3.5615865256599299
 31
0.0
 11
-26.530000000000001
 21
2.8700000000000001
 31
0.0
  0
CIRCLE
  5
F4
100
AcDbEntity
  8
0
  6
CONTINUOUS
 62
               7
100
AcDbCircle
 10
0.0
 20
0.0
 30
0.0
 40
18.0
  0
CIRCLE
  5
F5
100
AcDbEntity
  8
0
  6
CONTINUOUS
 62
               2
100
AcDbCircle
 10
0.0
 20
0.0
 30
0.0
 40
17.0
  0
CIRCLE
  5
F6
100
AcDbEntity
  8
0
  6
CONTINUOUS
 62
               7
100
AcDbCircle
 10
0.0
 20
0.0
 30
0.0
 40
18.0
  0
CIRCLE
  5
F7
100
AcDbEntity
  8
0
  6
CONTINUOUS
 62
               7
100
AcDbCircle
 10
0.0
 20
0.0
 30
0.0
 40
26.0
  0
LINE
  5
F8
100
AcDbEntity
  8
0
  6
CONTINUOUS
 62
               7
100
AcDbLine
 10
-29.899999999999999
 20
2.5
 30
0.0
 11
-29.899999999999999
 21
-2.5
 31
0.0
  0
LINE
  5
F9
100
AcDbEntity
  8
0
  6
CONTINUOUS
 62
               7
100
AcDbLine
 10
-30.399999999999999
 20
-2.0
 30
0.0
 11
-29.899999999999999
 21
-2.5
 31
0.0
  0
LINE
  5
FA
100
AcDbEntity
  8
0
  6
CONTINUOUS
 62
               7
100
AcDbLine
 10
-29.899999999999999
 20
2.5
 30
0.0
 11
-30.399999999999999
 21
2.0
 31
0.0
  0
LINE
  5
FB
100
AcDbEntity
  8
0
  6
CONTINUOUS
 62
               7
100
AcDbLine
 10
-30.399999999999999
 20
-2.0
 30
0.0
 11
-31.899999999999999
 21
-2.0
 31
0.0
  0
LINE
  5
FC
100
AcDbEntity
  8
0
  6
CONTINUOUS
 62
               7
100
AcDbLine
 10
-30.399999999999999
 20
2.0
 30
0.0
 11
-31.899999999999999
 21
2.0
 31
0.0
  0
LINE
  5
FD
100
AcDbEntity
  8
0
  6
CENTER
 62
               2
100
AcDbLine
 10
-34.130000000000003
 20
0.0
 30
0.0
 11
29.399999999999999
 21
0.0
 31
0.0
  0
LINE
  5
FE
100
AcDbEntity
  8
0
  6
CENTER
 62
               2
100
AcDbLine
 10
-29.699999999999999
 20
2.1000000000000001
 30
0.0
 11
-30.300000000000001
 21
2.1000000000000001
 31
0.0
  0
LINE
  5
FF
100
AcDbEntity
  8
0
  6
CENTER
 62
               2
100
AcDbLine
 10
-29.699999999999999
 20
-2.1000000000000001
 30
0.0
 11
-30.300000000000001
 21
-2.1000000000000001
 31
0.0
  0
LINE
  5
100
100
AcDbEntity
  8
0
  6
CONTINUOUS
 62
               7
100
AcDbLine
 10
-31.899999999999999
 20
2.0
 30
0.0
 11
-31.899999999999999
 21
-2.0
 31
0.0
  0
LINE
  5
101
100
AcDbEntity
  8
0
  6
CONTINUOUS
 62
               7
100
AcDbLine
 10
-30.399999999999999
 20
2.0
 30
0.0
 11
-30.399999999999999
 21
-2.0
 31
0.0
  0
LINE
  5
102
100
AcDbEntity
  8
0
  6
CONTINUOUS
 62
               7
100
AcDbLine
 10
-29.699999999999999
 20
2.5
 30
0.0
 11
-29.899999999999999
 21
2.5
 31
0.0
  0
LINE
  5
103
100
AcDbEntity
  8
0
  6
CONTINUOUS
 62
               7
100
AcDbLine
 10
-29.699999999999999
 20
-2.5
 30
0.0
 11
-29.899999999999999
 21
-2.5
 31
0.0
  0
LINE
  5
104
100
AcDbEntity
  8
0
  6
CONTINUOUS
 62
               7
100
AcDbLine
 10
-26.100000000000001
 20
-5.0
 30
0.0
 11
-26.530000000000001
 21
-5.75
 31
0.0
  0
LINE
  5
105
100
AcDbEntity
  8
0
  6
CONTINUOUS
 62
               7
100
AcDbLine
 10
-29.260000000000002
 20
5.75
 30
0.0
 11
-29.699999999999999
 21
5.0
 31
0.0
  0
LINE
  5
106
100
AcDbEntity
  8
0
  6
CONTINUOUS
 62
               7
100
AcDbLine
 10
-29.260000000000002
 20
-5.75
 30
0.0
 11
-29.699999999999999
 21
-5.0
 31
0.0
  0
LINE
  5
107
100
AcDbEntity
  8
0
  6
CONTINUOUS
 62
               7
100
AcDbLine
 10
-26.100000000000001
 20
5.0
 30
0.0
 11
-26.530000000000001
 21
5.75
 31
0.0
  0
LINE
  5
108
100
AcDbEntity
  8
0
  6
CONTINUOUS
 62
               7
100
AcDbLine
 10
-29.699999999999999
 20
5.0
 30
0.0
 11
-29.699999999999999
 21
-5.0
 31
0.0
  0
LINE
  5
109
100
AcDbEntity
  8
0
  6
CONTINUOUS
 62
               7
100
AcDbLine
 10
-26.530000000000001
 20
-2.8700000000000001
 30
0.0
 11
-29.260000000000002
 21
-2.8700000000000001
 31
0.0
  0
LINE
  5
10A
100
AcDbEntity
  8
0
  6
CONTINUOUS
 62
               7
100
AcDbLine
 10
-26.530000000000001
 20
2.8700000000000001
 30
0.0
 11
-29.260000000000002
 21
2.8700000000000001
 31
0.0
  0
LINE
  5
10B
100
AcDbEntity
  8
0
  6
CONTINUOUS
 62
               7
100
AcDbLine
 10
-26.530000000000001
 20
-5.75
 30
0.0
 11
-29.260000000000002
 21
-5.75
 31
0.0
  0
LINE
  5
10C
100
AcDbEntity
  8
0
  6
CONTINUOUS
 62
               7
100
AcDbLine
 10
-26.530000000000001
 20
5.75
 30
0.0
 11
-29.260000000000002
 21
5.75
 31
0.0
  0
LINE
  5
10D
100
AcDbEntity
  8
0
  6
CONTINUOUS
 62
               7
100
AcDbLine
 10
-25.23
 20
-6.25
 30
0.0
 11
-26.100000000000001
 21
-6.25
 31
0.0
  0
LINE
  5
10E
100
AcDbEntity
  8
0
  6
CONTINUOUS
 62
               7
100
AcDbLine
 10
-25.23
 20
6.25
 30
0.0
 11
-26.100000000000001
 21
6.25
 31
0.0
  0
LINE
  5
10F
100
AcDbEntity
  8
0
  6
CONTINUOUS
 62
               7
100
AcDbLine
 10
-26.100000000000001
 20
6.25
 30
0.0
 11
-26.100000000000001
 21
-6.25
 31
0.0
  0
LINE
  5
110
100
AcDbEntity
  8
0
  6
CENTER
 62
               2
100
AcDbLine
 10
0.0
 20
29.120000000000001
 30
0.0
 11
0.0
 21
-29.100000000000001
 31
0.0
  0
ENDBLK
  5
111
100
AcDbEntity
  8
0
100
AcDbBlockEnd
  0
BLOCK
  5
112
100
AcDbEntity
  8
0
100
AcDbBlockBegin
  2
MS_4
 70
               0
 10
0.0
 20
0.0
 30
0.0
  3
MS_4
  1

  0
ARC
  5
113
100
AcDbEntity
  8
0
  6
CONTINUOUS
 62
               7
100
AcDbCircle
 10
24.5
 20
-23.028610229492188
 30
0.0
 40
7.4249263244264769
100
AcDbArc
 50
250.32382894913221
 51
289.67617105086657
  0
ARC
  5
114
100
AcDbEntity
  8
0
  6
CONTINUOUS
 62
               7
100
AcDbCircle
 10
24.5
 20
-34.29608154296875
 30
0.0
 40
7.4387618987790836
100
AcDbArc
 50
70.361930623416782
 51
109.63806937658282
  0
ARC
  5
115
100
AcDbEntity
  8
0
  6
CONTINUOUS
 62
               7
100
AcDbCircle
 10
19.5
 20
-34.29608154296875
 30
0.0
 40
7.4387618987790836
100
AcDbArc
 50
70.361930623416782
 51
109.63806937658282
  0
ARC
  5
116
100
AcDbEntity
  8
0
  6
CONTINUOUS
 62
               7
100
AcDbCircle
 10
19.5
 20
-23.028610229492188
 30
0.0
 40
7.4249263244264769
100
AcDbArc
 50
250.32382894913221
 51
289.67617105086657
  0
ARC
  5
117
100
AcDbEntity
  8
0
  6
CONTINUOUS
 62
               7
100
AcDbCircle
 10
115.5
 20
-34.29608154296875
 30
0.0
 40
7.4387618987790836
100
AcDbArc
 50
70.361930623416782
 51
109.63806937658282
  0
ARC
  5
118
100
AcDbEntity
  8
0
  6
CONTINUOUS
 62
               7
100
AcDbCircle
 10
120.5
 20
-34.29608154296875
 30
0.0
 40
7.4387618987790836
100
AcDbArc
 50
70.361930623416782
 51
109.63806937658282
  0
ARC
  5
119
100
AcDbEntity
  8
0
  6
CONTINUOUS
 62
               7
100
AcDbCircle
 10
115.5
 20
-23.028610229492188
 30
0.0
 40
7.4249263244264769
100
AcDbArc
 50
250.32382894913221
 51
289.67617105086657
  0
ARC
  5
11A
100
AcDbEntity
  8
0
  6
CONTINUOUS
 62
               7
100
AcDbCircle
 10
120.5
 20
-23.028610229492188
 30
0.0
 40
7.4249263244264769
100
AcDbArc
 50
250.32382894913221
 51
289.67617105086657
  0
ARC
  5
11B
100
AcDbEntity
  8
0
  6
CONTINUOUS
 62
               7
100
AcDbCircle
 10
16.216094970703139
 20
-11.5
 30
0.0
 40
33.210724981901151
100
AcDbArc
 50
159.7404345881119
 51
200.25956541188731
  0
ARC
  5
11C
100
AcDbEntity
  8
0
  6
CONTINUOUS
 62
               7
100
AcDbCircle
 10
16.216094970703139
 20
11.5
 30
0.0
 40
33.210724981901151
100
AcDbArc
 50
159.7404345881119
 51
200.25956541188731
  0
ARC
  5
11D
100
AcDbEntity
  8
0
  6
CONTINUOUS
 62
               7
100
AcDbCircle
 10
-50.219711303710938
 20
-4.75
 30
0.0
 40
13.727689655107271
100
AcDbArc
 50
339.75617265301503
 51
20.243827346984176
  0
ARC
  5
11E
100
AcDbEntity
  8
0
  6
CONTINUOUS
 62
               7
100
AcDbCircle
 10
-30.7802734375
 20
-4.75
 30
0.0
 40
13.718322120198156
100
AcDbArc
 50
159.74174304242587
 51
200.25825695757334
  0
ARC
  5
11F
100
AcDbEntity
  8
0
  6
CONTINUOUS
 62
               7
100
AcDbCircle
 10
-50.219711303710938
 20
4.75
 30
0.0
 40
13.727689655107271
100
AcDbArc
 50
339.75617265301503
 51
20.243827346984176
  0
ARC
  5
120
100
AcDbEntity
  8
0
  6
CONTINUOUS
 62
               7
100
AcDbCircle
 10
-30.7802734375
 20
4.75
 30
0.0
 40
13.718322120198156
100
AcDbArc
 50
159.74174304242587
 51
200.25825695757334
  0
CIRCLE
  5
121
100
AcDbEntity
  8
0
  6
CONTINUOUS
 62
               7
100
AcDbCircle
 10
118.0
 20
0.0
 30
0.0
 40
5.7224998474121094
  0
CIRCLE
  5
122
100
AcDbEntity
  8
0
  6
CONTINUOUS
 62
               2
100
AcDbCircle
 10
118.0
 20
0.0
 30
0.0
 40
6.5784997940063477
  0
CIRCLE
  5
123
100
AcDbEntity
  8
0
  6
CONTINUOUS
 62
               7
100
AcDbCircle
 10
22.0
 20
0.0
 30
0.0
 40
5.7224998474121094
  0
CIRCLE
  5
124
100
AcDbEntity
  8
0
  6
CONTINUOUS
 62
               2
100
AcDbCircle
 10
22.0
 20
0.0
 30
0.0
 40
6.5784997940063477
  0
LINE
  5
125
100
AcDbEntity
  8
0
  6
CONTINUOUS
 62
               7
100
AcDbLine
 10
27.0
 20
-26.859999999999999
 30
0.0
 11
27.0
 21
-30.460000000000001
 31
0.0
  0
LINE
  5
126
100
AcDbEntity
  8
0
  6
CONTINUOUS
 62
               7
100
AcDbLine
 10
27.0
 20
-30.460000000000001
 30
0.0
 11
17.0
 21
-30.460000000000001
 31
0.0
  0
LINE
  5
127
100
AcDbEntity
  8
0
  6
CONTINUOUS
 62
               7
100
AcDbLine
 10
17.0
 20
-26.859999999999999
 30
0.0
 11
17.0
 21
-30.460000000000001
 31
0.0
  0
LINE
  5
128
100
AcDbEntity
  8
0
  6
CONTINUOUS
 62
               7
100
AcDbLine
 10
113.0
 20
-26.859999999999999
 30
0.0
 11
113.0
 21
-30.460000000000001
 31
0.0
  0
LINE
  5
129
100
AcDbEntity
  8
0
  6
CONTINUOUS
 62
               7
100
AcDbLine
 10
123.0
 20
-26.859999999999999
 30
0.0
 11
123.0
 21
-30.460000000000001
 31
0.0
  0
LINE
  5
12A
100
AcDbEntity
  8
0
  6
CONTINUOUS
 62
               7
100
AcDbLine
 10
-44.5
 20
-9.5
 30
0.0
 11
-36.5
 21
-9.5
 31
0.0
  0
LINE
  5
12B
100
AcDbEntity
  8
0
  6
CONTINUOUS
 62
               7
100
AcDbLine
 10
-44.5
 20
9.5
 30
0.0
 11
-36.5
 21
9.5
 31
0.0
  0
LINE
  5
12C
100
AcDbEntity
  8
0
  6
CONTINUOUS
 62
               7
100
AcDbLine
 10
107.0
 20
26.0
 30
0.0
 11
130.0
 21
26.0
 31
0.0
  0
LINE
  5
12D
100
AcDbEntity
  8
0
  6
CONTINUOUS
 62
               7
100
AcDbLine
 10
24.5
 20
-30.66
 30
0.0
 11
19.5
 21
-30.66
 31
0.0
  0
LINE
  5
12E
100
AcDbEntity
  8
0
  6
CONTINUOUS
 62
               7
100
AcDbLine
 10
20.0
 20
-31.16
 30
0.0
 11
19.5
 21
-30.66
 31
0.0
  0
LINE
  5
12F
100
AcDbEntity
  8
0
  6
CONTINUOUS
 62
               7
100
AcDbLine
 10
24.5
 20
-30.66
 30
0.0
 11
24.0
 21
-31.16
 31
0.0
  0
LINE
  5
130
100
AcDbEntity
  8
0
  6
CONTINUOUS
 62
               7
100
AcDbLine
 10
20.0
 20
-31.16
 30
0.0
 11
20.0
 21
-32.659999999999997
 31
0.0
  0
LINE
  5
131
100
AcDbEntity
  8
0
  6
CONTINUOUS
 62
               7
100
AcDbLine
 10
24.0
 20
-31.16
 30
0.0
 11
24.0
 21
-32.659999999999997
 31
0.0
  0
LINE
  5
132
100
AcDbEntity
  8
0
  6
CONTINUOUS
 62
               2
100
AcDbLine
 10
24.100000000000001
 20
-30.460000000000001
 30
0.0
 11
24.100000000000001
 21
-31.059999999999999
 31
0.0
  0
LINE
  5
133
100
AcDbEntity
  8
0
  6
CONTINUOUS
 62
               2
100
AcDbLine
 10
19.899999999999999
 20
-30.460000000000001
 30
0.0
 11
19.899999999999999
 21
-31.059999999999999
 31
0.0
  0
LINE
  5
134
100
AcDbEntity
  8
0
  6
CONTINUOUS
 62
               7
100
AcDbLine
 10
24.0
 20
-32.659999999999997
 30
0.0
 11
20.0
 21
-32.659999999999997
 31
0.0
  0
LINE
  5
135
100
AcDbEntity
  8
0
  6
CONTINUOUS
 62
               7
100
AcDbLine
 10
24.0
 20
-31.16
 30
0.0
 11
20.0
 21
-31.16
 31
0.0
  0
LINE
  5
136
100
AcDbEntity
  8
0
  6
CONTINUOUS
 62
               7
100
AcDbLine
 10
24.5
 20
-30.460000000000001
 30
0.0
 11
24.5
 21
-30.66
 31
0.0
  0
LINE
  5
137
100
AcDbEntity
  8
0
  6
CONTINUOUS
 62
               7
100
AcDbLine
 10
19.5
 20
-30.460000000000001
 30
0.0
 11
19.5
 21
-30.66
 31
0.0
  0
LINE
  5
138
100
AcDbEntity
  8
0
  6
CONTINUOUS
 62
               7
100
AcDbLine
 10
123.0
 20
-30.460000000000001
 30
0.0
 11
113.0
 21
-30.460000000000001
 31
0.0
  0
LINE
  5
139
100
AcDbEntity
  8
0
  6
CONTINUOUS
 62
               7
100
AcDbLine
 10
15.75
 20
-26.0
 30
0.0
 11
15.75
 21
-26.859999999999999
 31
0.0
  0
LINE
  5
13A
100
AcDbEntity
  8
0
  6
CONTINUOUS
 62
               7
100
AcDbLine
 10
28.25
 20
-26.0
 30
0.0
 11
28.25
 21
-26.859999999999999
 31
0.0
  0
LINE
  5
13B
100
AcDbEntity
  8
0
  6
CONTINUOUS
 62
               7
100
AcDbLine
 10
28.25
 20
-26.859999999999999
 30
0.0
 11
15.75
 21
-26.859999999999999
 31
0.0
  0
LINE
  5
13C
100
AcDbEntity
  8
0
  6
CENTER
 62
               2
100
AcDbLine
 10
22.0
 20
-24.710000000000001
 30
0.0
 11
22.0
 21
-35.57
 31
0.0
  0
LINE
  5
13D
100
AcDbEntity
  8
0
  6
CONTINUOUS
 62
               7
100
AcDbLine
 10
22.0
 20
-27.289999999999999
 30
0.0
 11
22.0
 21
-30.02
 31
0.0
  0
LINE
  5
13E
100
AcDbEntity
  8
0
  6
CONTINUOUS
 62
               7
100
AcDbLine
 10
-21.0
 20
-8.0
 30
0.0
 11
-20.0
 21
-8.0
 31
0.0
  0
LINE
  5
13F
100
AcDbEntity
  8
0
  6
CONTINUOUS
 62
               7
100
AcDbLine
 10
-21.0
 20
8.0
 30
0.0
 11
-20.0
 21
8.0
 31
0.0
  0
LINE
  5
140
100
AcDbEntity
  8
0
  6
CONTINUOUS
 62
               7
100
AcDbLine
 10
-22.0
 20
-7.0
 30
0.0
 11
-21.0
 21
-8.0
 31
0.0
  0
LINE
  5
141
100
AcDbEntity
  8
0
  6
DASHED
 62
               2
100
AcDbLine
 10
7.5
 20
-21.0
 30
0.0
 11
7.5
 21
-25.0
 31
0.0
  0
LINE
  5
142
100
AcDbEntity
  8
0
  6
DASHED
 62
               2
100
AcDbLine
 10
2.5
 20
-21.0
 30
0.0
 11
2.5
 21
-25.0
 31
0.0
  0
LINE
  5
143
100
AcDbEntity
  8
0
  6
DASHED
 62
               2
100
AcDbLine
 10
2.8999999999999999
 20
-21.0
 30
0.0
 11
2.8999999999999999
 21
-25.0
 31
0.0
  0
LINE
  5
144
100
AcDbEntity
  8
0
  6
DASHED
 62
               2
100
AcDbLine
 10
7.0999999999999996
 20
-21.0
 30
0.0
 11
7.0999999999999996
 21
-25.0
 31
0.0
  0
LINE
  5
145
100
AcDbEntity
  8
0
  6
DASHED
 62
               2
100
AcDbLine
 10
0.75
 20
-25.0
 30
0.0
 11
9.25
 21
-25.0
 31
0.0
  0
LINE
  5
146
100
AcDbEntity
  8
0
  6
DASHED
 62
               2
100
AcDbLine
 10
0.75
 20
-25.0
 30
0.0
 11
0.75
 21
-26.0
 31
0.0
  0
LINE
  5
147
100
AcDbEntity
  8
0
  6
DASHED
 62
               2
100
AcDbLine
 10
9.25
 20
-25.0
 30
0.0
 11
9.25
 21
-26.0
 31
0.0
  0
LINE
  5
148
100
AcDbEntity
  8
0
  6
CENTER
 62
               2
100
AcDbLine
 10
5.0
 20
-16.850000000000001
 30
0.0
 11
5.0
 21
-28.77
 31
0.0
  0
LINE
  5
149
100
AcDbEntity
  8
0
  6
CENTER
 62
               2
100
AcDbLine
 10
118.0
 20
8.5500000000000007
 30
0.0
 11
118.0
 21
-8.5099999999999998
 31
0.0
  0
LINE
  5
14A
100
AcDbEntity
  8
0
  6
CENTER
 62
               2
100
AcDbLine
 10
22.0
 20
8.5500000000000007
 30
0.0
 11
22.0
 21
-8.5099999999999998
 31
0.0
  0
LINE
  5
14B
100
AcDbEntity
  8
0
  6
CONTINUOUS
 62
               7
100
AcDbLine
 10
120.5
 20
-30.66
 30
0.0
 11
115.5
 21
-30.66
 31
0.0
  0
LINE
  5
14C
100
AcDbEntity
  8
0
  6
CONTINUOUS
 62
               7
100
AcDbLine
 10
116.0
 20
-31.16
 30
0.0
 11
115.5
 21
-30.66
 31
0.0
  0
LINE
  5
14D
100
AcDbEntity
  8
0
  6
CONTINUOUS
 62
               7
100
AcDbLine
 10
120.5
 20
-30.66
 30
0.0
 11
120.0
 21
-31.16
 31
0.0
  0
LINE
  5
14E
100
AcDbEntity
  8
0
  6
CONTINUOUS
 62
               7
100
AcDbLine
 10
116.0
 20
-31.16
 30
0.0
 11
116.0
 21
-32.659999999999997
 31
0.0
  0
LINE
  5
14F
100
AcDbEntity
  8
0
  6
CONTINUOUS
 62
               7
100
AcDbLine
 10
120.0
 20
-31.16
 30
0.0
 11
120.0
 21
-32.659999999999997
 31
0.0
  0
LINE
  5
150
100
AcDbEntity
  8
0
  6
CONTINUOUS
 62
               7
100
AcDbLine
 10
0.0
 20
26.0
 30
0.0
 11
0.0
 21
-26.0
 31
0.0
  0
LINE
  5
151
100
AcDbEntity
  8
0
  6
CONTINUOUS
 62
               7
100
AcDbLine
 10
-17.0
 20
-23.0
 30
0.0
 11
-17.0
 21
23.0
 31
0.0
  0
LINE
  5
152
100
AcDbEntity
  8
0
  6
CONTINUOUS
 62
               2
100
AcDbLine
 10
133.25999999999999
 20
18.0
 30
0.0
 11
135.0
 21
17.0
 31
0.0
  0
LINE
  5
153
100
AcDbEntity
  8
0
  6
CONTINUOUS
 62
               2
100
AcDbLine
 10
133.25999999999999
 20
-18.0
 30
0.0
 11
135.0
 21
-17.0
 31
0.0
  0
LINE
  5
154
100
AcDbEntity
  8
0
  6
CONTINUOUS
 62
               2
100
AcDbLine
 10
135.0
 20
-17.0
 30
0.0
 11
149.58000000000001
 21
-17.0
 31
0.0
  0
LINE
  5
155
100
AcDbEntity
  8
0
  6
CONTINUOUS
 62
               2
100
AcDbLine
 10
135.0
 20
17.0
 30
0.0
 11
149.58000000000001
 21
17.0
 31
0.0
  0
LINE
  5
156
100
AcDbEntity
  8
0
  6
CONTINUOUS
 62
               7
100
AcDbLine
 10
148.74000000000001
 20
-18.0
 30
0.0
 11
148.74000000000001
 21
18.0
 31
0.0
  0
LINE
  5
157
100
AcDbEntity
  8
0
  6
CONTINUOUS
 62
               7
100
AcDbLine
 10
135.0
 20
18.0
 30
0.0
 11
135.0
 21
-18.0
 31
0.0
  0
LINE
  5
158
100
AcDbEntity
  8
0
  6
CONTINUOUS
 62
               7
100
AcDbLine
 10
150.0
 20
-16.5
 30
0.0
 11
150.0
 21
16.5
 31
0.0
  0
LINE
  5
159
100
AcDbEntity
  8
0
  6
CONTINUOUS
 62
               7
100
AcDbLine
 10
148.74000000000001
 20
-18.0
 30
0.0
 11
150.0
 21
-16.5
 31
0.0
  0
LINE
  5
15A
100
AcDbEntity
  8
0
  6
CONTINUOUS
 62
               7
100
AcDbLine
 10
148.74000000000001
 20
18.0
 30
0.0
 11
150.0
 21
16.5
 31
0.0
  0
LINE
  5
15B
100
AcDbEntity
  8
0
  6
CONTINUOUS
 62
               7
100
AcDbLine
 10
130.0
 20
-18.0
 30
0.0
 11
148.74000000000001
 21
-18.0
 31
0.0
  0
LINE
  5
15C
100
AcDbEntity
  8
0
  6
CONTINUOUS
 62
               7
100
AcDbLine
 10
130.0
 20
18.0
 30
0.0
 11
148.74000000000001
 21
18.0
 31
0.0
  0
LINE
  5
15D
100
AcDbEntity
  8
0
  6
CENTER
 62
               2
100
AcDbLine
 10
118.0
 20
-24.710000000000001
 30
0.0
 11
118.0
 21
-35.57
 31
0.0
  0
LINE
  5
15E
100
AcDbEntity
  8
0
  6
CONTINUOUS
 62
               2
100
AcDbLine
 10
120.09999999999999
 20
-30.460000000000001
 30
0.0
 11
120.09999999999999
 21
-31.059999999999999
 31
0.0
  0
LINE
  5
15F
100
AcDbEntity
  8
0
  6
CONTINUOUS
 62
               2
100
AcDbLine
 10
115.90000000000001
 20
-30.460000000000001
 30
0.0
 11
115.90000000000001
 21
-31.059999999999999
 31
0.0
  0
LINE
  5
160
100
AcDbEntity
  8
0
  6
CONTINUOUS
 62
               7
100
AcDbLine
 10
120.0
 20
-31.16
 30
0.0
 11
116.0
 21
-31.16
 31
0.0
  0
LINE
  5
161
100
AcDbEntity
  8
0
  6
CONTINUOUS
 62
               7
100
AcDbLine
 10
120.5
 20
-30.460000000000001
 30
0.0
 11
120.5
 21
-30.66
 31
0.0
  0
LINE
  5
162
100
AcDbEntity
  8
0
  6
CONTINUOUS
 62
               7
100
AcDbLine
 10
115.5
 20
-30.460000000000001
 30
0.0
 11
115.5
 21
-30.66
 31
0.0
  0
LINE
  5
163
100
AcDbEntity
  8
0
  6
CONTINUOUS
 62
               7
100
AcDbLine
 10
120.0
 20
-32.659999999999997
 30
0.0
 11
116.0
 21
-32.659999999999997
 31
0.0
  0
LINE
  5
164
100
AcDbEntity
  8
0
  6
CONTINUOUS
 62
               7
100
AcDbLine
 10
118.0
 20
-27.289999999999999
 30
0.0
 11
118.0
 21
-30.02
 31
0.0
  0
LINE
  5
165
100
AcDbEntity
  8
0
  6
CONTINUOUS
 62
               7
100
AcDbLine
 10
111.75
 20
-26.0
 30
0.0
 11
111.75
 21
-26.859999999999999
 31
0.0
  0
LINE
  5
166
100
AcDbEntity
  8
0
  6
CONTINUOUS
 62
               7
100
AcDbLine
 10
124.25
 20
-26.0
 30
0.0
 11
124.25
 21
-26.859999999999999
 31
0.0
  0
LINE
  5
167
100
AcDbEntity
  8
0
  6
CONTINUOUS
 62
               7
100
AcDbLine
 10
124.25
 20
-26.859999999999999
 30
0.0
 11
111.75
 21
-26.859999999999999
 31
0.0
  0
LINE
  5
168
100
AcDbEntity
  8
0
  6
CONTINUOUS
 62
               2
100
AcDbLine
 10
-5.0
 20
17.0
 30
0.0
 11
-3.2599999999999998
 21
18.0
 31
0.0
  0
LINE
  5
169
100
AcDbEntity
  8
0
  6
CONTINUOUS
 62
               2
100
AcDbLine
 10
-5.0
 20
-17.0
 30
0.0
 11
-3.2599999999999998
 21
-18.0
 31
0.0
  0
LINE
  5
16A
100
AcDbEntity
  8
0
  6
CONTINUOUS
 62
               2
100
AcDbLine
 10
-6.0
 20
17.0
 30
0.0
 11
-5.0
 21
17.0
 31
0.0
  0
LINE
  5
16B
100
AcDbEntity
  8
0
  6
CONTINUOUS
 62
               2
100
AcDbLine
 10
-6.0
 20
-17.0
 30
0.0
 11
-5.0
 21
-17.0
 31
0.0
  0
LINE
  5
16C
100
AcDbEntity
  8
0
  6
CONTINUOUS
 62
               2
100
AcDbLine
 10
-19.579999999999998
 20
-17.0
 30
0.0
 11
-17.0
 21
-17.0
 31
0.0
  0
LINE
  5
16D
100
AcDbEntity
  8
0
  6
CONTINUOUS
 62
               2
100
AcDbLine
 10
-19.579999999999998
 20
17.0
 30
0.0
 11
-17.0
 21
17.0
 31
0.0
  0
LINE
  5
16E
100
AcDbEntity
  8
0
  6
CENTER
 62
               2
100
AcDbLine
 10
-61.729999999999997
 20
0.0
 30
0.0
 11
152.87
 21
0.0
 31
0.0
  0
LINE
  5
16F
100
AcDbEntity
  8
0
  6
CONTINUOUS
 62
               7
100
AcDbLine
 10
107.0
 20
-26.0
 30
0.0
 11
107.0
 21
26.0
 31
0.0
  0
LINE
  5
170
100
AcDbEntity
  8
0
  6
CONTINUOUS
 62
               7
100
AcDbLine
 10
130.0
 20
26.0
 30
0.0
 11
130.0
 21
-26.0
 31
0.0
  0
LINE
  5
171
100
AcDbEntity
  8
0
  6
CONTINUOUS
 62
               7
100
AcDbLine
 10
130.0
 20
16.5
 30
0.0
 11
130.0
 21
-16.5
 31
0.0
  0
LINE
  5
172
100
AcDbEntity
  8
0
  6
CONTINUOUS
 62
               7
100
AcDbLine
 10
130.0
 20
-26.0
 30
0.0
 11
107.0
 21
-26.0
 31
0.0
  0
LINE
  5
173
100
AcDbEntity
  8
0
  6
CONTINUOUS
 62
               7
100
AcDbLine
 10
0.0
 20
-26.0
 30
0.0
 11
107.0
 21
-26.0
 31
0.0
  0
LINE
  5
174
100
AcDbEntity
  8
0
  6
CONTINUOUS
 62
               7
100
AcDbLine
 10
33.0
 20
-26.0
 30
0.0
 11
33.0
 21
26.0
 31
0.0
  0
LINE
  5
175
100
AcDbEntity
  8
0
  6
CONTINUOUS
 62
               7
100
AcDbLine
 10
0.0
 20
26.0
 30
0.0
 11
107.0
 21
26.0
 31
0.0
  0
LINE
  5
176
100
AcDbEntity
  8
0
  6
CONTINUOUS
 62
               7
100
AcDbLine
 10
10.0
 20
26.0
 30
0.0
 11
10.0
 21
-26.0
 31
0.0
  0
LINE
  5
177
100
AcDbEntity
  8
0
  6
CONTINUOUS
 62
               7
100
AcDbLine
 10
-5.0
 20
18.0
 30
0.0
 11
-5.0
 21
-18.0
 31
0.0
  0
LINE
  5
178
100
AcDbEntity
  8
0
  6
CONTINUOUS
 62
               7
100
AcDbLine
 10
10.0
 20
16.5
 30
0.0
 11
10.0
 21
-16.5
 31
0.0
  0
LINE
  5
179
100
AcDbEntity
  8
0
  6
CONTINUOUS
 62
               7
100
AcDbLine
 10
-6.0
 20
-18.0
 30
0.0
 11
0.0
 21
-18.0
 31
0.0
  0
LINE
  5
17A
100
AcDbEntity
  8
0
  6
CONTINUOUS
 62
               7
100
AcDbLine
 10
-6.0
 20
18.0
 30
0.0
 11
0.0
 21
18.0
 31
0.0
  0
LINE
  5
17B
100
AcDbEntity
  8
0
  6
CONTINUOUS
 62
               7
100
AcDbLine
 10
-17.0
 20
-23.0
 30
0.0
 11
-6.0
 21
-23.0
 31
0.0
  0
LINE
  5
17C
100
AcDbEntity
  8
0
  6
CONTINUOUS
 62
               7
100
AcDbLine
 10
-17.0
 20
23.0
 30
0.0
 11
-6.0
 21
23.0
 31
0.0
  0
LINE
  5
17D
100
AcDbEntity
  8
0
  6
CONTINUOUS
 62
               7
100
AcDbLine
 10
-6.5
 20
23.0
 30
0.0
 11
-6.5
 21
-23.0
 31
0.0
  0
LINE
  5
17E
100
AcDbEntity
  8
0
  6
CONTINUOUS
 62
               7
100
AcDbLine
 10
-6.0
 20
23.0
 30
0.0
 11
-6.0
 21
-23.0
 31
0.0
  0
LINE
  5
17F
100
AcDbEntity
  8
0
  6
CONTINUOUS
 62
               7
100
AcDbLine
 10
-14.94
 20
0.0
 30
0.0
 11
-6.5
 21
0.0
 31
0.0
  0
LINE
  5
180
100
AcDbEntity
  8
0
  6
CONTINUOUS
 62
               7
100
AcDbLine
 10
-18.739999999999998
 20
-18.0
 30
0.0
 11
-18.739999999999998
 21
18.0
 31
0.0
  0
LINE
  5
181
100
AcDbEntity
  8
0
  6
CONTINUOUS
 62
               7
100
AcDbLine
 10
-20.0
 20
-16.5
 30
0.0
 11
-18.739999999999998
 21
-18.0
 31
0.0
  0
LINE
  5
182
100
AcDbEntity
  8
0
  6
CONTINUOUS
 62
               7
100
AcDbLine
 10
-20.0
 20
16.5
 30
0.0
 11
-18.739999999999998
 21
18.0
 31
0.0
  0
LINE
  5
183
100
AcDbEntity
  8
0
  6
CONTINUOUS
 62
               7
100
AcDbLine
 10
-20.0
 20
16.5
 30
0.0
 11
-20.0
 21
-16.5
 31
0.0
  0
LINE
  5
184
100
AcDbEntity
  8
0
  6
CONTINUOUS
 62
               7
100
AcDbLine
 10
-18.739999999999998
 20
18.0
 30
0.0
 11
-17.0
 21
18.0
 31
0.0
  0
LINE
  5
185
100
AcDbEntity
  8
0
  6
CONTINUOUS
 62
               7
100
AcDbLine
 10
-18.739999999999998
 20
-18.0
 30
0.0
 11
-17.0
 21
-18.0
 31
0.0
  0
LINE
  5
186
100
AcDbEntity
  8
0
  6
CONTINUOUS
 62
               7
100
AcDbLine
 10
-36.5
 20
-7.0
 30
0.0
 11
-22.0
 21
-7.0
 31
0.0
  0
LINE
  5
187
100
AcDbEntity
  8
0
  6
CONTINUOUS
 62
               2
100
AcDbLine
 10
-36.5
 20
-6.1799999999999997
 30
0.0
 11
-29.0
 21
-6.1799999999999997
 31
0.0
  0
LINE
  5
188
100
AcDbEntity
  8
0
  6
CONTINUOUS
 62
               7
100
AcDbLine
 10
-36.5
 20
7.0
 30
0.0
 11
-22.0
 21
7.0
 31
0.0
  0
LINE
  5
189
100
AcDbEntity
  8
0
  6
CONTINUOUS
 62
               2
100
AcDbLine
 10
-36.5
 20
6.1799999999999997
 30
0.0
 11
-29.0
 21
6.1799999999999997
 31
0.0
  0
LINE
  5
18A
100
AcDbEntity
  8
0
  6
CONTINUOUS
 62
               7
100
AcDbLine
 10
-36.5
 20
-9.5
 30
0.0
 11
-36.5
 21
9.5
 31
0.0
  0
LINE
  5
18B
100
AcDbEntity
  8
0
  6
CONTINUOUS
 62
               7
100
AcDbLine
 10
-43.649999999999999
 20
0.0
 30
0.0
 11
-37.340000000000003
 21
0.0
 31
0.0
  0
LINE
  5
18C
100
AcDbEntity
  8
0
  6
CONTINUOUS
 62
               7
100
AcDbLine
 10
-44.5
 20
-9.5
 30
0.0
 11
-44.5
 21
9.5
 31
0.0
  0
LINE
  5
18D
100
AcDbEntity
  8
0
  6
CONTINUOUS
 62
               7
100
AcDbLine
 10
-22.0
 20
7.0
 30
0.0
 11
-21.0
 21
8.0
 31
0.0
  0
LINE
  5
18E
100
AcDbEntity
  8
0
  6
CONTINUOUS
 62
               2
100
AcDbLine
 10
-29.0
 20
-6.1799999999999997
 30
0.0
 11
-27.59
 21
-7.0
 31
0.0
  0
LINE
  5
18F
100
AcDbEntity
  8
0
  6
CONTINUOUS
 62
               2
100
AcDbLine
 10
-29.0
 20
6.1799999999999997
 30
0.0
 11
-27.59
 21
7.0
 31
0.0
  0
LINE
  5
190
100
AcDbEntity
  8
0
  6
CONTINUOUS
 62
               7
100
AcDbLine
 10
-51.18
 20
7.0
 30
0.0
 11
-51.18
 21
-7.0
 31
0.0
  0
LINE
  5
191
100
AcDbEntity
  8
0
  6
CONTINUOUS
 62
               7
100
AcDbLine
 10
-52.0
 20
-6.1799999999999997
 30
0.0
 11
-51.18
 21
-7.0
 31
0.0
  0
LINE
  5
192
100
AcDbEntity
  8
0
  6
CONTINUOUS
 62
               7
100
AcDbLine
 10
-52.0
 20
6.1799999999999997
 30
0.0
 11
-51.18
 21
7.0
 31
0.0
  0
LINE
  5
193
100
AcDbEntity
  8
0
  6
CONTINUOUS
 62
               7
100
AcDbLine
 10
-29.0
 20
7.0
 30
0.0
 11
-29.0
 21
-7.0
 31
0.0
  0
LINE
  5
194
100
AcDbEntity
  8
0
  6
CONTINUOUS
 62
               7
100
AcDbLine
 10
-52.0
 20
6.1799999999999997
 30
0.0
 11
-52.0
 21
-6.1799999999999997
 31
0.0
  0
LINE
  5
195
100
AcDbEntity
  8
0
  6
CONTINUOUS
 62
               7
100
AcDbLine
 10
-51.18
 20
-7.0
 30
0.0
 11
-44.5
 21
-7.0
 31
0.0
  0
LINE
  5
196
100
AcDbEntity
  8
0
  6
CONTINUOUS
 62
               2
100
AcDbLine
 10
-52.0
 20
-6.1799999999999997
 30
0.0
 11
-44.5
 21
-6.1799999999999997
 31
0.0
  0
LINE
  5
197
100
AcDbEntity
  8
0
  6
CONTINUOUS
 62
               2
100
AcDbLine
 10
-52.0
 20
6.1799999999999997
 30
0.0
 11
-44.5
 21
6.1799999999999997
 31
0.0
  0
LINE
  5
198
100
AcDbEntity
  8
0
  6
CONTINUOUS
 62
               7
100
AcDbLine
 10
-51.18
 20
7.0
 30
0.0
 11
-44.5
 21
7.0
 31
0.0
  0
ENDBLK
  5
199
100
AcDbEntity
  8
0
100
AcDbBlockEnd
  0
BLOCK
  5
19A
100
AcDbEntity
  8
0
100
AcDbBlockBegin
  2
MS_5
 70
               0
 10
0.0
 20
0.0
 30
0.0
  3
MS_5
  1

  0
CIRCLE
  5
19B
100
AcDbEntity
  8
0
  6
CONTINUOUS
 62
               7
100
AcDbCircle
 10
11.0
 20
0.0
 30
0.0
 40
2.5
  0
CIRCLE
  5
19C
100
AcDbEntity
  8
0
  6
CONTINUOUS
 62
               7
100
AcDbCircle
 10
11.0
 20
0.0
 30
0.0
 40
5.0
  0
CIRCLE
  5
19D
100
AcDbEntity
  8
0
  6
CONTINUOUS
 62
               7
100
AcDbCircle
 10
11.0
 20
0.0
 30
0.0
 40
7.0
  0
LINE
  5
19E
100
AcDbEntity
  8
0
  6
DASHED
 62
               2
100
AcDbLine
 10
4.4199999999999999
 20
26.0
 30
0.0
 11
4.71
 21
16.600000000000001
 31
0.0
  0
LINE
  5
19F
100
AcDbEntity
  8
0
  6
DASHED
 62
               2
100
AcDbLine
 10
5.2699999999999996
 20
26.0
 30
0.0
 11
5.5700000000000003
 21
16.600000000000001
 31
0.0
  0
LINE
  5
1A0
100
AcDbEntity
  8
0
  6
DASHED
 62
               2
100
AcDbLine
 10
16.719999999999999
 20
26.0
 30
0.0
 11
16.420000000000002
 21
16.600000000000001
 31
0.0
  0
LINE
  5
1A1
100
AcDbEntity
  8
0
  6
DASHED
 62
               2
100
AcDbLine
 10
17.57
 20
26.0
 30
0.0
 11
17.280000000000001
 21
16.600000000000001
 31
0.0
  0
LINE
  5
1A2
100
AcDbEntity
  8
0
  6
CENTER
 62
               2
100
AcDbLine
 10
11.0
 20
8.8699999999999992
 30
0.0
 11
11.0
 21
-8.1300000000000008
 31
0.0
  0
LINE
  5
1A3
100
AcDbEntity
  8
0
  6
CONTINUOUS
 62
               7
100
AcDbLine
 10
24.0
 20
18.0
 30
0.0
 11
24.0
 21
-18.0
 31
0.0
  0
LINE
  5
1A4
100
AcDbEntity
  8
0
  6
CONTINUOUS
 62
               7
100
AcDbLine
 10
23.0
 20
-18.0
 30
0.0
 11
24.0
 21
-18.0
 31
0.0
  0
LINE
  5
1A5
100
AcDbEntity
  8
0
  6
CONTINUOUS
 62
               7
100
AcDbLine
 10
23.0
 20
18.0
 30
0.0
 11
24.0
 21
18.0
 31
0.0
  0
LINE
  5
1A6
100
AcDbEntity
  8
0
  6
CENTER
 62
               2
100
AcDbLine
 10
11.0
 20
27.0
 30
0.0
 11
11.0
 21
15.19
 31
0.0
  0
LINE
  5
1A7
100
AcDbEntity
  8
0
  6
CONTINUOUS
 62
               7
100
AcDbLine
 10
8.5500000000000007
 20
-0.5
 30
0.0
 11
13.44
 21
-0.5
 31
0.0
  0
LINE
  5
1A8
100
AcDbEntity
  8
0
  6
CONTINUOUS
 62
               7
100
AcDbLine
 10
8.5500000000000007
 20
0.5
 30
0.0
 11
13.44
 21
0.5
 31
0.0
  0
LINE
  5
1A9
100
AcDbEntity
  8
0
  6
CONTINUOUS
 62
               7
100
AcDbLine
 10
6.0
 20
-2.8799999999999999
 30
0.0
 11
11.0
 21
-5.7699999999999996
 31
0.0
  0
LINE
  5
1AA
100
AcDbEntity
  8
0
  6
CONTINUOUS
 62
               7
100
AcDbLine
 10
11.0
 20
5.7699999999999996
 30
0.0
 11
16.0
 21
2.8799999999999999
 31
0.0
  0
LINE
  5
1AB
100
AcDbEntity
  8
0
  6
CONTINUOUS
 62
               7
100
AcDbLine
 10
11.0
 20
-5.7699999999999996
 30
0.0
 11
16.0
 21
-2.8799999999999999
 31
0.0
  0
LINE
  5
1AC
100
AcDbEntity
  8
0
  6
CONTINUOUS
 62
               7
100
AcDbLine
 10
6.0
 20
2.8799999999999999
 30
0.0
 11
11.0
 21
5.7699999999999996
 31
0.0
  0
LINE
  5
1AD
100
AcDbEntity
  8
0
  6
CONTINUOUS
 62
               7
100
AcDbLine
 10
16.0
 20
2.8799999999999999
 30
0.0
 11
16.0
 21
-2.8799999999999999
 31
0.0
  0
LINE
  5
1AE
100
AcDbEntity
  8
0
  6
CONTINUOUS
 62
               7
100
AcDbLine
 10
6.0
 20
2.8799999999999999
 30
0.0
 11
6.0
 21
-2.8799999999999999
 31
0.0
  0
LINE
  5
1AF
100
AcDbEntity
  8
0
  6
CONTINUOUS
 62
               7
100
AcDbLine
 10
23.0
 20
26.0
 30
0.0
 11
0.0
 21
26.0
 31
0.0
  0
LINE
  5
1B0
100
AcDbEntity
  8
0
  6
CONTINUOUS
 62
               7
100
AcDbLine
 10
23.0
 20
26.0
 30
0.0
 11
23.0
 21
-26.0
 31
0.0
  0
LINE
  5
1B1
100
AcDbEntity
  8
0
  6
CONTINUOUS
 62
               7
100
AcDbLine
 10
23.0
 20
16.5
 30
0.0
 11
23.0
 21
-16.5
 31
0.0
  0
LINE
  5
1B2
100
AcDbEntity
  8
0
  6
CONTINUOUS
 62
               7
100
AcDbLine
 10
23.0
 20
-26.0
 30
0.0
 11
0.0
 21
-26.0
 31
0.0
  0
LINE
  5
1B3
100
AcDbEntity
  8
0
  6
CONTINUOUS
 62
               7
100
AcDbLine
 10
0.0
 20
26.0
 30
0.0
 11
0.0
 21
-26.0
 31
0.0
  0
ENDBLK
  5
1B4
100
AcDbEntity
  8
0
100
AcDbBlockEnd
  0
BLOCK
  5
1B5
100
AcDbEntity
  8
0
100
AcDbBlockBegin
  2
MS_6
 70
               0
 10
0.0
 20
0.0
 30
0.0
  3
MS_6
  1

  0
SPLINE
  5
1B6
100
AcDbEntity
  8
0
  6
CONTINUOUS
 62
               7
100
AcDbSpline
210
0.0
220
0.0
230
1.0
 70
               0
 71
               3
 72
               0
 73
               0
 74
               5
 44
0.000001
 12
-0.5160406168082238
 22
-0.8565641142402523
 32
0.0
 13
0.5160405909982904
 23
-0.8565641297895535
 33
0.0
 11
-30.329999999999998
 21
5.75
 31
0.0
 11
-30.646841536735625
 21
5.0584134740000186
 31
0.0
 11
-30.77
 21
4.3099999999999996
 31
0.0
 11
-30.646841565219937
 21
3.5615865833681148
 31
0.0
 11
-30.329999999999998
 21
2.8700000000000001
 31
0.0
  0
SPLINE
  5
1B7
100
AcDbEntity
  8
0
  6
CONTINUOUS
 62
               7
100
AcDbSpline
210
0.0
220
0.0
230
1.0
 70
               0
 71
               3
 72
               0
 73
               0
 74
               5
 44
0.000001
 12
-0.5160405909982907
 22
-0.8565641297895534
 32
0.0
 13
0.5160406162715966
 23
-0.8565641145635455
 33
0.0
 11
-30.329999999999998
 21
-2.8700000000000001
 31
0.0
 11
-30.646841564695759
 21
-3.561586703527599
 31
0.0
 11
-30.77
 21
-4.3099999999999996
 31
0.0
 11
-30.646841570816491
 21
-5.0584132979127201
 31
0.0
 11
-30.329999999999998
 21
-5.75
 31
0.0
  0
SPLINE
  5
1B8
100
AcDbEntity
  8
0
  6
CONTINUOUS
 62
               7
100
AcDbSpline
210
0.0
220
0.0
230
1.0
 70
               0
 71
               3
 72
               0
 73
               0
 74
               5
 44
0.000001
 12
-0.2884256399884094
 22
-0.95750229775039
 32
0.0
 13
0.2884256399884093
 23
-0.95750229775039
 33
0.0
 11
-30.329999999999998
 21
2.8700000000000001
 31
0.0
 11
-30.654821981101854
 21
1.4520873784711605
 31
0.0
 11
-30.77
 21
0.0
 31
0.0
 11
-30.654821981350818
 21
-1.4520873784711601
 31
0.0
 11
-30.329999999999998
 21
-2.8699999999999992
 31
0.0
  0
SPLINE
  5
1B9
100
AcDbEntity
  8
0
  6
CONTINUOUS
 62
               7
100
AcDbSpline
210
0.0
220
0.0
230
1.0
 70
               0
 71
               3
 72
               0
 73
               0
 74
               5
 44
0.000001
 12
0.5160406067739158
 22
-0.8565641202854628
 32
0.0
 13
-0.5160406146617153
 23
-0.8565641155334253
 33
0.0
 11
-27.600000000000001
 21
-2.8700000000000001
 31
0.0
 11
-27.288158446482331
 21
-3.5615867396259127
 31
0.0
 11
-27.170000000000002
 21
-4.3099999999999996
 31
0.0
 11
-27.2881584515473
 21
-5.0584132730001965
 31
0.0
 11
-27.600000000000001
 21
-5.75
 31
0.0
  0
SPLINE
  5
1BA
100
AcDbEntity
  8
0
  6
CONTINUOUS
 62
               7
100
AcDbSpline
210
0.0
220
0.0
230
1.0
 70
               0
 71
               3
 72
               0
 73
               0
 74
               5
 44
0.000001
 12
0.2884256123300479
 22
-0.9575023060818375
 32
0.0
 13
-0.2884256123300483
 23
-0.9575023060818374
 33
0.0
 11
-27.600000000000001
 21
2.8700000000000001
 31
0.0
 11
-27.280178031619162
 21
1.4520872645562886
 31
0.0
 11
-27.170000000000002
 21
0.0
 31
0.0
 11
-27.280178031370202
 21
-1.4520872645562879
 31
0.0
 11
-27.600000000000001
 21
-2.8699999999999988
 31
0.0
  0
SPLINE
  5
1BB
100
AcDbEntity
  8
0
  6
CONTINUOUS
 62
               7
100
AcDbSpline
210
0.0
220
0.0
230
1.0
 70
               0
 71
               3
 72
               0
 73
               0
 74
               5
 44
0.000001
 12
0.5160406325838153
 22
-0.8565641047361813
 32
0.0
 13
-0.5160406067739158
 23
-0.8565641202854628
 33
0.0
 11
-27.600000000000001
 21
5.75
 31
0.0
 11
-27.288158474442579
 21
5.0584134379019892
 31
0.0
 11
-27.170000000000002
 21
4.3099999999999996
 31
0.0
 11
-27.28815844595815
 21
3.5615866194663148
 31
0.0
 11
-27.600000000000001
 21
2.8700000000000001
 31
0.0
  0
CIRCLE
  5
1BC
100
AcDbEntity
  8
0
  6
CONTINUOUS
 62
               7
100
AcDbCircle
 10
0.0
 20
0.0
 30
0.0
 40
18.0
  0
CIRCLE
  5
1BD
100
AcDbEntity
  8
0
  6
CONTINUOUS
 62
               7
100
AcDbCircle
 10
0.0
 20
0.0
 30
0.0
 40
27.039993286132813
  0
LINE
  5
1BE
100
AcDbEntity
  8
0
  6
CONTINUOUS
 62
               7
100
AcDbLine
 10
-30.969999999999999
 20
2.5
 30
0.0
 11
-30.969999999999999
 21
-2.5
 31
0.0
  0
LINE
  5
1BF
100
AcDbEntity
  8
0
  6
CONTINUOUS
 62
               7
100
AcDbLine
 10
-31.469999999999999
 20
-2.0
 30
0.0
 11
-30.969999999999999
 21
-2.5
 31
0.0
  0
LINE
  5
1C0
100
AcDbEntity
  8
0
  6
CONTINUOUS
 62
               7
100
AcDbLine
 10
-30.969999999999999
 20
2.5
 30
0.0
 11
-31.469999999999999
 21
2.0
 31
0.0
  0
LINE
  5
1C1
100
AcDbEntity
  8
0
  6
CONTINUOUS
 62
               7
100
AcDbLine
 10
-31.469999999999999
 20
-2.0
 30
0.0
 11
-32.969999999999999
 21
-2.0
 31
0.0
  0
LINE
  5
1C2
100
AcDbEntity
  8
0
  6
CONTINUOUS
 62
               7
100
AcDbLine
 10
-31.469999999999999
 20
2.0
 30
0.0
 11
-32.969999999999999
 21
2.0
 31
0.0
  0
LINE
  5
1C3
100
AcDbEntity
  8
0
  6
CENTER
 62
               2
100
AcDbLine
 10
-34.130000000000003
 20
0.0
 30
0.0
 11
29.399999999999999
 21
0.0
 31
0.0
  0
LINE
  5
1C4
100
AcDbEntity
  8
0
  6
CONTINUOUS
 62
               2
100
AcDbLine
 10
-30.77
 20
2.1000000000000001
 30
0.0
 11
-31.370000000000001
 21
2.1000000000000001
 31
0.0
  0
LINE
  5
1C5
100
AcDbEntity
  8
0
  6
CONTINUOUS
 62
               2
100
AcDbLine
 10
-30.77
 20
-2.1000000000000001
 30
0.0
 11
-31.370000000000001
 21
-2.1000000000000001
 31
0.0
  0
LINE
  5
1C6
100
AcDbEntity
  8
0
  6
CONTINUOUS
 62
               7
100
AcDbLine
 10
-32.969999999999999
 20
2.0
 30
0.0
 11
-32.969999999999999
 21
-2.0
 31
0.0
  0
LINE
  5
1C7
100
AcDbEntity
  8
0
  6
CONTINUOUS
 62
               7
100
AcDbLine
 10
-31.469999999999999
 20
2.0
 30
0.0
 11
-31.469999999999999
 21
-2.0
 31
0.0
  0
LINE
  5
1C8
100
AcDbEntity
  8
0
  6
CONTINUOUS
 62
               7
100
AcDbLine
 10
-30.77
 20
2.5
 30
0.0
 11
-30.969999999999999
 21
2.5
 31
0.0
  0
LINE
  5
1C9
100
AcDbEntity
  8
0
  6
CONTINUOUS
 62
               7
100
AcDbLine
 10
-30.77
 20
-2.5
 30
0.0
 11
-30.969999999999999
 21
-2.5
 31
0.0
  0
LINE
  5
1CA
100
AcDbEntity
  8
0
  6
CONTINUOUS
 62
               7
100
AcDbLine
 10
-27.170000000000002
 20
-5.0
 30
0.0
 11
-27.600000000000001
 21
-5.75
 31
0.0
  0
LINE
  5
1CB
100
AcDbEntity
  8
0
  6
CONTINUOUS
 62
               7
100
AcDbLine
 10
-30.329999999999998
 20
5.75
 30
0.0
 11
-30.77
 21
5.0
 31
0.0
  0
LINE
  5
1CC
100
AcDbEntity
  8
0
  6
CONTINUOUS
 62
               7
100
AcDbLine
 10
-30.329999999999998
 20
-5.75
 30
0.0
 11
-30.77
 21
-5.0
 31
0.0
  0
LINE
  5
1CD
100
AcDbEntity
  8
0
  6
CONTINUOUS
 62
               7
100
AcDbLine
 10
-27.170000000000002
 20
5.0
 30
0.0
 11
-27.600000000000001
 21
5.75
 31
0.0
  0
LINE
  5
1CE
100
AcDbEntity
  8
0
  6
CONTINUOUS
 62
               7
100
AcDbLine
 10
-30.77
 20
5.0
 30
0.0
 11
-30.77
 21
-5.0
 31
0.0
  0
LINE
  5
1CF
100
AcDbEntity
  8
0
  6
CONTINUOUS
 62
               7
100
AcDbLine
 10
-27.600000000000001
 20
-2.8700000000000001
 30
0.0
 11
-30.329999999999998
 21
-2.8700000000000001
 31
0.0
  0
LINE
  5
1D0
100
AcDbEntity
  8
0
  6
CONTINUOUS
 62
               7
100
AcDbLine
 10
-27.600000000000001
 20
2.8700000000000001
 30
0.0
 11
-30.329999999999998
 21
2.8700000000000001
 31
0.0
  0
LINE
  5
1D1
100
AcDbEntity
  8
0
  6
CONTINUOUS
 62
               7
100
AcDbLine
 10
-27.600000000000001
 20
-5.75
 30
0.0
 11
-30.329999999999998
 21
-5.75
 31
0.0
  0
LINE
  5
1D2
100
AcDbEntity
  8
0
  6
CONTINUOUS
 62
               7
100
AcDbLine
 10
-27.600000000000001
 20
5.75
 30
0.0
 11
-30.329999999999998
 21
5.75
 31
0.0
  0
LINE
  5
1D3
100
AcDbEntity
  8
0
  6
CONTINUOUS
 62
               7
100
AcDbLine
 10
-26.300000000000001
 20
-6.25
 30
0.0
 11
-27.170000000000002
 21
-6.25
 31
0.0
  0
LINE
  5
1D4
100
AcDbEntity
  8
0
  6
CONTINUOUS
 62
               7
100
AcDbLine
 10
-26.300000000000001
 20
6.25
 30
0.0
 11
-27.170000000000002
 21
6.25
 31
0.0
  0
LINE
  5
1D5
100
AcDbEntity
  8
0
  6
CONTINUOUS
 62
               7
100
AcDbLine
 10
-27.170000000000002
 20
6.25
 30
0.0
 11
-27.170000000000002
 21
-6.25
 31
0.0
  0
LINE
  5
1D6
100
AcDbEntity
  8
0
  6
CENTER
 62
               2
100
AcDbLine
 10
0.0
 20
29.120000000000001
 30
0.0
 11
0.0
 21
-29.100000000000001
 31
0.0
  0
ENDBLK
  5
1D7
100
AcDbEntity
  8
0
100
AcDbBlockEnd
  0
ENDSEC
  0
SECTION
  2
ENTITIES
  0
INSERT
  5
1D8
100
AcDbEntity
  8
0
100
AcDbBlockReference
  2
MS_6
 10
64.963821411132812
 20
-123.80155944824219
 30
0.0
  0
INSERT
  5
1D9
100
AcDbEntity
  8
0
100
AcDbBlockReference
  2
MS_5
 10
-36.036331176757813
 20
-123.80165100097656
 30
0.0
  0
INSERT
  5
1DA
100
AcDbEntity
  8
0
100
AcDbBlockReference
  2
MS_4
 10
-63.5
 20
119.0
 30
0.0
  0
INSERT
  5
1DB
100
AcDbEntity
  8
0
100
AcDbBlockReference
  2
MS_3
 10
186.5
 20
9.0
 30
0.0
  0
INSERT
  5
1DC
100
AcDbEntity
  8
0
100
AcDbBlockReference
  2
MS_2
 10
-201.5
 20
9.0
 30
0.0
  0
INSERT
  5
1DD
100
AcDbEntity
  8
0
100
AcDbBlockReference
  2
MS_1
 10
-63.5
 20
9.0
 30
0.0
  0
MTEXT
  5
1DE
100
AcDbEntity
  8
0
  6
CONTINUOUS
 62
               7
100
AcDbMText
 10
-4.6726469560102988
 20
-174.480712890625
 30
0.0
 40
4.5
 41
0.0
 71
               4
 72
               1
  1
\W1.061;\A1;-A TYPE
  7
MX_NOTE_STANDARD
  0
MTEXT
  5
1DF
100
AcDbEntity
  8
0
  6
CONTINUOUS
 62
               7
100
AcDbMText
 10
-268.2648649276943
 20
160.5
 30
0.0
 40
6.3000001907348633
 41
0.0
 71
               4
 72
               1
  1
\W1.081;\A1;MODEL:CS-DA50*ST(25)
  7
MX_NOTE_STANDARD
  0
MTEXT
  5
1E0
100
AcDbEntity
  8
0
  6
CONTINUOUS
 62
               7
100
AcDbMText
 10
-270.52500149481267
 20
185.5
 30
0.0
 40
6.3000001907348633
 41
0.0
 71
               4
 72
               1
  1
\W1.071;\A1;CS-SLIM CYLINDER
  7
MX_NOTE_STANDARD
  0
MTEXT
  5
1E1
100
AcDbEntity
  8
0
  6
CONTINUOUS
 62
               7
100
AcDbMText
 10
170.2809980228688
 20
-185.0
 30
0.0
 40
9.0
 41
0.0
 71
               4
 72
               1
  1
\W1.121;\A1;KOGANEI CORP.
  7
MX_NOTE_STANDARD
  0
MTEXT
  5
1E2
100
AcDbEntity
  8
0
  6
CONTINUOUS
 62
               7
100
AcDbMText
 10
198.2770240315611
 20
185.5
 30
0.0
 40
6.3000001907348633
 41
0.0
 71
               4
 72
               1
  1
\W1.311;\A1;Ver. 1.0
  7
MX_NOTE_STANDARD
  0
LINE
  5
1E4
100
AcDbEntity
  8
0
  6
PHANTOM
 62
               2
100
AcDbLine
 10
-81.849999999999994
 20
-149.80000000000001
 30
0.0
 11
-62.920000000000002
 21
-97.799999999999997
 31
0.0
  0
LINE
  5
1E5
100
AcDbEntity
  8
0
  6
CENTER
 62
               2
100
AcDbLine
 10
-87.870000000000005
 20
-123.8
 30
0.0
 11
-7.5300000000000002
 21
-123.8
 31
0.0
  0
LINE
  5
1E6
100
AcDbEntity
  8
0
  6
CONTINUOUS
 62
               7
100
AcDbLine
 10
-36.030000000000001
 20
-97.799999999999997
 30
0.0
 11
-62.920000000000002
 21
-97.799999999999997
 31
0.0
  0
LINE
  5
1E7
100
AcDbEntity
  8
0
  6
CONTINUOUS
 62
               7
100
AcDbLine
 10
-36.030000000000001
 20
-149.80000000000001
 30
0.0
 11
-81.849999999999994
 21
-149.80000000000001
 31
0.0
  0
LINE
  5
1E8
100
AcDbEntity
  8
0
  6
CONTINUOUS
 62
               7
100
AcDbLine
 10
-161.25
 20
195.5
 30
0.0
 11
-161.25
 21
175.5
 31
0.0
  0
LINE
  5
1E9
100
AcDbEntity
  8
0
  6
CONTINUOUS
 62
               7
100
AcDbLine
 10
162.09999999999999
 20
195.5
 30
0.0
 11
162.09999999999999
 21
175.5
 31
0.0
  0
LINE
  5
1EA
100
AcDbEntity
  8
0
  6
CONTINUOUS
 62
               7
100
AcDbLine
 10
-281.25
 20
175.5
 30
0.0
 11
-161.25
 21
175.5
 31
0.0
  0
LINE
  5
1EB
100
AcDbEntity
  8
0
  6
CONTINUOUS
 62
               7
100
AcDbLine
 10
162.09999999999999
 20
175.5
 30
0.0
 11
282.10000000000002
 21
175.5
 31
0.0
  0
LINE
  5
1EC
100
AcDbEntity
  8
0
  6
CONTINUOUS
 62
               7
100
AcDbLine
 10
162.09999999999999
 20
-175.0
 30
0.0
 11
282.10000000000002
 21
-175.0
 31
0.0
  0
LINE
  5
1ED
100
AcDbEntity
  8
0
  6
CONTINUOUS
 62
               7
100
AcDbLine
 10
162.09999999999999
 20
-175.0
 30
0.0
 11
162.09999999999999
 21
-195.0
 31
0.0
  0
LINE
  5
1EE
100
AcDbEntity
  8
0
  6
CONTINUOUS
 62
               7
100
AcDbLine
 10
-281.25
 20
-195.0
 30
0.0
 11
282.10000000000002
 21
-195.0
 31
0.0
  0
LINE
  5
1EF
100
AcDbEntity
  8
0
  6
CONTINUOUS
 62
               7
100
AcDbLine
 10
282.10000000000002
 20
195.5
 30
0.0
 11
282.10000000000002
 21
-195.0
 31
0.0
  0
LINE
  5
1F0
100
AcDbEntity
  8
0
  6
CONTINUOUS
 62
               7
100
AcDbLine
 10
-281.25
 20
195.5
 30
0.0
 11
-281.25
 21
-195.0
 31
0.0
  0
LINE
  5
1F1
100
AcDbEntity
  8
0
  6
CONTINUOUS
 62
               7
100
AcDbLine
 10
-281.25
 20
195.5
 30
0.0
 11
282.10000000000002
 21
195.5
 31
0.0
  0
ENDSEC
  0
SECTION
  2
OBJECTS
  0
DICTIONARY
  5
19
100
AcDbDictionary
  3
ACAD_GROUP
350
1A
  3
ACAD_MLINESTYLE
350
1B
  0
DICTIONARY
  5
1A
102
{ACAD_REACTORS
330
19
102
}
100
AcDbDictionary
  0
DICTIONARY
  5
1B
102
{ACAD_REACTORS
330
19
102
}
100
AcDbDictionary
  3
STANDARD
350
1C
  0
MLINESTYLE
  5
1C
102
{ACAD_REACTORS
330
1B
102
}
100
AcDbMlineStyle
  2
Standard
 70
               0
  3

 62
               0
 51
90.0
 52
90.0
 71
               2
 49
0.5
 62
             256
  6
ByLayer
 49
-0.5
 62
             256
  6
ByLayer
  0
ENDSEC
  0
EOF
