  0
SECTION
  2
HEADER
  9
$ACADVER
  1
AC1012
  9
$DWGCODEPAGE
  3
dos932
  9
$INSBASE
 10
0.0
 20
0.0
 30
0.0
  9
$EXTMIN
 10
-194.25
 20
-133.5
 30
0.0
  9
$EXTMAX
 10
196.25000429153442
 20
132.59999999999999
 30
0.0
  9
$LIMMIN
 10
-194.25
 20
-133.5
  9
$LIMMAX
 10
196.25000429153442
 20
132.59999999999999
  9
$ORTHOMODE
 70
               0
  9
$REGENMODE
 70
               1
  9
$FILLMODE
 70
               1
  9
$QTEXTMODE
 70
               0
  9
$MIRRTEXT
 70
               1
  9
$DRAGMODE
 70
               2
  9
$LTSCALE
 40
1.0
  9
$OSMODE
 70
               0
  9
$ATTMODE
 70
               1
  9
$TEXTSIZE
 40
3.2000000476837158
  9
$TRACEWID
 40
0.05
  9
$TEXTSTYLE
  7
MX_NOTE_STANDARD
  9
$CLAYER
  8
0
  9
$CELTYPE
  6
CONTINUOUS
  9
$CECOLOR
 62
             256
  9
$CELTSCALE
 40
1.0
  9
$DELOBJ
 70
               1
  9
$DISPSILH
 70
               0
  9
$DIMSCALE
 40
1.0
  9
$DIMASZ
 40
2.5
  9
$DIMEXO
 40
1.5
  9
$DIMDLI
 40
3.75
  9
$DIMRND
 40
0.0
  9
$DIMDLE
 40
0.0
  9
$DIMEXE
 40
1.5
  9
$DIMTP
 40
0.0
  9
$DIMTM
 40
0.0
  9
$DIMTXT
 40
3.2000000476837158
  9
$DIMCEN
 40
2.5
  9
$DIMTSZ
 40
0.0
  9
$DIMTOL
 70
               0
  9
$DIMLIM
 70
               0
  9
$DIMTIH
 70
               0
  9
$DIMTOH
 70
               0
  9
$DIMSE1
 70
               0
  9
$DIMSE2
 70
               0
  9
$DIMTAD
 70
               1
  9
$DIMZIN
 70
               8
  9
$DIMBLK
  1

  9
$DIMASO
 70
               1
  9
$DIMSHO
 70
               1
  9
$DIMPOST
  1

  9
$DIMAPOST
  1

  9
$DIMALT
 70
               0
  9
$DIMALTD
 70
               4
  9
$DIMALTF
 40
0.0394
  9
$DIMLFAC
 40
1.0
  9
$DIMTOFL
 70
               1
  9
$DIMTVP
 40
0.0
  9
$DIMTIX
 70
               0
  9
$DIMSOXD
 70
               0
  9
$DIMSAH
 70
               0
  9
$DIMBLK1
  1

  9
$DIMBLK2
  1

  9
$DIMSTYLE
  2
MXDIMSTYLE
  9
$DIMCLRD
 70
               0
  9
$DIMCLRE
 70
               0
  9
$DIMCLRT
 70
               0
  9
$DIMTFAC
 40
1.0
  9
$DIMGAP
 40
1.0
  9
$DIMJUST
 70
               0
  9
$DIMSD1
 70
               0
  9
$DIMSD2
 70
               0
  9
$DIMTOLJ
 70
               1
  9
$DIMTZIN
 70
               0
  9
$DIMALTZ
 70
               0
  9
$DIMALTTZ
 70
               0
  9
$DIMFIT
 70
               3
  9
$DIMUPT
 70
               1
  9
$DIMUNIT
 70
               2
  9
$DIMDEC
 70
               4
  9
$DIMTDEC
 70
               4
  9
$DIMALTU
 70
               8
  9
$DIMALTTD
 70
               4
  9
$DIMTXSTY
  7
MX_NOTE_STANDARD
  9
$DIMAUNIT
 70
               0
  9
$LUNITS
 70
               2
  9
$LUPREC
 70
               4
  9
$SKETCHINC
 40
0.1
  9
$FILLETRAD
 40
0.0
  9
$AUNITS
 70
               0
  9
$AUPREC
 70
               0
  9
$MENU
  1
acad
  9
$ELEVATION
 40
0.0
  9
$PELEVATION
 40
0.0
  9
$THICKNESS
 40
0.0
  9
$LIMCHECK
 70
               0
  9
$BLIPMODE
 70
               1
  9
$CHAMFERA
 40
0.0
  9
$CHAMFERB
 40
0.0
  9
$CHAMFERC
 40
0.0
  9
$CHAMFERD
 40
0.0
  9
$SKPOLY
 70
               0
  9
$TDCREATE
 40
2452220.696956019
  9
$TDUPDATE
 40
2452220.696956019
  9
$TDINDWG
 40
0.0000000000
  9
$TDUSRTIMER
 40
0.0000000000
  9
$USRTIMER
 70
               1
  9
$ANGBASE
 50
0.0
  9
$ANGDIR
 70
               0
  9
$PDMODE
 70
               0
  9
$PDSIZE
 40
0.0
  9
$PLINEWID
 40
0.0
  9
$COORDS
 70
               1
  9
$SPLFRAME
 70
               0
  9
$SPLINETYPE
 70
               6
  9
$SPLINESEGS
 70
               8
  9
$ATTDIA
 70
               0
  9
$ATTREQ
 70
               1
  9
$HANDLING
 70
               1
  9
$HANDSEED
  5
197
  9
$SURFTAB1
 70
               6
  9
$SURFTAB2
 70
               6
  9
$SURFTYPE
 70
               6
  9
$SURFU
 70
               6
  9
$SURFV
 70
               6
  9
$UCSNAME
  2

  9
$UCSORG
 10
0.0
 20
0.0
 30
0.0
  9
$UCSXDIR
 10
1.0
 20
0.0
 30
0.0
  9
$UCSYDIR
 10
0.0
 20
1.0
 30
0.0
  9
$PUCSNAME
  2

  9
$PUCSORG
 10
0.0
 20
0.0
 30
0.0
  9
$PUCSXDIR
 10
1.0
 20
0.0
 30
0.0
  9
$PUCSYDIR
 10
0.0
 20
1.0
 30
0.0
  9
$USERI1
 70
               0
  9
$USERI2
 70
               0
  9
$USERI3
 70
               0
  9
$USERI4
 70
               0
  9
$USERI5
 70
               0
  9
$USERR1
 40
0.0
  9
$USERR2
 40
0.0
  9
$USERR3
 40
0.0
  9
$USERR4
 40
0.0
  9
$USERR5
 40
0.0
  9
$WORLDVIEW
 70
               1
  9
$SHADEDGE
 70
               3
  9
$SHADEDIF
 70
              70
  9
$TILEMODE
 70
               1
  9
$MAXACTVP
 70
              16
  9
$PINSBASE
 10
0.0
 20
0.0
 30
0.0
  9
$PLIMCHECK
 70
               0
  9
$PEXTMIN
 10
1.0000000000000000E+20
 20
1.0000000000000000E+20
 30
1.0000000000000000E+20
  9
$PEXTMAX
 10
-1.0000000000000000E+20
 20
-1.0000000000000000E+20
 30
-1.0000000000000000E+20
  9
$PLIMMIN
 10
0.0
 20
0.0
  9
$PLIMMAX
 10
12.0
 20
9.0
  9
$UNITMODE
 70
               0
  9
$VISRETAIN
 70
               0
  9
$PLINEGEN
 70
               1
  9
$PSLTSCALE
 70
               0
  9
$TREEDEPTH
 70
            3020
  9
$PICKSTYLE
 70
               1
  9
$CMLSTYLE
  2
Standard
  9
$CMLJUST
 70
               0
  9
$CMLSCALE
 40
1.0
  9
$SAVEIMAGES
 70
               0
  0
ENDSEC
  0
SECTION
  2
CLASSES
  0
CLASS
  1
LWPOLYLINE
  2
AcDbPolyline
  3
"AutoCAD"
 90
        0
280
               0
281
               1
  0
CLASS
  1
IMAGE
  2
AcDbRasterImage
  3
ISM
 90
      127
280
               0
281
               1
  0
CLASS
  1
OLE2FRAME
  2
AcDbOle2Frame
  3
""
 90
        0
280
               0
281
               1
  0
CLASS
  1
HATCH
  2
AcDbHatch
  3
"ACAD_SEDONA"
 90
        0
280
               0
281
               1
  0
CLASS
  1
DICTIONARYVAR
  2
AcDbDictionaryVar
  3
"AutoCAD"
 90
        0
280
               0
281
               0
  0
CLASS
  1
RASTERVARIABLES
  2
AcDbRasterVariables
  3
ISM
 90
        0
280
               0
281
               0
  0
CLASS
  1
IMAGEDEF
  2
AcDbRasterImageDef
  3
ISM
 90
        0
280
               0
281
               0
  0
CLASS
  1
IMAGEDEF_REACTOR
  2
AcDbRasterImageDefReactor
  3
ISM
 90
        1
280
               0
281
               0
  0
CLASS
  1
IDBUFFER
  2
AcDbIdBuffer
  3
"Acad"
 90
        0
280
               0
281
               0
  0
CLASS
  1
SPATIAL_FILTER
  2
AcDbSpatialFilter
  3
"Acad"
 90
        0
280
               0
281
               0
  0
CLASS
  1
XRECORD
  2
AcDbXrecord
  3
"<Built In>"
 90
        0
280
               0
281
               0
  0
CLASS
  1
SORTENTSTABLE
  2
AcDbSortentsTable
  3
"AutoCAD"
 90
        0
280
               0
281
               0
  0
CLASS
  1
LAYER_INDEX
  2
AcDbLayerIndex
  3
"Acad"
 90
        0
280
               0
281
               0
  0
CLASS
  1
SPATIAL_INDEX
  2
AcDbSpatialIndex
  3
"Acad"
 90
        0
280
               0
281
               0
  0
CLASS
  1
OBJECT_PTR
  2
CAseDLPNTableRecord
  3
"ASE-LPNTableRecord"
 90
        1
280
               0
281
               0
  0
CLASS
  1
LAYOUT
  2
AcDbLayout
  3
"AutoCAD 2000"
 90
        1
280
               0
281
               0
  0
CLASS
  1
PLOTSETTINGS
  2
AcDbPlotSettings
  3
"AutoCAD 2000"
 90
        1
280
               0
281
               0
  0
CLASS
  1
ACDBDICTIONARYWDFLT
  2
AcDbDictionaryWithDefault
  3
"AutoCAD 2000"
 90
        1
280
               0
281
               0
  0
CLASS
  1
ACDBPLACEHOLDER
  2
AcDbPlaceHolder
  3
"AutoCAD 2000"
 90
        1
280
               0
281
               0
  0
CLASS
  1
VBA_PROJECT
  2
AcDbVbaProject
  3
"acadvba"
 90
        1
280
               0
281
               0
  0
CLASS
  1
WIPEOUT
  2
AcDbWipeout
  3
WipeOut|AutoCAD Express Tool|expresstools@autodesk.com
 90
      127
280
               0
281
               1
  0
CLASS
  1
WIPEOUTVARIABLES
  2
AcDbWipeoutVariables
  3
WipeOut|AutoCAD Express Tool|expresstools@autodesk.com
 90
        0
280
               0
281
               0
  0
CLASS
  1
RTEXT
  2
RText
  3
RText|AutoCAD Express Tool|expresstools@autodesk.com
 90
        0
280
               0
281
               1
  0
CLASS
  1
ARCALIGNEDTEXT
  2
AcDbArcAlignedText
  3
ATEXT|AutoCAD Express Tool|expresstools@autodesk.com
 90
        0
280
               0
281
               1
  0
ENDSEC
  0
SECTION
  2
TABLES
  0
TABLE
  2
VPORT
  5
7
100
AcDbSymbolTable
 70
               1
  0
VPORT
  5
15
100
AcDbSymbolTableRecord
100
AcDbViewportTableRecord
  2
*ACTIVE
 70
               0
 10
0.0
 20
0.0
 11
1.0
 21
1.0
 12
1.0000021457672119
 22
-0.4499999999999886
 13
0.0
 23
0.0
 14
1.0
 24
1.0
 15
0.0
 25
0.0
 16
0.0
 26
0.0
 36
1.0
 17
0.0
 27
0.0
 37
0.0
 40
268.76100000000002
 41
1.7320508075688772
 42
50.0
 43
0.0
 44
0.0
 50
0.0
 51
0.0
 71
               0
 72
             100
 73
               1
 74
               1
 75
               0
 76
               0
 77
               0
 78
               0
  0
ENDTAB
  0
TABLE
  2
LTYPE
  5
4
100
AcDbSymbolTable
 70
               6
  0
LTYPE
  5
11
100
AcDbSymbolTableRecord
100
AcDbLinetypeTableRecord
  2
BYBLOCK
 70
              64
  3

 72
              65
 73
               0
 40
0.0
  0
LTYPE
  5
12
100
AcDbSymbolTableRecord
100
AcDbLinetypeTableRecord
  2
BYLAYER
 70
              64
  3

 72
              65
 73
               0
 40
0.0
  0
LTYPE
  5
13
100
AcDbSymbolTableRecord
100
AcDbLinetypeTableRecord
  2
CONTINUOUS
 70
              64
  3
Solid line
 72
              65
 73
               0
 40
0.0
  0
LTYPE
  5
44
100
AcDbSymbolTableRecord
100
AcDbLinetypeTableRecord
  2
NON_PLOTING
 70
               0
  3
Solid line
 72
              65
 73
               0
 40
0.0
  0
LTYPE
  5
55
100
AcDbSymbolTableRecord
100
AcDbLinetypeTableRecord
  2
CENTER
 70
              64
  3
Center ____ _ ____ _ ____ _ ____ _ ____ _ ____
 72
              65
 73
               4
 40
50.800000000000004
 49
31.75
 74
               0
 49
-6.3499999999999996
 74
               0
 49
6.3499999999999996
 74
               0
 49
-6.3499999999999996
 74
               0
  0
LTYPE
  5
9C
100
AcDbSymbolTableRecord
100
AcDbLinetypeTableRecord
  2
DASHED
 70
              64
  3
Dashed __ __ __ __ __ __ __ __ __ __ __ __ __ _
 72
              65
 73
               2
 40
19.049999999999997
 49
12.699999999999999
 74
               0
 49
-6.3499999999999996
 74
               0
  0
ENDTAB
  0
TABLE
  2
LAYER
  5
2
100
AcDbSymbolTable
 70
               2
  0
LAYER
  5
14
100
AcDbSymbolTableRecord
100
AcDbLayerTableRecord
  2
0
 70
               0
 62
               7
  6
CONTINUOUS
  0
LAYER
  5
1D
100
AcDbSymbolTableRecord
100
AcDbLayerTableRecord
  2
DEFPOINTS
 70
               0
 62
               7
  6
CONTINUOUS
  0
ENDTAB
  0
TABLE
  2
STYLE
  5
3
100
AcDbSymbolTable
 70
               1
  0
STYLE
  5
17
100
AcDbSymbolTableRecord
100
AcDbTextStyleTableRecord
  2
MX_NOTE_STANDARD
 70
               0
 40
3.2000000476837158
 41
1.0
 50
0.0
 71
               0
 42
3.2000000476837158
  3
txt.shx
  4
extfont.shx
  0
ENDTAB
  0
TABLE
  2
VIEW
  5
5
100
AcDbSymbolTable
 70
               0
  0
ENDTAB
  0
TABLE
  2
UCS
  5
6
100
AcDbSymbolTable
 70
               0
  0
ENDTAB
  0
TABLE
  2
APPID
  5
8
100
AcDbSymbolTable
 70
               1
  0
APPID
  5
16
100
AcDbSymbolTableRecord
100
AcDbRegAppTableRecord
  2
ACAD
 70
               0
  0
ENDTAB
  0
TABLE
  2
DIMSTYLE
  5
9
100
AcDbSymbolTable
 70
               1
  0
DIMSTYLE
105
18
100
AcDbSymbolTableRecord
100
AcDbDimStyleTableRecord
  2
MXDIMSTYLE
 70
               0
  3

  4

  5

  6

  7

 40
1.0
 41
2.5
 42
1.5
 43
3.75
 44
1.5
 45
0.0
 46
0.0
 47
0.0
 48
0.0
 71
               0
 72
               0
 73
               0
 74
               0
 75
               0
 76
               0
 77
               1
 78
               8
140
3.2000000476837158
141
2.5
142
0.0
143
0.0394
144
1.0
145
0.0
146
1.0
147
1.0
170
               0
171
               4
172
               1
173
               0
174
               0
175
               0
176
               0
177
               0
178
               0
270
               2
271
               4
272
               4
273
               8
274
               4
275
               0
280
               0
281
               0
282
               0
283
               1
284
               0
285
               0
286
               0
287
               3
288
               1
340
17
  0
ENDTAB
  0
TABLE
  2
BLOCK_RECORD
  5
1
100
AcDbSymbolTable
 70
               4
  0
BLOCK_RECORD
  5
A
100
AcDbSymbolTableRecord
100
AcDbBlockTableRecord
  2
*MODEL_SPACE
  0
BLOCK_RECORD
  5
B
100
AcDbSymbolTableRecord
100
AcDbBlockTableRecord
  2
*PAPER_SPACE
  0
BLOCK_RECORD
  5
1E
100
AcDbSymbolTableRecord
100
AcDbBlockTableRecord
  2
MS_1
  0
BLOCK_RECORD
  5
1F
100
AcDbSymbolTableRecord
100
AcDbBlockTableRecord
  2
MS_2
  0
BLOCK_RECORD
  5
20
100
AcDbSymbolTableRecord
100
AcDbBlockTableRecord
  2
MS_3
  0
BLOCK_RECORD
  5
21
100
AcDbSymbolTableRecord
100
AcDbBlockTableRecord
  2
MS_4
  0
ENDTAB
  0
ENDSEC
  0
SECTION
  2
BLOCKS
  0
BLOCK
  5
D
100
AcDbEntity
  8
0
100
AcDbBlockBegin
  2
*MODEL_SPACE
 70
               0
 10
0.0
 20
0.0
 30
0.0
  3
*MODEL_SPACE
  1

  0
ENDBLK
  5
E
100
AcDbEntity
  8
0
100
AcDbBlockEnd
  0
BLOCK
  5
F
100
AcDbEntity
 67
               1
  8
0
100
AcDbBlockBegin
  2
*PAPER_SPACE
 70
               0
 10
0.0
 20
0.0
 30
0.0
  3
*PAPER_SPACE
  1

  0
ENDBLK
  5
10
100
AcDbEntity
 67
               1
  8
0
100
AcDbBlockEnd
  0
BLOCK
  5
22
100
AcDbEntity
  8
0
100
AcDbBlockBegin
  2
MS_1
 70
               0
 10
0.0
 20
0.0
 30
0.0
  3
MS_1
  1

  0
SPLINE
  5
23
100
AcDbEntity
  8
0
  6
CONTINUOUS
 62
               7
100
AcDbSpline
210
0.0
220
0.0
230
1.0
 70
               0
 71
               3
 72
               0
 73
               0
 74
               5
 44
0.000001
 12
0.526200492990469
 22
-0.8503605359943436
 32
0.0
 13
-0.5262018771703643
 23
-0.8503596794665096
 33
0.0
 11
-13.529999999999999
 21
6.9199999999999999
 31
0.0
 11
-13.145745819942446
 21
6.0906792226527884
 31
0.0
 11
-13.0
 21
5.1900000000000004
 31
0.0
 11
-13.145745787855368
 21
4.2893206280528533
 31
0.0
 11
-13.529999999999999
 21
3.46
 31
0.0
  0
SPLINE
  5
24
100
AcDbEntity
  8
0
  6
CONTINUOUS
 62
               7
100
AcDbSpline
210
0.0
220
0.0
230
1.0
 70
               0
 71
               3
 72
               0
 73
               0
 74
               5
 44
0.000001
 12
-0.5262151640046553
 22
-0.8503514574407183
 32
0.0
 13
0.5262067344833831
 23
-0.8503566737459843
 33
0.0
 11
-17.460000000000001
 21
6.9199999999999999
 31
0.0
 11
-17.849256885623497
 21
6.0906808427173544
 31
0.0
 11
-18.0
 21
5.1900000000000004
 31
0.0
 11
-17.849256599392831
 21
4.2893198182745609
 31
0.0
 11
-17.460000000000001
 21
3.46
 31
0.0
  0
SPLINE
  5
25
100
AcDbEntity
  8
0
  6
CONTINUOUS
 62
               7
100
AcDbSpline
210
0.0
220
0.0
230
1.0
 70
               0
 71
               3
 72
               0
 73
               0
 74
               5
 44
0.000001
 12
0.5301692672983184
 22
0.8478918256548793
 32
0.0
 13
-0.5301692615947867
 23
0.84789182922118
 33
0.0
 11
-13.529999999999999
 21
-6.9199999999999999
 31
0.0
 11
-13.145982317411159
 21
-6.1008786549324885
 31
0.0
 11
-13.0
 21
-5.21
 31
0.0
 11
-13.145982328887037
 21
-4.3191213287989099
 31
0.0
 11
-13.529999999999999
 21
-3.4999999999999991
 31
0.0
  0
SPLINE
  5
26
100
AcDbEntity
  8
0
  6
CONTINUOUS
 62
               7
100
AcDbSpline
210
0.0
220
0.0
230
1.0
 70
               0
 71
               3
 72
               0
 73
               0
 74
               5
 44
0.000001
 12
-0.5301722030203917
 22
-0.847889990001359
 32
0.0
 13
0.5301722087299079
 23
-0.8478899864312888
 33
0.0
 11
-17.460000000000001
 21
-3.5
 31
0.0
 11
-17.849018361032286
 21
-4.319120097368387
 31
0.0
 11
-18.0
 21
-5.21
 31
0.0
 11
-17.849018373998462
 21
-6.1008798863658908
 31
0.0
 11
-17.460000000000001
 21
-6.9200000000000008
 31
0.0
  0
SPLINE
  5
27
100
AcDbEntity
  8
0
  6
CONTINUOUS
 62
               7
100
AcDbSpline
210
0.0
220
0.0
230
1.0
 70
               0
 71
               3
 72
               0
 73
               0
 74
               5
 44
0.000001
 12
0.6030225408591061
 22
-0.7977241473190013
 32
0.0
 13
-0.6030228487985586
 23
-0.7977239145386521
 33
0.0
 11
-1.0
 21
2.6400000000000001
 31
0.0
 11
-0.2867993391825574
 21
1.393021591576584
 31
0.0
 11
0.0
 21
0.0
 31
0.0
 11
-0.2867993356495338
 21
-1.3930216326602221
 31
0.0
 11
-1.0
 21
-2.6400000000000001
 31
0.0
  0
SPLINE
  5
28
100
AcDbEntity
  8
0
  6
CONTINUOUS
 62
               7
100
AcDbSpline
210
0.0
220
0.0
230
1.0
 70
               0
 71
               3
 72
               0
 73
               0
 74
               5
 44
0.000001
 12
-0.6030225408591061
 22
0.7977241473190013
 32
0.0
 13
0.6030228544578392
 23
0.7977239102606363
 33
0.0
 11
-6.0
 21
-2.6400000000000001
 31
0.0
 11
-6.7132006608173507
 21
-1.3930211127080696
 31
0.0
 11
-7.0
 21
0.0
 31
0.0
 11
-6.7132006507610944
 21
1.3930211759282609
 31
0.0
 11
-6.0
 21
2.6399999999999988
 31
0.0
  0
SPLINE
  5
29
100
AcDbEntity
  8
0
  6
CONTINUOUS
 62
               7
100
AcDbSpline
210
0.0
220
0.0
230
1.0
 70
               0
 71
               3
 72
               0
 73
               0
 74
               5
 44
0.000001
 12
0.2942550360858539
 22
-0.955726934714154
 32
0.0
 13
-0.2941271465160001
 23
-0.955766300767272
 33
0.0
 11
-13.529999999999999
 21
3.46
 31
0.0
 11
-13.136735621224815
 21
1.7509326117207034
 31
0.0
 11
-13.0
 21
0.0
 31
0.0
 11
-13.134144828060512
 21
-1.7716438012632809
 31
0.0
 11
-13.529999999999999
 21
-3.5000000000000004
 31
0.0
  0
SPLINE
  5
2A
100
AcDbEntity
  8
0
  6
CONTINUOUS
 62
               7
100
AcDbSpline
210
0.0
220
0.0
230
1.0
 70
               0
 71
               3
 72
               0
 73
               0
 74
               5
 44
0.000001
 12
-0.2941286501625403
 22
0.9557658380343806
 32
0.0
 13
0.294257222422433
 23
0.9557262615687794
 33
0.0
 11
-17.460000000000001
 21
-3.5
 31
0.0
 11
-17.860856852203867
 21
-1.7721578991225559
 31
0.0
 11
-18.0
 21
0.0
 31
0.0
 11
-17.858264407997453
 21
1.7514453606255558
 31
0.0
 11
-17.460000000000001
 21
3.4599999999999991
 31
0.0
  0
CIRCLE
  5
2B
100
AcDbEntity
  8
0
  6
CONTINUOUS
 62
               7
100
AcDbCircle
 10
118.99996948242187
 20
0.0
 30
0.0
 40
4.2779998779296875
  0
CIRCLE
  5
2C
100
AcDbEntity
  8
0
  6
CONTINUOUS
 62
               2
100
AcDbCircle
 10
118.99996948242187
 20
0.0
 30
0.0
 40
4.8639993667602539
  0
CIRCLE
  5
2D
100
AcDbEntity
  8
0
  6
CONTINUOUS
 62
               7
100
AcDbCircle
 10
34.0
 20
0.0
 30
0.0
 40
4.2779998779296875
  0
CIRCLE
  5
2E
100
AcDbEntity
  8
0
  6
CONTINUOUS
 62
               2
100
AcDbCircle
 10
34.0
 20
0.0
 30
0.0
 40
4.8639993667602539
  0
CIRCLE
  5
2F
100
AcDbEntity
  8
0
  6
CONTINUOUS
 62
               7
100
AcDbCircle
 10
9.0
 20
0.0
 30
0.0
 40
2.0669994354248047
  0
CIRCLE
  5
30
100
AcDbEntity
  8
0
  6
CONTINUOUS
 62
               2
100
AcDbCircle
 10
9.0
 20
0.0
 30
0.0
 40
2.5
  0
CIRCLE
  5
31
100
AcDbEntity
  8
0
  6
CONTINUOUS
 62
               7
100
AcDbCircle
 10
25.0
 20
-11.0
 30
0.0
 40
5.5
  0
CIRCLE
  5
32
100
AcDbEntity
  8
0
  6
CONTINUOUS
 62
               7
100
AcDbCircle
 10
25.0
 20
11.0
 30
0.0
 40
5.5
  0
CIRCLE
  5
33
100
AcDbEntity
  8
0
  6
CONTINUOUS
 62
               7
100
AcDbCircle
 10
25.0
 20
-11.0
 30
0.0
 40
3.2999992370605469
  0
CIRCLE
  5
34
100
AcDbEntity
  8
0
  6
CONTINUOUS
 62
               7
100
AcDbCircle
 10
25.0
 20
11.0
 30
0.0
 40
3.2999992370605469
  0
LINE
  5
35
100
AcDbEntity
  8
0
  6
CONTINUOUS
 62
               2
100
AcDbLine
 10
-8.0
 20
-3.5
 30
0.0
 11
-7.1299999999999999
 21
-4.0
 31
0.0
  0
LINE
  5
36
100
AcDbEntity
  8
0
  6
CONTINUOUS
 62
               2
100
AcDbLine
 10
-8.0
 20
3.5
 30
0.0
 11
-7.1299999999999999
 21
4.0
 31
0.0
  0
LINE
  5
37
100
AcDbEntity
  8
0
  6
CONTINUOUS
 62
               7
100
AcDbLine
 10
-23.0
 20
-3.5
 30
0.0
 11
-22.5
 21
-4.0
 31
0.0
  0
LINE
  5
38
100
AcDbEntity
  8
0
  6
CONTINUOUS
 62
               2
100
AcDbLine
 10
-23.0
 20
-3.5
 30
0.0
 11
-18.0
 21
-3.5
 31
0.0
  0
LINE
  5
39
100
AcDbEntity
  8
0
  6
CONTINUOUS
 62
               2
100
AcDbLine
 10
-13.0
 20
-3.5
 30
0.0
 11
-8.0
 21
-3.5
 31
0.0
  0
LINE
  5
3A
100
AcDbEntity
  8
0
  6
CONTINUOUS
 62
               7
100
AcDbLine
 10
-22.5
 20
4.0
 30
0.0
 11
-22.5
 21
-4.0
 31
0.0
  0
LINE
  5
3B
100
AcDbEntity
  8
0
  6
CONTINUOUS
 62
               7
100
AcDbLine
 10
111.0
 20
12.09
 30
0.0
 11
127.0
 21
12.09
 31
0.0
  0
LINE
  5
3C
100
AcDbEntity
  8
0
  6
CONTINUOUS
 62
               7
100
AcDbLine
 10
111.0
 20
-14.5
 30
0.0
 11
127.0
 21
-14.5
 31
0.0
  0
LINE
  5
3D
100
AcDbEntity
  8
0
  6
CONTINUOUS
 62
               2
100
AcDbLine
 10
-13.0
 20
3.5
 30
0.0
 11
-8.0
 21
3.5
 31
0.0
  0
LINE
  5
3E
100
AcDbEntity
  8
0
  6
CONTINUOUS
 62
               2
100
AcDbLine
 10
-23.0
 20
3.5
 30
0.0
 11
-18.0
 21
3.5
 31
0.0
  0
LINE
  5
3F
100
AcDbEntity
  8
0
  6
CONTINUOUS
 62
               7
100
AcDbLine
 10
-23.0
 20
3.5
 30
0.0
 11
-22.5
 21
4.0
 31
0.0
  0
LINE
  5
40
100
AcDbEntity
  8
0
  6
CONTINUOUS
 62
               7
100
AcDbLine
 10
-22.5
 20
4.0
 30
0.0
 11
-18.0
 21
4.0
 31
0.0
  0
LINE
  5
41
100
AcDbEntity
  8
0
  6
CONTINUOUS
 62
               7
100
AcDbLine
 10
-18.0
 20
-4.0
 30
0.0
 11
-22.5
 21
-4.0
 31
0.0
  0
LINE
  5
42
100
AcDbEntity
  8
0
  6
CONTINUOUS
 62
               7
100
AcDbLine
 10
-23.0
 20
3.5
 30
0.0
 11
-23.0
 21
-3.5
 31
0.0
  0
LINE
  5
43
100
AcDbEntity
  8
0
  6
CONTINUOUS
 62
               7
100
AcDbLine
 10
-21.699999999999999
 20
-4.0
 30
0.0
 11
-18.0
 21
-4.0
 31
0.0
  0
LINE
  5
45
100
AcDbEntity
  8
DEFPOINTS
  6
NON_PLOTING
 62
               7
100
AcDbLine
 10
120.79000000000001
 20
24.0
 30
0.0
 11
120.89
 21
24.0
 31
0.0
  0
LINE
  5
46
100
AcDbEntity
  8
DEFPOINTS
  6
NON_PLOTING
 62
               7
100
AcDbLine
 10
116.18000000000001
 20
24.0
 30
0.0
 11
116.29000000000001
 21
24.0
 31
0.0
  0
LINE
  5
47
100
AcDbEntity
  8
DEFPOINTS
  6
NON_PLOTING
 62
               7
100
AcDbLine
 10
120.89
 20
21.5
 30
0.0
 11
120.89
 21
24.0
 31
0.0
  0
LINE
  5
48
100
AcDbEntity
  8
DEFPOINTS
  6
NON_PLOTING
 62
               7
100
AcDbLine
 10
120.79000000000001
 20
24.0
 30
0.0
 11
120.79000000000001
 21
24.379999999999999
 31
0.0
  0
LINE
  5
49
100
AcDbEntity
  8
DEFPOINTS
  6
NON_PLOTING
 62
               7
100
AcDbLine
 10
126.29000000000001
 20
21.5
 30
0.0
 11
126.29000000000001
 21
24.379999999999999
 31
0.0
  0
LINE
  5
4A
100
AcDbEntity
  8
DEFPOINTS
  6
NON_PLOTING
 62
               7
100
AcDbLine
 10
116.29000000000001
 20
24.0
 30
0.0
 11
116.29000000000001
 21
24.379999999999999
 31
0.0
  0
LINE
  5
4B
100
AcDbEntity
  8
DEFPOINTS
  6
NON_PLOTING
 62
               7
100
AcDbLine
 10
116.18000000000001
 20
21.5
 30
0.0
 11
116.18000000000001
 21
24.0
 31
0.0
  0
LINE
  5
4C
100
AcDbEntity
  8
DEFPOINTS
  6
NON_PLOTING
 62
               7
100
AcDbLine
 10
110.79000000000001
 20
21.5
 30
0.0
 11
110.79000000000001
 21
24.379999999999999
 31
0.0
  0
LINE
  5
4D
100
AcDbEntity
  8
DEFPOINTS
  6
NON_PLOTING
 62
               7
100
AcDbLine
 10
120.79000000000001
 20
24.0
 30
0.0
 11
120.89
 21
24.0
 31
0.0
  0
LINE
  5
4E
100
AcDbEntity
  8
DEFPOINTS
  6
NON_PLOTING
 62
               7
100
AcDbLine
 10
116.18000000000001
 20
24.0
 30
0.0
 11
116.29000000000001
 21
24.0
 31
0.0
  0
LINE
  5
4F
100
AcDbEntity
  8
DEFPOINTS
  6
NON_PLOTING
 62
               7
100
AcDbLine
 10
120.89
 20
21.5
 30
0.0
 11
120.89
 21
24.0
 31
0.0
  0
LINE
  5
50
100
AcDbEntity
  8
DEFPOINTS
  6
NON_PLOTING
 62
               7
100
AcDbLine
 10
120.79000000000001
 20
24.0
 30
0.0
 11
120.79000000000001
 21
24.379999999999999
 31
0.0
  0
LINE
  5
51
100
AcDbEntity
  8
DEFPOINTS
  6
NON_PLOTING
 62
               7
100
AcDbLine
 10
126.29000000000001
 20
21.5
 30
0.0
 11
126.29000000000001
 21
24.379999999999999
 31
0.0
  0
LINE
  5
52
100
AcDbEntity
  8
DEFPOINTS
  6
NON_PLOTING
 62
               7
100
AcDbLine
 10
116.29000000000001
 20
24.0
 30
0.0
 11
116.29000000000001
 21
24.379999999999999
 31
0.0
  0
LINE
  5
53
100
AcDbEntity
  8
DEFPOINTS
  6
NON_PLOTING
 62
               7
100
AcDbLine
 10
116.18000000000001
 20
21.5
 30
0.0
 11
116.18000000000001
 21
24.0
 31
0.0
  0
LINE
  5
54
100
AcDbEntity
  8
DEFPOINTS
  6
NON_PLOTING
 62
               7
100
AcDbLine
 10
110.79000000000001
 20
21.5
 30
0.0
 11
110.79000000000001
 21
24.379999999999999
 31
0.0
  0
LINE
  5
56
100
AcDbEntity
  8
0
  6
CENTER
 62
               2
100
AcDbLine
 10
25.0
 20
-3.4700000000000002
 30
0.0
 11
25.0
 21
-17.850000000000001
 31
0.0
  0
LINE
  5
57
100
AcDbEntity
  8
0
  6
CONTINUOUS
 62
               7
100
AcDbLine
 10
111.25
 20
24.5
 30
0.0
 11
116.75
 21
24.5
 31
0.0
  0
LINE
  5
58
100
AcDbEntity
  8
0
  6
CONTINUOUS
 62
               7
100
AcDbLine
 10
126.75
 20
22.75
 30
0.0
 11
127.0
 21
22.5
 31
0.0
  0
LINE
  5
59
100
AcDbEntity
  8
0
  6
CONTINUOUS
 62
               7
100
AcDbLine
 10
111.0
 20
22.5
 30
0.0
 11
111.25
 21
22.75
 31
0.0
  0
LINE
  5
5A
100
AcDbEntity
  8
0
  6
CONTINUOUS
 62
               7
100
AcDbLine
 10
121.34999999999999
 20
21.5
 30
0.0
 11
127.0
 21
21.5
 31
0.0
  0
LINE
  5
5B
100
AcDbEntity
  8
0
  6
CENTER
 62
               2
100
AcDbLine
 10
124.0
 20
20.350000000000001
 30
0.0
 11
124.0
 21
24.789999999999999
 31
0.0
  0
LINE
  5
5C
100
AcDbEntity
  8
0
  6
CONTINUOUS
 62
               7
100
AcDbLine
 10
121.34999999999999
 20
21.5
 30
0.0
 11
121.34999999999999
 21
24.0
 31
0.0
  0
LINE
  5
5D
100
AcDbEntity
  8
0
  6
CONTINUOUS
 62
               7
100
AcDbLine
 10
116.64
 20
21.5
 30
0.0
 11
116.64
 21
24.0
 31
0.0
  0
LINE
  5
5E
100
AcDbEntity
  8
0
  6
CENTER
 62
               2
100
AcDbLine
 10
114.0
 20
20.239999999999998
 30
0.0
 11
114.0
 21
24.789999999999999
 31
0.0
  0
LINE
  5
5F
100
AcDbEntity
  8
0
  6
CONTINUOUS
 62
               7
100
AcDbLine
 10
111.0
 20
21.5
 30
0.0
 11
116.64
 21
21.5
 31
0.0
  0
LINE
  5
60
100
AcDbEntity
  8
0
  6
CONTINUOUS
 62
               7
100
AcDbLine
 10
116.64
 20
24.0
 30
0.0
 11
121.34999999999999
 21
24.0
 31
0.0
  0
LINE
  5
61
100
AcDbEntity
  8
0
  6
CONTINUOUS
 62
               7
100
AcDbLine
 10
126.75
 20
21.5
 30
0.0
 11
126.75
 21
24.5
 31
0.0
  0
LINE
  5
62
100
AcDbEntity
  8
0
  6
CONTINUOUS
 62
               7
100
AcDbLine
 10
126.75
 20
24.5
 30
0.0
 11
121.25
 21
24.5
 31
0.0
  0
LINE
  5
63
100
AcDbEntity
  8
0
  6
CONTINUOUS
 62
               7
100
AcDbLine
 10
116.75
 20
24.0
 30
0.0
 11
116.75
 21
24.5
 31
0.0
  0
LINE
  5
64
100
AcDbEntity
  8
0
  6
CONTINUOUS
 62
               7
100
AcDbLine
 10
121.25
 20
24.0
 30
0.0
 11
121.25
 21
24.5
 31
0.0
  0
LINE
  5
65
100
AcDbEntity
  8
0
  6
CONTINUOUS
 62
               7
100
AcDbLine
 10
111.25
 20
24.5
 30
0.0
 11
111.25
 21
21.5
 31
0.0
  0
LINE
  5
66
100
AcDbEntity
  8
0
  6
CONTINUOUS
 62
               7
100
AcDbLine
 10
111.0
 20
-14.5
 30
0.0
 11
111.0
 21
22.5
 31
0.0
  0
LINE
  5
67
100
AcDbEntity
  8
0
  6
CONTINUOUS
 62
               7
100
AcDbLine
 10
127.0
 20
-14.5
 30
0.0
 11
127.0
 21
22.5
 31
0.0
  0
LINE
  5
68
100
AcDbEntity
  8
0
  6
CENTER
 62
               2
100
AcDbLine
 10
119.0
 20
-7.1200000000000001
 30
0.0
 11
119.0
 21
7.0300000000000002
 31
0.0
  0
LINE
  5
69
100
AcDbEntity
  8
0
  6
CONTINUOUS
 62
               7
100
AcDbLine
 10
133.0
 20
-10.0
 30
0.0
 11
133.0
 21
10.0
 31
0.0
  0
LINE
  5
6A
100
AcDbEntity
  8
0
  6
CONTINUOUS
 62
               7
100
AcDbLine
 10
127.0
 20
-10.0
 30
0.0
 11
133.0
 21
-10.0
 31
0.0
  0
LINE
  5
6B
100
AcDbEntity
  8
0
  6
CONTINUOUS
 62
               7
100
AcDbLine
 10
127.0
 20
10.0
 30
0.0
 11
133.0
 21
10.0
 31
0.0
  0
LINE
  5
6C
100
AcDbEntity
  8
0
  6
CONTINUOUS
 62
               7
100
AcDbLine
 10
107.0
 20
-10.699999999999999
 30
0.0
 11
107.0
 21
10.699999999999999
 31
0.0
  0
LINE
  5
6D
100
AcDbEntity
  8
0
  6
CONTINUOUS
 62
               7
100
AcDbLine
 10
42.0
 20
10.699999999999999
 30
0.0
 11
111.0
 21
10.699999999999999
 31
0.0
  0
LINE
  5
6E
100
AcDbEntity
  8
0
  6
CONTINUOUS
 62
               7
100
AcDbLine
 10
42.0
 20
-10.699999999999999
 30
0.0
 11
111.0
 21
-10.699999999999999
 31
0.0
  0
LINE
  5
6F
100
AcDbEntity
  8
0
  6
CENTER
 62
               2
100
AcDbLine
 10
-26.870000000000001
 20
0.0
 30
0.0
 11
136.28
 21
0.0
 31
0.0
  0
LINE
  5
70
100
AcDbEntity
  8
0
  6
CENTER
 62
               2
100
AcDbLine
 10
9.0
 20
4.29
 30
0.0
 11
9.0
 21
-3.3700000000000001
 31
0.0
  0
LINE
  5
71
100
AcDbEntity
  8
0
  6
CONTINUOUS
 62
               7
100
AcDbLine
 10
0.0
 20
19.0
 30
0.0
 11
0.0
 21
-19.0
 31
0.0
  0
LINE
  5
72
100
AcDbEntity
  8
0
  6
CENTER
 62
               2
100
AcDbLine
 10
18.18
 20
-11.0
 30
0.0
 11
32.560000000000002
 21
-11.0
 31
0.0
  0
LINE
  5
73
100
AcDbEntity
  8
0
  6
CENTER
 62
               2
100
AcDbLine
 10
17.309999999999999
 20
11.0
 30
0.0
 11
33.060000000000002
 21
11.0
 31
0.0
  0
LINE
  5
74
100
AcDbEntity
  8
0
  6
CENTER
 62
               2
100
AcDbLine
 10
25.0
 20
19.0
 30
0.0
 11
25.0
 21
3.3799999999999999
 31
0.0
  0
LINE
  5
75
100
AcDbEntity
  8
0
  6
CONTINUOUS
 62
               7
100
AcDbLine
 10
14.0
 20
19.0
 30
0.0
 11
14.0
 21
-19.0
 31
0.0
  0
LINE
  5
76
100
AcDbEntity
  8
0
  6
CONTINUOUS
 62
               7
100
AcDbLine
 10
0.0
 20
19.0
 30
0.0
 11
42.0
 21
19.0
 31
0.0
  0
LINE
  5
77
100
AcDbEntity
  8
0
  6
CENTER
 62
               2
100
AcDbLine
 10
34.0
 20
-6.5
 30
0.0
 11
34.0
 21
7.0300000000000002
 31
0.0
  0
LINE
  5
78
100
AcDbEntity
  8
0
  6
CONTINUOUS
 62
               7
100
AcDbLine
 10
0.0
 20
-19.0
 30
0.0
 11
42.0
 21
-19.0
 31
0.0
  0
LINE
  5
79
100
AcDbEntity
  8
0
  6
CONTINUOUS
 62
               7
100
AcDbLine
 10
0.0
 20
-17.609999999999999
 30
0.0
 11
42.0
 21
-17.609999999999999
 31
0.0
  0
LINE
  5
7A
100
AcDbEntity
  8
0
  6
CONTINUOUS
 62
               7
100
AcDbLine
 10
0.0
 20
17.609999999999999
 30
0.0
 11
42.0
 21
17.609999999999999
 31
0.0
  0
LINE
  5
7B
100
AcDbEntity
  8
0
  6
CONTINUOUS
 62
               7
100
AcDbLine
 10
-13.0
 20
-4.0
 30
0.0
 11
0.0
 21
-4.0
 31
0.0
  0
LINE
  5
7C
100
AcDbEntity
  8
0
  6
CONTINUOUS
 62
               7
100
AcDbLine
 10
-13.0
 20
4.0
 30
0.0
 11
0.0
 21
4.0
 31
0.0
  0
LINE
  5
7D
100
AcDbEntity
  8
0
  6
CONTINUOUS
 62
               7
100
AcDbLine
 10
-18.0
 20
6.0
 30
0.0
 11
-18.0
 21
-6.0
 31
0.0
  0
LINE
  5
7E
100
AcDbEntity
  8
0
  6
CONTINUOUS
 62
               7
100
AcDbLine
 10
-8.0
 20
-4.0
 30
0.0
 11
-8.0
 21
4.0
 31
0.0
  0
LINE
  5
7F
100
AcDbEntity
  8
0
  6
CONTINUOUS
 62
               7
100
AcDbLine
 10
-13.0
 20
-6.0
 30
0.0
 11
-13.0
 21
6.0
 31
0.0
  0
LINE
  5
80
100
AcDbEntity
  8
0
  6
CONTINUOUS
 62
               7
100
AcDbLine
 10
42.0
 20
19.0
 30
0.0
 11
42.0
 21
-19.0
 31
0.0
  0
LINE
  5
81
100
AcDbEntity
  8
0
  6
CONTINUOUS
 62
               7
100
AcDbLine
 10
46.0
 20
-10.699999999999999
 30
0.0
 11
46.0
 21
10.699999999999999
 31
0.0
  0
LINE
  5
82
100
AcDbEntity
  8
0
  6
CONTINUOUS
 62
               2
100
AcDbLine
 10
-6.0
 20
2.6400000000000001
 30
0.0
 11
-1.0
 21
-2.6400000000000001
 31
0.0
  0
LINE
  5
83
100
AcDbEntity
  8
0
  6
CONTINUOUS
 62
               2
100
AcDbLine
 10
-6.0
 20
-2.6400000000000001
 30
0.0
 11
-1.0
 21
2.6400000000000001
 31
0.0
  0
LINE
  5
84
100
AcDbEntity
  8
0
  6
CONTINUOUS
 62
               7
100
AcDbLine
 10
-6.0
 20
-2.6400000000000001
 30
0.0
 11
-1.0
 21
-2.6400000000000001
 31
0.0
  0
LINE
  5
85
100
AcDbEntity
  8
0
  6
CONTINUOUS
 62
               7
100
AcDbLine
 10
-6.0
 20
2.6400000000000001
 30
0.0
 11
-1.0
 21
2.6400000000000001
 31
0.0
  0
LINE
  5
86
100
AcDbEntity
  8
0
  6
CONTINUOUS
 62
               7
100
AcDbLine
 10
-1.0
 20
-2.6400000000000001
 30
0.0
 11
-1.0
 21
2.6400000000000001
 31
0.0
  0
LINE
  5
87
100
AcDbEntity
  8
0
  6
CONTINUOUS
 62
               7
100
AcDbLine
 10
-6.0
 20
-2.6400000000000001
 30
0.0
 11
-6.0
 21
2.6400000000000001
 31
0.0
  0
LINE
  5
88
100
AcDbEntity
  8
0
  6
CONTINUOUS
 62
               7
100
AcDbLine
 10
-13.529999999999999
 20
6.9199999999999999
 30
0.0
 11
-17.460000000000001
 21
6.9199999999999999
 31
0.0
  0
LINE
  5
89
100
AcDbEntity
  8
0
  6
CONTINUOUS
 62
               7
100
AcDbLine
 10
-17.460000000000001
 20
-6.9199999999999999
 30
0.0
 11
-13.529999999999999
 21
-6.9199999999999999
 31
0.0
  0
LINE
  5
8A
100
AcDbEntity
  8
0
  6
CONTINUOUS
 62
               7
100
AcDbLine
 10
-17.460000000000001
 20
-3.5
 30
0.0
 11
-13.529999999999999
 21
-3.5
 31
0.0
  0
LINE
  5
8B
100
AcDbEntity
  8
0
  6
CONTINUOUS
 62
               7
100
AcDbLine
 10
-17.460000000000001
 20
3.46
 30
0.0
 11
-13.529999999999999
 21
3.46
 31
0.0
  0
LINE
  5
8C
100
AcDbEntity
  8
0
  6
CONTINUOUS
 62
               7
100
AcDbLine
 10
-13.0
 20
6.0
 30
0.0
 11
-13.529999999999999
 21
6.9199999999999999
 31
0.0
  0
LINE
  5
8D
100
AcDbEntity
  8
0
  6
CONTINUOUS
 62
               7
100
AcDbLine
 10
-13.529999999999999
 20
-6.9199999999999999
 30
0.0
 11
-13.0
 21
-6.0
 31
0.0
  0
LINE
  5
8E
100
AcDbEntity
  8
0
  6
CONTINUOUS
 62
               7
100
AcDbLine
 10
-18.0
 20
6.0
 30
0.0
 11
-17.460000000000001
 21
6.9199999999999999
 31
0.0
  0
ENDBLK
  5
8F
100
AcDbEntity
  8
0
100
AcDbBlockEnd
  0
BLOCK
  5
90
100
AcDbEntity
  8
0
100
AcDbBlockBegin
  2
MS_2
 70
               0
 10
0.0
 20
0.0
 30
0.0
  3
MS_2
  1

  0
CIRCLE
  5
91
100
AcDbEntity
  8
0
  6
CONTINUOUS
 62
               7
100
AcDbCircle
 10
5.0
 20
-13.000007629394531
 30
0.0
 40
3.5
  0
CIRCLE
  5
92
100
AcDbEntity
  8
0
  6
CONTINUOUS
 62
               7
100
AcDbCircle
 10
-5.0
 20
12.999988555908203
 30
0.0
 40
3.5
  0
CIRCLE
  5
93
100
AcDbEntity
  8
0
  6
CONTINUOUS
 62
               7
100
AcDbCircle
 10
5.0
 20
-13.000007629394531
 30
0.0
 40
4.0
  0
CIRCLE
  5
94
100
AcDbEntity
  8
0
  6
CONTINUOUS
 62
               7
100
AcDbCircle
 10
-5.0
 20
12.999988555908203
 30
0.0
 40
4.0
  0
ARC
  5
95
100
AcDbEntity
  8
0
  6
CONTINUOUS
 62
               7
100
AcDbCircle
 10
-0.0153798618289294
 20
0.0109419204558314
 30
0.0
 40
22.497949194505011
100
AcDbArc
 50
51.467199998612344
 51
57.568698323284892
  0
ARC
  5
96
100
AcDbEntity
  8
0
  6
CONTINUOUS
 62
               7
100
AcDbCircle
 10
-0.0153690371073623
 20
-0.0109571062163027
 30
0.0
 40
22.497930572022533
100
AcDbArc
 50
302.43129914909184
 51
308.53280252900925
  0
ARC
  5
97
100
AcDbEntity
  8
0
  6
CONTINUOUS
 62
               7
100
AcDbCircle
 10
0.0153690371073623
 20
-0.0109571062163027
 30
0.0
 40
22.497930572022533
100
AcDbArc
 50
231.46719747098953
 51
237.56870085090688
  0
ARC
  5
98
100
AcDbEntity
  8
0
  6
CONTINUOUS
 62
               7
100
AcDbCircle
 10
0.0153798618289294
 20
0.0109419204558314
 30
0.0
 40
22.497949194505011
100
AcDbArc
 50
122.43130167671471
 51
128.53280000138727
  0
CIRCLE
  5
99
100
AcDbEntity
  8
0
  6
CONTINUOUS
 62
               7
100
AcDbCircle
 10
0.0
 20
-0.0000114440917969
 30
0.0
 40
6.0
  0
CIRCLE
  5
9A
100
AcDbEntity
  8
0
  6
CONTINUOUS
 62
               7
100
AcDbCircle
 10
0.0
 20
-0.0000114440917969
 30
0.0
 40
4.0
  0
CIRCLE
  5
9B
100
AcDbEntity
  8
0
  6
CONTINUOUS
 62
               2
100
AcDbCircle
 10
0.0
 20
-0.0000114440917969
 30
0.0
 40
3.5
  0
LINE
  5
9D
100
AcDbEntity
  8
0
  6
DASHED
 62
               2
100
AcDbLine
 10
7.5
 20
-14.300000000000001
 30
0.0
 11
-14.0
 21
-14.300000000000001
 31
0.0
  0
LINE
  5
9E
100
AcDbEntity
  8
0
  6
DASHED
 62
               2
100
AcDbLine
 10
14.0
 20
-16.5
 30
0.0
 11
7.5
 21
-16.5
 31
0.0
  0
LINE
  5
9F
100
AcDbEntity
  8
0
  6
DASHED
 62
               2
100
AcDbLine
 10
7.5
 20
-7.7000000000000002
 30
0.0
 11
-14.0
 21
-7.7000000000000002
 31
0.0
  0
LINE
  5
A0
100
AcDbEntity
  8
0
  6
DASHED
 62
               2
100
AcDbLine
 10
14.0
 20
-5.5
 30
0.0
 11
7.5
 21
-5.5
 31
0.0
  0
LINE
  5
A1
100
AcDbEntity
  8
0
  6
DASHED
 62
               2
100
AcDbLine
 10
7.5
 20
-16.5
 30
0.0
 11
7.5
 21
-5.5
 31
0.0
  0
LINE
  5
A2
100
AcDbEntity
  8
DEFPOINTS
  6
NON_PLOTING
 62
               7
100
AcDbLine
 10
1.79
 20
24.0
 30
0.0
 11
1.8899999999999999
 21
24.0
 31
0.0
  0
LINE
  5
A3
100
AcDbEntity
  8
DEFPOINTS
  6
NON_PLOTING
 62
               7
100
AcDbLine
 10
-2.8100000000000001
 20
24.0
 30
0.0
 11
-2.7000000000000002
 21
24.0
 31
0.0
  0
LINE
  5
A4
100
AcDbEntity
  8
DEFPOINTS
  6
NON_PLOTING
 62
               7
100
AcDbLine
 10
1.8899999999999999
 20
21.5
 30
0.0
 11
1.8899999999999999
 21
24.0
 31
0.0
  0
LINE
  5
A5
100
AcDbEntity
  8
DEFPOINTS
  6
NON_PLOTING
 62
               7
100
AcDbLine
 10
1.79
 20
24.0
 30
0.0
 11
1.79
 21
24.379999999999999
 31
0.0
  0
LINE
  5
A6
100
AcDbEntity
  8
DEFPOINTS
  6
NON_PLOTING
 62
               7
100
AcDbLine
 10
7.29
 20
21.5
 30
0.0
 11
7.29
 21
24.379999999999999
 31
0.0
  0
LINE
  5
A7
100
AcDbEntity
  8
DEFPOINTS
  6
NON_PLOTING
 62
               7
100
AcDbLine
 10
1.8899999999999999
 20
21.5
 30
0.0
 11
7.29
 21
21.5
 31
0.0
  0
LINE
  5
A8
100
AcDbEntity
  8
DEFPOINTS
  6
NON_PLOTING
 62
               7
100
AcDbLine
 10
-2.7000000000000002
 20
24.0
 30
0.0
 11
-2.7000000000000002
 21
24.379999999999999
 31
0.0
  0
LINE
  5
A9
100
AcDbEntity
  8
DEFPOINTS
  6
NON_PLOTING
 62
               7
100
AcDbLine
 10
-2.8100000000000001
 20
21.5
 30
0.0
 11
-2.8100000000000001
 21
24.0
 31
0.0
  0
LINE
  5
AA
100
AcDbEntity
  8
DEFPOINTS
  6
NON_PLOTING
 62
               7
100
AcDbLine
 10
-8.0
 20
21.5
 30
0.0
 11
-2.8100000000000005
 21
21.5
 31
0.0
  0
LINE
  5
AB
100
AcDbEntity
  8
0
  6
CONTINUOUS
 62
               7
100
AcDbLine
 10
-2.3500000000000001
 20
24.0
 30
0.0
 11
2.3500000000000001
 21
24.0
 31
0.0
  0
LINE
  5
AC
100
AcDbEntity
  8
0
  6
CONTINUOUS
 62
               7
100
AcDbLine
 10
8.0
 20
22.5
 30
0.0
 11
8.0
 21
19.0
 31
0.0
  0
LINE
  5
AD
100
AcDbEntity
  8
0
  6
CONTINUOUS
 62
               7
100
AcDbLine
 10
-8.0
 20
22.5
 30
0.0
 11
-8.0
 21
19.0
 31
0.0
  0
LINE
  5
AE
100
AcDbEntity
  8
0
  6
CONTINUOUS
 62
               7
100
AcDbLine
 10
2.25
 20
24.0
 30
0.0
 11
2.25
 21
24.5
 31
0.0
  0
LINE
  5
AF
100
AcDbEntity
  8
0
  6
CONTINUOUS
 62
               7
100
AcDbLine
 10
-7.75
 20
24.5
 30
0.0
 11
-7.75
 21
21.5
 31
0.0
  0
LINE
  5
B0
100
AcDbEntity
  8
0
  6
CONTINUOUS
 62
               7
100
AcDbLine
 10
-7.75
 20
24.5
 30
0.0
 11
-2.25
 21
24.5
 31
0.0
  0
LINE
  5
B1
100
AcDbEntity
  8
0
  6
CONTINUOUS
 62
               7
100
AcDbLine
 10
7.75
 20
22.75
 30
0.0
 11
8.0
 21
22.5
 31
0.0
  0
LINE
  5
B2
100
AcDbEntity
  8
0
  6
CONTINUOUS
 62
               7
100
AcDbLine
 10
-8.0
 20
22.5
 30
0.0
 11
-7.75
 21
22.75
 31
0.0
  0
LINE
  5
B3
100
AcDbEntity
  8
0
  6
CONTINUOUS
 62
               7
100
AcDbLine
 10
2.3500000000000001
 20
21.5
 30
0.0
 11
8.0
 21
21.5
 31
0.0
  0
LINE
  5
B4
100
AcDbEntity
  8
0
  6
CENTER
 62
               2
100
AcDbLine
 10
5.0
 20
20.350000000000001
 30
0.0
 11
5.0
 21
24.789999999999999
 31
0.0
  0
LINE
  5
B5
100
AcDbEntity
  8
0
  6
CONTINUOUS
 62
               7
100
AcDbLine
 10
2.3500000000000001
 20
21.5
 30
0.0
 11
2.3500000000000001
 21
24.0
 31
0.0
  0
LINE
  5
B6
100
AcDbEntity
  8
0
  6
CONTINUOUS
 62
               7
100
AcDbLine
 10
-2.3500000000000001
 20
21.5
 30
0.0
 11
-2.3500000000000001
 21
24.0
 31
0.0
  0
LINE
  5
B7
100
AcDbEntity
  8
0
  6
CENTER
 62
               2
100
AcDbLine
 10
-5.0
 20
20.239999999999998
 30
0.0
 11
-5.0
 21
24.789999999999999
 31
0.0
  0
LINE
  5
B8
100
AcDbEntity
  8
0
  6
CONTINUOUS
 62
               7
100
AcDbLine
 10
-8.0
 20
21.5
 30
0.0
 11
-2.3500000000000001
 21
21.5
 31
0.0
  0
LINE
  5
B9
100
AcDbEntity
  8
0
  6
CONTINUOUS
 62
               7
100
AcDbLine
 10
-2.3500000000000001
 20
19.0
 30
0.0
 11
2.3500000000000001
 21
19.0
 31
0.0
  0
LINE
  5
BA
100
AcDbEntity
  8
0
  6
CONTINUOUS
 62
               7
100
AcDbLine
 10
7.75
 20
21.5
 30
0.0
 11
7.75
 21
24.5
 31
0.0
  0
LINE
  5
BB
100
AcDbEntity
  8
0
  6
CONTINUOUS
 62
               7
100
AcDbLine
 10
7.75
 20
24.5
 30
0.0
 11
2.25
 21
24.5
 31
0.0
  0
LINE
  5
BC
100
AcDbEntity
  8
0
  6
CONTINUOUS
 62
               7
100
AcDbLine
 10
-2.25
 20
24.0
 30
0.0
 11
-2.25
 21
24.5
 31
0.0
  0
LINE
  5
BD
100
AcDbEntity
  8
0
  6
CENTER
 62
               2
100
AcDbLine
 10
15.15
 20
11.0
 30
0.0
 11
-17.469999999999999
 21
11.0
 31
0.0
  0
LINE
  5
BE
100
AcDbEntity
  8
0
  6
CONTINUOUS
 62
               2
100
AcDbLine
 10
14.25
 20
-11.0
 30
0.0
 11
14.65
 21
-11.0
 31
0.0
  0
LINE
  5
BF
100
AcDbEntity
  8
0
  6
CONTINUOUS
 62
               2
100
AcDbLine
 10
14.0
 20
-10.5
 30
0.0
 11
14.02
 21
-10.5
 31
0.0
  0
LINE
  5
C0
100
AcDbEntity
  8
0
  6
CONTINUOUS
 62
               2
100
AcDbLine
 10
13.369999999999999
 20
11.0
 30
0.0
 11
14.5
 21
11.0
 31
0.0
  0
LINE
  5
C1
100
AcDbEntity
  8
0
  6
CONTINUOUS
 62
               7
100
AcDbLine
 10
-5.0
 20
14.73
 30
0.0
 11
-3.5
 21
13.859999999999999
 31
0.0
  0
LINE
  5
C2
100
AcDbEntity
  8
0
  6
CONTINUOUS
 62
               7
100
AcDbLine
 10
-3.5
 20
13.859999999999999
 30
0.0
 11
-3.5
 21
12.130000000000001
 31
0.0
  0
LINE
  5
C3
100
AcDbEntity
  8
0
  6
CONTINUOUS
 62
               7
100
AcDbLine
 10
-5.0
 20
11.26
 30
0.0
 11
-3.5
 21
12.130000000000001
 31
0.0
  0
LINE
  5
C4
100
AcDbEntity
  8
0
  6
CONTINUOUS
 62
               7
100
AcDbLine
 10
-6.5
 20
12.130000000000001
 30
0.0
 11
-5.0
 21
11.26
 31
0.0
  0
LINE
  5
C5
100
AcDbEntity
  8
0
  6
CONTINUOUS
 62
               7
100
AcDbLine
 10
-6.5
 20
13.859999999999999
 30
0.0
 11
-6.5
 21
12.130000000000001
 31
0.0
  0
LINE
  5
C6
100
AcDbEntity
  8
0
  6
CONTINUOUS
 62
               7
100
AcDbLine
 10
-6.5
 20
13.859999999999999
 30
0.0
 11
-5.0
 21
14.73
 31
0.0
  0
LINE
  5
C7
100
AcDbEntity
  8
0
  6
CONTINUOUS
 62
               7
100
AcDbLine
 10
3.5
 20
-13.859999999999999
 30
0.0
 11
5.0
 21
-14.73
 31
0.0
  0
LINE
  5
C8
100
AcDbEntity
  8
0
  6
CONTINUOUS
 62
               7
100
AcDbLine
 10
5.0
 20
-11.26
 30
0.0
 11
6.5
 21
-12.130000000000001
 31
0.0
  0
LINE
  5
C9
100
AcDbEntity
  8
0
  6
CONTINUOUS
 62
               7
100
AcDbLine
 10
5.0
 20
-14.73
 30
0.0
 11
6.5
 21
-13.859999999999999
 31
0.0
  0
LINE
  5
CA
100
AcDbEntity
  8
0
  6
CONTINUOUS
 62
               7
100
AcDbLine
 10
3.5
 20
-12.130000000000001
 30
0.0
 11
5.0
 21
-11.26
 31
0.0
  0
LINE
  5
CB
100
AcDbEntity
  8
0
  6
CONTINUOUS
 62
               7
100
AcDbLine
 10
6.5
 20
-12.130000000000001
 30
0.0
 11
6.5
 21
-13.859999999999999
 31
0.0
  0
LINE
  5
CC
100
AcDbEntity
  8
0
  6
CONTINUOUS
 62
               7
100
AcDbLine
 10
3.5
 20
-12.130000000000001
 30
0.0
 11
3.5
 21
-13.859999999999999
 31
0.0
  0
LINE
  5
CD
100
AcDbEntity
  8
0
  6
CENTER
 62
               2
100
AcDbLine
 10
10.0
 20
-13.0
 30
0.0
 11
0.27
 21
-13.0
 31
0.0
  0
LINE
  5
CE
100
AcDbEntity
  8
0
  6
CENTER
 62
               2
100
AcDbLine
 10
-0.25
 20
13.0
 30
0.0
 11
-10.470000000000001
 21
13.0
 31
0.0
  0
LINE
  5
CF
100
AcDbEntity
  8
0
  6
CENTER
 62
               2
100
AcDbLine
 10
5.0
 20
-8.0
 30
0.0
 11
5.0
 21
-18.170000000000002
 31
0.0
  0
LINE
  5
D0
100
AcDbEntity
  8
0
  6
CENTER
 62
               2
100
AcDbLine
 10
-5.0
 20
18.25
 30
0.0
 11
-5.0
 21
8.3200000000000003
 31
0.0
  0
LINE
  5
D1
100
AcDbEntity
  8
0
  6
DASHED
 62
               2
100
AcDbLine
 10
14.0
 20
5.5
 30
0.0
 11
7.5
 21
5.5
 31
0.0
  0
LINE
  5
D2
100
AcDbEntity
  8
0
  6
DASHED
 62
               2
100
AcDbLine
 10
14.0
 20
16.5
 30
0.0
 11
7.5
 21
16.5
 31
0.0
  0
LINE
  5
D3
100
AcDbEntity
  8
0
  6
CENTER
 62
               2
100
AcDbLine
 10
0.0
 20
28.0
 30
0.0
 11
0.0
 21
-21.34
 31
0.0
  0
LINE
  5
D4
100
AcDbEntity
  8
0
  6
DASHED
 62
               2
100
AcDbLine
 10
7.5
 20
7.7000000000000002
 30
0.0
 11
-14.0
 21
7.7000000000000002
 31
0.0
  0
LINE
  5
D5
100
AcDbEntity
  8
0
  6
DASHED
 62
               2
100
AcDbLine
 10
7.5
 20
14.300000000000001
 30
0.0
 11
-14.0
 21
14.300000000000001
 31
0.0
  0
LINE
  5
D6
100
AcDbEntity
  8
0
  6
DASHED
 62
               2
100
AcDbLine
 10
7.5
 20
16.5
 30
0.0
 11
7.5
 21
5.5
 31
0.0
  0
LINE
  5
D7
100
AcDbEntity
  8
0
  6
CENTER
 62
               2
100
AcDbLine
 10
15.15
 20
-11.0
 30
0.0
 11
-17.350000000000001
 21
-11.0
 31
0.0
  0
LINE
  5
D8
100
AcDbEntity
  8
0
  6
CONTINUOUS
 62
               7
100
AcDbLine
 10
14.0
 20
17.609999999999999
 30
0.0
 11
14.0
 21
-17.609999999999999
 31
0.0
  0
LINE
  5
D9
100
AcDbEntity
  8
0
  6
CONTINUOUS
 62
               7
100
AcDbLine
 10
-14.0
 20
17.609999999999999
 30
0.0
 11
-14.0
 21
-17.609999999999999
 31
0.0
  0
LINE
  5
DA
100
AcDbEntity
  8
0
  6
CONTINUOUS
 62
               7
100
AcDbLine
 10
12.050000000000001
 20
19.0
 30
0.0
 11
-12.050000000000001
 21
19.0
 31
0.0
  0
LINE
  5
DB
100
AcDbEntity
  8
0
  6
CONTINUOUS
 62
               7
100
AcDbLine
 10
12.050000000000001
 20
-19.0
 30
0.0
 11
-12.050000000000001
 21
-19.0
 31
0.0
  0
LINE
  5
DC
100
AcDbEntity
  8
0
  6
CENTER
 62
               2
100
AcDbLine
 10
15.77
 20
0.0
 30
0.0
 11
-15.66
 21
0.0
 31
0.0
  0
LINE
  5
DD
100
AcDbEntity
  8
0
  6
CONTINUOUS
 62
               7
100
AcDbLine
 10
-6.0
 20
-3.46
 30
0.0
 11
0.0
 21
-6.9199999999999999
 31
0.0
  0
LINE
  5
DE
100
AcDbEntity
  8
0
  6
CONTINUOUS
 62
               7
100
AcDbLine
 10
0.0
 20
6.9199999999999999
 30
0.0
 11
6.0
 21
3.46
 31
0.0
  0
LINE
  5
DF
100
AcDbEntity
  8
0
  6
CONTINUOUS
 62
               7
100
AcDbLine
 10
0.0
 20
-6.9199999999999999
 30
0.0
 11
6.0
 21
-3.46
 31
0.0
  0
LINE
  5
E0
100
AcDbEntity
  8
0
  6
CONTINUOUS
 62
               7
100
AcDbLine
 10
-6.0
 20
3.46
 30
0.0
 11
0.0
 21
6.9199999999999999
 31
0.0
  0
LINE
  5
E1
100
AcDbEntity
  8
0
  6
CONTINUOUS
 62
               7
100
AcDbLine
 10
6.0
 20
3.46
 30
0.0
 11
6.0
 21
-3.46
 31
0.0
  0
LINE
  5
E2
100
AcDbEntity
  8
0
  6
CONTINUOUS
 62
               7
100
AcDbLine
 10
-6.0
 20
3.46
 30
0.0
 11
-6.0
 21
-3.46
 31
0.0
  0
ENDBLK
  5
E3
100
AcDbEntity
  8
0
100
AcDbBlockEnd
  0
BLOCK
  5
E4
100
AcDbEntity
  8
0
100
AcDbBlockBegin
  2
MS_3
 70
               0
 10
0.0
 20
0.0
 30
0.0
  3
MS_3
  1

  0
ARC
  5
E5
100
AcDbEntity
  8
0
  6
CONTINUOUS
 62
               7
100
AcDbCircle
 10
0.0
 20
0.0
 30
0.0
 40
14.49717558698935
100
AcDbArc
 50
123.49276124043976
 51
56.507238759559804
  0
ARC
  5
E6
100
AcDbEntity
  8
0
  6
CONTINUOUS
 62
               7
100
AcDbCircle
 10
0.0153690371073623
 20
-0.0109571062163027
 30
0.0
 40
22.497930572022533
100
AcDbArc
 50
231.46719747098953
 51
237.56870085090688
  0
CIRCLE
  5
E7
100
AcDbEntity
  8
0
  6
CONTINUOUS
 62
               7
100
AcDbCircle
 10
0.0
 20
0.0
 30
0.0
 40
10.0
  0
ARC
  5
E8
100
AcDbEntity
  8
0
  6
CONTINUOUS
 62
               7
100
AcDbCircle
 10
-0.0153798618289294
 20
0.0109419204558314
 30
0.0
 40
22.497949194505011
100
AcDbArc
 50
51.467199998612344
 51
57.568698323284892
  0
ARC
  5
E9
100
AcDbEntity
  8
0
  6
CONTINUOUS
 62
               7
100
AcDbCircle
 10
-0.0153690371073623
 20
-0.0109571062163027
 30
0.0
 40
22.497930572022533
100
AcDbArc
 50
302.43129914909184
 51
308.53280252900925
  0
ARC
  5
EA
100
AcDbEntity
  8
0
  6
CONTINUOUS
 62
               7
100
AcDbCircle
 10
0.0153798618289294
 20
0.0109419204558314
 30
0.0
 40
22.497949194505011
100
AcDbArc
 50
122.43130167671471
 51
128.53280000138727
  0
LINE
  5
EB
100
AcDbEntity
  8
DEFPOINTS
  6
NON_PLOTING
 62
               7
100
AcDbLine
 10
-8.1999999999999993
 20
21.5
 30
0.0
 11
-8.1999999999999993
 21
24.379999999999999
 31
0.0
  0
LINE
  5
EC
100
AcDbEntity
  8
0
  6
CONTINUOUS
 62
               7
100
AcDbLine
 10
-2.3500000000000001
 20
24.0
 30
0.0
 11
2.3500000000000001
 21
24.0
 31
0.0
  0
LINE
  5
ED
100
AcDbEntity
  8
0
  6
CONTINUOUS
 62
               7
100
AcDbLine
 10
8.0
 20
22.5
 30
0.0
 11
8.0
 21
12.09
 31
0.0
  0
LINE
  5
EE
100
AcDbEntity
  8
0
  6
CONTINUOUS
 62
               7
100
AcDbLine
 10
-8.0
 20
22.5
 30
0.0
 11
-8.0
 21
12.09
 31
0.0
  0
LINE
  5
EF
100
AcDbEntity
  8
0
  6
CONTINUOUS
 62
               7
100
AcDbLine
 10
2.25
 20
24.0
 30
0.0
 11
2.25
 21
24.5
 31
0.0
  0
LINE
  5
F0
100
AcDbEntity
  8
0
  6
CONTINUOUS
 62
               7
100
AcDbLine
 10
-7.75
 20
24.5
 30
0.0
 11
-7.75
 21
21.5
 31
0.0
  0
LINE
  5
F1
100
AcDbEntity
  8
0
  6
CONTINUOUS
 62
               7
100
AcDbLine
 10
-7.75
 20
24.5
 30
0.0
 11
-2.25
 21
24.5
 31
0.0
  0
LINE
  5
F2
100
AcDbEntity
  8
0
  6
CONTINUOUS
 62
               7
100
AcDbLine
 10
7.75
 20
22.75
 30
0.0
 11
8.0
 21
22.5
 31
0.0
  0
LINE
  5
F3
100
AcDbEntity
  8
0
  6
CONTINUOUS
 62
               7
100
AcDbLine
 10
-8.0
 20
22.5
 30
0.0
 11
-7.75
 21
22.75
 31
0.0
  0
LINE
  5
F4
100
AcDbEntity
  8
0
  6
CONTINUOUS
 62
               7
100
AcDbLine
 10
2.3500000000000001
 20
21.5
 30
0.0
 11
8.0
 21
21.5
 31
0.0
  0
LINE
  5
F5
100
AcDbEntity
  8
0
  6
CENTER
 62
               2
100
AcDbLine
 10
5.0
 20
20.350000000000001
 30
0.0
 11
5.0
 21
24.789999999999999
 31
0.0
  0
LINE
  5
F6
100
AcDbEntity
  8
0
  6
CONTINUOUS
 62
               7
100
AcDbLine
 10
2.3500000000000001
 20
21.5
 30
0.0
 11
2.3500000000000001
 21
24.0
 31
0.0
  0
LINE
  5
F7
100
AcDbEntity
  8
0
  6
CONTINUOUS
 62
               7
100
AcDbLine
 10
-2.3500000000000001
 20
21.5
 30
0.0
 11
-2.3500000000000001
 21
24.0
 31
0.0
  0
LINE
  5
F8
100
AcDbEntity
  8
0
  6
CENTER
 62
               2
100
AcDbLine
 10
-5.0
 20
20.239999999999998
 30
0.0
 11
-5.0
 21
24.789999999999999
 31
0.0
  0
LINE
  5
F9
100
AcDbEntity
  8
0
  6
CONTINUOUS
 62
               7
100
AcDbLine
 10
-8.0
 20
21.5
 30
0.0
 11
-2.3500000000000001
 21
21.5
 31
0.0
  0
LINE
  5
FA
100
AcDbEntity
  8
0
  6
CONTINUOUS
 62
               7
100
AcDbLine
 10
7.75
 20
21.5
 30
0.0
 11
7.75
 21
24.5
 31
0.0
  0
LINE
  5
FB
100
AcDbEntity
  8
0
  6
CONTINUOUS
 62
               7
100
AcDbLine
 10
7.75
 20
24.5
 30
0.0
 11
2.25
 21
24.5
 31
0.0
  0
LINE
  5
FC
100
AcDbEntity
  8
0
  6
CONTINUOUS
 62
               7
100
AcDbLine
 10
-2.25
 20
24.0
 30
0.0
 11
-2.25
 21
24.5
 31
0.0
  0
LINE
  5
FD
100
AcDbEntity
  8
0
  6
CONTINUOUS
 62
               2
100
AcDbLine
 10
14.0
 20
-10.5
 30
0.0
 11
14.02
 21
-10.5
 31
0.0
  0
LINE
  5
FE
100
AcDbEntity
  8
0
  6
CENTER
 62
               2
100
AcDbLine
 10
0.0
 20
28.0
 30
0.0
 11
0.0
 21
-21.34
 31
0.0
  0
LINE
  5
FF
100
AcDbEntity
  8
0
  6
CONTINUOUS
 62
               7
100
AcDbLine
 10
14.0
 20
17.609999999999999
 30
0.0
 11
14.0
 21
3.77
 31
0.0
  0
LINE
  5
100
100
AcDbEntity
  8
0
  6
CONTINUOUS
 62
               7
100
AcDbLine
 10
-14.0
 20
17.609999999999999
 30
0.0
 11
-14.0
 21
3.77
 31
0.0
  0
LINE
  5
101
100
AcDbEntity
  8
0
  6
CONTINUOUS
 62
               7
100
AcDbLine
 10
12.050000000000001
 20
19.0
 30
0.0
 11
8.0
 21
19.0
 31
0.0
  0
LINE
  5
102
100
AcDbEntity
  8
0
  6
CONTINUOUS
 62
               7
100
AcDbLine
 10
12.050000000000001
 20
-19.0
 30
0.0
 11
-12.050000000000001
 21
-19.0
 31
0.0
  0
LINE
  5
103
100
AcDbEntity
  8
0
  6
CENTER
 62
               2
100
AcDbLine
 10
15.77
 20
0.0
 30
0.0
 11
-15.66
 21
0.0
 31
0.0
  0
LINE
  5
104
100
AcDbEntity
  8
0
  6
CONTINUOUS
 62
               7
100
AcDbLine
 10
-8.0
 20
19.0
 30
0.0
 11
-12.050000000000001
 21
19.0
 31
0.0
  0
LINE
  5
105
100
AcDbEntity
  8
DEFPOINTS
  6
NON_PLOTING
 62
               7
100
AcDbLine
 10
1.79
 20
24.0
 30
0.0
 11
1.8899999999999999
 21
24.0
 31
0.0
  0
LINE
  5
106
100
AcDbEntity
  8
DEFPOINTS
  6
NON_PLOTING
 62
               7
100
AcDbLine
 10
-2.8100000000000001
 20
24.0
 30
0.0
 11
-2.7000000000000002
 21
24.0
 31
0.0
  0
LINE
  5
107
100
AcDbEntity
  8
0
  6
CONTINUOUS
 62
               7
100
AcDbLine
 10
14.0
 20
-3.77
 30
0.0
 11
14.0
 21
-17.609999999999999
 31
0.0
  0
LINE
  5
108
100
AcDbEntity
  8
0
  6
CONTINUOUS
 62
               7
100
AcDbLine
 10
-14.0
 20
-3.77
 30
0.0
 11
-14.0
 21
-17.609999999999999
 31
0.0
  0
LINE
  5
109
100
AcDbEntity
  8
0
  6
CONTINUOUS
 62
               7
100
AcDbLine
 10
-8.0
 20
12.09
 30
0.0
 11
8.0
 21
12.09
 31
0.0
  0
LINE
  5
10A
100
AcDbEntity
  8
DEFPOINTS
  6
NON_PLOTING
 62
               7
100
AcDbLine
 10
1.8899999999999999
 20
21.5
 30
0.0
 11
1.8899999999999999
 21
24.0
 31
0.0
  0
LINE
  5
10B
100
AcDbEntity
  8
DEFPOINTS
  6
NON_PLOTING
 62
               7
100
AcDbLine
 10
1.79
 20
24.0
 30
0.0
 11
1.79
 21
24.379999999999999
 31
0.0
  0
LINE
  5
10C
100
AcDbEntity
  8
DEFPOINTS
  6
NON_PLOTING
 62
               7
100
AcDbLine
 10
7.29
 20
21.5
 30
0.0
 11
7.29
 21
24.379999999999999
 31
0.0
  0
LINE
  5
10D
100
AcDbEntity
  8
DEFPOINTS
  6
NON_PLOTING
 62
               7
100
AcDbLine
 10
1.8899999999999999
 20
21.5
 30
0.0
 11
7.29
 21
21.5
 31
0.0
  0
LINE
  5
10E
100
AcDbEntity
  8
DEFPOINTS
  6
NON_PLOTING
 62
               7
100
AcDbLine
 10
-2.7000000000000002
 20
24.0
 30
0.0
 11
-2.7000000000000002
 21
24.379999999999999
 31
0.0
  0
LINE
  5
10F
100
AcDbEntity
  8
DEFPOINTS
  6
NON_PLOTING
 62
               7
100
AcDbLine
 10
-2.8100000000000001
 20
21.5
 30
0.0
 11
-2.8100000000000001
 21
24.0
 31
0.0
  0
LINE
  5
110
100
AcDbEntity
  8
DEFPOINTS
  6
NON_PLOTING
 62
               7
100
AcDbLine
 10
-8.1999999999999993
 20
21.5
 30
0.0
 11
-2.8100000000000001
 21
21.5
 31
0.0
  0
ENDBLK
  5
111
100
AcDbEntity
  8
0
100
AcDbBlockEnd
  0
BLOCK
  5
112
100
AcDbEntity
  8
0
100
AcDbBlockBegin
  2
MS_4
 70
               0
 10
0.0
 20
0.0
 30
0.0
  3
MS_4
  1

  0
ARC
  5
113
100
AcDbEntity
  8
0
  6
CONTINUOUS
 62
               7
100
AcDbCircle
 10
-21.664749145507813
 20
-3.0
 30
0.0
 40
8.6703023972835052
100
AcDbArc
 50
339.75661770624481
 51
20.243382293754408
  0
ARC
  5
114
100
AcDbEntity
  8
0
  6
CONTINUOUS
 62
               7
100
AcDbCircle
 10
-9.3352508544921893
 20
-3.0
 30
0.0
 40
8.6609207753812143
100
AcDbArc
 50
159.73372771703666
 51
200.26627228296255
  0
ARC
  5
115
100
AcDbEntity
  8
0
  6
CONTINUOUS
 62
               7
100
AcDbCircle
 10
-21.664749145507813
 20
3.0
 30
0.0
 40
8.6703023972835052
100
AcDbArc
 50
339.75661770624481
 51
20.243382293754408
  0
ARC
  5
116
100
AcDbEntity
  8
0
  6
CONTINUOUS
 62
               7
100
AcDbCircle
 10
-9.3352508544921893
 20
3.0
 30
0.0
 40
8.6609207753812143
100
AcDbArc
 50
159.73372771703666
 51
200.26627228296255
  0
CIRCLE
  5
117
100
AcDbEntity
  8
0
  6
CONTINUOUS
 62
               2
100
AcDbCircle
 10
119.0
 20
0.0
 30
0.0
 40
2.0
  0
CIRCLE
  5
118
100
AcDbEntity
  8
0
  6
CONTINUOUS
 62
               7
100
AcDbCircle
 10
119.0
 20
0.0
 30
0.0
 40
2.5
  0
ARC
  5
119
100
AcDbEntity
  8
0
  6
CONTINUOUS
 62
               7
100
AcDbCircle
 10
113.99765935666726
 20
4.9976550846719716
 30
0.0
 40
3.999504852604149
100
AcDbArc
 50
221.45225574066336
 51
48.649242513595638
  0
CIRCLE
  5
11A
100
AcDbEntity
  8
0
  6
CONTINUOUS
 62
               7
100
AcDbCircle
 10
124.0
 20
-5.0
 30
0.0
 40
2.75
  0
CIRCLE
  5
11B
100
AcDbEntity
  8
0
  6
CONTINUOUS
 62
               7
100
AcDbCircle
 10
114.0
 20
-5.0
 30
0.0
 40
2.75
  0
CIRCLE
  5
11C
100
AcDbEntity
  8
0
  6
CONTINUOUS
 62
               7
100
AcDbCircle
 10
114.0
 20
5.0
 30
0.0
 40
2.75
  0
CIRCLE
  5
11D
100
AcDbEntity
  8
0
  6
CONTINUOUS
 62
               7
100
AcDbCircle
 10
119.0
 20
0.0
 30
0.0
 40
1.6999998092651367
  0
ARC
  5
11E
100
AcDbEntity
  8
0
  6
CONTINUOUS
 62
               7
100
AcDbCircle
 10
124.00000000000001
 20
5.0000000000000107
 30
0.0
 40
4.0028115119250884
100
AcDbArc
 50
131.45523354440513
 51
318.5447664555939
  0
ARC
  5
11F
100
AcDbEntity
  8
0
  6
CONTINUOUS
 62
               7
100
AcDbCircle
 10
124.00000000000001
 20
-5.0000000000000107
 30
0.0
 40
4.0028115119250884
100
AcDbArc
 50
41.455233544405274
 51
228.54476645559404
  0
CIRCLE
  5
120
100
AcDbEntity
  8
0
  6
CONTINUOUS
 62
               7
100
AcDbCircle
 10
124.0
 20
5.0
 30
0.0
 40
2.75
  0
ARC
  5
121
100
AcDbEntity
  8
0
  6
CONTINUOUS
 62
               7
100
AcDbCircle
 10
113.99765935666726
 20
-4.9976550846719716
 30
0.0
 40
3.999504852604149
100
AcDbArc
 50
311.3507574864035
 51
138.54774425933581
  0
LINE
  5
122
100
AcDbEntity
  8
0
  6
CONTINUOUS
 62
               7
100
AcDbLine
 10
-22.5
 20
4.0
 30
0.0
 11
-22.5
 21
-4.0
 31
0.0
  0
LINE
  5
123
100
AcDbEntity
  8
0
  6
CONTINUOUS
 62
               7
100
AcDbLine
 10
-23.0
 20
3.5
 30
0.0
 11
-22.5
 21
4.0
 31
0.0
  0
LINE
  5
124
100
AcDbEntity
  8
0
  6
CONTINUOUS
 62
               7
100
AcDbLine
 10
-22.5
 20
4.0
 30
0.0
 11
-18.0
 21
4.0
 31
0.0
  0
LINE
  5
125
100
AcDbEntity
  8
0
  6
CONTINUOUS
 62
               7
100
AcDbLine
 10
-18.0
 20
-4.0
 30
0.0
 11
-22.5
 21
-4.0
 31
0.0
  0
LINE
  5
126
100
AcDbEntity
  8
0
  6
CONTINUOUS
 62
               7
100
AcDbLine
 10
-23.0
 20
3.5
 30
0.0
 11
-23.0
 21
-3.5
 31
0.0
  0
LINE
  5
127
100
AcDbEntity
  8
0
  6
CONTINUOUS
 62
               7
100
AcDbLine
 10
-21.699999999999999
 20
-4.0
 30
0.0
 11
-18.0
 21
-4.0
 31
0.0
  0
LINE
  5
128
100
AcDbEntity
  8
0
  6
CONTINUOUS
 62
               2
100
AcDbLine
 10
-8.0
 20
-3.5
 30
0.0
 11
-7.1299999999999999
 21
-4.0
 31
0.0
  0
LINE
  5
129
100
AcDbEntity
  8
0
  6
CONTINUOUS
 62
               2
100
AcDbLine
 10
-13.0
 20
3.5
 30
0.0
 11
-8.0
 21
3.5
 31
0.0
  0
LINE
  5
12A
100
AcDbEntity
  8
0
  6
CONTINUOUS
 62
               2
100
AcDbLine
 10
-13.0
 20
-3.5
 30
0.0
 11
-8.0
 21
-3.5
 31
0.0
  0
LINE
  5
12B
100
AcDbEntity
  8
0
  6
CONTINUOUS
 62
               2
100
AcDbLine
 10
-23.0
 20
-3.5
 30
0.0
 11
-18.0
 21
-3.5
 31
0.0
  0
LINE
  5
12C
100
AcDbEntity
  8
0
  6
CONTINUOUS
 62
               2
100
AcDbLine
 10
-23.0
 20
3.5
 30
0.0
 11
-18.0
 21
3.5
 31
0.0
  0
LINE
  5
12D
100
AcDbEntity
  8
0
  6
CONTINUOUS
 62
               7
100
AcDbLine
 10
-23.0
 20
-3.5
 30
0.0
 11
-22.5
 21
-4.0
 31
0.0
  0
LINE
  5
12E
100
AcDbEntity
  8
0
  6
CONTINUOUS
 62
               2
100
AcDbLine
 10
-8.0
 20
3.5
 30
0.0
 11
-7.1299999999999999
 21
4.0
 31
0.0
  0
LINE
  5
12F
100
AcDbEntity
  8
0
  6
DASHED
 62
               2
100
AcDbLine
 10
123.86
 20
-14.5
 30
0.0
 11
123.67
 21
-8.3000000000000007
 31
0.0
  0
LINE
  5
130
100
AcDbEntity
  8
0
  6
DASHED
 62
               2
100
AcDbLine
 10
123.27
 20
-14.5
 30
0.0
 11
123.08
 21
-8.3000000000000007
 31
0.0
  0
LINE
  5
131
100
AcDbEntity
  8
0
  6
DASHED
 62
               2
100
AcDbLine
 10
114.72
 20
-14.5
 30
0.0
 11
114.91
 21
-8.3000000000000007
 31
0.0
  0
LINE
  5
132
100
AcDbEntity
  8
0
  6
DASHED
 62
               2
100
AcDbLine
 10
114.13
 20
-14.5
 30
0.0
 11
114.33
 21
-8.3000000000000007
 31
0.0
  0
LINE
  5
133
100
AcDbEntity
  8
0
  6
DASHED
 62
               2
100
AcDbLine
 10
6.5
 20
-11.0
 30
0.0
 11
6.5
 21
-14.0
 31
0.0
  0
LINE
  5
134
100
AcDbEntity
  8
0
  6
DASHED
 62
               2
100
AcDbLine
 10
6.9000000000000004
 20
-11.0
 30
0.0
 11
6.9000000000000004
 21
-14.0
 31
0.0
  0
LINE
  5
135
100
AcDbEntity
  8
0
  6
DASHED
 62
               2
100
AcDbLine
 10
11.1
 20
-11.0
 30
0.0
 11
11.1
 21
-14.0
 31
0.0
  0
LINE
  5
136
100
AcDbEntity
  8
0
  6
DASHED
 62
               2
100
AcDbLine
 10
11.5
 20
-11.0
 30
0.0
 11
11.5
 21
-14.0
 31
0.0
  0
LINE
  5
137
100
AcDbEntity
  8
0
  6
DASHED
 62
               2
100
AcDbLine
 10
38.859999999999999
 20
-14.0
 30
0.0
 11
38.670000000000002
 21
-7.7999999999999998
 31
0.0
  0
LINE
  5
138
100
AcDbEntity
  8
0
  6
DASHED
 62
               2
100
AcDbLine
 10
38.270000000000003
 20
-14.0
 30
0.0
 11
38.079999999999998
 21
-7.7999999999999998
 31
0.0
  0
LINE
  5
139
100
AcDbEntity
  8
0
  6
DASHED
 62
               2
100
AcDbLine
 10
29.719999999999999
 20
-14.0
 30
0.0
 11
29.91
 21
-7.7999999999999998
 31
0.0
  0
LINE
  5
13A
100
AcDbEntity
  8
0
  6
DASHED
 62
               2
100
AcDbLine
 10
29.129999999999999
 20
-14.0
 30
0.0
 11
29.329999999999998
 21
-7.7999999999999998
 31
0.0
  0
LINE
  5
13B
100
AcDbEntity
  8
0
  6
CONTINUOUS
 62
               7
100
AcDbLine
 10
0.0
 20
-12.609999999999999
 30
0.0
 11
42.0
 21
-12.609999999999999
 31
0.0
  0
LINE
  5
13C
100
AcDbEntity
  8
0
  6
CONTINUOUS
 62
               7
100
AcDbLine
 10
-6.0
 20
3.0
 30
0.0
 11
-7.0
 21
4.0
 31
0.0
  0
LINE
  5
13D
100
AcDbEntity
  8
0
  6
CONTINUOUS
 62
               7
100
AcDbLine
 10
-1.0
 20
-3.0
 30
0.0
 11
0.0
 21
-4.0
 31
0.0
  0
LINE
  5
13E
100
AcDbEntity
  8
0
  6
CONTINUOUS
 62
               7
100
AcDbLine
 10
-6.0
 20
-3.0
 30
0.0
 11
-7.0
 21
-4.0
 31
0.0
  0
LINE
  5
13F
100
AcDbEntity
  8
0
  6
CONTINUOUS
 62
               7
100
AcDbLine
 10
-1.0
 20
3.0
 30
0.0
 11
0.0
 21
4.0
 31
0.0
  0
LINE
  5
140
100
AcDbEntity
  8
0
  6
CONTINUOUS
 62
               7
100
AcDbLine
 10
-6.0
 20
-3.0
 30
0.0
 11
-1.0
 21
-3.0
 31
0.0
  0
LINE
  5
141
100
AcDbEntity
  8
0
  6
CONTINUOUS
 62
               7
100
AcDbLine
 10
-6.0
 20
3.0
 30
0.0
 11
-1.0
 21
3.0
 31
0.0
  0
LINE
  5
142
100
AcDbEntity
  8
0
  6
CONTINUOUS
 62
               7
100
AcDbLine
 10
-18.0
 20
-6.0
 30
0.0
 11
-13.0
 21
-6.0
 31
0.0
  0
LINE
  5
143
100
AcDbEntity
  8
0
  6
CONTINUOUS
 62
               7
100
AcDbLine
 10
-18.0
 20
6.0
 30
0.0
 11
-13.0
 21
6.0
 31
0.0
  0
LINE
  5
144
100
AcDbEntity
  8
0
  6
CONTINUOUS
 62
               7
100
AcDbLine
 10
111.0
 20
14.5
 30
0.0
 11
127.0
 21
14.5
 31
0.0
  0
LINE
  5
145
100
AcDbEntity
  8
0
  6
CONTINUOUS
 62
               7
100
AcDbLine
 10
107.0
 20
-10.699999999999999
 30
0.0
 11
107.0
 21
10.699999999999999
 31
0.0
  0
LINE
  5
146
100
AcDbEntity
  8
0
  6
CONTINUOUS
 62
               7
100
AcDbLine
 10
42.0
 20
10.699999999999999
 30
0.0
 11
111.0
 21
10.699999999999999
 31
0.0
  0
LINE
  5
147
100
AcDbEntity
  8
0
  6
CONTINUOUS
 62
               7
100
AcDbLine
 10
42.0
 20
-10.699999999999999
 30
0.0
 11
111.0
 21
-10.699999999999999
 31
0.0
  0
LINE
  5
148
100
AcDbEntity
  8
0
  6
CENTER
 62
               2
100
AcDbLine
 10
-26.870000000000001
 20
0.0
 30
0.0
 11
136.28
 21
0.0
 31
0.0
  0
LINE
  5
149
100
AcDbEntity
  8
0
  6
CENTER
 62
               2
100
AcDbLine
 10
9.0
 20
-10.539999999999999
 30
0.0
 11
9.0
 21
-14.92
 31
0.0
  0
LINE
  5
14A
100
AcDbEntity
  8
0
  6
CONTINUOUS
 62
               7
100
AcDbLine
 10
0.0
 20
14.0
 30
0.0
 11
0.0
 21
-14.0
 31
0.0
  0
LINE
  5
14B
100
AcDbEntity
  8
0
  6
CONTINUOUS
 62
               7
100
AcDbLine
 10
14.0
 20
14.0
 30
0.0
 11
14.0
 21
-14.0
 31
0.0
  0
LINE
  5
14C
100
AcDbEntity
  8
0
  6
CONTINUOUS
 62
               7
100
AcDbLine
 10
0.0
 20
14.0
 30
0.0
 11
42.0
 21
14.0
 31
0.0
  0
LINE
  5
14D
100
AcDbEntity
  8
0
  6
CENTER
 62
               2
100
AcDbLine
 10
34.0
 20
-14.92
 30
0.0
 11
34.0
 21
-6.8300000000000001
 31
0.0
  0
LINE
  5
14E
100
AcDbEntity
  8
0
  6
CONTINUOUS
 62
               7
100
AcDbLine
 10
0.0
 20
-14.0
 30
0.0
 11
42.0
 21
-14.0
 31
0.0
  0
LINE
  5
14F
100
AcDbEntity
  8
0
  6
CONTINUOUS
 62
               7
100
AcDbLine
 10
0.0
 20
12.609999999999999
 30
0.0
 11
42.0
 21
12.609999999999999
 31
0.0
  0
LINE
  5
150
100
AcDbEntity
  8
0
  6
CONTINUOUS
 62
               7
100
AcDbLine
 10
-13.0
 20
-4.0
 30
0.0
 11
-7.0
 21
-4.0
 31
0.0
  0
LINE
  5
151
100
AcDbEntity
  8
0
  6
CONTINUOUS
 62
               7
100
AcDbLine
 10
-13.0
 20
4.0
 30
0.0
 11
-7.0
 21
4.0
 31
0.0
  0
LINE
  5
152
100
AcDbEntity
  8
0
  6
CONTINUOUS
 62
               7
100
AcDbLine
 10
-18.0
 20
6.0
 30
0.0
 11
-18.0
 21
-6.0
 31
0.0
  0
LINE
  5
153
100
AcDbEntity
  8
0
  6
CONTINUOUS
 62
               7
100
AcDbLine
 10
-8.0
 20
-4.0
 30
0.0
 11
-8.0
 21
4.0
 31
0.0
  0
LINE
  5
154
100
AcDbEntity
  8
0
  6
CONTINUOUS
 62
               7
100
AcDbLine
 10
-13.0
 20
-6.0
 30
0.0
 11
-13.0
 21
6.0
 31
0.0
  0
LINE
  5
155
100
AcDbEntity
  8
0
  6
CONTINUOUS
 62
               7
100
AcDbLine
 10
42.0
 20
14.0
 30
0.0
 11
42.0
 21
-14.0
 31
0.0
  0
LINE
  5
156
100
AcDbEntity
  8
0
  6
CONTINUOUS
 62
               7
100
AcDbLine
 10
46.0
 20
-10.699999999999999
 30
0.0
 11
46.0
 21
10.699999999999999
 31
0.0
  0
LINE
  5
157
100
AcDbEntity
  8
0
  6
CONTINUOUS
 62
               7
100
AcDbLine
 10
-17.460000000000001
 20
0.0
 30
0.0
 11
-13.529999999999999
 21
0.0
 31
0.0
  0
LINE
  5
158
100
AcDbEntity
  8
0
  6
CONTINUOUS
 62
               7
100
AcDbLine
 10
115.25
 20
-5.7199999999999998
 30
0.0
 11
114.0
 21
-6.4400000000000004
 31
0.0
  0
LINE
  5
159
100
AcDbEntity
  8
0
  6
CONTINUOUS
 62
               7
100
AcDbLine
 10
114.0
 20
-6.4400000000000004
 30
0.0
 11
112.75
 21
-5.7199999999999998
 31
0.0
  0
LINE
  5
15A
100
AcDbEntity
  8
0
  6
CONTINUOUS
 62
               7
100
AcDbLine
 10
112.75
 20
-5.7199999999999998
 30
0.0
 11
112.75
 21
-4.2699999999999996
 31
0.0
  0
LINE
  5
15B
100
AcDbEntity
  8
0
  6
CONTINUOUS
 62
               7
100
AcDbLine
 10
114.0
 20
-3.5499999999999998
 30
0.0
 11
112.75
 21
-4.2699999999999996
 31
0.0
  0
LINE
  5
15C
100
AcDbEntity
  8
0
  6
CONTINUOUS
 62
               7
100
AcDbLine
 10
115.25
 20
-4.2699999999999996
 30
0.0
 11
114.0
 21
-3.5499999999999998
 31
0.0
  0
LINE
  5
15D
100
AcDbEntity
  8
0
  6
CONTINUOUS
 62
               7
100
AcDbLine
 10
115.25
 20
-5.7199999999999998
 30
0.0
 11
115.25
 21
-4.2699999999999996
 31
0.0
  0
LINE
  5
15E
100
AcDbEntity
  8
0
  6
CONTINUOUS
 62
               7
100
AcDbLine
 10
115.25
 20
5.7199999999999998
 30
0.0
 11
114.0
 21
6.4400000000000004
 31
0.0
  0
LINE
  5
15F
100
AcDbEntity
  8
0
  6
CONTINUOUS
 62
               7
100
AcDbLine
 10
114.0
 20
6.4400000000000004
 30
0.0
 11
112.75
 21
5.7199999999999998
 31
0.0
  0
LINE
  5
160
100
AcDbEntity
  8
0
  6
CONTINUOUS
 62
               7
100
AcDbLine
 10
112.75
 20
5.7199999999999998
 30
0.0
 11
112.75
 21
4.2699999999999996
 31
0.0
  0
LINE
  5
161
100
AcDbEntity
  8
0
  6
CONTINUOUS
 62
               7
100
AcDbLine
 10
114.0
 20
3.5499999999999998
 30
0.0
 11
112.75
 21
4.2699999999999996
 31
0.0
  0
LINE
  5
162
100
AcDbEntity
  8
0
  6
CONTINUOUS
 62
               7
100
AcDbLine
 10
115.25
 20
4.2699999999999996
 30
0.0
 11
114.0
 21
3.5499999999999998
 31
0.0
  0
LINE
  5
163
100
AcDbEntity
  8
0
  6
CONTINUOUS
 62
               7
100
AcDbLine
 10
115.25
 20
5.7199999999999998
 30
0.0
 11
115.25
 21
4.2699999999999996
 31
0.0
  0
LINE
  5
164
100
AcDbEntity
  8
0
  6
CONTINUOUS
 62
               7
100
AcDbLine
 10
122.75
 20
-5.7199999999999998
 30
0.0
 11
124.0
 21
-6.4400000000000004
 31
0.0
  0
LINE
  5
165
100
AcDbEntity
  8
0
  6
CONTINUOUS
 62
               7
100
AcDbLine
 10
124.0
 20
-6.4400000000000004
 30
0.0
 11
125.25
 21
-5.7199999999999998
 31
0.0
  0
LINE
  5
166
100
AcDbEntity
  8
0
  6
CONTINUOUS
 62
               7
100
AcDbLine
 10
125.25
 20
-5.7199999999999998
 30
0.0
 11
125.25
 21
-4.2699999999999996
 31
0.0
  0
LINE
  5
167
100
AcDbEntity
  8
0
  6
CONTINUOUS
 62
               7
100
AcDbLine
 10
124.0
 20
-3.5499999999999998
 30
0.0
 11
125.25
 21
-4.2699999999999996
 31
0.0
  0
LINE
  5
168
100
AcDbEntity
  8
0
  6
CONTINUOUS
 62
               7
100
AcDbLine
 10
122.75
 20
-4.2699999999999996
 30
0.0
 11
124.0
 21
-3.5499999999999998
 31
0.0
  0
LINE
  5
169
100
AcDbEntity
  8
0
  6
CONTINUOUS
 62
               7
100
AcDbLine
 10
122.75
 20
-5.7199999999999998
 30
0.0
 11
122.75
 21
-4.2699999999999996
 31
0.0
  0
LINE
  5
16A
100
AcDbEntity
  8
0
  6
CONTINUOUS
 62
               7
100
AcDbLine
 10
122.75
 20
4.2699999999999996
 30
0.0
 11
124.0
 21
3.5499999999999998
 31
0.0
  0
LINE
  5
16B
100
AcDbEntity
  8
0
  6
CONTINUOUS
 62
               7
100
AcDbLine
 10
124.0
 20
6.4400000000000004
 30
0.0
 11
125.25
 21
5.7199999999999998
 31
0.0
  0
LINE
  5
16C
100
AcDbEntity
  8
0
  6
CONTINUOUS
 62
               7
100
AcDbLine
 10
124.0
 20
3.5499999999999998
 30
0.0
 11
125.25
 21
4.2699999999999996
 31
0.0
  0
LINE
  5
16D
100
AcDbEntity
  8
0
  6
CONTINUOUS
 62
               7
100
AcDbLine
 10
122.75
 20
5.7199999999999998
 30
0.0
 11
124.0
 21
6.4400000000000004
 31
0.0
  0
LINE
  5
16E
100
AcDbEntity
  8
0
  6
CONTINUOUS
 62
               7
100
AcDbLine
 10
122.75
 20
5.7199999999999998
 30
0.0
 11
122.75
 21
4.2699999999999996
 31
0.0
  0
LINE
  5
16F
100
AcDbEntity
  8
0
  6
CONTINUOUS
 62
               7
100
AcDbLine
 10
125.25
 20
5.7199999999999998
 30
0.0
 11
125.25
 21
4.2699999999999996
 31
0.0
  0
LINE
  5
170
100
AcDbEntity
  8
0
  6
CENTER
 62
               2
100
AcDbLine
 10
119.55
 20
-5.0
 30
0.0
 11
127.56
 21
-5.0
 31
0.0
  0
LINE
  5
171
100
AcDbEntity
  8
0
  6
CENTER
 62
               2
100
AcDbLine
 10
124.0
 20
-0.5600000000000001
 30
0.0
 11
124.0
 21
-8.7100000000000009
 31
0.0
  0
LINE
  5
172
100
AcDbEntity
  8
0
  6
CENTER
 62
               2
100
AcDbLine
 10
119.55
 20
5.0
 30
0.0
 11
127.37
 21
5.0
 31
0.0
  0
LINE
  5
173
100
AcDbEntity
  8
0
  6
CENTER
 62
               2
100
AcDbLine
 10
114.0
 20
-0.45
 30
0.0
 11
114.0
 21
-8.5299999999999994
 31
0.0
  0
LINE
  5
174
100
AcDbEntity
  8
0
  6
CENTER
 62
               2
100
AcDbLine
 10
124.0
 20
8.3900000000000006
 30
0.0
 11
124.0
 21
0.59
 31
0.0
  0
LINE
  5
175
100
AcDbEntity
  8
0
  6
CENTER
 62
               2
100
AcDbLine
 10
110.5
 20
-5.0
 30
0.0
 11
118.3
 21
-5.0
 31
0.0
  0
LINE
  5
176
100
AcDbEntity
  8
0
  6
CENTER
 62
               2
100
AcDbLine
 10
114.0
 20
8.5
 30
0.0
 11
114.0
 21
0.43
 31
0.0
  0
LINE
  5
177
100
AcDbEntity
  8
0
  6
CENTER
 62
               2
100
AcDbLine
 10
110.5
 20
5.0
 30
0.0
 11
118.45
 21
5.0
 31
0.0
  0
LINE
  5
178
100
AcDbEntity
  8
0
  6
CONTINUOUS
 62
               7
100
AcDbLine
 10
111.0
 20
-8.0
 30
0.0
 11
127.0
 21
-8.0
 31
0.0
  0
LINE
  5
179
100
AcDbEntity
  8
0
  6
CONTINUOUS
 62
               7
100
AcDbLine
 10
111.0
 20
8.0
 30
0.0
 11
127.0
 21
8.0
 31
0.0
  0
LINE
  5
17A
100
AcDbEntity
  8
0
  6
CONTINUOUS
 62
               7
100
AcDbLine
 10
133.0
 20
-10.0
 30
0.0
 11
133.0
 21
10.0
 31
0.0
  0
LINE
  5
17B
100
AcDbEntity
  8
0
  6
CONTINUOUS
 62
               7
100
AcDbLine
 10
127.0
 20
-14.5
 30
0.0
 11
111.0
 21
-14.5
 31
0.0
  0
LINE
  5
17C
100
AcDbEntity
  8
0
  6
CENTER
 62
               2
100
AcDbLine
 10
119.0
 20
9.1999999999999993
 30
0.0
 11
119.0
 21
-16.16
 31
0.0
  0
LINE
  5
17D
100
AcDbEntity
  8
0
  6
CONTINUOUS
 62
               7
100
AcDbLine
 10
127.0
 20
-10.0
 30
0.0
 11
133.0
 21
-10.0
 31
0.0
  0
LINE
  5
17E
100
AcDbEntity
  8
0
  6
CONTINUOUS
 62
               7
100
AcDbLine
 10
127.0
 20
10.0
 30
0.0
 11
133.0
 21
10.0
 31
0.0
  0
LINE
  5
17F
100
AcDbEntity
  8
0
  6
CONTINUOUS
 62
               7
100
AcDbLine
 10
127.0
 20
-14.5
 30
0.0
 11
127.0
 21
14.5
 31
0.0
  0
LINE
  5
180
100
AcDbEntity
  8
0
  6
CONTINUOUS
 62
               7
100
AcDbLine
 10
111.0
 20
14.5
 30
0.0
 11
111.0
 21
-14.5
 31
0.0
  0
ENDBLK
  5
181
100
AcDbEntity
  8
0
100
AcDbBlockEnd
  0
ENDSEC
  0
SECTION
  2
ENTITIES
  0
INSERT
  5
182
100
AcDbEntity
  8
0
100
AcDbBlockReference
  2
MS_4
 10
-62.6834716796875
 20
46.301010131835938
 30
0.0
  0
INSERT
  5
183
100
AcDbEntity
  8
0
100
AcDbBlockReference
  2
MS_3
 10
130.31655883789063
 20
-53.698974609375
 30
0.0
  0
INSERT
  5
184
100
AcDbEntity
  8
0
100
AcDbBlockReference
  2
MS_2
 10
-142.6834716796875
 20
-53.698974609375
 30
0.0
  0
INSERT
  5
185
100
AcDbEntity
  8
0
100
AcDbBlockReference
  2
MS_1
 10
-62.6834716796875
 20
-53.698974609375
 30
0.0
  0
MTEXT
  5
186
100
AcDbEntity
  8
0
  6
CONTINUOUS
 62
               7
100
AcDbMText
 10
-185.70588235386927
 20
107.60000610351562
 30
0.0
 40
4.5
 41
0.0
 71
               4
 72
               1
  1
\W1.059;\A1;MODEL:CS-DABK20*ST(25)-HL-2
  7
MX_NOTE_STANDARD
  0
MTEXT
  5
187
100
AcDbEntity
  8
0
  6
CONTINUOUS
 62
               7
100
AcDbMText
 10
-186.94642857356681
 20
125.10000610351562
 30
0.0
 40
4.5
 41
0.0
 71
               4
 72
               1
  1
\W1.071;\A1;CS-SLIM CYLINDER
  7
MX_NOTE_STANDARD
  0
MTEXT
  5
188
100
AcDbEntity
  8
0
  6
CONTINUOUS
 62
               7
100
AcDbMText
 10
115.5267259825148
 20
-126.0
 30
0.0
 40
6.3000001907348633
 41
0.0
 71
               4
 72
               1
  1
\W1.121;\A1;KOGANEI CORP.
  7
MX_NOTE_STANDARD
  0
MTEXT
  5
189
100
AcDbEntity
  8
0
  6
CONTINUOUS
 62
               7
100
AcDbMText
 10
135.28361320576767
 20
125.10000610351562
 30
0.0
 40
4.5
 41
0.0
 71
               4
 72
               1
  1
\W1.311;\A1;Ver. 1.0
  7
MX_NOTE_STANDARD
  0
LINE
  5
18A
100
AcDbEntity
  8
DEFPOINTS
  6
NON_PLOTING
 62
               7
100
AcDbLine
 10
-113.01000000000001
 20
-130.00999999999999
 30
0.0
 11
-113.01000000000001
 21
-130.11000000000001
 31
0.0
  0
LINE
  5
18B
100
AcDbEntity
  8
0
  6
CONTINUOUS
 62
               7
100
AcDbLine
 10
-109.25
 20
132.59999999999999
 30
0.0
 11
-109.25
 21
117.59999999999999
 31
0.0
  0
LINE
  5
18C
100
AcDbEntity
  8
0
  6
CONTINUOUS
 62
               7
100
AcDbLine
 10
-194.25
 20
117.59999999999999
 30
0.0
 11
-109.25
 21
117.59999999999999
 31
0.0
  0
LINE
  5
18D
100
AcDbEntity
  8
0
  6
CONTINUOUS
 62
               7
100
AcDbLine
 10
109.8
 20
117.59999999999999
 30
0.0
 11
194.80000000000001
 21
117.59999999999999
 31
0.0
  0
LINE
  5
18E
100
AcDbEntity
  8
0
  6
CONTINUOUS
 62
               7
100
AcDbLine
 10
109.8
 20
132.59999999999999
 30
0.0
 11
109.8
 21
117.59999999999999
 31
0.0
  0
LINE
  5
18F
100
AcDbEntity
  8
0
  6
CONTINUOUS
 62
               7
100
AcDbLine
 10
109.8
 20
-118.5
 30
0.0
 11
194.80000000000001
 21
-118.5
 31
0.0
  0
LINE
  5
190
100
AcDbEntity
  8
0
  6
CONTINUOUS
 62
               7
100
AcDbLine
 10
109.8
 20
-118.5
 30
0.0
 11
109.8
 21
-133.5
 31
0.0
  0
LINE
  5
191
100
AcDbEntity
  8
0
  6
CONTINUOUS
 62
               7
100
AcDbLine
 10
-194.25
 20
-133.5
 30
0.0
 11
194.80000000000001
 21
-133.5
 31
0.0
  0
LINE
  5
192
100
AcDbEntity
  8
0
  6
CONTINUOUS
 62
               7
100
AcDbLine
 10
-194.25
 20
132.59999999999999
 30
0.0
 11
-194.25
 21
-133.5
 31
0.0
  0
LINE
  5
193
100
AcDbEntity
  8
0
  6
CONTINUOUS
 62
               7
100
AcDbLine
 10
194.80000000000001
 20
132.59999999999999
 30
0.0
 11
194.80000000000001
 21
-133.5
 31
0.0
  0
LINE
  5
194
100
AcDbEntity
  8
0
  6
CONTINUOUS
 62
               7
100
AcDbLine
 10
-194.25
 20
132.59999999999999
 30
0.0
 11
194.80000000000001
 21
132.59999999999999
 31
0.0
  0
ENDSEC
  0
SECTION
  2
OBJECTS
  0
DICTIONARY
  5
19
100
AcDbDictionary
  3
ACAD_GROUP
350
1A
  3
ACAD_MLINESTYLE
350
1B
  0
DICTIONARY
  5
1A
102
{ACAD_REACTORS
330
19
102
}
100
AcDbDictionary
  0
DICTIONARY
  5
1B
102
{ACAD_REACTORS
330
19
102
}
100
AcDbDictionary
  3
STANDARD
350
1C
  0
MLINESTYLE
  5
1C
102
{ACAD_REACTORS
330
1B
102
}
100
AcDbMlineStyle
  2
Standard
 70
               0
  3

 62
               0
 51
90.0
 52
90.0
 71
               2
 49
0.5
 62
             256
  6
ByLayer
 49
-0.5
 62
             256
  6
ByLayer
  0
ENDSEC
  0
EOF
