  0
SECTION
  2
HEADER
  9
$ACADVER
  1
AC1012
  9
$DWGCODEPAGE
  3
dos932
  9
$INSBASE
 10
0.0
 20
0.0
 30
0.0
  9
$EXTMIN
 10
-399.25
 20
-276.75
 30
0.0
  9
$EXTMAX
 10
406.04981708526611
 20
276.25
 30
0.0
  9
$LIMMIN
 10
-399.25
 20
-276.75
  9
$LIMMAX
 10
406.04981708526611
 20
276.25
  9
$ORTHOMODE
 70
               0
  9
$REGENMODE
 70
               1
  9
$FILLMODE
 70
               1
  9
$QTEXTMODE
 70
               0
  9
$MIRRTEXT
 70
               1
  9
$DRAGMODE
 70
               2
  9
$LTSCALE
 40
1.0
  9
$OSMODE
 70
               0
  9
$ATTMODE
 70
               1
  9
$TEXTSIZE
 40
3.2000000476837158
  9
$TRACEWID
 40
0.05
  9
$TEXTSTYLE
  7
MX_NOTE_STANDARD
  9
$CLAYER
  8
0
  9
$CELTYPE
  6
CONTINUOUS
  9
$CECOLOR
 62
             256
  9
$CELTSCALE
 40
1.0
  9
$DELOBJ
 70
               1
  9
$DISPSILH
 70
               0
  9
$DIMSCALE
 40
1.0
  9
$DIMASZ
 40
2.5
  9
$DIMEXO
 40
1.5
  9
$DIMDLI
 40
3.75
  9
$DIMRND
 40
0.0
  9
$DIMDLE
 40
0.0
  9
$DIMEXE
 40
1.5
  9
$DIMTP
 40
0.0
  9
$DIMTM
 40
0.0
  9
$DIMTXT
 40
3.2000000476837158
  9
$DIMCEN
 40
2.5
  9
$DIMTSZ
 40
0.0
  9
$DIMTOL
 70
               0
  9
$DIMLIM
 70
               0
  9
$DIMTIH
 70
               0
  9
$DIMTOH
 70
               0
  9
$DIMSE1
 70
               0
  9
$DIMSE2
 70
               0
  9
$DIMTAD
 70
               1
  9
$DIMZIN
 70
               8
  9
$DIMBLK
  1

  9
$DIMASO
 70
               1
  9
$DIMSHO
 70
               1
  9
$DIMPOST
  1

  9
$DIMAPOST
  1

  9
$DIMALT
 70
               0
  9
$DIMALTD
 70
               4
  9
$DIMALTF
 40
0.0394
  9
$DIMLFAC
 40
1.0
  9
$DIMTOFL
 70
               1
  9
$DIMTVP
 40
0.0
  9
$DIMTIX
 70
               0
  9
$DIMSOXD
 70
               0
  9
$DIMSAH
 70
               0
  9
$DIMBLK1
  1

  9
$DIMBLK2
  1

  9
$DIMSTYLE
  2
MXDIMSTYLE
  9
$DIMCLRD
 70
               0
  9
$DIMCLRE
 70
               0
  9
$DIMCLRT
 70
               0
  9
$DIMTFAC
 40
1.0
  9
$DIMGAP
 40
1.0
  9
$DIMJUST
 70
               0
  9
$DIMSD1
 70
               0
  9
$DIMSD2
 70
               0
  9
$DIMTOLJ
 70
               1
  9
$DIMTZIN
 70
               0
  9
$DIMALTZ
 70
               0
  9
$DIMALTTZ
 70
               0
  9
$DIMFIT
 70
               3
  9
$DIMUPT
 70
               1
  9
$DIMUNIT
 70
               2
  9
$DIMDEC
 70
               4
  9
$DIMTDEC
 70
               4
  9
$DIMALTU
 70
               8
  9
$DIMALTTD
 70
               4
  9
$DIMTXSTY
  7
MX_NOTE_STANDARD
  9
$DIMAUNIT
 70
               0
  9
$LUNITS
 70
               2
  9
$LUPREC
 70
               4
  9
$SKETCHINC
 40
0.1
  9
$FILLETRAD
 40
0.0
  9
$AUNITS
 70
               0
  9
$AUPREC
 70
               0
  9
$MENU
  1
acad
  9
$ELEVATION
 40
0.0
  9
$PELEVATION
 40
0.0
  9
$THICKNESS
 40
0.0
  9
$LIMCHECK
 70
               0
  9
$BLIPMODE
 70
               1
  9
$CHAMFERA
 40
0.0
  9
$CHAMFERB
 40
0.0
  9
$CHAMFERC
 40
0.0
  9
$CHAMFERD
 40
0.0
  9
$SKPOLY
 70
               0
  9
$TDCREATE
 40
2452220.697048611
  9
$TDUPDATE
 40
2452220.697048611
  9
$TDINDWG
 40
0.0000000000
  9
$TDUSRTIMER
 40
0.0000000000
  9
$USRTIMER
 70
               1
  9
$ANGBASE
 50
0.0
  9
$ANGDIR
 70
               0
  9
$PDMODE
 70
               0
  9
$PDSIZE
 40
0.0
  9
$PLINEWID
 40
0.0
  9
$COORDS
 70
               1
  9
$SPLFRAME
 70
               0
  9
$SPLINETYPE
 70
               6
  9
$SPLINESEGS
 70
               8
  9
$ATTDIA
 70
               0
  9
$ATTREQ
 70
               1
  9
$HANDLING
 70
               1
  9
$HANDSEED
  5
2AB
  9
$SURFTAB1
 70
               6
  9
$SURFTAB2
 70
               6
  9
$SURFTYPE
 70
               6
  9
$SURFU
 70
               6
  9
$SURFV
 70
               6
  9
$UCSNAME
  2

  9
$UCSORG
 10
0.0
 20
0.0
 30
0.0
  9
$UCSXDIR
 10
1.0
 20
0.0
 30
0.0
  9
$UCSYDIR
 10
0.0
 20
1.0
 30
0.0
  9
$PUCSNAME
  2

  9
$PUCSORG
 10
0.0
 20
0.0
 30
0.0
  9
$PUCSXDIR
 10
1.0
 20
0.0
 30
0.0
  9
$PUCSYDIR
 10
0.0
 20
1.0
 30
0.0
  9
$USERI1
 70
               0
  9
$USERI2
 70
               0
  9
$USERI3
 70
               0
  9
$USERI4
 70
               0
  9
$USERI5
 70
               0
  9
$USERR1
 40
0.0
  9
$USERR2
 40
0.0
  9
$USERR3
 40
0.0
  9
$USERR4
 40
0.0
  9
$USERR5
 40
0.0
  9
$WORLDVIEW
 70
               1
  9
$SHADEDGE
 70
               3
  9
$SHADEDIF
 70
              70
  9
$TILEMODE
 70
               1
  9
$MAXACTVP
 70
              16
  9
$PINSBASE
 10
0.0
 20
0.0
 30
0.0
  9
$PLIMCHECK
 70
               0
  9
$PEXTMIN
 10
1.0000000000000000E+20
 20
1.0000000000000000E+20
 30
1.0000000000000000E+20
  9
$PEXTMAX
 10
-1.0000000000000000E+20
 20
-1.0000000000000000E+20
 30
-1.0000000000000000E+20
  9
$PLIMMIN
 10
0.0
 20
0.0
  9
$PLIMMAX
 10
12.0
 20
9.0
  9
$UNITMODE
 70
               0
  9
$VISRETAIN
 70
               0
  9
$PLINEGEN
 70
               1
  9
$PSLTSCALE
 70
               0
  9
$TREEDEPTH
 70
            3020
  9
$PICKSTYLE
 70
               1
  9
$CMLSTYLE
  2
Standard
  9
$CMLJUST
 70
               0
  9
$CMLSCALE
 40
1.0
  9
$SAVEIMAGES
 70
               0
  0
ENDSEC
  0
SECTION
  2
CLASSES
  0
CLASS
  1
LWPOLYLINE
  2
AcDbPolyline
  3
"AutoCAD"
 90
        0
280
               0
281
               1
  0
CLASS
  1
IMAGE
  2
AcDbRasterImage
  3
ISM
 90
      127
280
               0
281
               1
  0
CLASS
  1
OLE2FRAME
  2
AcDbOle2Frame
  3
""
 90
        0
280
               0
281
               1
  0
CLASS
  1
HATCH
  2
AcDbHatch
  3
"ACAD_SEDONA"
 90
        0
280
               0
281
               1
  0
CLASS
  1
DICTIONARYVAR
  2
AcDbDictionaryVar
  3
"AutoCAD"
 90
        0
280
               0
281
               0
  0
CLASS
  1
RASTERVARIABLES
  2
AcDbRasterVariables
  3
ISM
 90
        0
280
               0
281
               0
  0
CLASS
  1
IMAGEDEF
  2
AcDbRasterImageDef
  3
ISM
 90
        0
280
               0
281
               0
  0
CLASS
  1
IMAGEDEF_REACTOR
  2
AcDbRasterImageDefReactor
  3
ISM
 90
        1
280
               0
281
               0
  0
CLASS
  1
IDBUFFER
  2
AcDbIdBuffer
  3
"Acad"
 90
        0
280
               0
281
               0
  0
CLASS
  1
SPATIAL_FILTER
  2
AcDbSpatialFilter
  3
"Acad"
 90
        0
280
               0
281
               0
  0
CLASS
  1
XRECORD
  2
AcDbXrecord
  3
"<Built In>"
 90
        0
280
               0
281
               0
  0
CLASS
  1
SORTENTSTABLE
  2
AcDbSortentsTable
  3
"AutoCAD"
 90
        0
280
               0
281
               0
  0
CLASS
  1
LAYER_INDEX
  2
AcDbLayerIndex
  3
"Acad"
 90
        0
280
               0
281
               0
  0
CLASS
  1
SPATIAL_INDEX
  2
AcDbSpatialIndex
  3
"Acad"
 90
        0
280
               0
281
               0
  0
CLASS
  1
OBJECT_PTR
  2
CAseDLPNTableRecord
  3
"ASE-LPNTableRecord"
 90
        1
280
               0
281
               0
  0
CLASS
  1
LAYOUT
  2
AcDbLayout
  3
"AutoCAD 2000"
 90
        1
280
               0
281
               0
  0
CLASS
  1
PLOTSETTINGS
  2
AcDbPlotSettings
  3
"AutoCAD 2000"
 90
        1
280
               0
281
               0
  0
CLASS
  1
ACDBDICTIONARYWDFLT
  2
AcDbDictionaryWithDefault
  3
"AutoCAD 2000"
 90
        1
280
               0
281
               0
  0
CLASS
  1
ACDBPLACEHOLDER
  2
AcDbPlaceHolder
  3
"AutoCAD 2000"
 90
        1
280
               0
281
               0
  0
CLASS
  1
VBA_PROJECT
  2
AcDbVbaProject
  3
"acadvba"
 90
        1
280
               0
281
               0
  0
CLASS
  1
WIPEOUT
  2
AcDbWipeout
  3
WipeOut|AutoCAD Express Tool|expresstools@autodesk.com
 90
      127
280
               0
281
               1
  0
CLASS
  1
WIPEOUTVARIABLES
  2
AcDbWipeoutVariables
  3
WipeOut|AutoCAD Express Tool|expresstools@autodesk.com
 90
        0
280
               0
281
               0
  0
CLASS
  1
RTEXT
  2
RText
  3
RText|AutoCAD Express Tool|expresstools@autodesk.com
 90
        0
280
               0
281
               1
  0
CLASS
  1
ARCALIGNEDTEXT
  2
AcDbArcAlignedText
  3
ATEXT|AutoCAD Express Tool|expresstools@autodesk.com
 90
        0
280
               0
281
               1
  0
ENDSEC
  0
SECTION
  2
TABLES
  0
TABLE
  2
VPORT
  5
7
100
AcDbSymbolTable
 70
               1
  0
VPORT
  5
15
100
AcDbSymbolTableRecord
100
AcDbViewportTableRecord
  2
*ACTIVE
 70
               0
 10
0.0
 20
0.0
 11
1.0
 21
1.0
 12
3.3999085426330566
 22
-0.25
 13
0.0
 23
0.0
 14
1.0
 24
1.0
 15
0.0
 25
0.0
 16
0.0
 26
0.0
 36
1.0
 17
0.0
 27
0.0
 37
0.0
 40
558.52999999999997
 41
1.7320508075688772
 42
50.0
 43
0.0
 44
0.0
 50
0.0
 51
0.0
 71
               0
 72
             100
 73
               1
 74
               1
 75
               0
 76
               0
 77
               0
 78
               0
  0
ENDTAB
  0
TABLE
  2
LTYPE
  5
4
100
AcDbSymbolTable
 70
               4
  0
LTYPE
  5
11
100
AcDbSymbolTableRecord
100
AcDbLinetypeTableRecord
  2
BYBLOCK
 70
              64
  3

 72
              65
 73
               0
 40
0.0
  0
LTYPE
  5
12
100
AcDbSymbolTableRecord
100
AcDbLinetypeTableRecord
  2
BYLAYER
 70
              64
  3

 72
              65
 73
               0
 40
0.0
  0
LTYPE
  5
13
100
AcDbSymbolTableRecord
100
AcDbLinetypeTableRecord
  2
CONTINUOUS
 70
              64
  3
Solid line
 72
              65
 73
               0
 40
0.0
  0
LTYPE
  5
3E
100
AcDbSymbolTableRecord
100
AcDbLinetypeTableRecord
  2
CENTER
 70
              64
  3
Center ____ _ ____ _ ____ _ ____ _ ____ _ ____
 72
              65
 73
               4
 40
50.800000000000004
 49
31.75
 74
               0
 49
-6.3499999999999996
 74
               0
 49
6.3499999999999996
 74
               0
 49
-6.3499999999999996
 74
               0
  0
ENDTAB
  0
TABLE
  2
LAYER
  5
2
100
AcDbSymbolTable
 70
               2
  0
LAYER
  5
14
100
AcDbSymbolTableRecord
100
AcDbLayerTableRecord
  2
0
 70
               0
 62
               7
  6
CONTINUOUS
  0
LAYER
  5
1D
100
AcDbSymbolTableRecord
100
AcDbLayerTableRecord
  2
DEFPOINTS
 70
               0
 62
               7
  6
CONTINUOUS
  0
ENDTAB
  0
TABLE
  2
STYLE
  5
3
100
AcDbSymbolTable
 70
               1
  0
STYLE
  5
17
100
AcDbSymbolTableRecord
100
AcDbTextStyleTableRecord
  2
MX_NOTE_STANDARD
 70
               0
 40
3.2000000476837158
 41
1.0
 50
0.0
 71
               0
 42
3.2000000476837158
  3
txt.shx
  4
extfont.shx
  0
ENDTAB
  0
TABLE
  2
VIEW
  5
5
100
AcDbSymbolTable
 70
               0
  0
ENDTAB
  0
TABLE
  2
UCS
  5
6
100
AcDbSymbolTable
 70
               0
  0
ENDTAB
  0
TABLE
  2
APPID
  5
8
100
AcDbSymbolTable
 70
               1
  0
APPID
  5
16
100
AcDbSymbolTableRecord
100
AcDbRegAppTableRecord
  2
ACAD
 70
               0
  0
ENDTAB
  0
TABLE
  2
DIMSTYLE
  5
9
100
AcDbSymbolTable
 70
               1
  0
DIMSTYLE
105
18
100
AcDbSymbolTableRecord
100
AcDbDimStyleTableRecord
  2
MXDIMSTYLE
 70
               0
  3

  4

  5

  6

  7

 40
1.0
 41
2.5
 42
1.5
 43
3.75
 44
1.5
 45
0.0
 46
0.0
 47
0.0
 48
0.0
 71
               0
 72
               0
 73
               0
 74
               0
 75
               0
 76
               0
 77
               1
 78
               8
140
3.2000000476837158
141
2.5
142
0.0
143
0.0394
144
1.0
145
0.0
146
1.0
147
1.0
170
               0
171
               4
172
               1
173
               0
174
               0
175
               0
176
               0
177
               0
178
               0
270
               2
271
               4
272
               4
273
               8
274
               4
275
               0
280
               0
281
               0
282
               0
283
               1
284
               0
285
               0
286
               0
287
               3
288
               1
340
17
  0
ENDTAB
  0
TABLE
  2
BLOCK_RECORD
  5
1
100
AcDbSymbolTable
 70
               8
  0
BLOCK_RECORD
  5
A
100
AcDbSymbolTableRecord
100
AcDbBlockTableRecord
  2
*MODEL_SPACE
  0
BLOCK_RECORD
  5
B
100
AcDbSymbolTableRecord
100
AcDbBlockTableRecord
  2
*PAPER_SPACE
  0
BLOCK_RECORD
  5
1E
100
AcDbSymbolTableRecord
100
AcDbBlockTableRecord
  2
MS_1
  0
BLOCK_RECORD
  5
1F
100
AcDbSymbolTableRecord
100
AcDbBlockTableRecord
  2
MS_2
  0
BLOCK_RECORD
  5
20
100
AcDbSymbolTableRecord
100
AcDbBlockTableRecord
  2
MS_3
  0
BLOCK_RECORD
  5
21
100
AcDbSymbolTableRecord
100
AcDbBlockTableRecord
  2
MS_4
  0
BLOCK_RECORD
  5
22
100
AcDbSymbolTableRecord
100
AcDbBlockTableRecord
  2
MS_5
  0
BLOCK_RECORD
  5
23
100
AcDbSymbolTableRecord
100
AcDbBlockTableRecord
  2
MS_6
  0
BLOCK_RECORD
  5
24
100
AcDbSymbolTableRecord
100
AcDbBlockTableRecord
  2
MS_7
  0
BLOCK_RECORD
  5
25
100
AcDbSymbolTableRecord
100
AcDbBlockTableRecord
  2
MS_8
  0
ENDTAB
  0
ENDSEC
  0
SECTION
  2
BLOCKS
  0
BLOCK
  5
D
100
AcDbEntity
  8
0
100
AcDbBlockBegin
  2
*MODEL_SPACE
 70
               0
 10
0.0
 20
0.0
 30
0.0
  3
*MODEL_SPACE
  1

  0
ENDBLK
  5
E
100
AcDbEntity
  8
0
100
AcDbBlockEnd
  0
BLOCK
  5
F
100
AcDbEntity
 67
               1
  8
0
100
AcDbBlockBegin
  2
*PAPER_SPACE
 70
               0
 10
0.0
 20
0.0
 30
0.0
  3
*PAPER_SPACE
  1

  0
ENDBLK
  5
10
100
AcDbEntity
 67
               1
  8
0
100
AcDbBlockEnd
  0
BLOCK
  5
26
100
AcDbEntity
  8
0
100
AcDbBlockBegin
  2
MS_1
 70
               0
 10
0.0
 20
0.0
 30
0.0
  3
MS_1
  1

  0
CIRCLE
  5
27
100
AcDbEntity
  8
0
  6
CONTINUOUS
 62
               7
100
AcDbCircle
 10
0.0
 20
-43.999984741210938
 30
0.0
 40
1.5999994277954102
  0
CIRCLE
  5
28
100
AcDbEntity
  8
0
  6
CONTINUOUS
 62
               7
100
AcDbCircle
 10
0.0
 20
0.0
 30
0.0
 40
1.5999994277954102
  0
CIRCLE
  5
29
100
AcDbEntity
  8
0
  6
CONTINUOUS
 62
               7
100
AcDbCircle
 10
6.20001220703125
 20
-34.79998779296875
 30
0.0
 40
1.25
  0
CIRCLE
  5
2A
100
AcDbEntity
  8
0
  6
CONTINUOUS
 62
               7
100
AcDbCircle
 10
13.79998779296875
 20
-9.1999969482421875
 30
0.0
 40
1.25
  0
CIRCLE
  5
2B
100
AcDbEntity
  8
0
  6
CONTINUOUS
 62
               7
100
AcDbCircle
 10
7.0
 20
-9.0
 30
0.0
 40
1.25
  0
CIRCLE
  5
2C
100
AcDbEntity
  8
0
  6
CONTINUOUS
 62
               7
100
AcDbCircle
 10
13.0
 20
-35.0
 30
0.0
 40
1.25
  0
CIRCLE
  5
2D
100
AcDbEntity
  8
0
  6
CONTINUOUS
 62
               7
100
AcDbCircle
 10
7.0
 20
-9.0
 30
0.0
 40
1.3999996185302734
  0
CIRCLE
  5
2E
100
AcDbEntity
  8
0
  6
CONTINUOUS
 62
               7
100
AcDbCircle
 10
13.0
 20
-35.0
 30
0.0
 40
1.3999996185302734
  0
ARC
  5
2F
100
AcDbEntity
  8
0
  6
CONTINUOUS
 62
               7
100
AcDbCircle
 10
6.2000122070312509
 20
-34.79998779296875
 30
0.0
 40
1.599987793015315
100
AcDbArc
 50
359.99956286455739
 51
90.000437135441786
  0
ARC
  5
30
100
AcDbEntity
  8
0
  6
CONTINUOUS
 62
               7
100
AcDbCircle
 10
13.79998779296875
 20
-9.20001220703125
 30
0.0
 40
1.599987793015317
100
AcDbArc
 50
179.99956286455765
 51
270.00043713544136
  0
ARC
  5
31
100
AcDbEntity
  8
0
  6
CONTINUOUS
 62
               7
100
AcDbCircle
 10
8.2000091552850787
 20
-37.399990844714914
 30
0.0
 40
0.4000091553898494
100
AcDbArc
 50
180.00131136797347
 51
269.99868863202624
  0
ARC
  5
32
100
AcDbEntity
  8
0
  6
CONTINUOUS
 62
               7
100
AcDbCircle
 10
14.599999999953436
 20
-37.39999999995343
 30
0.0
 40
0.4000000000465647
100
AcDbArc
 50
270.00000000666915
 51
359.99999999332869
  0
ARC
  5
33
100
AcDbEntity
  8
0
  6
CONTINUOUS
 62
               7
100
AcDbCircle
 10
14.599996948137415
 20
-11.200003051862586
 30
0.0
 40
0.4000030518742281
100
AcDbArc
 50
0.0004371437794062
 51
89.999562856220649
  0
ARC
  5
34
100
AcDbEntity
  8
0
  6
CONTINUOUS
 62
               7
100
AcDbCircle
 10
11.799990844714921
 20
-6.600009155285079
 30
0.0
 40
0.4000091553898503
100
AcDbArc
 50
0.0013113679731219
 51
89.998688632026671
  0
ARC
  5
35
100
AcDbEntity
  8
0
  6
CONTINUOUS
 62
               7
100
AcDbCircle
 10
5.4000152588938359
 20
-6.600015258893837
 30
0.0
 40
0.4000152591848674
100
AcDbArc
 50
90.002185592166484
 51
179.99781440783266
  0
ARC
  5
36
100
AcDbEntity
  8
0
  6
CONTINUOUS
 62
               7
100
AcDbCircle
 10
5.4000183105934427
 20
-32.799981689406557
 30
0.0
 40
0.4000183110125206
100
AcDbArc
 50
180.00262267925191
 51
269.99737732074669
  0
ARC
  5
37
100
AcDbEntity
  8
0
  6
CONTINUOUS
 62
               7
100
AcDbCircle
 10
5.4000167847407283
 20
-52.599983215259265
 30
0.0
 40
0.400016785092873
100
AcDbArc
 50
180.00240413612727
 51
269.99759586387296
  0
ARC
  5
38
100
AcDbEntity
  8
0
  6
CONTINUOUS
 62
               7
100
AcDbCircle
 10
14.599998474048334
 20
-52.599998474048327
 30
0.0
 40
0.4000015259545765
100
AcDbArc
 50
270.00021857564099
 51
359.99978142435634
  0
ARC
  5
39
100
AcDbEntity
  8
0
  6
CONTINUOUS
 62
               4
100
AcDbCircle
 10
5.549986267092172
 20
45.500013732907831
 30
0.0
 40
0.4999862672807701
100
AcDbArc
 50
89.998426281458791
 51
180.00157371854101
  0
ARC
  5
3A
100
AcDbEntity
  8
0
  6
CONTINUOUS
 62
               4
100
AcDbCircle
 10
14.450006103478373
 20
45.50000610347837
 30
0.0
 40
0.4999938965588804
100
AcDbArc
 50
359.99930058435962
 51
90.000699415639815
  0
CIRCLE
  5
3B
100
AcDbEntity
  8
0
  6
CONTINUOUS
 62
               7
100
AcDbCircle
 10
10.0
 20
9.6999969482421875
 30
0.0
 40
1.9499998092651367
  0
LINE
  5
3C
100
AcDbEntity
  8
0
  6
CONTINUOUS
 62
               4
100
AcDbLine
 10
15.0
 20
13.0
 30
0.0
 11
15.0
 21
37.0
 31
0.0
  0
LINE
  5
3D
100
AcDbEntity
  8
0
  6
CONTINUOUS
 62
               4
100
AcDbLine
 10
5.0
 20
13.0
 30
0.0
 11
5.0
 21
37.0
 31
0.0
  0
LINE
  5
3F
100
AcDbEntity
  8
0
  6
CENTER
 62
               2
100
AcDbLine
 10
0.0
 20
-2.6000000000000001
 30
0.0
 11
0.0
 21
2.6000000000000001
 31
0.0
  0
LINE
  5
40
100
AcDbEntity
  8
0
  6
CENTER
 62
               2
100
AcDbLine
 10
-2.6000000000000001
 20
0.0
 30
0.0
 11
2.6000000000000001
 21
0.0
 31
0.0
  0
LINE
  5
41
100
AcDbEntity
  8
0
  6
CENTER
 62
               2
100
AcDbLine
 10
-2.6000000000000001
 20
-44.0
 30
0.0
 11
2.6000000000000001
 21
-44.0
 31
0.0
  0
LINE
  5
42
100
AcDbEntity
  8
0
  6
CENTER
 62
               2
100
AcDbLine
 10
0.0
 20
-46.600000000000001
 30
0.0
 11
0.0
 21
-41.399999999999999
 31
0.0
  0
LINE
  5
43
100
AcDbEntity
  8
0
  6
CONTINUOUS
 62
               7
100
AcDbLine
 10
15.0
 20
3.0
 30
0.0
 11
19.0
 21
3.0
 31
0.0
  0
LINE
  5
44
100
AcDbEntity
  8
0
  6
CONTINUOUS
 62
               7
100
AcDbLine
 10
15.0
 20
-47.0
 30
0.0
 11
19.0
 21
-47.0
 31
0.0
  0
LINE
  5
45
100
AcDbEntity
  8
0
  6
CONTINUOUS
 62
               7
100
AcDbLine
 10
-3.0
 20
-47.0
 30
0.0
 11
5.0
 21
-47.0
 31
0.0
  0
LINE
  5
46
100
AcDbEntity
  8
0
  6
CONTINUOUS
 62
               7
100
AcDbLine
 10
-3.0
 20
3.0
 30
0.0
 11
5.0
 21
3.0
 31
0.0
  0
LINE
  5
47
100
AcDbEntity
  8
0
  6
CONTINUOUS
 62
               7
100
AcDbLine
 10
-3.0
 20
-47.0
 30
0.0
 11
-3.0
 21
3.0
 31
0.0
  0
LINE
  5
48
100
AcDbEntity
  8
0
  6
CONTINUOUS
 62
               7
100
AcDbLine
 10
19.0
 20
-47.0
 30
0.0
 11
19.0
 21
3.0
 31
0.0
  0
LINE
  5
49
100
AcDbEntity
  8
0
  6
CONTINUOUS
 62
               7
100
AcDbLine
 10
15.0
 20
-8.8499999999999996
 30
0.0
 11
15.0
 21
13.0
 31
0.0
  0
LINE
  5
4A
100
AcDbEntity
  8
0
  6
CONTINUOUS
 62
               7
100
AcDbLine
 10
5.0
 20
-34.450000000000003
 30
0.0
 11
5.0
 21
13.0
 31
0.0
  0
LINE
  5
4B
100
AcDbEntity
  8
0
  6
CONTINUOUS
 62
               7
100
AcDbLine
 10
5.5899999999999999
 20
-34.189999999999998
 30
0.0
 11
6.7999999999999998
 21
-35.399999999999999
 31
0.0
  0
LINE
  5
4C
100
AcDbEntity
  8
0
  6
CONTINUOUS
 62
               7
100
AcDbLine
 10
13.19
 20
-8.5899999999999999
 30
0.0
 11
14.4
 21
-9.8000000000000007
 31
0.0
  0
LINE
  5
4D
100
AcDbEntity
  8
0
  6
CONTINUOUS
 62
               7
100
AcDbLine
 10
13.19
 20
-9.8000000000000007
 30
0.0
 11
14.4
 21
-8.5899999999999999
 31
0.0
  0
LINE
  5
4E
100
AcDbEntity
  8
0
  6
CONTINUOUS
 62
               7
100
AcDbLine
 10
5.5899999999999999
 20
-35.399999999999999
 30
0.0
 11
6.7999999999999998
 21
-34.189999999999998
 31
0.0
  0
LINE
  5
4F
100
AcDbEntity
  8
0
  6
CONTINUOUS
 62
               7
100
AcDbLine
 10
5.4000000000000004
 20
-53.0
 30
0.0
 11
14.6
 21
-53.0
 31
0.0
  0
LINE
  5
50
100
AcDbEntity
  8
0
  6
CONTINUOUS
 62
               7
100
AcDbLine
 10
5.0
 20
-46.0
 30
0.0
 11
15.0
 21
-46.0
 31
0.0
  0
LINE
  5
51
100
AcDbEntity
  8
0
  6
CONTINUOUS
 62
               7
100
AcDbLine
 10
12.44
 20
-35.549999999999997
 30
0.0
 11
13.539999999999999
 21
-34.450000000000003
 31
0.0
  0
LINE
  5
52
100
AcDbEntity
  8
0
  6
CONTINUOUS
 62
               7
100
AcDbLine
 10
6.4400000000000004
 20
-9.5500000000000007
 30
0.0
 11
7.54
 21
-8.4499999999999993
 31
0.0
  0
LINE
  5
53
100
AcDbEntity
  8
0
  6
CONTINUOUS
 62
               7
100
AcDbLine
 10
7.54
 20
-9.5399999999999991
 30
0.0
 11
6.4400000000000004
 21
-8.4399999999999995
 31
0.0
  0
LINE
  5
54
100
AcDbEntity
  8
0
  6
CONTINUOUS
 62
               7
100
AcDbLine
 10
13.539999999999999
 20
-35.539999999999999
 30
0.0
 11
12.44
 21
-34.439999999999998
 31
0.0
  0
LINE
  5
55
100
AcDbEntity
  8
0
  6
CONTINUOUS
 62
               7
100
AcDbLine
 10
13.800000000000001
 20
-10.800000000000001
 30
0.0
 11
14.6
 21
-10.800000000000001
 31
0.0
  0
LINE
  5
56
100
AcDbEntity
  8
0
  6
CONTINUOUS
 62
               7
100
AcDbLine
 10
6.2000000000000002
 20
-33.200000000000003
 30
0.0
 11
5.4000000000000004
 21
-33.200000000000003
 31
0.0
  0
LINE
  5
57
100
AcDbEntity
  8
0
  6
CONTINUOUS
 62
               7
100
AcDbLine
 10
7.7999999999999998
 20
-34.799999999999997
 30
0.0
 11
7.7999999999999998
 21
-37.399999999999999
 31
0.0
  0
LINE
  5
58
100
AcDbEntity
  8
0
  6
CONTINUOUS
 62
               7
100
AcDbLine
 10
12.199999999999999
 20
-9.1999999999999993
 30
0.0
 11
12.199999999999999
 21
-6.5999999999999996
 31
0.0
  0
LINE
  5
59
100
AcDbEntity
  8
0
  6
CONTINUOUS
 62
               7
100
AcDbLine
 10
5.4000000000000004
 20
-6.2000000000000002
 30
0.0
 11
11.800000000000001
 21
-6.2000000000000002
 31
0.0
  0
LINE
  5
5A
100
AcDbEntity
  8
0
  6
CONTINUOUS
 62
               7
100
AcDbLine
 10
8.1999999999999993
 20
-37.799999999999997
 30
0.0
 11
14.6
 21
-37.799999999999997
 31
0.0
  0
LINE
  5
5B
100
AcDbEntity
  8
0
  6
CONTINUOUS
 62
               7
100
AcDbLine
 10
5.0
 20
-38.0
 30
0.0
 11
15.0
 21
-38.0
 31
0.0
  0
LINE
  5
5C
100
AcDbEntity
  8
0
  6
CONTINUOUS
 62
               7
100
AcDbLine
 10
5.0
 20
-6.0
 30
0.0
 11
15.0
 21
-6.0
 31
0.0
  0
LINE
  5
5D
100
AcDbEntity
  8
0
  6
CONTINUOUS
 62
               7
100
AcDbLine
 10
5.2999999999999998
 20
-46.0
 30
0.0
 11
5.2999999999999998
 21
-38.0
 31
0.0
  0
LINE
  5
5E
100
AcDbEntity
  8
0
  6
CONTINUOUS
 62
               7
100
AcDbLine
 10
14.699999999999999
 20
-46.0
 30
0.0
 11
14.699999999999999
 21
-38.0
 31
0.0
  0
LINE
  5
5F
100
AcDbEntity
  8
0
  6
CONTINUOUS
 62
               7
100
AcDbLine
 10
5.7000000000000002
 20
-45.600000000000001
 30
0.0
 11
14.300000000000001
 21
-45.600000000000001
 31
0.0
  0
LINE
  5
60
100
AcDbEntity
  8
0
  6
CONTINUOUS
 62
               7
100
AcDbLine
 10
5.7000000000000002
 20
-45.600000000000001
 30
0.0
 11
5.7000000000000002
 21
-38.399999999999999
 31
0.0
  0
LINE
  5
61
100
AcDbEntity
  8
0
  6
CONTINUOUS
 62
               7
100
AcDbLine
 10
5.7000000000000002
 20
-38.399999999999999
 30
0.0
 11
14.300000000000001
 21
-38.399999999999999
 31
0.0
  0
LINE
  5
62
100
AcDbEntity
  8
0
  6
CONTINUOUS
 62
               7
100
AcDbLine
 10
14.300000000000001
 20
-45.600000000000001
 30
0.0
 11
14.300000000000001
 21
-38.399999999999999
 31
0.0
  0
LINE
  5
63
100
AcDbEntity
  8
0
  6
CONTINUOUS
 62
               7
100
AcDbLine
 10
14.300000000000001
 20
-38.399999999999999
 30
0.0
 11
14.699999999999999
 21
-38.0
 31
0.0
  0
LINE
  5
64
100
AcDbEntity
  8
0
  6
CONTINUOUS
 62
               7
100
AcDbLine
 10
14.300000000000001
 20
-45.600000000000001
 30
0.0
 11
14.699999999999999
 21
-46.0
 31
0.0
  0
LINE
  5
65
100
AcDbEntity
  8
0
  6
CONTINUOUS
 62
               7
100
AcDbLine
 10
5.7000000000000002
 20
-45.600000000000001
 30
0.0
 11
5.2999999999999998
 21
-46.0
 31
0.0
  0
LINE
  5
66
100
AcDbEntity
  8
0
  6
CONTINUOUS
 62
               7
100
AcDbLine
 10
5.7000000000000002
 20
-38.399999999999999
 30
0.0
 11
5.2999999999999998
 21
-38.0
 31
0.0
  0
LINE
  5
67
100
AcDbEntity
  8
0
  6
CONTINUOUS
 62
               4
100
AcDbLine
 10
14.0
 20
50.5
 30
0.0
 11
14.0
 21
57.0
 31
0.0
  0
LINE
  5
68
100
AcDbEntity
  8
0
  6
CONTINUOUS
 62
               4
100
AcDbLine
 10
6.0
 20
50.5
 30
0.0
 11
6.0
 21
57.0
 31
0.0
  0
LINE
  5
69
100
AcDbEntity
  8
0
  6
CONTINUOUS
 62
               4
100
AcDbLine
 10
5.0999999999999996
 20
50.5
 30
0.0
 11
5.0999999999999996
 21
57.0
 31
0.0
  0
LINE
  5
6A
100
AcDbEntity
  8
0
  6
CONTINUOUS
 62
               4
100
AcDbLine
 10
14.9
 20
50.5
 30
0.0
 11
14.9
 21
57.0
 31
0.0
  0
LINE
  5
6B
100
AcDbEntity
  8
0
  6
CONTINUOUS
 62
               7
100
AcDbLine
 10
5.0
 20
-52.600000000000001
 30
0.0
 11
5.0
 21
-35.149999999999999
 31
0.0
  0
LINE
  5
6C
100
AcDbEntity
  8
0
  6
CONTINUOUS
 62
               7
100
AcDbLine
 10
15.0
 20
-52.600000000000001
 30
0.0
 11
15.0
 21
-9.5500000000000007
 31
0.0
  0
LINE
  5
6D
100
AcDbEntity
  8
0
  6
CONTINUOUS
 62
             200
100
AcDbLine
 10
14.050000000000001
 20
63.229999999999997
 30
0.0
 11
5.9500000000000002
 21
58.549999999999997
 31
0.0
  0
LINE
  5
6E
100
AcDbEntity
  8
0
  6
CONTINUOUS
 62
               4
100
AcDbLine
 10
7.2800000000000002
 20
57.0
 30
0.0
 11
7.2800000000000002
 21
58.170000000000002
 31
0.0
  0
LINE
  5
6F
100
AcDbEntity
  8
0
  6
CONTINUOUS
 62
               4
100
AcDbLine
 10
8.7100000000000009
 20
57.0
 30
0.0
 11
8.7100000000000009
 21
59.0
 31
0.0
  0
LINE
  5
70
100
AcDbEntity
  8
0
  6
CONTINUOUS
 62
               4
100
AcDbLine
 10
7.5999999999999996
 20
70.0
 30
0.0
 11
8.4000000000000004
 21
70.0
 31
0.0
  0
LINE
  5
71
100
AcDbEntity
  8
0
  6
CONTINUOUS
 62
               4
100
AcDbLine
 10
7.5999999999999996
 20
65.0
 30
0.0
 11
7.5999999999999996
 21
70.0
 31
0.0
  0
LINE
  5
72
100
AcDbEntity
  8
0
  6
CONTINUOUS
 62
               4
100
AcDbLine
 10
8.4000000000000004
 20
65.0
 30
0.0
 11
8.4000000000000004
 21
70.0
 31
0.0
  0
LINE
  5
73
100
AcDbEntity
  8
0
  6
CONTINUOUS
 62
               4
100
AcDbLine
 10
7.2800000000000002
 20
65.0
 30
0.0
 11
8.7100000000000009
 21
65.0
 31
0.0
  0
LINE
  5
74
100
AcDbEntity
  8
0
  6
CONTINUOUS
 62
               4
100
AcDbLine
 10
7.2800000000000002
 20
59.32
 30
0.0
 11
7.2800000000000002
 21
65.0
 31
0.0
  0
LINE
  5
75
100
AcDbEntity
  8
0
  6
CONTINUOUS
 62
               4
100
AcDbLine
 10
8.7100000000000009
 20
60.149999999999999
 30
0.0
 11
8.7100000000000009
 21
65.0
 31
0.0
  0
LINE
  5
76
100
AcDbEntity
  8
0
  6
CONTINUOUS
 62
               4
100
AcDbLine
 10
14.050000000000001
 20
49.5
 30
0.0
 11
14.050000000000001
 21
50.5
 31
0.0
  0
LINE
  5
77
100
AcDbEntity
  8
0
  6
CONTINUOUS
 62
               4
100
AcDbLine
 10
5.9500000000000002
 20
49.5
 30
0.0
 11
5.9500000000000002
 21
50.5
 31
0.0
  0
LINE
  5
78
100
AcDbEntity
  8
0
  6
CONTINUOUS
 62
               4
100
AcDbLine
 10
5.9500000000000002
 20
48.5
 30
0.0
 11
6.5
 21
48.5
 31
0.0
  0
LINE
  5
79
100
AcDbEntity
  8
0
  6
CONTINUOUS
 62
               4
100
AcDbLine
 10
5.9500000000000002
 20
49.5
 30
0.0
 11
6.5
 21
49.5
 31
0.0
  0
LINE
  5
7A
100
AcDbEntity
  8
0
  6
CONTINUOUS
 62
               4
100
AcDbLine
 10
13.5
 20
48.5
 30
0.0
 11
14.050000000000001
 21
48.5
 31
0.0
  0
LINE
  5
7B
100
AcDbEntity
  8
0
  6
CONTINUOUS
 62
               4
100
AcDbLine
 10
13.5
 20
49.5
 30
0.0
 11
14.050000000000001
 21
49.5
 31
0.0
  0
LINE
  5
7C
100
AcDbEntity
  8
0
  6
CONTINUOUS
 62
               4
100
AcDbLine
 10
13.5
 20
50.5
 30
0.0
 11
14.949999999999999
 21
50.5
 31
0.0
  0
LINE
  5
7D
100
AcDbEntity
  8
0
  6
CONTINUOUS
 62
               4
100
AcDbLine
 10
5.0999999999999996
 20
57.0
 30
0.0
 11
14.9
 21
57.0
 31
0.0
  0
LINE
  5
7E
100
AcDbEntity
  8
0
  6
CONTINUOUS
 62
               4
100
AcDbLine
 10
6.5
 20
55.5
 30
0.0
 11
13.5
 21
55.5
 31
0.0
  0
LINE
  5
7F
100
AcDbEntity
  8
0
  6
CONTINUOUS
 62
               4
100
AcDbLine
 10
6.5
 20
50.049999999999997
 30
0.0
 11
13.5
 21
50.049999999999997
 31
0.0
  0
LINE
  5
80
100
AcDbEntity
  8
0
  6
CONTINUOUS
 62
               4
100
AcDbLine
 10
6.5
 20
46.490000000000002
 30
0.0
 11
13.5
 21
46.490000000000002
 31
0.0
  0
LINE
  5
81
100
AcDbEntity
  8
0
  6
CONTINUOUS
 62
               4
100
AcDbLine
 10
6.5
 20
46.490000000000002
 30
0.0
 11
6.5
 21
57.0
 31
0.0
  0
LINE
  5
82
100
AcDbEntity
  8
0
  6
CONTINUOUS
 62
               4
100
AcDbLine
 10
13.5
 20
46.490000000000002
 30
0.0
 11
13.5
 21
57.0
 31
0.0
  0
LINE
  5
83
100
AcDbEntity
  8
0
  6
CONTINUOUS
 62
               4
100
AcDbLine
 10
14.050000000000001
 20
46.0
 30
0.0
 11
14.050000000000001
 21
48.5
 31
0.0
  0
LINE
  5
84
100
AcDbEntity
  8
0
  6
CONTINUOUS
 62
               4
100
AcDbLine
 10
5.9500000000000002
 20
46.0
 30
0.0
 11
5.9500000000000002
 21
48.5
 31
0.0
  0
LINE
  5
85
100
AcDbEntity
  8
0
  6
CONTINUOUS
 62
               4
100
AcDbLine
 10
5.0499999999999998
 20
50.5
 30
0.0
 11
6.5
 21
50.5
 31
0.0
  0
LINE
  5
86
100
AcDbEntity
  8
0
  6
CONTINUOUS
 62
               4
100
AcDbLine
 10
12.710000000000001
 20
62.460000000000001
 30
0.0
 11
12.710000000000001
 21
65.0
 31
0.0
  0
LINE
  5
87
100
AcDbEntity
  8
0
  6
CONTINUOUS
 62
               4
100
AcDbLine
 10
11.279999999999999
 20
61.630000000000003
 30
0.0
 11
11.279999999999999
 21
65.0
 31
0.0
  0
LINE
  5
88
100
AcDbEntity
  8
0
  6
CONTINUOUS
 62
             200
100
AcDbLine
 10
14.050000000000001
 20
62.079999999999998
 30
0.0
 11
5.9500000000000002
 21
57.399999999999999
 31
0.0
  0
LINE
  5
89
100
AcDbEntity
  8
0
  6
CONTINUOUS
 62
               4
100
AcDbLine
 10
11.279999999999999
 20
65.0
 30
0.0
 11
12.710000000000001
 21
65.0
 31
0.0
  0
LINE
  5
8A
100
AcDbEntity
  8
0
  6
CONTINUOUS
 62
               4
100
AcDbLine
 10
11.6
 20
70.0
 30
0.0
 11
12.4
 21
70.0
 31
0.0
  0
LINE
  5
8B
100
AcDbEntity
  8
0
  6
CONTINUOUS
 62
               4
100
AcDbLine
 10
12.4
 20
65.0
 30
0.0
 11
12.4
 21
70.0
 31
0.0
  0
LINE
  5
8C
100
AcDbEntity
  8
0
  6
CONTINUOUS
 62
               4
100
AcDbLine
 10
11.6
 20
65.0
 30
0.0
 11
11.6
 21
70.0
 31
0.0
  0
LINE
  5
8D
100
AcDbEntity
  8
0
  6
CONTINUOUS
 62
               4
100
AcDbLine
 10
12.710000000000001
 20
57.0
 30
0.0
 11
12.710000000000001
 21
61.310000000000002
 31
0.0
  0
LINE
  5
8E
100
AcDbEntity
  8
0
  6
CONTINUOUS
 62
               4
100
AcDbLine
 10
11.279999999999999
 20
57.0
 30
0.0
 11
11.279999999999999
 21
60.479999999999997
 31
0.0
  0
LINE
  5
8F
100
AcDbEntity
  8
0
  6
CONTINUOUS
 62
               4
100
AcDbLine
 10
14.949999999999999
 20
37.0
 30
0.0
 11
14.949999999999999
 21
50.5
 31
0.0
  0
LINE
  5
90
100
AcDbEntity
  8
0
  6
CONTINUOUS
 62
               4
100
AcDbLine
 10
14.949999999999999
 20
41.5
 30
0.0
 11
5.0499999999999998
 21
41.5
 31
0.0
  0
LINE
  5
91
100
AcDbEntity
  8
0
  6
CONTINUOUS
 62
               4
100
AcDbLine
 10
14.5
 20
46.0
 30
0.0
 11
5.5
 21
46.0
 31
0.0
  0
LINE
  5
92
100
AcDbEntity
  8
0
  6
CONTINUOUS
 62
               4
100
AcDbLine
 10
5.0499999999999998
 20
37.0
 30
0.0
 11
5.0499999999999998
 21
50.5
 31
0.0
  0
LINE
  5
93
100
AcDbEntity
  8
0
  6
CONTINUOUS
 62
               7
100
AcDbLine
 10
8.0700000000000003
 20
10.0
 30
0.0
 11
11.92
 21
10.0
 31
0.0
  0
LINE
  5
94
100
AcDbEntity
  8
0
  6
CONTINUOUS
 62
               7
100
AcDbLine
 10
8.0700000000000003
 20
9.4000000000000004
 30
0.0
 11
11.92
 21
9.4000000000000004
 31
0.0
  0
LINE
  5
95
100
AcDbEntity
  8
0
  6
CONTINUOUS
 62
               7
100
AcDbLine
 10
5.0
 20
13.0
 30
0.0
 11
15.0
 21
13.0
 31
0.0
  0
LINE
  5
96
100
AcDbEntity
  8
0
  6
CONTINUOUS
 62
               4
100
AcDbLine
 10
5.0
 20
37.0
 30
0.0
 11
15.0
 21
37.0
 31
0.0
  0
LINE
  5
97
100
AcDbEntity
  8
0
  6
CENTER
 62
               2
100
AcDbLine
 10
10.0
 20
-55.600000000000001
 30
0.0
 11
10.0
 21
58.75
 31
0.0
  0
LINE
  5
98
100
AcDbEntity
  8
0
  6
CENTER
 62
               2
100
AcDbLine
 10
7.5
 20
9.6999999999999993
 30
0.0
 11
12.5
 21
9.6999999999999993
 31
0.0
  0
LINE
  5
99
100
AcDbEntity
  8
0
  6
CONTINUOUS
 62
               7
100
AcDbLine
 10
5.0
 20
1.5
 30
0.0
 11
15.0
 21
1.5
 31
0.0
  0
ENDBLK
  5
9A
100
AcDbEntity
  8
0
100
AcDbBlockEnd
  0
BLOCK
  5
9B
100
AcDbEntity
  8
0
100
AcDbBlockBegin
  2
MS_2
 70
               0
 10
0.0
 20
0.0
 30
0.0
  3
MS_2
  1

  0
LINE
  5
9C
100
AcDbEntity
  8
0
  6
CONTINUOUS
 62
               4
100
AcDbLine
 10
24.5
 20
37.0
 30
0.0
 11
51.499992370605469
 21
37.0
 31
0.0
  0
LINE
  5
9D
100
AcDbEntity
  8
0
  6
CONTINUOUS
 62
               4
100
AcDbLine
 10
35.599999999999994
 20
50.5
 30
0.0
 11
35.599999999999994
 21
46.0
 31
0.0
  0
LINE
  5
9E
100
AcDbEntity
  8
0
  6
CONTINUOUS
 62
               4
100
AcDbLine
 10
26.649987792968744
 20
57.0
 30
0.0
 11
35.649987792968744
 21
57.0
 31
0.0
  0
LINE
  5
9F
100
AcDbEntity
  8
0
  6
CONTINUOUS
 62
               4
100
AcDbLine
 10
27.0
 20
50.5
 30
0.0
 11
35.650003051757807
 21
50.5
 31
0.0
  0
LINE
  5
A0
100
AcDbEntity
  8
0
  6
CONTINUOUS
 62
               4
100
AcDbLine
 10
36.227349853515619
 20
57.0
 30
0.0
 11
37.649995422363276
 21
57.0
 31
0.0
  0
LINE
  5
A1
100
AcDbEntity
  8
0
  6
CONTINUOUS
 62
               4
100
AcDbLine
 10
35.599999999999994
 20
47.998458862304688
 30
0.0
 11
35.650003051757807
 21
47.998458862304688
 31
0.0
  0
LINE
  5
A2
100
AcDbEntity
  8
0
  6
CONTINUOUS
 62
               4
100
AcDbLine
 10
35.650003051757807
 20
46.498458862304688
 30
0.0
 11
36.649995422363276
 21
46.498458862304688
 31
0.0
  0
LINE
  5
A3
100
AcDbEntity
  8
0
  6
CONTINUOUS
 62
               4
100
AcDbLine
 10
35.650003051757807
 20
47.998458862304688
 30
0.0
 11
35.650003051757807
 21
50.5
 31
0.0
  0
LINE
  5
A4
100
AcDbEntity
  8
0
  6
CONTINUOUS
 62
               4
100
AcDbLine
 10
37.149995422363276
 20
55.5
 30
0.0
 11
37.649995422363276
 21
55.5
 31
0.0
  0
LINE
  5
A5
100
AcDbEntity
  8
0
  6
CONTINUOUS
 62
               4
100
AcDbLine
 10
35.650000209407693
 20
46.498474151870141
 30
0.0
 11
35.599979656101453
 21
46.548494705176381
 31
0.0
  0
LINE
  5
A6
100
AcDbEntity
  8
0
  6
CONTINUOUS
 62
               4
100
AcDbLine
 10
27.150003051757807
 20
50.5
 30
0.0
 11
27.150003051757807
 21
56.0
 31
0.0
  0
LINE
  5
A7
100
AcDbEntity
  8
0
  6
CONTINUOUS
 62
               4
100
AcDbLine
 10
26.650003051757807
 20
56.0
 30
0.0
 11
26.650003051757807
 21
57.0
 31
0.0
  0
LINE
  5
A8
100
AcDbEntity
  8
0
  6
CONTINUOUS
 62
               4
100
AcDbLine
 10
26.649987792968744
 20
56.0
 30
0.0
 11
27.149987792968744
 21
56.0
 31
0.0
  0
LINE
  5
A9
100
AcDbEntity
  8
0
  6
CONTINUOUS
 62
               4
100
AcDbLine
 10
37.150003051757807
 20
50.05615234375
 30
0.0
 11
37.150003051757807
 21
55.5
 31
0.0
  0
LINE
  5
AA
100
AcDbEntity
  8
0
  6
CONTINUOUS
 62
               4
100
AcDbLine
 10
36.650001302236518
 20
46.49845074175937
 30
0.0
 11
37.150000411113609
 21
50.056138825448215
 31
0.0
  0
LINE
  5
AB
100
AcDbEntity
  8
0
  6
CONTINUOUS
 62
               4
100
AcDbLine
 10
35.650003051757807
 20
50.5
 30
0.0
 11
35.650003051757807
 21
57.0
 31
0.0
  0
LINE
  5
AC
100
AcDbEntity
  8
0
  6
CONTINUOUS
 62
               4
100
AcDbLine
 10
35.650044511604023
 20
55.999958942901685
 30
0.0
 11
36.227396327367927
 21
56.999967647856465
 31
0.0
  0
LINE
  5
AD
100
AcDbEntity
  8
0
  6
CONTINUOUS
 62
               4
100
AcDbLine
 10
37.650003051757807
 20
55.5
 30
0.0
 11
37.650003051757807
 21
57.0
 31
0.0
  0
LINE
  5
AE
100
AcDbEntity
  8
0
  6
CONTINUOUS
 62
               4
100
AcDbLine
 10
32.500009155273432
 20
70.0
 30
0.0
 11
31.700006103515619
 21
70.0
 31
0.0
  0
LINE
  5
AF
100
AcDbEntity
  8
0
  6
CONTINUOUS
 62
               4
100
AcDbLine
 10
31.700006103515619
 20
65.0
 30
0.0
 11
31.700006103515619
 21
70.0
 31
0.0
  0
LINE
  5
B0
100
AcDbEntity
  8
0
  6
CONTINUOUS
 62
               4
100
AcDbLine
 10
32.500009155273432
 20
65.0
 30
0.0
 11
32.500009155273432
 21
70.0
 31
0.0
  0
LINE
  5
B1
100
AcDbEntity
  8
0
  6
CONTINUOUS
 62
               4
100
AcDbLine
 10
32.815011596679682
 20
57.0
 30
0.0
 11
32.815011596679682
 21
61.598403930664062
 31
0.0
  0
LINE
  5
B2
100
AcDbEntity
  8
0
  6
CONTINUOUS
 62
               4
100
AcDbLine
 10
31.385003662109369
 20
57.0
 30
0.0
 11
31.385003662109369
 21
60.772796630859375
 31
0.0
  0
LINE
  5
B3
100
AcDbEntity
  8
0
  6
CONTINUOUS
 62
               4
100
AcDbLine
 10
32.815011596679682
 20
65.0
 30
0.0
 11
31.385003662109369
 21
65.0
 31
0.0
  0
LINE
  5
B4
100
AcDbEntity
  8
0
  6
CONTINUOUS
 62
               4
100
AcDbLine
 10
31.385003662109369
 20
61.927490234375
 30
0.0
 11
31.385003662109369
 21
65.0
 31
0.0
  0
LINE
  5
B5
100
AcDbEntity
  8
0
  6
CONTINUOUS
 62
               4
100
AcDbLine
 10
32.815011596679682
 20
62.75311279296875
 30
0.0
 11
32.815011596679682
 21
65.0
 31
0.0
  0
LINE
  5
B6
100
AcDbEntity
  8
0
  6
CONTINUOUS
 62
               7
100
AcDbLine
 10
24.5
 20
13.0
 30
0.0
 11
51.5
 21
13.0
 31
0.0
  0
LINE
  5
B7
100
AcDbEntity
  8
0
  6
CONTINUOUS
 62
               4
100
AcDbLine
 10
30.315011596679682
 20
61.309738159179688
 30
0.0
 11
30.315011596679682
 21
65.0
 31
0.0
  0
LINE
  5
B8
100
AcDbEntity
  8
0
  6
CONTINUOUS
 62
               4
100
AcDbLine
 10
28.885003662109369
 20
60.484115600585938
 30
0.0
 11
28.885003662109369
 21
65.0
 31
0.0
  0
LINE
  5
B9
100
AcDbEntity
  8
0
  6
CONTINUOUS
 62
               4
100
AcDbLine
 10
28.885003662109369
 20
65.0
 30
0.0
 11
30.315011596679682
 21
65.0
 31
0.0
  0
LINE
  5
BA
100
AcDbEntity
  8
0
  6
CONTINUOUS
 62
               4
100
AcDbLine
 10
30.000009155273432
 20
65.0
 30
0.0
 11
30.000009155273432
 21
70.0
 31
0.0
  0
LINE
  5
BB
100
AcDbEntity
  8
0
  6
CONTINUOUS
 62
               4
100
AcDbLine
 10
29.200006103515619
 20
65.0
 30
0.0
 11
29.200006103515619
 21
69.999984741210937
 31
0.0
  0
LINE
  5
BC
100
AcDbEntity
  8
0
  6
CONTINUOUS
 62
               4
100
AcDbLine
 10
29.200006103515619
 20
70.0
 30
0.0
 11
30.000009155273432
 21
70.0
 31
0.0
  0
LINE
  5
BD
100
AcDbEntity
  8
0
  6
CONTINUOUS
 62
               4
100
AcDbLine
 10
30.315011596679682
 20
57.0
 30
0.0
 11
30.315011596679682
 21
60.155029296875
 31
0.0
  0
LINE
  5
BE
100
AcDbEntity
  8
0
  6
CONTINUOUS
 62
               4
100
AcDbLine
 10
28.885003662109369
 20
57.0
 30
0.0
 11
28.885003662109369
 21
59.329421997070312
 31
0.0
  0
LINE
  5
BF
100
AcDbEntity
  8
0
  6
CONTINUOUS
 62
             200
100
AcDbLine
 10
34.315018891472022
 20
63.619105809934808
 30
0.0
 11
27.384989799908539
 21
59.618057246153512
 31
0.0
  0
LINE
  5
C0
100
AcDbEntity
  8
0
  6
CONTINUOUS
 62
             200
100
AcDbLine
 10
34.314994343097709
 20
62.464464815078827
 30
0.0
 11
27.384984189578603
 21
58.46341291056342
 31
0.0
  0
ARC
  5
C1
100
AcDbEntity
  8
0
  6
CONTINUOUS
 62
               4
100
AcDbCircle
 10
25.0
 20
45.5
 30
0.0
 40
0.5
100
AcDbArc
 50
89.999999999999801
 51
179.9999999999996
  0
LINE
  5
C2
100
AcDbEntity
  8
0
  6
CONTINUOUS
 62
               4
100
AcDbLine
 10
27.0
 20
46.0
 30
0.0
 11
25.0
 21
46.0
 31
0.0
  0
LINE
  5
C3
100
AcDbEntity
  8
0
  6
CONTINUOUS
 62
               4
100
AcDbLine
 10
27.0
 20
50.5
 30
0.0
 11
27.0
 21
46.0
 31
0.0
  0
LINE
  5
C4
100
AcDbEntity
  8
0
  6
CONTINUOUS
 62
               4
100
AcDbLine
 10
35.599999999999994
 20
50.5
 30
0.0
 11
35.599999999999994
 21
46.0
 31
0.0
  0
ARC
  5
C5
100
AcDbEntity
  8
0
  6
CONTINUOUS
 62
               4
100
AcDbCircle
 10
50.002020395360574
 20
41.179610903929301
 30
0.0
 40
1.4979796551727449
100
AcDbArc
 50
0.0148824203654679
 51
24.046309772710686
  0
ARC
  5
C6
100
AcDbEntity
  8
0
  6
CONTINUOUS
 62
               4
100
AcDbCircle
 10
49.174020838564047
 20
45.500099937446265
 30
0.0
 40
0.4999010215015999
100
AcDbArc
 50
24.197376208904771
 51
89.887774076864815
  0
LINE
  5
C7
100
AcDbEntity
  8
0
  6
CONTINUOUS
 62
               4
100
AcDbLine
 10
49.629999999999995
 20
45.705000000000013
 30
0.0
 11
51.370000000000005
 21
41.789999999999992
 31
0.0
  0
LINE
  5
C8
100
AcDbEntity
  8
0
  6
CONTINUOUS
 62
               4
100
AcDbLine
 10
51.5
 20
41.180000000000007
 30
0.0
 11
51.5
 21
37.0
 31
0.0
  0
LINE
  5
C9
100
AcDbEntity
  8
0
  6
CONTINUOUS
 62
               4
100
AcDbLine
 10
24.5
 20
45.5
 30
0.0
 11
24.5
 21
37.0
 31
0.0
  0
LINE
  5
CA
100
AcDbEntity
  8
0
  6
CONTINUOUS
 62
               4
100
AcDbLine
 10
24.5
 20
13.0
 30
0.0
 11
24.5
 21
37.0
 31
0.0
  0
LINE
  5
CB
100
AcDbEntity
  8
0
  6
CONTINUOUS
 62
               4
100
AcDbLine
 10
51.5
 20
13.0
 30
0.0
 11
51.5
 21
37.0
 31
0.0
  0
LINE
  5
CC
100
AcDbEntity
  8
0
  6
CONTINUOUS
 62
               4
100
AcDbLine
 10
35.599999999999994
 20
46.0
 30
0.0
 11
49.174999999999983
 21
46.0
 31
0.0
  0
CIRCLE
  5
CD
100
AcDbEntity
  8
0
  6
CONTINUOUS
 62
               7
100
AcDbCircle
 10
14.5
 20
-15.799999237060547
 30
0.0
 40
4.2829999923706055
  0
CIRCLE
  5
CE
100
AcDbEntity
  8
0
  6
CONTINUOUS
 62
               2
100
AcDbCircle
 10
14.5
 20
-15.799999237060547
 30
0.0
 40
4.8639993667602539
  0
CIRCLE
  5
CF
100
AcDbEntity
  8
0
  6
CONTINUOUS
 62
               7
100
AcDbCircle
 10
7.5
 20
-28.199996948242188
 30
0.0
 40
4.2829999923706055
  0
CIRCLE
  5
D0
100
AcDbEntity
  8
0
  6
CONTINUOUS
 62
               2
100
AcDbCircle
 10
7.5
 20
-28.199996948242188
 30
0.0
 40
4.8639993667602539
  0
ARC
  5
D1
100
AcDbEntity
  8
0
  6
CONTINUOUS
 62
               7
100
AcDbCircle
 10
43.50000610347837
 20
-34.049993896521627
 30
0.0
 40
0.4999938965588822
100
AcDbArc
 50
359.99930058435962
 51
90.000699415639403
  0
ARC
  5
D2
100
AcDbEntity
  8
0
  6
CONTINUOUS
 62
               7
100
AcDbCircle
 10
43.499993896447123
 20
-35.54999389644712
 30
0.0
 40
0.5000061035901293
100
AcDbArc
 50
270.00069940710142
 51
359.99930059289716
  0
ARC
  5
D3
100
AcDbEntity
  8
0
  6
CONTINUOUS
 62
               7
100
AcDbCircle
 10
42.450006103478373
 20
-52.00000610347837
 30
0.0
 40
0.4999938965588822
100
AcDbArc
 50
269.99930058435979
 51
0.000699415639558
  0
ARC
  5
D4
100
AcDbEntity
  8
0
  6
CONTINUOUS
 62
               7
100
AcDbCircle
 10
40.95000610355288
 20
-51.999993896447123
 30
0.0
 40
0.5000061035901293
100
AcDbArc
 50
180.00069940710162
 51
269.99930059289738
  0
ARC
  5
D5
100
AcDbEntity
  8
0
  6
CONTINUOUS
 62
               7
100
AcDbCircle
 10
51.100006103515625
 20
-5.600006103515625
 30
0.0
 40
0.3999938965309418
100
AcDbArc
 50
269.99912572244546
 51
0.0008742775541784
  0
ARC
  5
D6
100
AcDbEntity
  8
0
  6
CONTINUOUS
 62
               7
100
AcDbCircle
 10
48.099999999953432
 20
-6.6000000000465668
 30
0.0
 40
0.400000000046566
100
AcDbArc
 50
0.0000000066702593
 51
89.999999993329283
  0
ARC
  5
D7
100
AcDbEntity
  8
0
  6
CONTINUOUS
 62
               7
100
AcDbCircle
 10
48.099999999953432
 20
-37.39999999995343
 30
0.0
 40
0.4000000000465647
100
AcDbArc
 50
270.00000000666989
 51
359.99999999332869
  0
ARC
  5
D8
100
AcDbEntity
  8
0
  6
CONTINUOUS
 62
               7
100
AcDbCircle
 10
48.099998474048327
 20
-52.599998474048327
 30
0.0
 40
0.4000015259545765
100
AcDbArc
 50
270.00021857564224
 51
359.99978142435634
  0
ARC
  5
D9
100
AcDbEntity
  8
0
  6
CONTINUOUS
 62
               7
100
AcDbCircle
 10
24.900009155273438
 20
-52.599990844726555
 30
0.0
 40
0.4000091553782089
100
AcDbArc
 50
180.00131136630645
 51
269.99868863369358
  0
LINE
  5
DA
100
AcDbEntity
  8
0
  6
CENTER
 62
               2
100
AcDbLine
 10
-4.0
 20
0.0
 30
0.0
 11
4.0
 21
0.0
 31
0.0
  0
LINE
  5
DB
100
AcDbEntity
  8
0
  6
CENTER
 62
               2
100
AcDbLine
 10
-4.0
 20
-44.0
 30
0.0
 11
4.0
 21
-44.0
 31
0.0
  0
LINE
  5
DC
100
AcDbEntity
  8
0
  6
CONTINUOUS
 62
               7
100
AcDbLine
 10
24.5
 20
1.0
 30
0.0
 11
24.0
 21
1.0
 31
0.0
  0
LINE
  5
DD
100
AcDbEntity
  8
0
  6
CONTINUOUS
 62
               7
100
AcDbLine
 10
24.5
 20
-38.0
 30
0.0
 11
24.0
 21
-38.0
 31
0.0
  0
LINE
  5
DE
100
AcDbEntity
  8
0
  6
CENTER
 62
               2
100
AcDbLine
 10
13.359999999999999
 20
-28.199999999999999
 30
0.0
 11
1.6299999999999999
 21
-28.199999999999999
 31
0.0
  0
LINE
  5
DF
100
AcDbEntity
  8
0
  6
CENTER
 62
               2
100
AcDbLine
 10
14.5
 20
-21.66
 30
0.0
 11
14.5
 21
-9.9299999999999997
 31
0.0
  0
LINE
  5
E0
100
AcDbEntity
  8
0
  6
CENTER
 62
               2
100
AcDbLine
 10
20.359999999999999
 20
-15.800000000000001
 30
0.0
 11
8.6300000000000008
 21
-15.800000000000001
 31
0.0
  0
LINE
  5
E1
100
AcDbEntity
  8
0
  6
CONTINUOUS
 62
               7
100
AcDbLine
 10
40.100000000000001
 20
-53.0
 30
0.0
 11
40.100000000000001
 21
-52.0
 31
0.0
  0
LINE
  5
E2
100
AcDbEntity
  8
0
  6
CENTER
 62
               2
100
AcDbLine
 10
7.5
 20
-34.060000000000002
 30
0.0
 11
7.5
 21
-22.329999999999998
 31
0.0
  0
LINE
  5
E3
100
AcDbEntity
  8
0
  6
CONTINUOUS
 62
               7
100
AcDbLine
 10
24.0
 20
3.0
 30
0.0
 11
0.0
 21
3.0
 31
0.0
  0
LINE
  5
E4
100
AcDbEntity
  8
0
  6
CONTINUOUS
 62
               7
100
AcDbLine
 10
24.0
 20
-47.0
 30
0.0
 11
0.0
 21
-47.0
 31
0.0
  0
LINE
  5
E5
100
AcDbEntity
  8
0
  6
CONTINUOUS
 62
               7
100
AcDbLine
 10
0.0
 20
-47.0
 30
0.0
 11
0.0
 21
3.0
 31
0.0
  0
LINE
  5
E6
100
AcDbEntity
  8
0
  6
CONTINUOUS
 62
               7
100
AcDbLine
 10
24.0
 20
-47.0
 30
0.0
 11
24.0
 21
3.0
 31
0.0
  0
LINE
  5
E7
100
AcDbEntity
  8
0
  6
CONTINUOUS
 62
               7
100
AcDbLine
 10
44.0
 20
-34.049999999999997
 30
0.0
 11
44.0
 21
-35.549999999999997
 31
0.0
  0
LINE
  5
E8
100
AcDbEntity
  8
0
  6
CONTINUOUS
 62
               7
100
AcDbLine
 10
48.5
 20
-33.200000000000003
 30
0.0
 11
43.5
 21
-33.200000000000003
 31
0.0
  0
LINE
  5
E9
100
AcDbEntity
  8
0
  6
CONTINUOUS
 62
               7
100
AcDbLine
 10
48.5
 20
-44.100000000000001
 30
0.0
 11
48.5
 21
-39.899999999999999
 31
0.0
  0
LINE
  5
EA
100
AcDbEntity
  8
0
  6
CONTINUOUS
 62
               7
100
AcDbLine
 10
46.600000000000001
 20
-39.899999999999999
 30
0.0
 11
46.600000000000001
 21
-38.0
 31
0.0
  0
LINE
  5
EB
100
AcDbEntity
  8
0
  6
CONTINUOUS
 62
               7
100
AcDbLine
 10
49.100000000000001
 20
-39.899999999999999
 30
0.0
 11
46.600000000000001
 21
-39.899999999999999
 31
0.0
  0
LINE
  5
EC
100
AcDbEntity
  8
0
  6
CONTINUOUS
 62
               7
100
AcDbLine
 10
49.100000000000001
 20
-44.100000000000001
 30
0.0
 11
46.600000000000001
 21
-44.100000000000001
 31
0.0
  0
LINE
  5
ED
100
AcDbEntity
  8
0
  6
CONTINUOUS
 62
               7
100
AcDbLine
 10
49.100000000000001
 20
-46.0
 30
0.0
 11
49.100000000000001
 21
-38.0
 31
0.0
  0
LINE
  5
EE
100
AcDbEntity
  8
0
  6
CONTINUOUS
 62
               7
100
AcDbLine
 10
46.600000000000001
 20
-46.0
 30
0.0
 11
46.600000000000001
 21
-44.100000000000001
 31
0.0
  0
LINE
  5
EF
100
AcDbEntity
  8
0
  6
CONTINUOUS
 62
               7
100
AcDbLine
 10
42.450000000000003
 20
-52.5
 30
0.0
 11
40.950000000000003
 21
-52.5
 31
0.0
  0
LINE
  5
F0
100
AcDbEntity
  8
0
  6
CONTINUOUS
 62
               7
100
AcDbLine
 10
43.299999999999997
 20
-52.0
 30
0.0
 11
40.100000000000001
 21
-52.0
 31
0.0
  0
LINE
  5
F1
100
AcDbEntity
  8
0
  6
CONTINUOUS
 62
               7
100
AcDbLine
 10
43.299999999999997
 20
-53.0
 30
0.0
 11
43.299999999999997
 21
-52.0
 31
0.0
  0
LINE
  5
F2
100
AcDbEntity
  8
0
  6
CONTINUOUS
 62
               7
100
AcDbLine
 10
51.5
 20
1.5
 30
0.0
 11
24.5
 21
1.5
 31
0.0
  0
LINE
  5
F3
100
AcDbEntity
  8
0
  6
CONTINUOUS
 62
               7
100
AcDbLine
 10
48.100000000000001
 20
-53.0
 30
0.0
 11
24.899999999999999
 21
-53.0
 31
0.0
  0
LINE
  5
F4
100
AcDbEntity
  8
0
  6
CONTINUOUS
 62
               7
100
AcDbLine
 10
48.5
 20
-52.600000000000001
 30
0.0
 11
48.5
 21
-46.0
 31
0.0
  0
LINE
  5
F5
100
AcDbEntity
  8
0
  6
CONTINUOUS
 62
               7
100
AcDbLine
 10
49.100000000000001
 20
-46.0
 30
0.0
 11
24.5
 21
-46.0
 31
0.0
  0
LINE
  5
F6
100
AcDbEntity
  8
0
  6
CONTINUOUS
 62
               7
100
AcDbLine
 10
48.100000000000001
 20
-37.799999999999997
 30
0.0
 11
43.5
 21
-37.799999999999997
 31
0.0
  0
LINE
  5
F7
100
AcDbEntity
  8
0
  6
CONTINUOUS
 62
               7
100
AcDbLine
 10
48.100000000000001
 20
-6.2000000000000002
 30
0.0
 11
43.5
 21
-6.2000000000000002
 31
0.0
  0
LINE
  5
F8
100
AcDbEntity
  8
0
  6
CONTINUOUS
 62
               7
100
AcDbLine
 10
48.5
 20
-6.5999999999999996
 30
0.0
 11
48.5
 21
-37.399999999999999
 31
0.0
  0
LINE
  5
F9
100
AcDbEntity
  8
0
  6
CONTINUOUS
 62
               7
100
AcDbLine
 10
51.100000000000001
 20
-6.0
 30
0.0
 11
24.5
 21
-6.0
 31
0.0
  0
LINE
  5
FA
100
AcDbEntity
  8
0
  6
CONTINUOUS
 62
               7
100
AcDbLine
 10
49.100000000000001
 20
-38.0
 30
0.0
 11
24.5
 21
-38.0
 31
0.0
  0
LINE
  5
FB
100
AcDbEntity
  8
0
  6
CONTINUOUS
 62
               7
100
AcDbLine
 10
43.5
 20
-6.0
 30
0.0
 11
43.5
 21
-38.0
 31
0.0
  0
LINE
  5
FC
100
AcDbEntity
  8
0
  6
CONTINUOUS
 62
               7
100
AcDbLine
 10
49.5
 20
-45.600000000000001
 30
0.0
 11
49.5
 21
-38.399999999999999
 31
0.0
  0
LINE
  5
FD
100
AcDbEntity
  8
0
  6
CONTINUOUS
 62
               7
100
AcDbLine
 10
49.5
 20
-45.600000000000001
 30
0.0
 11
49.100000000000001
 21
-46.0
 31
0.0
  0
LINE
  5
FE
100
AcDbEntity
  8
0
  6
CONTINUOUS
 62
               7
100
AcDbLine
 10
49.5
 20
-38.399999999999999
 30
0.0
 11
49.100000000000001
 21
-38.0
 31
0.0
  0
LINE
  5
FF
100
AcDbEntity
  8
0
  6
CONTINUOUS
 62
               7
100
AcDbLine
 10
24.5
 20
-52.600000000000001
 30
0.0
 11
24.5
 21
13.0
 31
0.0
  0
LINE
  5
100
100
AcDbEntity
  8
0
  6
CONTINUOUS
 62
               7
100
AcDbLine
 10
51.5
 20
-5.5999999999999996
 30
0.0
 11
51.5
 21
13.0
 31
0.0
  0
LINE
  5
101
100
AcDbEntity
  8
0
  6
CONTINUOUS
 62
               7
100
AcDbLine
 10
24.5
 20
13.0
 30
0.0
 11
51.5
 21
13.0
 31
0.0
  0
LINE
  5
102
100
AcDbEntity
  8
0
  6
CONTINUOUS
 62
               7
100
AcDbLine
 10
52.5
 20
10.0
 30
0.0
 11
52.5
 21
11.65
 31
0.0
  0
LINE
  5
103
100
AcDbEntity
  8
0
  6
CONTINUOUS
 62
               7
100
AcDbLine
 10
52.5
 20
10.0
 30
0.0
 11
51.899999999999999
 21
10.0
 31
0.0
  0
LINE
  5
104
100
AcDbEntity
  8
0
  6
CONTINUOUS
 62
               7
100
AcDbLine
 10
52.5
 20
9.4000000000000004
 30
0.0
 11
51.899999999999999
 21
9.4000000000000004
 31
0.0
  0
LINE
  5
105
100
AcDbEntity
  8
0
  6
CONTINUOUS
 62
               7
100
AcDbLine
 10
51.899999999999999
 20
9.4000000000000004
 30
0.0
 11
51.899999999999999
 21
10.0
 31
0.0
  0
LINE
  5
106
100
AcDbEntity
  8
0
  6
CONTINUOUS
 62
               7
100
AcDbLine
 10
52.5
 20
11.65
 30
0.0
 11
51.5
 21
11.65
 31
0.0
  0
LINE
  5
107
100
AcDbEntity
  8
0
  6
CONTINUOUS
 62
               7
100
AcDbLine
 10
52.5
 20
7.75
 30
0.0
 11
51.5
 21
7.75
 31
0.0
  0
LINE
  5
108
100
AcDbEntity
  8
0
  6
CONTINUOUS
 62
               7
100
AcDbLine
 10
52.5
 20
7.75
 30
0.0
 11
52.5
 21
9.4000000000000004
 31
0.0
  0
LINE
  5
109
100
AcDbEntity
  8
0
  6
CENTER
 62
               2
100
AcDbLine
 10
53.5
 20
9.6999999999999993
 30
0.0
 11
50.799999999999997
 21
9.6999999999999993
 31
0.0
  0
ENDBLK
  5
10A
100
AcDbEntity
  8
0
100
AcDbBlockEnd
  0
BLOCK
  5
10B
100
AcDbEntity
  8
0
100
AcDbBlockBegin
  2
MS_3
 70
               0
 10
0.0
 20
0.0
 30
0.0
  3
MS_3
  1

  0
LINE
  5
10C
100
AcDbEntity
  8
0
  6
CONTINUOUS
 62
               4
100
AcDbLine
 10
-24.5
 20
37.0
 30
0.0
 11
-51.499992370605469
 21
37.0
 31
0.0
  0
LINE
  5
10D
100
AcDbEntity
  8
0
  6
CONTINUOUS
 62
               4
100
AcDbLine
 10
-35.599999999999994
 20
50.5
 30
0.0
 11
-35.599999999999994
 21
46.0
 31
0.0
  0
LINE
  5
10E
100
AcDbEntity
  8
0
  6
CONTINUOUS
 62
               4
100
AcDbLine
 10
-26.649987792968744
 20
57.0
 30
0.0
 11
-35.649987792968744
 21
57.0
 31
0.0
  0
LINE
  5
10F
100
AcDbEntity
  8
0
  6
CONTINUOUS
 62
               4
100
AcDbLine
 10
-27.0
 20
50.5
 30
0.0
 11
-35.650003051757807
 21
50.5
 31
0.0
  0
LINE
  5
110
100
AcDbEntity
  8
0
  6
CONTINUOUS
 62
               4
100
AcDbLine
 10
-36.227349853515619
 20
57.0
 30
0.0
 11
-37.649995422363276
 21
57.0
 31
0.0
  0
LINE
  5
111
100
AcDbEntity
  8
0
  6
CONTINUOUS
 62
               4
100
AcDbLine
 10
-35.599999999999994
 20
47.998458862304688
 30
0.0
 11
-35.650003051757807
 21
47.998458862304688
 31
0.0
  0
LINE
  5
112
100
AcDbEntity
  8
0
  6
CONTINUOUS
 62
               4
100
AcDbLine
 10
-35.650003051757807
 20
46.498458862304688
 30
0.0
 11
-36.649995422363276
 21
46.498458862304688
 31
0.0
  0
LINE
  5
113
100
AcDbEntity
  8
0
  6
CONTINUOUS
 62
               4
100
AcDbLine
 10
-35.650003051757807
 20
47.998458862304688
 30
0.0
 11
-35.650003051757807
 21
50.5
 31
0.0
  0
LINE
  5
114
100
AcDbEntity
  8
0
  6
CONTINUOUS
 62
               4
100
AcDbLine
 10
-37.149995422363276
 20
55.5
 30
0.0
 11
-37.649995422363276
 21
55.5
 31
0.0
  0
LINE
  5
115
100
AcDbEntity
  8
0
  6
CONTINUOUS
 62
               4
100
AcDbLine
 10
-35.650000209407693
 20
46.498474151870141
 30
0.0
 11
-35.599979656101453
 21
46.548494705176381
 31
0.0
  0
LINE
  5
116
100
AcDbEntity
  8
0
  6
CONTINUOUS
 62
               4
100
AcDbLine
 10
-27.150003051757807
 20
50.5
 30
0.0
 11
-27.150003051757807
 21
56.0
 31
0.0
  0
LINE
  5
117
100
AcDbEntity
  8
0
  6
CONTINUOUS
 62
               4
100
AcDbLine
 10
-26.650003051757807
 20
56.0
 30
0.0
 11
-26.650003051757807
 21
57.0
 31
0.0
  0
LINE
  5
118
100
AcDbEntity
  8
0
  6
CONTINUOUS
 62
               4
100
AcDbLine
 10
-26.649987792968744
 20
56.0
 30
0.0
 11
-27.149987792968744
 21
56.0
 31
0.0
  0
LINE
  5
119
100
AcDbEntity
  8
0
  6
CONTINUOUS
 62
               4
100
AcDbLine
 10
-37.150003051757807
 20
50.05615234375
 30
0.0
 11
-37.150003051757807
 21
55.5
 31
0.0
  0
LINE
  5
11A
100
AcDbEntity
  8
0
  6
CONTINUOUS
 62
               4
100
AcDbLine
 10
-36.650001302236518
 20
46.49845074175937
 30
0.0
 11
-37.150000411113609
 21
50.056138825448215
 31
0.0
  0
LINE
  5
11B
100
AcDbEntity
  8
0
  6
CONTINUOUS
 62
               4
100
AcDbLine
 10
-35.650003051757807
 20
50.5
 30
0.0
 11
-35.650003051757807
 21
57.0
 31
0.0
  0
LINE
  5
11C
100
AcDbEntity
  8
0
  6
CONTINUOUS
 62
               4
100
AcDbLine
 10
-35.650044511604023
 20
55.999958942901685
 30
0.0
 11
-36.227396327367927
 21
56.999967647856465
 31
0.0
  0
LINE
  5
11D
100
AcDbEntity
  8
0
  6
CONTINUOUS
 62
               4
100
AcDbLine
 10
-37.650003051757807
 20
55.5
 30
0.0
 11
-37.650003051757807
 21
57.0
 31
0.0
  0
LINE
  5
11E
100
AcDbEntity
  8
0
  6
CONTINUOUS
 62
               4
100
AcDbLine
 10
-32.500009155273432
 20
70.0
 30
0.0
 11
-31.700006103515619
 21
70.0
 31
0.0
  0
LINE
  5
11F
100
AcDbEntity
  8
0
  6
CONTINUOUS
 62
               4
100
AcDbLine
 10
-31.700006103515619
 20
65.0
 30
0.0
 11
-31.700006103515619
 21
70.0
 31
0.0
  0
LINE
  5
120
100
AcDbEntity
  8
0
  6
CONTINUOUS
 62
               4
100
AcDbLine
 10
-32.500009155273432
 20
65.0
 30
0.0
 11
-32.500009155273432
 21
70.0
 31
0.0
  0
LINE
  5
121
100
AcDbEntity
  8
0
  6
CONTINUOUS
 62
               4
100
AcDbLine
 10
-32.815011596679682
 20
57.0
 30
0.0
 11
-32.815011596679682
 21
61.598403930664062
 31
0.0
  0
LINE
  5
122
100
AcDbEntity
  8
0
  6
CONTINUOUS
 62
               4
100
AcDbLine
 10
-31.385003662109369
 20
57.0
 30
0.0
 11
-31.385003662109369
 21
60.772796630859375
 31
0.0
  0
LINE
  5
123
100
AcDbEntity
  8
0
  6
CONTINUOUS
 62
               4
100
AcDbLine
 10
-32.815011596679682
 20
65.0
 30
0.0
 11
-31.385003662109369
 21
65.0
 31
0.0
  0
LINE
  5
124
100
AcDbEntity
  8
0
  6
CONTINUOUS
 62
               4
100
AcDbLine
 10
-31.385003662109369
 20
61.927490234375
 30
0.0
 11
-31.385003662109369
 21
65.0
 31
0.0
  0
LINE
  5
125
100
AcDbEntity
  8
0
  6
CONTINUOUS
 62
               4
100
AcDbLine
 10
-32.815011596679682
 20
62.75311279296875
 30
0.0
 11
-32.815011596679682
 21
65.0
 31
0.0
  0
LINE
  5
126
100
AcDbEntity
  8
0
  6
CONTINUOUS
 62
               7
100
AcDbLine
 10
-51.5
 20
13.0
 30
0.0
 11
-24.5
 21
13.0
 31
0.0
  0
LINE
  5
127
100
AcDbEntity
  8
0
  6
CONTINUOUS
 62
               4
100
AcDbLine
 10
-30.315011596679682
 20
61.309738159179688
 30
0.0
 11
-30.315011596679682
 21
65.0
 31
0.0
  0
LINE
  5
128
100
AcDbEntity
  8
0
  6
CONTINUOUS
 62
               4
100
AcDbLine
 10
-28.885003662109369
 20
60.484115600585938
 30
0.0
 11
-28.885003662109369
 21
65.0
 31
0.0
  0
LINE
  5
129
100
AcDbEntity
  8
0
  6
CONTINUOUS
 62
               4
100
AcDbLine
 10
-28.885003662109369
 20
65.0
 30
0.0
 11
-30.315011596679682
 21
65.0
 31
0.0
  0
LINE
  5
12A
100
AcDbEntity
  8
0
  6
CONTINUOUS
 62
               4
100
AcDbLine
 10
-30.000009155273432
 20
65.0
 30
0.0
 11
-30.000009155273432
 21
70.0
 31
0.0
  0
LINE
  5
12B
100
AcDbEntity
  8
0
  6
CONTINUOUS
 62
               4
100
AcDbLine
 10
-29.200006103515619
 20
65.0
 30
0.0
 11
-29.200006103515619
 21
69.999984741210937
 31
0.0
  0
LINE
  5
12C
100
AcDbEntity
  8
0
  6
CONTINUOUS
 62
               4
100
AcDbLine
 10
-29.200006103515619
 20
70.0
 30
0.0
 11
-30.000009155273432
 21
70.0
 31
0.0
  0
LINE
  5
12D
100
AcDbEntity
  8
0
  6
CONTINUOUS
 62
               4
100
AcDbLine
 10
-30.315011596679682
 20
57.0
 30
0.0
 11
-30.315011596679682
 21
60.155029296875
 31
0.0
  0
LINE
  5
12E
100
AcDbEntity
  8
0
  6
CONTINUOUS
 62
               4
100
AcDbLine
 10
-28.885003662109369
 20
57.0
 30
0.0
 11
-28.885003662109369
 21
59.329421997070312
 31
0.0
  0
LINE
  5
12F
100
AcDbEntity
  8
0
  6
CONTINUOUS
 62
             200
100
AcDbLine
 10
-34.315018891472022
 20
63.619105809934808
 30
0.0
 11
-27.384989799908539
 21
59.618057246153512
 31
0.0
  0
LINE
  5
130
100
AcDbEntity
  8
0
  6
CONTINUOUS
 62
             200
100
AcDbLine
 10
-34.314994343097709
 20
62.464464815078827
 30
0.0
 11
-27.384984189578603
 21
58.46341291056342
 31
0.0
  0
ARC
  5
131
100
AcDbEntity
  8
0
  6
CONTINUOUS
 62
               4
100
AcDbCircle
 10
-25.0
 20
45.5
 30
0.0
 40
0.5
100
AcDbArc
 50
0.0
 51
89.999999999999801
  0
LINE
  5
132
100
AcDbEntity
  8
0
  6
CONTINUOUS
 62
               4
100
AcDbLine
 10
-27.0
 20
46.0
 30
0.0
 11
-25.0
 21
46.0
 31
0.0
  0
LINE
  5
133
100
AcDbEntity
  8
0
  6
CONTINUOUS
 62
               4
100
AcDbLine
 10
-27.0
 20
50.5
 30
0.0
 11
-27.0
 21
46.0
 31
0.0
  0
LINE
  5
134
100
AcDbEntity
  8
0
  6
CONTINUOUS
 62
               4
100
AcDbLine
 10
-35.599999999999994
 20
50.5
 30
0.0
 11
-35.599999999999994
 21
46.0
 31
0.0
  0
ARC
  5
135
100
AcDbEntity
  8
0
  6
CONTINUOUS
 62
               4
100
AcDbCircle
 10
-50.002020395360574
 20
41.179610903929301
 30
0.0
 40
1.4979796551727449
100
AcDbArc
 50
155.95369022728892
 51
179.98511757963411
  0
ARC
  5
136
100
AcDbEntity
  8
0
  6
CONTINUOUS
 62
               4
100
AcDbCircle
 10
-49.174020838564047
 20
45.500099937446265
 30
0.0
 40
0.4999010215015999
100
AcDbArc
 50
90.112225923134773
 51
155.80262379109485
  0
LINE
  5
137
100
AcDbEntity
  8
0
  6
CONTINUOUS
 62
               4
100
AcDbLine
 10
-49.629999999999995
 20
45.705000000000013
 30
0.0
 11
-51.370000000000005
 21
41.789999999999992
 31
0.0
  0
LINE
  5
138
100
AcDbEntity
  8
0
  6
CONTINUOUS
 62
               4
100
AcDbLine
 10
-51.5
 20
41.180000000000007
 30
0.0
 11
-51.5
 21
37.0
 31
0.0
  0
LINE
  5
139
100
AcDbEntity
  8
0
  6
CONTINUOUS
 62
               4
100
AcDbLine
 10
-24.5
 20
45.5
 30
0.0
 11
-24.5
 21
37.0
 31
0.0
  0
LINE
  5
13A
100
AcDbEntity
  8
0
  6
CONTINUOUS
 62
               4
100
AcDbLine
 10
-24.5
 20
13.0
 30
0.0
 11
-24.5
 21
37.0
 31
0.0
  0
LINE
  5
13B
100
AcDbEntity
  8
0
  6
CONTINUOUS
 62
               4
100
AcDbLine
 10
-51.5
 20
13.0
 30
0.0
 11
-51.5
 21
37.0
 31
0.0
  0
LINE
  5
13C
100
AcDbEntity
  8
0
  6
CONTINUOUS
 62
               4
100
AcDbLine
 10
-35.599999999999994
 20
46.0
 30
0.0
 11
-49.174999999999983
 21
46.0
 31
0.0
  0
CIRCLE
  5
13D
100
AcDbEntity
  8
0
  6
CONTINUOUS
 62
               7
100
AcDbCircle
 10
-7.5
 20
-33.0
 30
0.0
 40
4.2829999923706055
  0
CIRCLE
  5
13E
100
AcDbEntity
  8
0
  6
CONTINUOUS
 62
               7
100
AcDbCircle
 10
-16.5
 20
-22.0
 30
0.0
 40
4.2829999923706055
  0
CIRCLE
  5
13F
100
AcDbEntity
  8
0
  6
CONTINUOUS
 62
               7
100
AcDbCircle
 10
-7.5
 20
-11.0
 30
0.0
 40
4.2829999923706055
  0
CIRCLE
  5
140
100
AcDbEntity
  8
0
  6
CONTINUOUS
 62
               7
100
AcDbCircle
 10
-19.0
 20
-2.5
 30
0.0
 40
2.0669994354248047
  0
CIRCLE
  5
141
100
AcDbEntity
  8
0
  6
CONTINUOUS
 62
               2
100
AcDbCircle
 10
-19.0
 20
-2.5
 30
0.0
 40
2.5
  0
CIRCLE
  5
142
100
AcDbEntity
  8
0
  6
CONTINUOUS
 62
               2
100
AcDbCircle
 10
-7.5
 20
-11.0
 30
0.0
 40
4.8639993667602539
  0
CIRCLE
  5
143
100
AcDbEntity
  8
0
  6
CONTINUOUS
 62
               2
100
AcDbCircle
 10
-16.5
 20
-22.0
 30
0.0
 40
4.8639993667602539
  0
CIRCLE
  5
144
100
AcDbEntity
  8
0
  6
CONTINUOUS
 62
               2
100
AcDbCircle
 10
-7.5
 20
-33.0
 30
0.0
 40
4.8639993667602539
  0
ARC
  5
145
100
AcDbEntity
  8
0
  6
CONTINUOUS
 62
               7
100
AcDbCircle
 10
-43.50000610347837
 20
-9.9500061034783727
 30
0.0
 40
0.4999938965588804
100
AcDbArc
 50
179.99930058435962
 51
270.00069941563902
  0
ARC
  5
146
100
AcDbEntity
  8
0
  6
CONTINUOUS
 62
               7
100
AcDbCircle
 10
-43.499993896447123
 20
-8.4500061035528766
 30
0.0
 40
0.5000061035901307
100
AcDbArc
 50
90.000699407101848
 51
179.99930059289755
  0
ARC
  5
147
100
AcDbEntity
  8
0
  6
CONTINUOUS
 62
               7
100
AcDbCircle
 10
-27.049993896447123
 20
-51.999993896447123
 30
0.0
 40
0.5000061035901311
100
AcDbArc
 50
180.00069940710162
 51
269.99930059289738
  0
ARC
  5
148
100
AcDbEntity
  8
0
  6
CONTINUOUS
 62
               7
100
AcDbCircle
 10
-25.549993896521627
 20
-52.00000610347837
 30
0.0
 40
0.4999938965588804
100
AcDbArc
 50
269.99930058435939
 51
0.000699415639558
  0
ARC
  5
149
100
AcDbEntity
  8
0
  6
CONTINUOUS
 62
               7
100
AcDbCircle
 10
-51.099990844435524
 20
-5.5999908444355242
 30
0.0
 40
0.4000091556692538
100
AcDbArc
 50
180.00131140799144
 51
269.99868859200728
  0
ARC
  5
14A
100
AcDbEntity
  8
0
  6
CONTINUOUS
 62
               7
100
AcDbCircle
 10
-48.099984741106162
 20
-6.600015258893837
 30
0.0
 40
0.4000152591848674
100
AcDbArc
 50
90.002185592166995
 51
179.99781440783266
  0
ARC
  5
14B
100
AcDbEntity
  8
0
  6
CONTINUOUS
 62
               7
100
AcDbCircle
 10
-48.099984741106162
 20
-37.399984741106159
 30
0.0
 40
0.400015259184866
100
AcDbArc
 50
180.0021855921668
 51
269.99781440783221
  0
ARC
  5
14C
100
AcDbEntity
  8
0
  6
CONTINUOUS
 62
               7
100
AcDbCircle
 10
-48.099983215259265
 20
-52.599983215259265
 30
0.0
 40
0.400016785092873
100
AcDbArc
 50
180.00240413612727
 51
269.99759586387171
  0
ARC
  5
14D
100
AcDbEntity
  8
0
  6
CONTINUOUS
 62
               7
100
AcDbCircle
 10
-24.900001525951666
 20
-52.599998474048327
 30
0.0
 40
0.4000015259545765
100
AcDbArc
 50
270.00021857564121
 51
359.99978142435634
  0
LINE
  5
14E
100
AcDbEntity
  8
0
  6
CENTER
 62
               2
100
AcDbLine
 10
-4.0
 20
0.0
 30
0.0
 11
4.0
 21
0.0
 31
0.0
  0
LINE
  5
14F
100
AcDbEntity
  8
0
  6
CENTER
 62
               2
100
AcDbLine
 10
-4.0
 20
-44.0
 30
0.0
 11
4.0
 21
-44.0
 31
0.0
  0
LINE
  5
150
100
AcDbEntity
  8
0
  6
CONTINUOUS
 62
               7
100
AcDbLine
 10
-24.5
 20
1.0
 30
0.0
 11
-24.0
 21
1.0
 31
0.0
  0
LINE
  5
151
100
AcDbEntity
  8
0
  6
CONTINUOUS
 62
               7
100
AcDbLine
 10
-24.5
 20
-38.0
 30
0.0
 11
-24.0
 21
-38.0
 31
0.0
  0
LINE
  5
152
100
AcDbEntity
  8
0
  6
CENTER
 62
               2
100
AcDbLine
 10
-7.5
 20
-38.859999999999999
 30
0.0
 11
-7.5
 21
-5.1299999999999999
 31
0.0
  0
LINE
  5
153
100
AcDbEntity
  8
0
  6
CENTER
 62
               2
100
AcDbLine
 10
-16.5
 20
-27.859999999999999
 30
0.0
 11
-16.5
 21
-16.129999999999999
 31
0.0
  0
LINE
  5
154
100
AcDbEntity
  8
0
  6
CENTER
 62
               2
100
AcDbLine
 10
-19.0
 20
-6.0
 30
0.0
 11
-19.0
 21
1.0
 31
0.0
  0
LINE
  5
155
100
AcDbEntity
  8
0
  6
CENTER
 62
               2
100
AcDbLine
 10
-22.5
 20
-2.5
 30
0.0
 11
-15.5
 21
-2.5
 31
0.0
  0
LINE
  5
156
100
AcDbEntity
  8
0
  6
CENTER
 62
               2
100
AcDbLine
 10
-13.359999999999999
 20
-11.0
 30
0.0
 11
-1.6299999999999999
 21
-11.0
 31
0.0
  0
LINE
  5
157
100
AcDbEntity
  8
0
  6
CENTER
 62
               2
100
AcDbLine
 10
-13.359999999999999
 20
-33.0
 30
0.0
 11
-1.6299999999999999
 21
-33.0
 31
0.0
  0
LINE
  5
158
100
AcDbEntity
  8
0
  6
CONTINUOUS
 62
               7
100
AcDbLine
 10
-24.0
 20
3.0
 30
0.0
 11
0.0
 21
3.0
 31
0.0
  0
LINE
  5
159
100
AcDbEntity
  8
0
  6
CONTINUOUS
 62
               7
100
AcDbLine
 10
-24.0
 20
-47.0
 30
0.0
 11
0.0
 21
-47.0
 31
0.0
  0
LINE
  5
15A
100
AcDbEntity
  8
0
  6
CONTINUOUS
 62
               7
100
AcDbLine
 10
0.0
 20
-47.0
 30
0.0
 11
0.0
 21
3.0
 31
0.0
  0
LINE
  5
15B
100
AcDbEntity
  8
0
  6
CONTINUOUS
 62
               7
100
AcDbLine
 10
-24.0
 20
-47.0
 30
0.0
 11
-24.0
 21
3.0
 31
0.0
  0
LINE
  5
15C
100
AcDbEntity
  8
0
  6
CENTER
 62
               2
100
AcDbLine
 10
-22.359999999999999
 20
-22.0
 30
0.0
 11
-10.630000000000001
 21
-22.0
 31
0.0
  0
LINE
  5
15D
100
AcDbEntity
  8
0
  6
CONTINUOUS
 62
               7
100
AcDbLine
 10
-44.0
 20
-9.9499999999999993
 30
0.0
 11
-44.0
 21
-8.4499999999999993
 31
0.0
  0
LINE
  5
15E
100
AcDbEntity
  8
0
  6
CONTINUOUS
 62
               7
100
AcDbLine
 10
-48.5
 20
-10.800000000000001
 30
0.0
 11
-43.5
 21
-10.800000000000001
 31
0.0
  0
LINE
  5
15F
100
AcDbEntity
  8
0
  6
CONTINUOUS
 62
               7
100
AcDbLine
 10
-48.5
 20
-44.100000000000001
 30
0.0
 11
-48.5
 21
-39.899999999999999
 31
0.0
  0
LINE
  5
160
100
AcDbEntity
  8
0
  6
CONTINUOUS
 62
               7
100
AcDbLine
 10
-46.600000000000001
 20
-39.899999999999999
 30
0.0
 11
-46.600000000000001
 21
-38.0
 31
0.0
  0
LINE
  5
161
100
AcDbEntity
  8
0
  6
CONTINUOUS
 62
               7
100
AcDbLine
 10
-49.100000000000001
 20
-39.899999999999999
 30
0.0
 11
-46.600000000000001
 21
-39.899999999999999
 31
0.0
  0
LINE
  5
162
100
AcDbEntity
  8
0
  6
CONTINUOUS
 62
               7
100
AcDbLine
 10
-49.100000000000001
 20
-44.100000000000001
 30
0.0
 11
-46.600000000000001
 21
-44.100000000000001
 31
0.0
  0
LINE
  5
163
100
AcDbEntity
  8
0
  6
CONTINUOUS
 62
               7
100
AcDbLine
 10
-49.100000000000001
 20
-46.0
 30
0.0
 11
-49.100000000000001
 21
-38.0
 31
0.0
  0
LINE
  5
164
100
AcDbEntity
  8
0
  6
CONTINUOUS
 62
               7
100
AcDbLine
 10
-46.600000000000001
 20
-46.0
 30
0.0
 11
-46.600000000000001
 21
-44.100000000000001
 31
0.0
  0
LINE
  5
165
100
AcDbEntity
  8
0
  6
CONTINUOUS
 62
               7
100
AcDbLine
 10
-27.050000000000001
 20
-52.5
 30
0.0
 11
-25.550000000000001
 21
-52.5
 31
0.0
  0
LINE
  5
166
100
AcDbEntity
  8
0
  6
CONTINUOUS
 62
               7
100
AcDbLine
 10
-27.899999999999999
 20
-52.0
 30
0.0
 11
-24.5
 21
-52.0
 31
0.0
  0
LINE
  5
167
100
AcDbEntity
  8
0
  6
CONTINUOUS
 62
               7
100
AcDbLine
 10
-27.899999999999999
 20
-53.0
 30
0.0
 11
-27.899999999999999
 21
-52.0
 31
0.0
  0
LINE
  5
168
100
AcDbEntity
  8
0
  6
CONTINUOUS
 62
               7
100
AcDbLine
 10
-51.5
 20
1.5
 30
0.0
 11
-24.5
 21
1.5
 31
0.0
  0
LINE
  5
169
100
AcDbEntity
  8
0
  6
CONTINUOUS
 62
               7
100
AcDbLine
 10
-48.100000000000001
 20
-53.0
 30
0.0
 11
-24.899999999999999
 21
-53.0
 31
0.0
  0
LINE
  5
16A
100
AcDbEntity
  8
0
  6
CONTINUOUS
 62
               7
100
AcDbLine
 10
-48.5
 20
-52.600000000000001
 30
0.0
 11
-48.5
 21
-46.0
 31
0.0
  0
LINE
  5
16B
100
AcDbEntity
  8
0
  6
CONTINUOUS
 62
               7
100
AcDbLine
 10
-49.100000000000001
 20
-46.0
 30
0.0
 11
-24.5
 21
-46.0
 31
0.0
  0
LINE
  5
16C
100
AcDbEntity
  8
0
  6
CONTINUOUS
 62
               7
100
AcDbLine
 10
-48.100000000000001
 20
-37.799999999999997
 30
0.0
 11
-43.5
 21
-37.799999999999997
 31
0.0
  0
LINE
  5
16D
100
AcDbEntity
  8
0
  6
CONTINUOUS
 62
               7
100
AcDbLine
 10
-48.100000000000001
 20
-6.2000000000000002
 30
0.0
 11
-43.5
 21
-6.2000000000000002
 31
0.0
  0
LINE
  5
16E
100
AcDbEntity
  8
0
  6
CONTINUOUS
 62
               7
100
AcDbLine
 10
-48.5
 20
-6.5999999999999996
 30
0.0
 11
-48.5
 21
-37.399999999999999
 31
0.0
  0
LINE
  5
16F
100
AcDbEntity
  8
0
  6
CONTINUOUS
 62
               7
100
AcDbLine
 10
-51.100000000000001
 20
-6.0
 30
0.0
 11
-24.5
 21
-6.0
 31
0.0
  0
LINE
  5
170
100
AcDbEntity
  8
0
  6
CONTINUOUS
 62
               7
100
AcDbLine
 10
-49.100000000000001
 20
-38.0
 30
0.0
 11
-24.5
 21
-38.0
 31
0.0
  0
LINE
  5
171
100
AcDbEntity
  8
0
  6
CONTINUOUS
 62
               7
100
AcDbLine
 10
-43.5
 20
-38.0
 30
0.0
 11
-43.5
 21
-6.0
 31
0.0
  0
LINE
  5
172
100
AcDbEntity
  8
0
  6
CONTINUOUS
 62
               7
100
AcDbLine
 10
-49.5
 20
-45.600000000000001
 30
0.0
 11
-49.5
 21
-38.399999999999999
 31
0.0
  0
LINE
  5
173
100
AcDbEntity
  8
0
  6
CONTINUOUS
 62
               7
100
AcDbLine
 10
-49.5
 20
-45.600000000000001
 30
0.0
 11
-49.100000000000001
 21
-46.0
 31
0.0
  0
LINE
  5
174
100
AcDbEntity
  8
0
  6
CONTINUOUS
 62
               7
100
AcDbLine
 10
-49.5
 20
-38.399999999999999
 30
0.0
 11
-49.100000000000001
 21
-38.0
 31
0.0
  0
LINE
  5
175
100
AcDbEntity
  8
0
  6
CONTINUOUS
 62
               7
100
AcDbLine
 10
-24.5
 20
-52.600000000000001
 30
0.0
 11
-24.5
 21
13.0
 31
0.0
  0
LINE
  5
176
100
AcDbEntity
  8
0
  6
CONTINUOUS
 62
               7
100
AcDbLine
 10
-51.5
 20
-5.5999999999999996
 30
0.0
 11
-51.5
 21
13.0
 31
0.0
  0
LINE
  5
177
100
AcDbEntity
  8
0
  6
CONTINUOUS
 62
               7
100
AcDbLine
 10
-24.5
 20
13.0
 30
0.0
 11
-51.5
 21
13.0
 31
0.0
  0
LINE
  5
178
100
AcDbEntity
  8
0
  6
CONTINUOUS
 62
               7
100
AcDbLine
 10
-52.5
 20
10.0
 30
0.0
 11
-52.5
 21
11.65
 31
0.0
  0
LINE
  5
179
100
AcDbEntity
  8
0
  6
CONTINUOUS
 62
               7
100
AcDbLine
 10
-52.5
 20
10.0
 30
0.0
 11
-51.899999999999999
 21
10.0
 31
0.0
  0
LINE
  5
17A
100
AcDbEntity
  8
0
  6
CONTINUOUS
 62
               7
100
AcDbLine
 10
-52.5
 20
9.4000000000000004
 30
0.0
 11
-51.899999999999999
 21
9.4000000000000004
 31
0.0
  0
LINE
  5
17B
100
AcDbEntity
  8
0
  6
CONTINUOUS
 62
               7
100
AcDbLine
 10
-51.899999999999999
 20
9.4000000000000004
 30
0.0
 11
-51.899999999999999
 21
10.0
 31
0.0
  0
LINE
  5
17C
100
AcDbEntity
  8
0
  6
CONTINUOUS
 62
               7
100
AcDbLine
 10
-52.5
 20
11.65
 30
0.0
 11
-51.5
 21
11.65
 31
0.0
  0
LINE
  5
17D
100
AcDbEntity
  8
0
  6
CONTINUOUS
 62
               7
100
AcDbLine
 10
-52.5
 20
7.75
 30
0.0
 11
-51.5
 21
7.75
 31
0.0
  0
LINE
  5
17E
100
AcDbEntity
  8
0
  6
CONTINUOUS
 62
               7
100
AcDbLine
 10
-52.5
 20
7.75
 30
0.0
 11
-52.5
 21
9.4000000000000004
 31
0.0
  0
LINE
  5
17F
100
AcDbEntity
  8
0
  6
CENTER
 62
               2
100
AcDbLine
 10
-53.5
 20
9.6999999999999993
 30
0.0
 11
-50.799999999999997
 21
9.6999999999999993
 31
0.0
  0
ENDBLK
  5
180
100
AcDbEntity
  8
0
100
AcDbBlockEnd
  0
BLOCK
  5
181
100
AcDbEntity
  8
0
100
AcDbBlockBegin
  2
MS_4
 70
               0
 10
0.0
 20
0.0
 30
0.0
  3
MS_4
  1

  0
ARC
  5
182
100
AcDbEntity
  8
0
  6
CONTINUOUS
 62
               7
100
AcDbCircle
 10
6.7999999999999998
 20
41.700000000000003
 30
0.0
 40
1.6000000001047718
100
AcDbArc
 50
269.99999999999937
 51
89.999999999999801
  0
ARC
  5
183
100
AcDbEntity
  8
0
  6
CONTINUOUS
 62
               7
100
AcDbCircle
 10
13.200012207031248
 20
26.29998779296875
 30
0.0
 40
1.6000122070778151
100
AcDbArc
 50
90.000437128771608
 51
179.99956287122774
  0
CIRCLE
  5
184
100
AcDbEntity
  8
0
  6
CONTINUOUS
 62
               7
100
AcDbCircle
 10
6.800018310546875
 20
41.70001220703125
 30
0.0
 40
1.25
  0
CIRCLE
  5
185
100
AcDbEntity
  8
0
  6
CONTINUOUS
 62
               7
100
AcDbCircle
 10
13.20001220703125
 20
26.29998779296875
 30
0.0
 40
1.25
  0
ARC
  5
186
100
AcDbEntity
  8
0
  6
CONTINUOUS
 62
               7
100
AcDbCircle
 10
14.599975585937502
 20
24.9000244140625
 30
0.0
 40
0.4000244148075126
100
AcDbArc
 50
270.00349684341938
 51
359.99650315657863
  0
ARC
  5
187
100
AcDbEntity
  8
0
  6
CONTINUOUS
 62
               7
100
AcDbCircle
 10
14.599990844435526
 20
48.099990844435524
 30
0.0
 40
0.4000091556692538
100
AcDbArc
 50
0.0013114079920823
 51
89.998688592008222
  0
ARC
  5
188
100
AcDbEntity
  8
0
  6
CONTINUOUS
 62
               7
100
AcDbCircle
 10
5.4000091555644758
 20
48.099990844435524
 30
0.0
 40
0.4000091556692538
100
AcDbArc
 50
90.001311407991636
 51
179.99868859200751
  0
ARC
  5
189
100
AcDbEntity
  8
0
  6
CONTINUOUS
 62
               7
100
AcDbCircle
 10
5.4000091555644758
 20
24.900009155564476
 30
0.0
 40
0.4000091556692538
100
AcDbArc
 50
180.00131140799169
 51
269.99868859200757
  0
LINE
  5
18A
100
AcDbEntity
  8
0
  6
CENTER
 62
               2
100
AcDbLine
 10
0.0
 20
3.0
 30
0.0
 11
0.0
 21
-3.0
 31
0.0
  0
LINE
  5
18B
100
AcDbEntity
  8
0
  6
CONTINUOUS
 62
               7
100
AcDbLine
 10
8.0500000000000007
 20
51.5
 30
0.0
 11
8.0500000000000007
 21
52.5
 31
0.0
  0
LINE
  5
18C
100
AcDbEntity
  8
0
  6
CONTINUOUS
 62
               7
100
AcDbLine
 10
11.949999999999999
 20
51.5
 30
0.0
 11
11.949999999999999
 21
52.5
 31
0.0
  0
LINE
  5
18D
100
AcDbEntity
  8
0
  6
CONTINUOUS
 62
               7
100
AcDbLine
 10
8.0500000000000007
 20
52.5
 30
0.0
 11
11.949999999999999
 21
52.5
 31
0.0
  0
LINE
  5
18E
100
AcDbEntity
  8
0
  6
CONTINUOUS
 62
               7
100
AcDbLine
 10
5.0
 20
51.5
 30
0.0
 11
15.0
 21
51.5
 31
0.0
  0
LINE
  5
18F
100
AcDbEntity
  8
0
  6
CONTINUOUS
 62
               7
100
AcDbLine
 10
15.0
 20
24.5
 30
0.0
 11
15.0
 21
24.0
 31
0.0
  0
LINE
  5
190
100
AcDbEntity
  8
0
  6
CONTINUOUS
 62
               7
100
AcDbLine
 10
5.0
 20
24.5
 30
0.0
 11
5.0
 21
24.0
 31
0.0
  0
LINE
  5
191
100
AcDbEntity
  8
0
  6
CONTINUOUS
 62
               7
100
AcDbLine
 10
15.0
 20
49.100000000000001
 30
0.0
 11
5.0
 21
49.100000000000001
 31
0.0
  0
LINE
  5
192
100
AcDbEntity
  8
0
  6
CONTINUOUS
 62
               7
100
AcDbLine
 10
4.0
 20
24.0
 30
0.0
 11
16.0
 21
24.0
 31
0.0
  0
LINE
  5
193
100
AcDbEntity
  8
0
  6
CONTINUOUS
 62
               7
100
AcDbLine
 10
5.4000000000000004
 20
49.5
 30
0.0
 11
5.0
 21
49.100000000000001
 31
0.0
  0
LINE
  5
194
100
AcDbEntity
  8
0
  6
CONTINUOUS
 62
               7
100
AcDbLine
 10
15.0
 20
49.100000000000001
 30
0.0
 11
14.6
 21
49.5
 31
0.0
  0
LINE
  5
195
100
AcDbEntity
  8
0
  6
CONTINUOUS
 62
               7
100
AcDbLine
 10
5.0
 20
49.100000000000001
 30
0.0
 11
15.0
 21
49.100000000000001
 31
0.0
  0
LINE
  5
196
100
AcDbEntity
  8
0
  6
CONTINUOUS
 62
               7
100
AcDbLine
 10
5.4000000000000004
 20
49.5
 30
0.0
 11
14.6
 21
49.5
 31
0.0
  0
LINE
  5
197
100
AcDbEntity
  8
0
  6
CONTINUOUS
 62
               7
100
AcDbLine
 10
12.59
 20
26.899999999999999
 30
0.0
 11
13.800000000000001
 21
25.690000000000001
 31
0.0
  0
LINE
  5
198
100
AcDbEntity
  8
0
  6
CONTINUOUS
 62
               7
100
AcDbLine
 10
6.1900000000000004
 20
42.299999999999997
 30
0.0
 11
7.4000000000000004
 21
41.090000000000003
 31
0.0
  0
LINE
  5
199
100
AcDbEntity
  8
0
  6
CONTINUOUS
 62
               7
100
AcDbLine
 10
6.1900000000000004
 20
41.090000000000003
 30
0.0
 11
7.4000000000000004
 21
42.299999999999997
 31
0.0
  0
LINE
  5
19A
100
AcDbEntity
  8
0
  6
CONTINUOUS
 62
               7
100
AcDbLine
 10
12.59
 20
25.690000000000001
 30
0.0
 11
13.800000000000001
 21
26.899999999999999
 31
0.0
  0
LINE
  5
19B
100
AcDbEntity
  8
0
  6
CONTINUOUS
 62
               7
100
AcDbLine
 10
13.199999999999999
 20
27.899999999999999
 30
0.0
 11
15.0
 21
27.899999999999999
 31
0.0
  0
LINE
  5
19C
100
AcDbEntity
  8
0
  6
CONTINUOUS
 62
               7
100
AcDbLine
 10
11.6
 20
26.300000000000001
 30
0.0
 11
11.6
 21
24.5
 31
0.0
  0
LINE
  5
19D
100
AcDbEntity
  8
0
  6
CONTINUOUS
 62
               7
100
AcDbLine
 10
5.0
 20
40.100000000000001
 30
0.0
 11
6.7999999999999998
 21
40.100000000000001
 31
0.0
  0
LINE
  5
19E
100
AcDbEntity
  8
0
  6
CONTINUOUS
 62
               7
100
AcDbLine
 10
5.0
 20
43.299999999999997
 30
0.0
 11
6.7999999999999998
 21
43.299999999999997
 31
0.0
  0
LINE
  5
19F
100
AcDbEntity
  8
0
  6
CONTINUOUS
 62
               7
100
AcDbLine
 10
5.4000000000000004
 20
48.5
 30
0.0
 11
14.6
 21
48.5
 31
0.0
  0
LINE
  5
1A0
100
AcDbEntity
  8
0
  6
CONTINUOUS
 62
               7
100
AcDbLine
 10
15.0
 20
51.5
 30
0.0
 11
15.0
 21
24.5
 31
0.0
  0
LINE
  5
1A1
100
AcDbEntity
  8
0
  6
CONTINUOUS
 62
               7
100
AcDbLine
 10
5.0
 20
51.5
 30
0.0
 11
5.0
 21
24.5
 31
0.0
  0
LINE
  5
1A2
100
AcDbEntity
  8
0
  6
CONTINUOUS
 62
               7
100
AcDbLine
 10
5.0
 20
24.5
 30
0.0
 11
15.0
 21
24.5
 31
0.0
  0
LINE
  5
1A3
100
AcDbEntity
  8
0
  6
CENTER
 62
               2
100
AcDbLine
 10
10.0
 20
-5.0
 30
0.0
 11
10.0
 21
57.280000000000001
 31
0.0
  0
LINE
  5
1A4
100
AcDbEntity
  8
0
  6
CONTINUOUS
 62
               7
100
AcDbLine
 10
-3.0
 20
24.0
 30
0.0
 11
19.0
 21
24.0
 31
0.0
  0
LINE
  5
1A5
100
AcDbEntity
  8
0
  6
CONTINUOUS
 62
               7
100
AcDbLine
 10
-3.0
 20
0.0
 30
0.0
 11
19.0
 21
0.0
 31
0.0
  0
LINE
  5
1A6
100
AcDbEntity
  8
0
  6
CONTINUOUS
 62
               7
100
AcDbLine
 10
19.0
 20
24.0
 30
0.0
 11
19.0
 21
0.0
 31
0.0
  0
LINE
  5
1A7
100
AcDbEntity
  8
0
  6
CONTINUOUS
 62
               7
100
AcDbLine
 10
-3.0
 20
24.0
 30
0.0
 11
-3.0
 21
0.0
 31
0.0
  0
ENDBLK
  5
1A8
100
AcDbEntity
  8
0
100
AcDbBlockEnd
  0
BLOCK
  5
1A9
100
AcDbEntity
  8
0
100
AcDbBlockBegin
  2
MS_5
 70
               0
 10
0.0
 20
0.0
 30
0.0
  3
MS_5
  1

  0
LINE
  5
1AA
100
AcDbEntity
  8
0
  6
CONTINUOUS
 62
               4
100
AcDbLine
 10
24.5
 20
37.0
 30
0.0
 11
51.499992370605469
 21
37.0
 31
0.0
  0
LINE
  5
1AB
100
AcDbEntity
  8
0
  6
CONTINUOUS
 62
               4
100
AcDbLine
 10
35.600000000000023
 20
50.5
 30
0.0
 11
35.600000000000023
 21
46.0
 31
0.0
  0
LINE
  5
1AC
100
AcDbEntity
  8
0
  6
CONTINUOUS
 62
               4
100
AcDbLine
 10
26.649987792968773
 20
57.0
 30
0.0
 11
35.649987792968773
 21
57.0
 31
0.0
  0
LINE
  5
1AD
100
AcDbEntity
  8
0
  6
CONTINUOUS
 62
               4
100
AcDbLine
 10
27.0
 20
50.5
 30
0.0
 11
35.650003051757835
 21
50.5
 31
0.0
  0
LINE
  5
1AE
100
AcDbEntity
  8
0
  6
CONTINUOUS
 62
               4
100
AcDbLine
 10
36.227349853515648
 20
57.0
 30
0.0
 11
37.649995422363304
 21
57.0
 31
0.0
  0
LINE
  5
1AF
100
AcDbEntity
  8
0
  6
CONTINUOUS
 62
               4
100
AcDbLine
 10
35.600000000000023
 20
47.998458862304688
 30
0.0
 11
35.650003051757835
 21
47.998458862304688
 31
0.0
  0
LINE
  5
1B0
100
AcDbEntity
  8
0
  6
CONTINUOUS
 62
               4
100
AcDbLine
 10
35.650003051757835
 20
46.498458862304688
 30
0.0
 11
36.649995422363304
 21
46.498458862304688
 31
0.0
  0
LINE
  5
1B1
100
AcDbEntity
  8
0
  6
CONTINUOUS
 62
               4
100
AcDbLine
 10
35.650003051757835
 20
47.998458862304688
 30
0.0
 11
35.650003051757835
 21
50.5
 31
0.0
  0
LINE
  5
1B2
100
AcDbEntity
  8
0
  6
CONTINUOUS
 62
               4
100
AcDbLine
 10
37.149995422363304
 20
55.5
 30
0.0
 11
37.649995422363304
 21
55.5
 31
0.0
  0
LINE
  5
1B3
100
AcDbEntity
  8
0
  6
CONTINUOUS
 62
               4
100
AcDbLine
 10
35.650000209407722
 20
46.498474151870141
 30
0.0
 11
35.599979656101482
 21
46.548494705176381
 31
0.0
  0
LINE
  5
1B4
100
AcDbEntity
  8
0
  6
CONTINUOUS
 62
               4
100
AcDbLine
 10
27.150003051757835
 20
50.5
 30
0.0
 11
27.150003051757835
 21
56.0
 31
0.0
  0
LINE
  5
1B5
100
AcDbEntity
  8
0
  6
CONTINUOUS
 62
               4
100
AcDbLine
 10
26.650003051757835
 20
56.0
 30
0.0
 11
26.650003051757835
 21
57.0
 31
0.0
  0
LINE
  5
1B6
100
AcDbEntity
  8
0
  6
CONTINUOUS
 62
               4
100
AcDbLine
 10
26.649987792968773
 20
56.0
 30
0.0
 11
27.149987792968773
 21
56.0
 31
0.0
  0
LINE
  5
1B7
100
AcDbEntity
  8
0
  6
CONTINUOUS
 62
               4
100
AcDbLine
 10
37.150003051757835
 20
50.05615234375
 30
0.0
 11
37.150003051757835
 21
55.5
 31
0.0
  0
LINE
  5
1B8
100
AcDbEntity
  8
0
  6
CONTINUOUS
 62
               4
100
AcDbLine
 10
36.650001302236547
 20
46.49845074175937
 30
0.0
 11
37.150000411113638
 21
50.056138825448215
 31
0.0
  0
LINE
  5
1B9
100
AcDbEntity
  8
0
  6
CONTINUOUS
 62
               4
100
AcDbLine
 10
35.650003051757835
 20
50.5
 30
0.0
 11
35.650003051757835
 21
57.0
 31
0.0
  0
LINE
  5
1BA
100
AcDbEntity
  8
0
  6
CONTINUOUS
 62
               4
100
AcDbLine
 10
35.650044511604051
 20
55.999958942901685
 30
0.0
 11
36.227396327367956
 21
56.999967647856465
 31
0.0
  0
LINE
  5
1BB
100
AcDbEntity
  8
0
  6
CONTINUOUS
 62
               4
100
AcDbLine
 10
37.650003051757835
 20
55.5
 30
0.0
 11
37.650003051757835
 21
57.0
 31
0.0
  0
LINE
  5
1BC
100
AcDbEntity
  8
0
  6
CONTINUOUS
 62
               4
100
AcDbLine
 10
32.50000915527346
 20
70.0
 30
0.0
 11
31.700006103515648
 21
70.0
 31
0.0
  0
LINE
  5
1BD
100
AcDbEntity
  8
0
  6
CONTINUOUS
 62
               4
100
AcDbLine
 10
31.700006103515648
 20
65.0
 30
0.0
 11
31.700006103515648
 21
70.0
 31
0.0
  0
LINE
  5
1BE
100
AcDbEntity
  8
0
  6
CONTINUOUS
 62
               4
100
AcDbLine
 10
32.50000915527346
 20
65.0
 30
0.0
 11
32.50000915527346
 21
70.0
 31
0.0
  0
LINE
  5
1BF
100
AcDbEntity
  8
0
  6
CONTINUOUS
 62
               4
100
AcDbLine
 10
32.81501159667971
 20
57.0
 30
0.0
 11
32.81501159667971
 21
61.598403930664062
 31
0.0
  0
LINE
  5
1C0
100
AcDbEntity
  8
0
  6
CONTINUOUS
 62
               4
100
AcDbLine
 10
31.385003662109398
 20
57.0
 30
0.0
 11
31.385003662109398
 21
60.772796630859375
 31
0.0
  0
LINE
  5
1C1
100
AcDbEntity
  8
0
  6
CONTINUOUS
 62
               4
100
AcDbLine
 10
32.81501159667971
 20
65.0
 30
0.0
 11
31.385003662109398
 21
65.0
 31
0.0
  0
LINE
  5
1C2
100
AcDbEntity
  8
0
  6
CONTINUOUS
 62
               4
100
AcDbLine
 10
31.385003662109398
 20
61.927490234375
 30
0.0
 11
31.385003662109398
 21
65.0
 31
0.0
  0
LINE
  5
1C3
100
AcDbEntity
  8
0
  6
CONTINUOUS
 62
               4
100
AcDbLine
 10
32.81501159667971
 20
62.75311279296875
 30
0.0
 11
32.81501159667971
 21
65.0
 31
0.0
  0
LINE
  5
1C4
100
AcDbEntity
  8
0
  6
CONTINUOUS
 62
               7
100
AcDbLine
 10
24.5
 20
13.0
 30
0.0
 11
51.5
 21
13.0
 31
0.0
  0
LINE
  5
1C5
100
AcDbEntity
  8
0
  6
CONTINUOUS
 62
               4
100
AcDbLine
 10
30.31501159667971
 20
61.309738159179688
 30
0.0
 11
30.31501159667971
 21
65.0
 31
0.0
  0
LINE
  5
1C6
100
AcDbEntity
  8
0
  6
CONTINUOUS
 62
               4
100
AcDbLine
 10
28.885003662109398
 20
60.484115600585938
 30
0.0
 11
28.885003662109398
 21
65.0
 31
0.0
  0
LINE
  5
1C7
100
AcDbEntity
  8
0
  6
CONTINUOUS
 62
               4
100
AcDbLine
 10
28.885003662109398
 20
65.0
 30
0.0
 11
30.31501159667971
 21
65.0
 31
0.0
  0
LINE
  5
1C8
100
AcDbEntity
  8
0
  6
CONTINUOUS
 62
               4
100
AcDbLine
 10
30.00000915527346
 20
65.0
 30
0.0
 11
30.00000915527346
 21
70.0
 31
0.0
  0
LINE
  5
1C9
100
AcDbEntity
  8
0
  6
CONTINUOUS
 62
               4
100
AcDbLine
 10
29.200006103515648
 20
65.0
 30
0.0
 11
29.200006103515648
 21
69.999984741210937
 31
0.0
  0
LINE
  5
1CA
100
AcDbEntity
  8
0
  6
CONTINUOUS
 62
               4
100
AcDbLine
 10
29.200006103515648
 20
70.0
 30
0.0
 11
30.00000915527346
 21
70.0
 31
0.0
  0
LINE
  5
1CB
100
AcDbEntity
  8
0
  6
CONTINUOUS
 62
               4
100
AcDbLine
 10
30.31501159667971
 20
57.0
 30
0.0
 11
30.31501159667971
 21
60.155029296875
 31
0.0
  0
LINE
  5
1CC
100
AcDbEntity
  8
0
  6
CONTINUOUS
 62
               4
100
AcDbLine
 10
28.885003662109398
 20
57.0
 30
0.0
 11
28.885003662109398
 21
59.329421997070312
 31
0.0
  0
LINE
  5
1CD
100
AcDbEntity
  8
0
  6
CONTINUOUS
 62
             200
100
AcDbLine
 10
34.31501889147205
 20
63.619105809934808
 30
0.0
 11
27.384989799908567
 21
59.618057246153512
 31
0.0
  0
LINE
  5
1CE
100
AcDbEntity
  8
0
  6
CONTINUOUS
 62
             200
100
AcDbLine
 10
34.314994343097737
 20
62.464464815078827
 30
0.0
 11
27.384984189578631
 21
58.46341291056342
 31
0.0
  0
ARC
  5
1CF
100
AcDbEntity
  8
0
  6
CONTINUOUS
 62
               4
100
AcDbCircle
 10
25.0
 20
45.5
 30
0.0
 40
0.5
100
AcDbArc
 50
89.999999999999801
 51
179.9999999999996
  0
LINE
  5
1D0
100
AcDbEntity
  8
0
  6
CONTINUOUS
 62
               4
100
AcDbLine
 10
27.0
 20
46.0
 30
0.0
 11
25.0
 21
46.0
 31
0.0
  0
LINE
  5
1D1
100
AcDbEntity
  8
0
  6
CONTINUOUS
 62
               4
100
AcDbLine
 10
27.0
 20
50.5
 30
0.0
 11
27.0
 21
46.0
 31
0.0
  0
LINE
  5
1D2
100
AcDbEntity
  8
0
  6
CONTINUOUS
 62
               4
100
AcDbLine
 10
35.600000000000023
 20
50.5
 30
0.0
 11
35.600000000000023
 21
46.0
 31
0.0
  0
ARC
  5
1D3
100
AcDbEntity
  8
0
  6
CONTINUOUS
 62
               4
100
AcDbCircle
 10
50.002020395360546
 20
41.179610903929301
 30
0.0
 40
1.4979796551727449
100
AcDbArc
 50
0.0148824203654679
 51
24.046309772710686
  0
ARC
  5
1D4
100
AcDbEntity
  8
0
  6
CONTINUOUS
 62
               4
100
AcDbCircle
 10
49.174020838564047
 20
45.500099937446265
 30
0.0
 40
0.4999010215015999
100
AcDbArc
 50
24.197376208904771
 51
89.887774076864815
  0
LINE
  5
1D5
100
AcDbEntity
  8
0
  6
CONTINUOUS
 62
               4
100
AcDbLine
 10
49.629999999999995
 20
45.705000000000013
 30
0.0
 11
51.370000000000005
 21
41.789999999999992
 31
0.0
  0
LINE
  5
1D6
100
AcDbEntity
  8
0
  6
CONTINUOUS
 62
               4
100
AcDbLine
 10
51.5
 20
41.180000000000007
 30
0.0
 11
51.5
 21
37.0
 31
0.0
  0
LINE
  5
1D7
100
AcDbEntity
  8
0
  6
CONTINUOUS
 62
               4
100
AcDbLine
 10
24.5
 20
45.5
 30
0.0
 11
24.5
 21
37.0
 31
0.0
  0
LINE
  5
1D8
100
AcDbEntity
  8
0
  6
CONTINUOUS
 62
               4
100
AcDbLine
 10
24.5
 20
13.0
 30
0.0
 11
24.5
 21
37.0
 31
0.0
  0
LINE
  5
1D9
100
AcDbEntity
  8
0
  6
CONTINUOUS
 62
               4
100
AcDbLine
 10
51.5
 20
13.0
 30
0.0
 11
51.5
 21
37.0
 31
0.0
  0
LINE
  5
1DA
100
AcDbEntity
  8
0
  6
CONTINUOUS
 62
               4
100
AcDbLine
 10
35.600000000000023
 20
46.0
 30
0.0
 11
49.174999999999955
 21
46.0
 31
0.0
  0
CIRCLE
  5
1DB
100
AcDbEntity
  8
0
  6
CONTINUOUS
 62
               7
100
AcDbCircle
 10
16.5
 20
-17.299999237060518
 30
0.0
 40
4.2829999923706055
  0
CIRCLE
  5
1DC
100
AcDbEntity
  8
0
  6
CONTINUOUS
 62
               2
100
AcDbCircle
 10
16.5
 20
-17.299999237060518
 30
0.0
 40
4.8639993667602539
  0
CIRCLE
  5
1DD
100
AcDbEntity
  8
0
  6
CONTINUOUS
 62
               7
100
AcDbCircle
 10
7.5
 20
-28.199996948242188
 30
0.0
 40
4.2829999923706055
  0
CIRCLE
  5
1DE
100
AcDbEntity
  8
0
  6
CONTINUOUS
 62
               2
100
AcDbCircle
 10
7.5
 20
-28.199996948242188
 30
0.0
 40
4.8639993667602539
  0
ARC
  5
1DF
100
AcDbEntity
  8
0
  6
CONTINUOUS
 62
               7
100
AcDbCircle
 10
43.50000610347837
 20
-34.049993896521642
 30
0.0
 40
0.4999938965588822
100
AcDbArc
 50
359.99930058435962
 51
90.000699415639403
  0
ARC
  5
1E0
100
AcDbEntity
  8
0
  6
CONTINUOUS
 62
               7
100
AcDbCircle
 10
43.499993896447108
 20
-35.54999389644712
 30
0.0
 40
0.5000061035901293
100
AcDbArc
 50
270.00069940710142
 51
359.99930059289716
  0
ARC
  5
1E1
100
AcDbEntity
  8
0
  6
CONTINUOUS
 62
               7
100
AcDbCircle
 10
42.450006103478358
 20
-52.00000610347837
 30
0.0
 40
0.4999938965588822
100
AcDbArc
 50
269.99930058435979
 51
0.000699415639558
  0
ARC
  5
1E2
100
AcDbEntity
  8
0
  6
CONTINUOUS
 62
               7
100
AcDbCircle
 10
40.95000610355288
 20
-51.999993896447108
 30
0.0
 40
0.5000061035901293
100
AcDbArc
 50
180.00069940710162
 51
269.99930059289738
  0
ARC
  5
1E3
100
AcDbEntity
  8
0
  6
CONTINUOUS
 62
               7
100
AcDbCircle
 10
51.100006103515625
 20
-5.600006103515625
 30
0.0
 40
0.3999938965309418
100
AcDbArc
 50
269.99912572244546
 51
0.0008742775541784
  0
ARC
  5
1E4
100
AcDbEntity
  8
0
  6
CONTINUOUS
 62
               7
100
AcDbCircle
 10
48.099999999953411
 20
-6.6000000000465775
 30
0.0
 40
0.400000000046566
100
AcDbArc
 50
0.0000000066702593
 51
89.999999993329283
  0
ARC
  5
1E5
100
AcDbEntity
  8
0
  6
CONTINUOUS
 62
               7
100
AcDbCircle
 10
48.099999999953411
 20
-37.399999999953423
 30
0.0
 40
0.4000000000465647
100
AcDbArc
 50
270.00000000666989
 51
359.99999999332869
  0
ARC
  5
1E6
100
AcDbEntity
  8
0
  6
CONTINUOUS
 62
               7
100
AcDbCircle
 10
48.099998474048334
 20
-52.599998474048334
 30
0.0
 40
0.4000015259545765
100
AcDbArc
 50
270.00021857564224
 51
359.99978142435634
  0
ARC
  5
1E7
100
AcDbEntity
  8
0
  6
CONTINUOUS
 62
               7
100
AcDbCircle
 10
24.900009155273438
 20
-52.599990844726563
 30
0.0
 40
0.4000091553782089
100
AcDbArc
 50
180.00131136630645
 51
269.99868863369358
  0
LINE
  5
1E8
100
AcDbEntity
  8
0
  6
CENTER
 62
               2
100
AcDbLine
 10
-4.0
 20
0.0
 30
0.0
 11
4.0
 21
0.0
 31
0.0
  0
LINE
  5
1E9
100
AcDbEntity
  8
0
  6
CENTER
 62
               2
100
AcDbLine
 10
-4.0
 20
-44.0
 30
0.0
 11
4.0
 21
-44.0
 31
0.0
  0
LINE
  5
1EA
100
AcDbEntity
  8
0
  6
CONTINUOUS
 62
               7
100
AcDbLine
 10
24.5
 20
1.0
 30
0.0
 11
24.0
 21
1.0
 31
0.0
  0
LINE
  5
1EB
100
AcDbEntity
  8
0
  6
CONTINUOUS
 62
               7
100
AcDbLine
 10
24.5
 20
-38.0
 30
0.0
 11
24.0
 21
-38.0
 31
0.0
  0
LINE
  5
1EC
100
AcDbEntity
  8
0
  6
CENTER
 62
               2
100
AcDbLine
 10
13.360000000000014
 20
-28.199999999999989
 30
0.0
 11
1.6299999999999955
 21
-28.199999999999989
 31
0.0
  0
LINE
  5
1ED
100
AcDbEntity
  8
0
  6
CENTER
 62
               2
100
AcDbLine
 10
16.5
 20
-23.159999999999968
 30
0.0
 11
16.5
 21
-11.429999999999978
 31
0.0
  0
LINE
  5
1EE
100
AcDbEntity
  8
0
  6
CENTER
 62
               2
100
AcDbLine
 10
22.360000000000014
 20
-17.299999999999983
 30
0.0
 11
10.629999999999995
 21
-17.299999999999983
 31
0.0
  0
LINE
  5
1EF
100
AcDbEntity
  8
0
  6
CONTINUOUS
 62
               7
100
AcDbLine
 10
40.100000000000023
 20
-53.0
 30
0.0
 11
40.100000000000023
 21
-52.0
 31
0.0
  0
LINE
  5
1F0
100
AcDbEntity
  8
0
  6
CENTER
 62
               2
100
AcDbLine
 10
7.5
 20
-34.060000000000002
 30
0.0
 11
7.5
 21
-22.329999999999984
 31
0.0
  0
LINE
  5
1F1
100
AcDbEntity
  8
0
  6
CONTINUOUS
 62
               7
100
AcDbLine
 10
24.0
 20
3.0
 30
0.0
 11
0.0
 21
3.0
 31
0.0
  0
LINE
  5
1F2
100
AcDbEntity
  8
0
  6
CONTINUOUS
 62
               7
100
AcDbLine
 10
24.0
 20
-47.0
 30
0.0
 11
0.0
 21
-47.0
 31
0.0
  0
LINE
  5
1F3
100
AcDbEntity
  8
0
  6
CONTINUOUS
 62
               7
100
AcDbLine
 10
0.0
 20
-47.0
 30
0.0
 11
0.0
 21
3.0
 31
0.0
  0
LINE
  5
1F4
100
AcDbEntity
  8
0
  6
CONTINUOUS
 62
               7
100
AcDbLine
 10
24.0
 20
-47.0
 30
0.0
 11
24.0
 21
3.0
 31
0.0
  0
LINE
  5
1F5
100
AcDbEntity
  8
0
  6
CONTINUOUS
 62
               7
100
AcDbLine
 10
44.0
 20
-34.050000000000011
 30
0.0
 11
44.0
 21
-35.550000000000011
 31
0.0
  0
LINE
  5
1F6
100
AcDbEntity
  8
0
  6
CONTINUOUS
 62
               7
100
AcDbLine
 10
48.5
 20
-33.199999999999989
 30
0.0
 11
43.5
 21
-33.199999999999989
 31
0.0
  0
LINE
  5
1F7
100
AcDbEntity
  8
0
  6
CONTINUOUS
 62
               7
100
AcDbLine
 10
48.5
 20
-44.099999999999994
 30
0.0
 11
48.5
 21
-39.900000000000006
 31
0.0
  0
LINE
  5
1F8
100
AcDbEntity
  8
0
  6
CONTINUOUS
 62
               7
100
AcDbLine
 10
46.600000000000023
 20
-39.900000000000006
 30
0.0
 11
46.600000000000023
 21
-38.0
 31
0.0
  0
LINE
  5
1F9
100
AcDbEntity
  8
0
  6
CONTINUOUS
 62
               7
100
AcDbLine
 10
49.100000000000023
 20
-39.900000000000006
 30
0.0
 11
46.600000000000023
 21
-39.900000000000006
 31
0.0
  0
LINE
  5
1FA
100
AcDbEntity
  8
0
  6
CONTINUOUS
 62
               7
100
AcDbLine
 10
49.100000000000023
 20
-44.099999999999994
 30
0.0
 11
46.600000000000023
 21
-44.099999999999994
 31
0.0
  0
LINE
  5
1FB
100
AcDbEntity
  8
0
  6
CONTINUOUS
 62
               7
100
AcDbLine
 10
49.100000000000023
 20
-46.0
 30
0.0
 11
49.100000000000023
 21
-38.0
 31
0.0
  0
LINE
  5
1FC
100
AcDbEntity
  8
0
  6
CONTINUOUS
 62
               7
100
AcDbLine
 10
46.600000000000023
 20
-46.0
 30
0.0
 11
46.600000000000023
 21
-44.099999999999994
 31
0.0
  0
LINE
  5
1FD
100
AcDbEntity
  8
0
  6
CONTINUOUS
 62
               7
100
AcDbLine
 10
42.449999999999989
 20
-52.5
 30
0.0
 11
40.949999999999989
 21
-52.5
 31
0.0
  0
LINE
  5
1FE
100
AcDbEntity
  8
0
  6
CONTINUOUS
 62
               7
100
AcDbLine
 10
43.300000000000011
 20
-52.0
 30
0.0
 11
40.100000000000023
 21
-52.0
 31
0.0
  0
LINE
  5
1FF
100
AcDbEntity
  8
0
  6
CONTINUOUS
 62
               7
100
AcDbLine
 10
43.300000000000011
 20
-53.0
 30
0.0
 11
43.300000000000011
 21
-52.0
 31
0.0
  0
LINE
  5
200
100
AcDbEntity
  8
0
  6
CONTINUOUS
 62
               7
100
AcDbLine
 10
51.5
 20
1.5
 30
0.0
 11
24.5
 21
1.5
 31
0.0
  0
LINE
  5
201
100
AcDbEntity
  8
0
  6
CONTINUOUS
 62
               7
100
AcDbLine
 10
48.100000000000023
 20
-53.0
 30
0.0
 11
24.899999999999977
 21
-53.0
 31
0.0
  0
LINE
  5
202
100
AcDbEntity
  8
0
  6
CONTINUOUS
 62
               7
100
AcDbLine
 10
48.5
 20
-52.599999999999994
 30
0.0
 11
48.5
 21
-46.0
 31
0.0
  0
LINE
  5
203
100
AcDbEntity
  8
0
  6
CONTINUOUS
 62
               7
100
AcDbLine
 10
49.100000000000023
 20
-46.0
 30
0.0
 11
24.5
 21
-46.0
 31
0.0
  0
LINE
  5
204
100
AcDbEntity
  8
0
  6
CONTINUOUS
 62
               7
100
AcDbLine
 10
48.100000000000023
 20
-37.800000000000011
 30
0.0
 11
43.5
 21
-37.800000000000011
 31
0.0
  0
LINE
  5
205
100
AcDbEntity
  8
0
  6
CONTINUOUS
 62
               7
100
AcDbLine
 10
48.100000000000023
 20
-6.1999999999999886
 30
0.0
 11
43.5
 21
-6.1999999999999886
 31
0.0
  0
LINE
  5
206
100
AcDbEntity
  8
0
  6
CONTINUOUS
 62
               7
100
AcDbLine
 10
48.5
 20
-6.5999999999999943
 30
0.0
 11
48.5
 21
-37.400000000000006
 31
0.0
  0
LINE
  5
207
100
AcDbEntity
  8
0
  6
CONTINUOUS
 62
               7
100
AcDbLine
 10
51.100000000000023
 20
-6.0
 30
0.0
 11
24.5
 21
-6.0
 31
0.0
  0
LINE
  5
208
100
AcDbEntity
  8
0
  6
CONTINUOUS
 62
               7
100
AcDbLine
 10
49.100000000000023
 20
-38.0
 30
0.0
 11
24.5
 21
-38.0
 31
0.0
  0
LINE
  5
209
100
AcDbEntity
  8
0
  6
CONTINUOUS
 62
               7
100
AcDbLine
 10
43.5
 20
-6.0
 30
0.0
 11
43.5
 21
-38.0
 31
0.0
  0
LINE
  5
20A
100
AcDbEntity
  8
0
  6
CONTINUOUS
 62
               7
100
AcDbLine
 10
49.5
 20
-45.599999999999994
 30
0.0
 11
49.5
 21
-38.400000000000006
 31
0.0
  0
LINE
  5
20B
100
AcDbEntity
  8
0
  6
CONTINUOUS
 62
               7
100
AcDbLine
 10
49.5
 20
-45.599999999999994
 30
0.0
 11
49.100000000000023
 21
-46.0
 31
0.0
  0
LINE
  5
20C
100
AcDbEntity
  8
0
  6
CONTINUOUS
 62
               7
100
AcDbLine
 10
49.5
 20
-38.400000000000006
 30
0.0
 11
49.100000000000023
 21
-38.0
 31
0.0
  0
LINE
  5
20D
100
AcDbEntity
  8
0
  6
CONTINUOUS
 62
               7
100
AcDbLine
 10
24.5
 20
-52.599999999999994
 30
0.0
 11
24.5
 21
13.0
 31
0.0
  0
LINE
  5
20E
100
AcDbEntity
  8
0
  6
CONTINUOUS
 62
               7
100
AcDbLine
 10
51.5
 20
-5.5999999999999943
 30
0.0
 11
51.5
 21
13.0
 31
0.0
  0
LINE
  5
20F
100
AcDbEntity
  8
0
  6
CONTINUOUS
 62
               7
100
AcDbLine
 10
24.5
 20
13.0
 30
0.0
 11
51.5
 21
13.0
 31
0.0
  0
LINE
  5
210
100
AcDbEntity
  8
0
  6
CONTINUOUS
 62
               7
100
AcDbLine
 10
52.5
 20
10.0
 30
0.0
 11
52.5
 21
11.650000000000006
 31
0.0
  0
LINE
  5
211
100
AcDbEntity
  8
0
  6
CONTINUOUS
 62
               7
100
AcDbLine
 10
52.5
 20
10.0
 30
0.0
 11
51.899999999999977
 21
10.0
 31
0.0
  0
LINE
  5
212
100
AcDbEntity
  8
0
  6
CONTINUOUS
 62
               7
100
AcDbLine
 10
52.5
 20
9.4000000000000057
 30
0.0
 11
51.899999999999977
 21
9.4000000000000057
 31
0.0
  0
LINE
  5
213
100
AcDbEntity
  8
0
  6
CONTINUOUS
 62
               7
100
AcDbLine
 10
51.899999999999977
 20
9.4000000000000057
 30
0.0
 11
51.899999999999977
 21
10.0
 31
0.0
  0
LINE
  5
214
100
AcDbEntity
  8
0
  6
CONTINUOUS
 62
               7
100
AcDbLine
 10
52.5
 20
11.650000000000006
 30
0.0
 11
51.5
 21
11.650000000000006
 31
0.0
  0
LINE
  5
215
100
AcDbEntity
  8
0
  6
CONTINUOUS
 62
               7
100
AcDbLine
 10
52.5
 20
7.75
 30
0.0
 11
51.5
 21
7.75
 31
0.0
  0
LINE
  5
216
100
AcDbEntity
  8
0
  6
CONTINUOUS
 62
               7
100
AcDbLine
 10
52.5
 20
7.75
 30
0.0
 11
52.5
 21
9.4000000000000057
 31
0.0
  0
LINE
  5
217
100
AcDbEntity
  8
0
  6
CENTER
 62
               2
100
AcDbLine
 10
53.5
 20
9.6999999999999886
 30
0.0
 11
50.800000000000011
 21
9.6999999999999886
 31
0.0
  0
LINE
  5
218
100
AcDbEntity
  8
0
  6
CENTER
 62
               2
100
AcDbLine
 10
11.0
 20
-7.5999999999999659
 30
0.0
 11
1.0
 21
-7.5999999999999659
 31
0.0
  0
LINE
  5
219
100
AcDbEntity
  8
0
  6
CENTER
 62
               2
100
AcDbLine
 10
6.0
 20
-2.5999999999999659
 30
0.0
 11
6.0
 21
-12.599999999999966
 31
0.0
  0
CIRCLE
  5
21A
100
AcDbEntity
  8
0
  6
CONTINUOUS
 62
               2
100
AcDbCircle
 10
6.0
 20
-7.5999999999999659
 30
0.0
 40
2.5
  0
CIRCLE
  5
21B
100
AcDbEntity
  8
0
  6
CONTINUOUS
 62
               7
100
AcDbCircle
 10
6.0
 20
-7.5999999999999659
 30
0.0
 40
2.0669994354248047
  0
ENDBLK
  5
21C
100
AcDbEntity
  8
0
100
AcDbBlockEnd
  0
BLOCK
  5
21D
100
AcDbEntity
  8
0
100
AcDbBlockBegin
  2
MS_6
 70
               0
 10
0.0
 20
0.0
 30
0.0
  3
MS_6
  1

  0
LINE
  5
21E
100
AcDbEntity
  8
0
  6
CENTER
 62
             200
100
AcDbLine
 10
5.0001086425781125
 20
-6.8392675781250034
 30
0.0
 11
5.0001086425781125
 21
37.577369212136858
 31
0.0
  0
ARC
  5
21F
100
AcDbEntity
  8
0
  6
CONTINUOUS
 62
               4
100
AcDbCircle
 10
0.5499786377791315
 20
32.500021362220863
 30
0.0
 40
0.4999786382354955
100
AcDbArc
 50
89.997551965216786
 51
180.00244803478242
  0
ARC
  5
220
100
AcDbEntity
  8
0
  6
CONTINUOUS
 62
               4
100
AcDbCircle
 10
9.4500137329078271
 20
32.500013732907831
 30
0.0
 40
0.4999862672807696
100
AcDbArc
 50
359.99842628145819
 51
90.001573718540826
  0
LINE
  5
221
100
AcDbEntity
  8
0
  6
CONTINUOUS
 62
               4
100
AcDbLine
 10
10.0
 20
0.0
 30
0.0
 11
10.0
 21
24.0
 31
0.0
  0
LINE
  5
222
100
AcDbEntity
  8
0
  6
CONTINUOUS
 62
               4
100
AcDbLine
 10
0.0
 20
0.0
 30
0.0
 11
0.0
 21
24.0
 31
0.0
  0
LINE
  5
223
100
AcDbEntity
  8
0
  6
CONTINUOUS
 62
               4
100
AcDbLine
 10
9.9499999999999993
 20
24.0
 30
0.0
 11
9.9499999999999993
 21
32.5
 31
0.0
  0
LINE
  5
224
100
AcDbEntity
  8
0
  6
CONTINUOUS
 62
               4
100
AcDbLine
 10
9.9499999999999993
 20
28.5
 30
0.0
 11
0.05
 21
28.5
 31
0.0
  0
LINE
  5
225
100
AcDbEntity
  8
0
  6
CONTINUOUS
 62
               4
100
AcDbLine
 10
9.5
 20
33.0
 30
0.0
 11
0.5
 21
33.0
 31
0.0
  0
LINE
  5
226
100
AcDbEntity
  8
0
  6
CONTINUOUS
 62
               4
100
AcDbLine
 10
0.05
 20
24.0
 30
0.0
 11
0.05
 21
32.5
 31
0.0
  0
LINE
  5
227
100
AcDbEntity
  8
0
  6
CONTINUOUS
 62
               4
100
AcDbLine
 10
0.0
 20
24.0
 30
0.0
 11
10.0
 21
24.0
 31
0.0
  0
ENDBLK
  5
228
100
AcDbEntity
  8
0
100
AcDbBlockEnd
  0
BLOCK
  5
229
100
AcDbEntity
  8
0
100
AcDbBlockBegin
  2
MS_7
 70
               0
 10
0.0
 20
0.0
 30
0.0
  3
MS_7
  1

  0
LINE
  5
22A
100
AcDbEntity
  8
0
  6
CONTINUOUS
 62
               4
100
AcDbLine
 10
-16.5
 20
16.499999913736957
 30
0.0
 11
-16.5
 21
25.499999913736957
 31
0.0
  0
LINE
  5
22B
100
AcDbEntity
  8
0
  6
CONTINUOUS
 62
               4
100
AcDbLine
 10
-10.0
 20
25.449996861979145
 30
0.0
 11
-10.0
 21
25.499999913736957
 31
0.0
  0
LINE
  5
22C
100
AcDbEntity
  8
0
  6
CONTINUOUS
 62
               4
100
AcDbLine
 10
-16.5
 20
26.07734671549477
 30
0.0
 11
-16.5
 21
27.499999913736957
 31
0.0
  0
LINE
  5
22D
100
AcDbEntity
  8
0
  6
CONTINUOUS
 62
               4
100
AcDbLine
 10
-5.9984588623046875
 20
25.499999913736957
 30
0.0
 11
-5.9984588623046875
 21
26.499999913736957
 31
0.0
  0
LINE
  5
22E
100
AcDbEntity
  8
0
  6
CONTINUOUS
 62
               4
100
AcDbLine
 10
-15.0
 20
26.999999913736957
 30
0.0
 11
-15.0
 21
27.499999913736957
 31
0.0
  0
LINE
  5
22F
100
AcDbEntity
  8
0
  6
CONTINUOUS
 62
               4
100
AcDbLine
 10
-10.0
 20
16.999999913736957
 30
0.0
 11
-15.5
 21
16.999999913736957
 31
0.0
  0
LINE
  5
230
100
AcDbEntity
  8
0
  6
CONTINUOUS
 62
               4
100
AcDbLine
 10
-15.5
 20
16.499999913736957
 30
0.0
 11
-16.5
 21
16.499999913736957
 31
0.0
  0
LINE
  5
231
100
AcDbEntity
  8
0
  6
CONTINUOUS
 62
               4
100
AcDbLine
 10
-15.5
 20
16.499999913736957
 30
0.0
 11
-15.5
 21
16.999999913736957
 31
0.0
  0
LINE
  5
232
100
AcDbEntity
  8
0
  6
CONTINUOUS
 62
               4
100
AcDbLine
 10
-9.55615234375
 20
26.999999913736957
 30
0.0
 11
-15.0
 21
26.999999913736957
 31
0.0
  0
LINE
  5
233
100
AcDbEntity
  8
0
  6
CONTINUOUS
 62
               4
100
AcDbLine
 10
-5.998454579468671
 20
26.500071061293767
 30
0.0
 11
-9.5561426631575159
 21
27.000070384309566
 31
0.0
  0
LINE
  5
234
100
AcDbEntity
  8
0
  6
CONTINUOUS
 62
               4
100
AcDbLine
 10
-10.0
 20
25.499999913736957
 30
0.0
 11
-16.5
 21
25.499999913736957
 31
0.0
  0
LINE
  5
235
100
AcDbEntity
  8
0
  6
CONTINUOUS
 62
               4
100
AcDbLine
 10
-15.499999958178705
 20
25.499978352823547
 30
0.0
 11
-16.499994209762917
 21
26.077324672805645
 31
0.0
  0
LINE
  5
236
100
AcDbEntity
  8
0
  6
CONTINUOUS
 62
               4
100
AcDbLine
 10
-15.0
 20
27.499999913736957
 30
0.0
 11
-16.5
 21
27.499999913736957
 31
0.0
  0
LINE
  5
237
100
AcDbEntity
  8
0
  6
CONTINUOUS
 62
               4
100
AcDbLine
 10
-29.5
 20
19.05000296549477
 30
0.0
 11
-29.5
 21
19.850006017252582
 31
0.0
  0
LINE
  5
238
100
AcDbEntity
  8
0
  6
CONTINUOUS
 62
               4
100
AcDbLine
 10
-24.500015258789063
 20
19.850006017252582
 30
0.0
 11
-29.5
 21
19.850006017252582
 31
0.0
  0
LINE
  5
239
100
AcDbEntity
  8
0
  6
CONTINUOUS
 62
               4
100
AcDbLine
 10
-24.500015258789063
 20
19.05000296549477
 30
0.0
 11
-29.5
 21
19.05000296549477
 31
0.0
  0
LINE
  5
23A
100
AcDbEntity
  8
0
  6
CONTINUOUS
 62
               4
100
AcDbLine
 10
-16.5
 20
22.665023717447895
 30
0.0
 11
-19.455841064453125
 21
22.665023717447895
 31
0.0
  0
LINE
  5
23B
100
AcDbEntity
  8
0
  6
CONTINUOUS
 62
               4
100
AcDbLine
 10
-16.5
 20
21.235015782877582
 30
0.0
 11
-19.839019775390625
 21
21.235015782877582
 31
0.0
  0
LINE
  5
23C
100
AcDbEntity
  8
0
  6
CONTINUOUS
 62
               4
100
AcDbLine
 10
-16.5
 20
18.735015782877582
 30
0.0
 11
-20.508895874023438
 21
18.735015782877582
 31
0.0
  0
LINE
  5
23D
100
AcDbEntity
  8
0
  6
CONTINUOUS
 62
               4
100
AcDbLine
 10
-16.5
 20
20.165023717447895
 30
0.0
 11
-20.125717163085938
 21
20.165023717447895
 31
0.0
  0
LINE
  5
23E
100
AcDbEntity
  8
0
  6
CONTINUOUS
 62
               4
100
AcDbLine
 10
-24.500015258789063
 20
22.350006017252582
 30
0.0
 11
-29.5
 21
22.350006017252582
 31
0.0
  0
LINE
  5
23F
100
AcDbEntity
  8
0
  6
CONTINUOUS
 62
               4
100
AcDbLine
 10
-24.500015258789063
 20
21.55000296549477
 30
0.0
 11
-29.5
 21
21.55000296549477
 31
0.0
  0
LINE
  5
240
100
AcDbEntity
  8
0
  6
CONTINUOUS
 62
               4
100
AcDbLine
 10
-29.5
 20
22.350006017252582
 30
0.0
 11
-29.5
 21
21.55000296549477
 31
0.0
  0
LINE
  5
241
100
AcDbEntity
  8
0
  6
CONTINUOUS
 62
               4
100
AcDbLine
 10
-24.5
 20
18.73500052408852
 30
0.0
 11
-24.5
 21
20.165008458658832
 31
0.0
  0
LINE
  5
242
100
AcDbEntity
  8
0
  6
CONTINUOUS
 62
               4
100
AcDbLine
 10
-24.5
 20
22.665008458658832
 30
0.0
 11
-24.5
 21
21.23500052408852
 31
0.0
  0
LINE
  5
243
100
AcDbEntity
  8
0
  6
CONTINUOUS
 62
               4
100
AcDbLine
 10
-21.544174194335937
 20
18.735015782877582
 30
0.0
 11
-24.500015258789063
 21
18.735015782877582
 31
0.0
  0
LINE
  5
244
100
AcDbEntity
  8
0
  6
CONTINUOUS
 62
               4
100
AcDbLine
 10
-21.160995483398438
 20
20.165023717447895
 30
0.0
 11
-24.500015258789063
 21
20.165023717447895
 31
0.0
  0
LINE
  5
245
100
AcDbEntity
  8
0
  6
CONTINUOUS
 62
               4
100
AcDbLine
 10
-20.874298095703125
 20
21.235015782877582
 30
0.0
 11
-24.500015258789063
 21
21.235015782877582
 31
0.0
  0
LINE
  5
246
100
AcDbEntity
  8
0
  6
CONTINUOUS
 62
               4
100
AcDbLine
 10
-20.491119384765625
 20
22.665023717447895
 30
0.0
 11
-24.500015258789063
 21
22.665023717447895
 31
0.0
  0
LINE
  5
247
100
AcDbEntity
  8
0
  6
CONTINUOUS
 62
             200
100
AcDbLine
 10
-19.053935707232995
 20
24.165006172564773
 30
0.0
 11
-20.910828860160109
 21
17.234986639697837
 31
0.0
  0
LINE
  5
248
100
AcDbEntity
  8
0
  6
CONTINUOUS
 62
             200
100
AcDbLine
 10
-20.089214565994553
 20
24.164996126888383
 30
0.0
 11
-21.946103769656474
 21
17.234991332879673
 31
0.0
  0
LINE
  5
249
100
AcDbEntity
  8
0
  6
CONTINUOUS
 62
               4
100
AcDbLine
 10
27.000000000000004
 20
28.184999913736931
 30
0.0
 11
27.000000000000004
 21
23.999999913736957
 31
0.0
  0
LINE
  5
24A
100
AcDbEntity
  8
0
  6
CONTINUOUS
 62
               4
100
AcDbLine
 10
24.674999999999994
 20
32.999999913736957
 30
0.0
 11
-2.503080900033293
 21
32.999999913736957
 31
0.0
  0
LINE
  5
24B
100
AcDbEntity
  8
0
  6
CONTINUOUS
 62
               4
100
AcDbLine
 10
25.129999999999999
 20
32.704999913736941
 30
0.0
 11
26.870000000000008
 21
28.789999913736949
 31
0.0
  0
ARC
  5
24C
100
AcDbEntity
  8
0
  6
CONTINUOUS
 62
               4
100
AcDbCircle
 10
24.675687863874504
 20
32.50267102581455
 30
0.0
 40
0.4973293636201366
100
AcDbArc
 50
24.005903588636794
 51
90.079246697133684
  0
ARC
  5
24D
100
AcDbEntity
  8
0
  6
CONTINUOUS
 62
               4
100
AcDbCircle
 10
25.501123948313893
 20
28.179394315853983
 30
0.0
 40
1.4988865337462252
100
AcDbArc
 50
0.2142776266259142
 51
24.039904443234626
  0
LINE
  5
24E
100
AcDbEntity
  8
0
  6
CONTINUOUS
 62
               4
100
AcDbLine
 10
1.4999999999999964
 20
25.599999913736951
 30
0.0
 11
1.4999999999999964
 21
23.999999913736957
 31
0.0
  0
LINE
  5
24F
100
AcDbEntity
  8
0
  6
CONTINUOUS
 62
               4
100
AcDbLine
 10
-3.0000000000000142
 20
32.499999913736957
 30
0.0
 11
-3.0000000000000142
 21
25.599999913736951
 31
0.0
  0
ARC
  5
250
100
AcDbEntity
  8
0
  6
CONTINUOUS
 62
               4
100
AcDbCircle
 10
-2.5015404500182825
 20
32.501540363755225
 30
0.0
 40
0.4984619302958243
100
AcDbArc
 50
89.822932465397898
 51
180.17706753460195
  0
LINE
  5
251
100
AcDbEntity
  8
0
  6
CONTINUOUS
 62
               4
100
AcDbLine
 10
1.4999999999999964
 20
25.599999913736951
 30
0.0
 11
-3.0000000000000142
 21
25.599999913736951
 31
0.0
  0
LINE
  5
252
100
AcDbEntity
  8
0
  6
CONTINUOUS
 62
               4
100
AcDbLine
 10
14.295000000000009
 20
23.999999913736957
 30
0.0
 11
12.795000000000009
 21
23.999999913736957
 31
0.0
  0
LINE
  5
253
100
AcDbEntity
  8
0
  6
CONTINUOUS
 62
               4
100
AcDbLine
 10
27.0
 20
23.999999913736957
 30
0.0
 11
1.3999999999999915
 21
23.999999913736957
 31
0.0
  0
LINE
  5
254
100
AcDbEntity
  8
0
  6
CONTINUOUS
 62
               4
100
AcDbLine
 10
-10.000000000000014
 20
16.999999913736957
 30
0.0
 11
1.3999999999999915
 21
16.999999913736957
 31
0.0
  0
LINE
  5
255
100
AcDbEntity
  8
0
  6
CONTINUOUS
 62
               4
100
AcDbLine
 10
-10.000000000000014
 20
25.499999913736957
 30
0.0
 11
1.3999999999999915
 21
25.499999913736957
 31
0.0
  0
LINE
  5
256
100
AcDbEntity
  8
0
  6
CONTINUOUS
 62
               4
100
AcDbLine
 10
-10.000000000000014
 20
25.499999913736957
 30
0.0
 11
-10.000000000000014
 21
16.999999913736957
 31
0.0
  0
LINE
  5
257
100
AcDbEntity
  8
0
  6
CONTINUOUS
 62
               4
100
AcDbLine
 10
1.3999999999999915
 20
16.999999913736957
 30
0.0
 11
1.3999999999999915
 21
25.499999909445421
 31
0.0
  0
LINE
  5
258
100
AcDbEntity
  8
0
  6
CONTINUOUS
 62
               4
100
AcDbLine
 10
-0.0000000000000036
 20
16.999999913736957
 30
0.0
 11
0.0000000000000071
 21
0.0000049999999874
 31
0.0
  0
LINE
  5
259
100
AcDbEntity
  8
0
  6
CONTINUOUS
 62
               4
100
AcDbLine
 10
27.0
 20
23.999999913736957
 30
0.0
 11
27.0
 21
-0.0000000862630429
 31
0.0
  0
ENDBLK
  5
25A
100
AcDbEntity
  8
0
100
AcDbBlockEnd
  0
BLOCK
  5
25B
100
AcDbEntity
  8
0
100
AcDbBlockBegin
  2
MS_8
 70
               0
 10
0.0
 20
0.0
 30
0.0
  3
MS_8
  1

  0
LINE
  5
25C
100
AcDbEntity
  8
0
  6
CONTINUOUS
 62
               4
100
AcDbLine
 10
16.500000000000007
 20
16.49999491373697
 30
0.0
 11
16.500000000000007
 21
25.49999491373697
 31
0.0
  0
LINE
  5
25D
100
AcDbEntity
  8
0
  6
CONTINUOUS
 62
               4
100
AcDbLine
 10
10.000000000000007
 20
25.449991861979157
 30
0.0
 11
10.000000000000007
 21
25.49999491373697
 31
0.0
  0
LINE
  5
25E
100
AcDbEntity
  8
0
  6
CONTINUOUS
 62
               4
100
AcDbLine
 10
16.500000000000007
 20
26.077341715494782
 30
0.0
 11
16.500000000000007
 21
27.49999491373697
 31
0.0
  0
LINE
  5
25F
100
AcDbEntity
  8
0
  6
CONTINUOUS
 62
               4
100
AcDbLine
 10
5.9984588623046946
 20
25.49999491373697
 30
0.0
 11
5.9984588623046946
 21
26.49999491373697
 31
0.0
  0
LINE
  5
260
100
AcDbEntity
  8
0
  6
CONTINUOUS
 62
               4
100
AcDbLine
 10
15.000000000000007
 20
26.99999491373697
 30
0.0
 11
15.000000000000007
 21
27.49999491373697
 31
0.0
  0
LINE
  5
261
100
AcDbEntity
  8
0
  6
CONTINUOUS
 62
               4
100
AcDbLine
 10
10.000000000000007
 20
16.99999491373697
 30
0.0
 11
15.500000000000007
 21
16.99999491373697
 31
0.0
  0
LINE
  5
262
100
AcDbEntity
  8
0
  6
CONTINUOUS
 62
               4
100
AcDbLine
 10
15.500000000000007
 20
16.49999491373697
 30
0.0
 11
16.500000000000007
 21
16.49999491373697
 31
0.0
  0
LINE
  5
263
100
AcDbEntity
  8
0
  6
CONTINUOUS
 62
               4
100
AcDbLine
 10
15.500000000000007
 20
16.49999491373697
 30
0.0
 11
15.500000000000007
 21
16.99999491373697
 31
0.0
  0
LINE
  5
264
100
AcDbEntity
  8
0
  6
CONTINUOUS
 62
               4
100
AcDbLine
 10
9.5561523437500071
 20
26.99999491373697
 30
0.0
 11
15.000000000000007
 21
26.99999491373697
 31
0.0
  0
LINE
  5
265
100
AcDbEntity
  8
0
  6
CONTINUOUS
 62
               4
100
AcDbLine
 10
5.9984545794686781
 20
26.500066061293779
 30
0.0
 11
9.556142663157523
 21
27.000065384309579
 31
0.0
  0
LINE
  5
266
100
AcDbEntity
  8
0
  6
CONTINUOUS
 62
               4
100
AcDbLine
 10
10.000000000000007
 20
25.49999491373697
 30
0.0
 11
16.500000000000007
 21
25.49999491373697
 31
0.0
  0
LINE
  5
267
100
AcDbEntity
  8
0
  6
CONTINUOUS
 62
               4
100
AcDbLine
 10
15.499999958178712
 20
25.499973352823559
 30
0.0
 11
16.499994209762924
 21
26.077319672805658
 31
0.0
  0
LINE
  5
268
100
AcDbEntity
  8
0
  6
CONTINUOUS
 62
               4
100
AcDbLine
 10
15.000000000000007
 20
27.49999491373697
 30
0.0
 11
16.500000000000007
 21
27.49999491373697
 31
0.0
  0
LINE
  5
269
100
AcDbEntity
  8
0
  6
CONTINUOUS
 62
               4
100
AcDbLine
 10
29.500000000000007
 20
19.049997965494782
 30
0.0
 11
29.500000000000007
 21
19.850001017252595
 31
0.0
  0
LINE
  5
26A
100
AcDbEntity
  8
0
  6
CONTINUOUS
 62
               4
100
AcDbLine
 10
24.50001525878907
 20
19.850001017252595
 30
0.0
 11
29.500000000000007
 21
19.850001017252595
 31
0.0
  0
LINE
  5
26B
100
AcDbEntity
  8
0
  6
CONTINUOUS
 62
               4
100
AcDbLine
 10
24.50001525878907
 20
19.049997965494782
 30
0.0
 11
29.500000000000007
 21
19.049997965494782
 31
0.0
  0
LINE
  5
26C
100
AcDbEntity
  8
0
  6
CONTINUOUS
 62
               4
100
AcDbLine
 10
16.500000000000007
 20
22.665018717447907
 30
0.0
 11
19.455841064453132
 21
22.665018717447907
 31
0.0
  0
LINE
  5
26D
100
AcDbEntity
  8
0
  6
CONTINUOUS
 62
               4
100
AcDbLine
 10
16.500000000000007
 20
21.235010782877595
 30
0.0
 11
19.839019775390632
 21
21.235010782877595
 31
0.0
  0
LINE
  5
26E
100
AcDbEntity
  8
0
  6
CONTINUOUS
 62
               4
100
AcDbLine
 10
16.500000000000007
 20
18.735010782877595
 30
0.0
 11
20.508895874023445
 21
18.735010782877595
 31
0.0
  0
LINE
  5
26F
100
AcDbEntity
  8
0
  6
CONTINUOUS
 62
               4
100
AcDbLine
 10
16.500000000000007
 20
20.165018717447907
 30
0.0
 11
20.125717163085945
 21
20.165018717447907
 31
0.0
  0
LINE
  5
270
100
AcDbEntity
  8
0
  6
CONTINUOUS
 62
               4
100
AcDbLine
 10
24.50001525878907
 20
22.350001017252595
 30
0.0
 11
29.500000000000007
 21
22.350001017252595
 31
0.0
  0
LINE
  5
271
100
AcDbEntity
  8
0
  6
CONTINUOUS
 62
               4
100
AcDbLine
 10
24.50001525878907
 20
21.549997965494782
 30
0.0
 11
29.500000000000007
 21
21.549997965494782
 31
0.0
  0
LINE
  5
272
100
AcDbEntity
  8
0
  6
CONTINUOUS
 62
               4
100
AcDbLine
 10
29.500000000000007
 20
22.350001017252595
 30
0.0
 11
29.500000000000007
 21
21.549997965494782
 31
0.0
  0
LINE
  5
273
100
AcDbEntity
  8
0
  6
CONTINUOUS
 62
               4
100
AcDbLine
 10
24.500000000000007
 20
18.734995524088532
 30
0.0
 11
24.500000000000007
 21
20.165003458658845
 31
0.0
  0
LINE
  5
274
100
AcDbEntity
  8
0
  6
CONTINUOUS
 62
               4
100
AcDbLine
 10
24.500000000000007
 20
22.665003458658845
 30
0.0
 11
24.500000000000007
 21
21.234995524088532
 31
0.0
  0
LINE
  5
275
100
AcDbEntity
  8
0
  6
CONTINUOUS
 62
               4
100
AcDbLine
 10
21.544174194335945
 20
18.735010782877595
 30
0.0
 11
24.50001525878907
 21
18.735010782877595
 31
0.0
  0
LINE
  5
276
100
AcDbEntity
  8
0
  6
CONTINUOUS
 62
               4
100
AcDbLine
 10
21.160995483398445
 20
20.165018717447907
 30
0.0
 11
24.50001525878907
 21
20.165018717447907
 31
0.0
  0
LINE
  5
277
100
AcDbEntity
  8
0
  6
CONTINUOUS
 62
               4
100
AcDbLine
 10
20.874298095703132
 20
21.235010782877595
 30
0.0
 11
24.50001525878907
 21
21.235010782877595
 31
0.0
  0
LINE
  5
278
100
AcDbEntity
  8
0
  6
CONTINUOUS
 62
               4
100
AcDbLine
 10
20.491119384765632
 20
22.665018717447907
 30
0.0
 11
24.50001525878907
 21
22.665018717447907
 31
0.0
  0
LINE
  5
279
100
AcDbEntity
  8
0
  6
CONTINUOUS
 62
             200
100
AcDbLine
 10
19.053935707233002
 20
24.165001172564786
 30
0.0
 11
20.910828860160116
 21
17.23498163969785
 31
0.0
  0
LINE
  5
27A
100
AcDbEntity
  8
0
  6
CONTINUOUS
 62
             200
100
AcDbLine
 10
20.08921456599456
 20
24.164991126888395
 30
0.0
 11
21.946103769656482
 21
17.234986332879686
 31
0.0
  0
LINE
  5
27B
100
AcDbEntity
  8
0
  6
CONTINUOUS
 62
               4
100
AcDbLine
 10
-26.999999999999996
 20
28.184994913736944
 30
0.0
 11
-26.999999999999996
 21
23.99999491373697
 31
0.0
  0
LINE
  5
27C
100
AcDbEntity
  8
0
  6
CONTINUOUS
 62
               4
100
AcDbLine
 10
-24.674999999999986
 20
32.99999491373697
 30
0.0
 11
2.5030809000333001
 21
32.99999491373697
 31
0.0
  0
LINE
  5
27D
100
AcDbEntity
  8
0
  6
CONTINUOUS
 62
               4
100
AcDbLine
 10
-25.129999999999992
 20
32.704994913736954
 30
0.0
 11
-26.870000000000001
 21
28.789994913736962
 31
0.0
  0
ARC
  5
27E
100
AcDbEntity
  8
0
  6
CONTINUOUS
 62
               4
100
AcDbCircle
 10
-24.675687863874497
 20
32.502666025814563
 30
0.0
 40
0.4973293636201366
100
AcDbArc
 50
89.920753302865904
 51
155.99409641136279
  0
ARC
  5
27F
100
AcDbEntity
  8
0
  6
CONTINUOUS
 62
               4
100
AcDbCircle
 10
-25.501123948313886
 20
28.179389315853996
 30
0.0
 40
1.4988865337462252
100
AcDbArc
 50
155.96009555676497
 51
179.78572237337369
  0
LINE
  5
280
100
AcDbEntity
  8
0
  6
CONTINUOUS
 62
               4
100
AcDbLine
 10
-1.4999999999999893
 20
25.599994913736964
 30
0.0
 11
-1.4999999999999893
 21
23.99999491373697
 31
0.0
  0
LINE
  5
281
100
AcDbEntity
  8
0
  6
CONTINUOUS
 62
               4
100
AcDbLine
 10
3.0000000000000213
 20
32.49999491373697
 30
0.0
 11
3.0000000000000213
 21
25.599994913736964
 31
0.0
  0
ARC
  5
282
100
AcDbEntity
  8
0
  6
CONTINUOUS
 62
               4
100
AcDbCircle
 10
2.5015404500182896
 20
32.501535363755238
 30
0.0
 40
0.4984619302958243
100
AcDbArc
 50
359.82293246539683
 51
90.177067534601704
  0
LINE
  5
283
100
AcDbEntity
  8
0
  6
CONTINUOUS
 62
               4
100
AcDbLine
 10
-1.4999999999999893
 20
25.599994913736964
 30
0.0
 11
3.0000000000000213
 21
25.599994913736964
 31
0.0
  0
LINE
  5
284
100
AcDbEntity
  8
0
  6
CONTINUOUS
 62
               4
100
AcDbLine
 10
-14.295000000000002
 20
23.99999491373697
 30
0.0
 11
-12.795000000000002
 21
23.99999491373697
 31
0.0
  0
LINE
  5
285
100
AcDbEntity
  8
0
  6
CONTINUOUS
 62
               4
100
AcDbLine
 10
-26.999999999999993
 20
23.99999491373697
 30
0.0
 11
-1.3999999999999844
 21
23.99999491373697
 31
0.0
  0
LINE
  5
286
100
AcDbEntity
  8
0
  6
CONTINUOUS
 62
               4
100
AcDbLine
 10
10.000000000000021
 20
16.99999491373697
 30
0.0
 11
-1.3999999999999844
 21
16.99999491373697
 31
0.0
  0
LINE
  5
287
100
AcDbEntity
  8
0
  6
CONTINUOUS
 62
               4
100
AcDbLine
 10
10.000000000000021
 20
25.49999491373697
 30
0.0
 11
-1.3999999999999844
 21
25.49999491373697
 31
0.0
  0
LINE
  5
288
100
AcDbEntity
  8
0
  6
CONTINUOUS
 62
               4
100
AcDbLine
 10
10.000000000000021
 20
25.49999491373697
 30
0.0
 11
10.000000000000021
 21
16.99999491373697
 31
0.0
  0
LINE
  5
289
100
AcDbEntity
  8
0
  6
CONTINUOUS
 62
               4
100
AcDbLine
 10
-1.3999999999999844
 20
16.99999491373697
 30
0.0
 11
-1.3999999999999844
 21
25.499994909445434
 31
0.0
  0
LINE
  5
28A
100
AcDbEntity
  8
0
  6
CONTINUOUS
 62
               4
100
AcDbLine
 10
0.0000000000000107
 20
16.99999491373697
 30
0.0
 11
0.0
 21
0.0
 31
0.0
  0
LINE
  5
28B
100
AcDbEntity
  8
0
  6
CONTINUOUS
 62
               4
100
AcDbLine
 10
-26.999999999999993
 20
23.99999491373697
 30
0.0
 11
-26.999999999999993
 21
-0.0000050862630303
 31
0.0
  0
ENDBLK
  5
28C
100
AcDbEntity
  8
0
100
AcDbBlockEnd
  0
ENDSEC
  0
SECTION
  2
ENTITIES
  0
INSERT
  5
28D
100
AcDbEntity
  8
0
100
AcDbBlockReference
  2
MS_5
 10
-344.8974609375
 20
-172.70831978319785
 30
0.0
  0
MTEXT
  5
28E
100
AcDbEntity
  8
0
  6
CONTINUOUS
 62
               7
100
AcDbMText
 10
-382.13129558229008
 20
-80.146735310541601
 30
0.0
 40
9.0
 41
0.0
 71
               4
 72
               1
  1
\W1.079;\A1;MODEL:CS-F10T1-G(V)-A2-PS
  7
MX_NOTE_STANDARD
  0
LINE
  5
28F
100
AcDbEntity
  8
0
  6
CONTINUOUS
 62
               7
100
AcDbLine
 10
0.2750000000000057
 20
-276.75
 30
0.0
 11
0.2750000000000057
 21
276.25
 31
0.0
  0
INSERT
  5
290
100
AcDbEntity
  8
0
100
AcDbBlockReference
  2
MS_8
 10
301.21989135742189
 20
-0.0007476806640625
 30
0.0
  0
INSERT
  5
291
100
AcDbEntity
  8
0
100
AcDbBlockReference
  2
MS_7
 10
94.219921875000011
 20
-0.0007476806640625
 30
0.0
  0
INSERT
  5
292
100
AcDbEntity
  8
0
100
AcDbBlockReference
  2
MS_6
 10
192.71989135742189
 20
-0.000732421875
 30
0.0
  0
INSERT
  5
293
100
AcDbEntity
  8
0
100
AcDbBlockReference
  2
MS_4
 10
-203.23750305175781
 20
-24.4920654296875
 30
0.0
  0
INSERT
  5
294
100
AcDbEntity
  8
0
100
AcDbBlockReference
  2
MS_3
 10
-61.23748779296875
 20
138.68841552734375
 30
0.0
  0
INSERT
  5
295
100
AcDbEntity
  8
0
100
AcDbBlockReference
  2
MS_2
 10
-344.8974609375
 20
138.68841552734375
 30
0.0
  0
INSERT
  5
296
100
AcDbEntity
  8
0
100
AcDbBlockReference
  2
MS_1
 10
-203.23750305175781
 20
138.68841552734375
 30
0.0
  0
MTEXT
  5
297
100
AcDbEntity
  8
0
  6
CONTINUOUS
 62
               7
100
AcDbMText
 10
17.669999387717258
 20
77.333343505859375
 30
0.0
 40
9.0
 41
0.0
 71
               4
 72
               1
  1
\W1.080;\A1;MODEL:-PL
  7
MX_NOTE_STANDARD
  0
MTEXT
  5
298
100
AcDbEntity
  8
0
  6
CONTINUOUS
 62
               7
100
AcDbMText
 10
-376.09278825331887
 20
263.75
 30
0.0
 40
9.0
 41
0.0
 71
               4
 72
               1
  1
\W1.105;\A1;CS-F10 SERIES
  7
MX_NOTE_STANDARD
  0
MTEXT
  5
299
100
AcDbEntity
  8
0
  6
CONTINUOUS
 62
               7
100
AcDbMText
 10
-382.12837899099861
 20
231.25
 30
0.0
 40
9.0
 41
0.0
 71
               4
 72
               1
  1
\W1.081;\A1;MODEL:CS-F10T1-A2-PS
  7
MX_NOTE_STANDARD
  0
MTEXT
  5
29A
100
AcDbEntity
  8
0
  6
CONTINUOUS
 62
               7
100
AcDbMText
 10
285.76701057054424
 20
263.75
 30
0.0
 40
9.0
 41
0.0
 71
               4
 72
               1
  1
\W1.311;\A1;Ver. 1.0
  7
MX_NOTE_STANDARD
  0
MTEXT
  5
29B
100
AcDbEntity
  8
0
  6
CONTINUOUS
 62
               7
100
AcDbMText
 10
245.88456275493564
 20
-264.25
 30
0.0
 40
12.5
 41
0.0
 71
               4
 72
               1
  1
\W1.121;\A1;KOGANEI CORP.
  7
MX_NOTE_STANDARD
  0
LINE
  5
29C
100
AcDbEntity
  8
0
  6
CONTINUOUS
 62
               7
100
AcDbLine
 10
274.22000000000003
 20
0.0
 30
0.0
 11
301.22000000000003
 21
0.0
 31
0.0
  0
LINE
  5
29D
100
AcDbEntity
  8
0
  6
CONTINUOUS
 62
               7
100
AcDbLine
 10
192.72
 20
0.0
 30
0.0
 11
202.72
 21
0.0
 31
0.0
  0
LINE
  5
29E
100
AcDbEntity
  8
0
  6
CONTINUOUS
 62
               7
100
AcDbLine
 10
94.220000000000027
 20
0.0
 30
0.0
 11
121.22000000000003
 21
0.0
 31
0.0
  0
LINE
  5
29F
100
AcDbEntity
  8
0
  6
CONTINUOUS
 62
               7
100
AcDbLine
 10
-239.25
 20
276.25
 30
0.0
 11
-239.25
 21
251.25
 31
0.0
  0
LINE
  5
2A0
100
AcDbEntity
  8
0
  6
CONTINUOUS
 62
               7
100
AcDbLine
 10
239.80000000000001
 20
251.25
 30
0.0
 11
239.80000000000001
 21
276.25
 31
0.0
  0
LINE
  5
2A1
100
AcDbEntity
  8
0
  6
CONTINUOUS
 62
               7
100
AcDbLine
 10
239.80000000000001
 20
-251.75
 30
0.0
 11
239.80000000000001
 21
-276.75
 31
0.0
  0
LINE
  5
2A2
100
AcDbEntity
  8
0
  6
CONTINUOUS
 62
               7
100
AcDbLine
 10
-399.25
 20
251.25
 30
0.0
 11
-239.25
 21
251.25
 31
0.0
  0
LINE
  5
2A3
100
AcDbEntity
  8
0
  6
CONTINUOUS
 62
               7
100
AcDbLine
 10
239.80000000000001
 20
251.25
 30
0.0
 11
399.80000000000001
 21
251.25
 31
0.0
  0
LINE
  5
2A4
100
AcDbEntity
  8
0
  6
CONTINUOUS
 62
               7
100
AcDbLine
 10
239.80000000000001
 20
-251.75
 30
0.0
 11
399.80000000000001
 21
-251.75
 31
0.0
  0
LINE
  5
2A5
100
AcDbEntity
  8
0
  6
CONTINUOUS
 62
               7
100
AcDbLine
 10
-399.25
 20
-276.75
 30
0.0
 11
399.80000000000001
 21
-276.75
 31
0.0
  0
LINE
  5
2A6
100
AcDbEntity
  8
0
  6
CONTINUOUS
 62
               7
100
AcDbLine
 10
-399.25
 20
276.25
 30
0.0
 11
399.80000000000001
 21
276.25
 31
0.0
  0
LINE
  5
2A7
100
AcDbEntity
  8
0
  6
CONTINUOUS
 62
               7
100
AcDbLine
 10
-399.25
 20
276.25
 30
0.0
 11
-399.25
 21
-276.75
 31
0.0
  0
LINE
  5
2A8
100
AcDbEntity
  8
0
  6
CONTINUOUS
 62
               7
100
AcDbLine
 10
399.80000000000001
 20
276.25
 30
0.0
 11
399.80000000000001
 21
-276.75
 31
0.0
  0
ENDSEC
  0
SECTION
  2
OBJECTS
  0
DICTIONARY
  5
19
100
AcDbDictionary
  3
ACAD_GROUP
350
1A
  3
ACAD_MLINESTYLE
350
1B
  0
DICTIONARY
  5
1A
102
{ACAD_REACTORS
330
19
102
}
100
AcDbDictionary
  0
DICTIONARY
  5
1B
102
{ACAD_REACTORS
330
19
102
}
100
AcDbDictionary
  3
STANDARD
350
1C
  0
MLINESTYLE
  5
1C
102
{ACAD_REACTORS
330
1B
102
}
100
AcDbMlineStyle
  2
Standard
 70
               0
  3

 62
               0
 51
90.0
 52
90.0
 71
               2
 49
0.5
 62
             256
  6
ByLayer
 49
-0.5
 62
             256
  6
ByLayer
  0
ENDSEC
  0
EOF
