  0
SECTION
  2
HEADER
  9
$ACADVER
  1
AC1012
  9
$DWGCODEPAGE
  3
dos932
  9
$INSBASE
 10
0.0
 20
0.0
 30
0.0
  9
$EXTMIN
 10
-399.25
 20
-276.75
 30
0.0
  9
$EXTMAX
 10
406.04981708526611
 20
276.25
 30
0.0
  9
$LIMMIN
 10
-399.25
 20
-276.75
  9
$LIMMAX
 10
406.04981708526611
 20
276.25
  9
$ORTHOMODE
 70
               0
  9
$REGENMODE
 70
               1
  9
$FILLMODE
 70
               1
  9
$QTEXTMODE
 70
               0
  9
$MIRRTEXT
 70
               1
  9
$DRAGMODE
 70
               2
  9
$LTSCALE
 40
1.0
  9
$OSMODE
 70
               0
  9
$ATTMODE
 70
               1
  9
$TEXTSIZE
 40
3.2000000476837158
  9
$TRACEWID
 40
0.05
  9
$TEXTSTYLE
  7
MX_NOTE_STANDARD
  9
$CLAYER
  8
0
  9
$CELTYPE
  6
CONTINUOUS
  9
$CECOLOR
 62
             256
  9
$CELTSCALE
 40
1.0
  9
$DELOBJ
 70
               1
  9
$DISPSILH
 70
               0
  9
$DIMSCALE
 40
1.0
  9
$DIMASZ
 40
2.5
  9
$DIMEXO
 40
1.5
  9
$DIMDLI
 40
3.75
  9
$DIMRND
 40
0.0
  9
$DIMDLE
 40
0.0
  9
$DIMEXE
 40
1.5
  9
$DIMTP
 40
0.0
  9
$DIMTM
 40
0.0
  9
$DIMTXT
 40
3.2000000476837158
  9
$DIMCEN
 40
2.5
  9
$DIMTSZ
 40
0.0
  9
$DIMTOL
 70
               0
  9
$DIMLIM
 70
               0
  9
$DIMTIH
 70
               0
  9
$DIMTOH
 70
               0
  9
$DIMSE1
 70
               0
  9
$DIMSE2
 70
               0
  9
$DIMTAD
 70
               1
  9
$DIMZIN
 70
               8
  9
$DIMBLK
  1

  9
$DIMASO
 70
               1
  9
$DIMSHO
 70
               1
  9
$DIMPOST
  1

  9
$DIMAPOST
  1

  9
$DIMALT
 70
               0
  9
$DIMALTD
 70
               4
  9
$DIMALTF
 40
0.0394
  9
$DIMLFAC
 40
1.0
  9
$DIMTOFL
 70
               1
  9
$DIMTVP
 40
0.0
  9
$DIMTIX
 70
               0
  9
$DIMSOXD
 70
               0
  9
$DIMSAH
 70
               0
  9
$DIMBLK1
  1

  9
$DIMBLK2
  1

  9
$DIMSTYLE
  2
MXDIMSTYLE
  9
$DIMCLRD
 70
               0
  9
$DIMCLRE
 70
               0
  9
$DIMCLRT
 70
               0
  9
$DIMTFAC
 40
1.0
  9
$DIMGAP
 40
1.0
  9
$DIMJUST
 70
               0
  9
$DIMSD1
 70
               0
  9
$DIMSD2
 70
               0
  9
$DIMTOLJ
 70
               1
  9
$DIMTZIN
 70
               0
  9
$DIMALTZ
 70
               0
  9
$DIMALTTZ
 70
               0
  9
$DIMFIT
 70
               3
  9
$DIMUPT
 70
               1
  9
$DIMUNIT
 70
               2
  9
$DIMDEC
 70
               4
  9
$DIMTDEC
 70
               4
  9
$DIMALTU
 70
               8
  9
$DIMALTTD
 70
               4
  9
$DIMTXSTY
  7
MX_NOTE_STANDARD
  9
$DIMAUNIT
 70
               0
  9
$LUNITS
 70
               2
  9
$LUPREC
 70
               4
  9
$SKETCHINC
 40
0.1
  9
$FILLETRAD
 40
0.0
  9
$AUNITS
 70
               0
  9
$AUPREC
 70
               0
  9
$MENU
  1
acad
  9
$ELEVATION
 40
0.0
  9
$PELEVATION
 40
0.0
  9
$THICKNESS
 40
0.0
  9
$LIMCHECK
 70
               0
  9
$BLIPMODE
 70
               1
  9
$CHAMFERA
 40
0.0
  9
$CHAMFERB
 40
0.0
  9
$CHAMFERC
 40
0.0
  9
$CHAMFERD
 40
0.0
  9
$SKPOLY
 70
               0
  9
$TDCREATE
 40
2452220.697094908
  9
$TDUPDATE
 40
2452220.697094908
  9
$TDINDWG
 40
0.0000000000
  9
$TDUSRTIMER
 40
0.0000000000
  9
$USRTIMER
 70
               1
  9
$ANGBASE
 50
0.0
  9
$ANGDIR
 70
               0
  9
$PDMODE
 70
               0
  9
$PDSIZE
 40
0.0
  9
$PLINEWID
 40
0.0
  9
$COORDS
 70
               1
  9
$SPLFRAME
 70
               0
  9
$SPLINETYPE
 70
               6
  9
$SPLINESEGS
 70
               8
  9
$ATTDIA
 70
               0
  9
$ATTREQ
 70
               1
  9
$HANDLING
 70
               1
  9
$HANDSEED
  5
2F9
  9
$SURFTAB1
 70
               6
  9
$SURFTAB2
 70
               6
  9
$SURFTYPE
 70
               6
  9
$SURFU
 70
               6
  9
$SURFV
 70
               6
  9
$UCSNAME
  2

  9
$UCSORG
 10
0.0
 20
0.0
 30
0.0
  9
$UCSXDIR
 10
1.0
 20
0.0
 30
0.0
  9
$UCSYDIR
 10
0.0
 20
1.0
 30
0.0
  9
$PUCSNAME
  2

  9
$PUCSORG
 10
0.0
 20
0.0
 30
0.0
  9
$PUCSXDIR
 10
1.0
 20
0.0
 30
0.0
  9
$PUCSYDIR
 10
0.0
 20
1.0
 30
0.0
  9
$USERI1
 70
               0
  9
$USERI2
 70
               0
  9
$USERI3
 70
               0
  9
$USERI4
 70
               0
  9
$USERI5
 70
               0
  9
$USERR1
 40
0.0
  9
$USERR2
 40
0.0
  9
$USERR3
 40
0.0
  9
$USERR4
 40
0.0
  9
$USERR5
 40
0.0
  9
$WORLDVIEW
 70
               1
  9
$SHADEDGE
 70
               3
  9
$SHADEDIF
 70
              70
  9
$TILEMODE
 70
               1
  9
$MAXACTVP
 70
              16
  9
$PINSBASE
 10
0.0
 20
0.0
 30
0.0
  9
$PLIMCHECK
 70
               0
  9
$PEXTMIN
 10
1.0000000000000000E+20
 20
1.0000000000000000E+20
 30
1.0000000000000000E+20
  9
$PEXTMAX
 10
-1.0000000000000000E+20
 20
-1.0000000000000000E+20
 30
-1.0000000000000000E+20
  9
$PLIMMIN
 10
0.0
 20
0.0
  9
$PLIMMAX
 10
12.0
 20
9.0
  9
$UNITMODE
 70
               0
  9
$VISRETAIN
 70
               0
  9
$PLINEGEN
 70
               1
  9
$PSLTSCALE
 70
               0
  9
$TREEDEPTH
 70
            3020
  9
$PICKSTYLE
 70
               1
  9
$CMLSTYLE
  2
Standard
  9
$CMLJUST
 70
               0
  9
$CMLSCALE
 40
1.0
  9
$SAVEIMAGES
 70
               0
  0
ENDSEC
  0
SECTION
  2
CLASSES
  0
CLASS
  1
LWPOLYLINE
  2
AcDbPolyline
  3
"AutoCAD"
 90
        0
280
               0
281
               1
  0
CLASS
  1
IMAGE
  2
AcDbRasterImage
  3
ISM
 90
      127
280
               0
281
               1
  0
CLASS
  1
OLE2FRAME
  2
AcDbOle2Frame
  3
""
 90
        0
280
               0
281
               1
  0
CLASS
  1
HATCH
  2
AcDbHatch
  3
"ACAD_SEDONA"
 90
        0
280
               0
281
               1
  0
CLASS
  1
DICTIONARYVAR
  2
AcDbDictionaryVar
  3
"AutoCAD"
 90
        0
280
               0
281
               0
  0
CLASS
  1
RASTERVARIABLES
  2
AcDbRasterVariables
  3
ISM
 90
        0
280
               0
281
               0
  0
CLASS
  1
IMAGEDEF
  2
AcDbRasterImageDef
  3
ISM
 90
        0
280
               0
281
               0
  0
CLASS
  1
IMAGEDEF_REACTOR
  2
AcDbRasterImageDefReactor
  3
ISM
 90
        1
280
               0
281
               0
  0
CLASS
  1
IDBUFFER
  2
AcDbIdBuffer
  3
"Acad"
 90
        0
280
               0
281
               0
  0
CLASS
  1
SPATIAL_FILTER
  2
AcDbSpatialFilter
  3
"Acad"
 90
        0
280
               0
281
               0
  0
CLASS
  1
XRECORD
  2
AcDbXrecord
  3
"<Built In>"
 90
        0
280
               0
281
               0
  0
CLASS
  1
SORTENTSTABLE
  2
AcDbSortentsTable
  3
"AutoCAD"
 90
        0
280
               0
281
               0
  0
CLASS
  1
LAYER_INDEX
  2
AcDbLayerIndex
  3
"Acad"
 90
        0
280
               0
281
               0
  0
CLASS
  1
SPATIAL_INDEX
  2
AcDbSpatialIndex
  3
"Acad"
 90
        0
280
               0
281
               0
  0
CLASS
  1
OBJECT_PTR
  2
CAseDLPNTableRecord
  3
"ASE-LPNTableRecord"
 90
        1
280
               0
281
               0
  0
CLASS
  1
LAYOUT
  2
AcDbLayout
  3
"AutoCAD 2000"
 90
        1
280
               0
281
               0
  0
CLASS
  1
PLOTSETTINGS
  2
AcDbPlotSettings
  3
"AutoCAD 2000"
 90
        1
280
               0
281
               0
  0
CLASS
  1
ACDBDICTIONARYWDFLT
  2
AcDbDictionaryWithDefault
  3
"AutoCAD 2000"
 90
        1
280
               0
281
               0
  0
CLASS
  1
ACDBPLACEHOLDER
  2
AcDbPlaceHolder
  3
"AutoCAD 2000"
 90
        1
280
               0
281
               0
  0
CLASS
  1
VBA_PROJECT
  2
AcDbVbaProject
  3
"acadvba"
 90
        1
280
               0
281
               0
  0
CLASS
  1
WIPEOUT
  2
AcDbWipeout
  3
WipeOut|AutoCAD Express Tool|expresstools@autodesk.com
 90
      127
280
               0
281
               1
  0
CLASS
  1
WIPEOUTVARIABLES
  2
AcDbWipeoutVariables
  3
WipeOut|AutoCAD Express Tool|expresstools@autodesk.com
 90
        0
280
               0
281
               0
  0
CLASS
  1
RTEXT
  2
RText
  3
RText|AutoCAD Express Tool|expresstools@autodesk.com
 90
        0
280
               0
281
               1
  0
CLASS
  1
ARCALIGNEDTEXT
  2
AcDbArcAlignedText
  3
ATEXT|AutoCAD Express Tool|expresstools@autodesk.com
 90
        0
280
               0
281
               1
  0
ENDSEC
  0
SECTION
  2
TABLES
  0
TABLE
  2
VPORT
  5
7
100
AcDbSymbolTable
 70
               1
  0
VPORT
  5
15
100
AcDbSymbolTableRecord
100
AcDbViewportTableRecord
  2
*ACTIVE
 70
               0
 10
0.0
 20
0.0
 11
1.0
 21
1.0
 12
3.3999085426330566
 22
-0.25
 13
0.0
 23
0.0
 14
1.0
 24
1.0
 15
0.0
 25
0.0
 16
0.0
 26
0.0
 36
1.0
 17
0.0
 27
0.0
 37
0.0
 40
558.52999999999997
 41
1.7320508075688772
 42
50.0
 43
0.0
 44
0.0
 50
0.0
 51
0.0
 71
               0
 72
             100
 73
               1
 74
               1
 75
               0
 76
               0
 77
               0
 78
               0
  0
ENDTAB
  0
TABLE
  2
LTYPE
  5
4
100
AcDbSymbolTable
 70
               4
  0
LTYPE
  5
11
100
AcDbSymbolTableRecord
100
AcDbLinetypeTableRecord
  2
BYBLOCK
 70
              64
  3

 72
              65
 73
               0
 40
0.0
  0
LTYPE
  5
12
100
AcDbSymbolTableRecord
100
AcDbLinetypeTableRecord
  2
BYLAYER
 70
              64
  3

 72
              65
 73
               0
 40
0.0
  0
LTYPE
  5
13
100
AcDbSymbolTableRecord
100
AcDbLinetypeTableRecord
  2
CONTINUOUS
 70
              64
  3
Solid line
 72
              65
 73
               0
 40
0.0
  0
LTYPE
  5
48
100
AcDbSymbolTableRecord
100
AcDbLinetypeTableRecord
  2
CENTER
 70
              64
  3
Center ____ _ ____ _ ____ _ ____ _ ____ _ ____
 72
              65
 73
               4
 40
50.800000000000004
 49
31.75
 74
               0
 49
-6.3499999999999996
 74
               0
 49
6.3499999999999996
 74
               0
 49
-6.3499999999999996
 74
               0
  0
ENDTAB
  0
TABLE
  2
LAYER
  5
2
100
AcDbSymbolTable
 70
               2
  0
LAYER
  5
14
100
AcDbSymbolTableRecord
100
AcDbLayerTableRecord
  2
0
 70
               0
 62
               7
  6
CONTINUOUS
  0
LAYER
  5
1D
100
AcDbSymbolTableRecord
100
AcDbLayerTableRecord
  2
DEFPOINTS
 70
               0
 62
               7
  6
CONTINUOUS
  0
ENDTAB
  0
TABLE
  2
STYLE
  5
3
100
AcDbSymbolTable
 70
               1
  0
STYLE
  5
17
100
AcDbSymbolTableRecord
100
AcDbTextStyleTableRecord
  2
MX_NOTE_STANDARD
 70
               0
 40
3.2000000476837158
 41
1.0
 50
0.0
 71
               0
 42
3.2000000476837158
  3
txt.shx
  4
extfont.shx
  0
ENDTAB
  0
TABLE
  2
VIEW
  5
5
100
AcDbSymbolTable
 70
               0
  0
ENDTAB
  0
TABLE
  2
UCS
  5
6
100
AcDbSymbolTable
 70
               0
  0
ENDTAB
  0
TABLE
  2
APPID
  5
8
100
AcDbSymbolTable
 70
               1
  0
APPID
  5
16
100
AcDbSymbolTableRecord
100
AcDbRegAppTableRecord
  2
ACAD
 70
               0
  0
ENDTAB
  0
TABLE
  2
DIMSTYLE
  5
9
100
AcDbSymbolTable
 70
               1
  0
DIMSTYLE
105
18
100
AcDbSymbolTableRecord
100
AcDbDimStyleTableRecord
  2
MXDIMSTYLE
 70
               0
  3

  4

  5

  6

  7

 40
1.0
 41
2.5
 42
1.5
 43
3.75
 44
1.5
 45
0.0
 46
0.0
 47
0.0
 48
0.0
 71
               0
 72
               0
 73
               0
 74
               0
 75
               0
 76
               0
 77
               1
 78
               8
140
3.2000000476837158
141
2.5
142
0.0
143
0.0394
144
1.0
145
0.0
146
1.0
147
1.0
170
               0
171
               4
172
               1
173
               0
174
               0
175
               0
176
               0
177
               0
178
               0
270
               2
271
               4
272
               4
273
               8
274
               4
275
               0
280
               0
281
               0
282
               0
283
               1
284
               0
285
               0
286
               0
287
               3
288
               1
340
17
  0
ENDTAB
  0
TABLE
  2
BLOCK_RECORD
  5
1
100
AcDbSymbolTable
 70
               8
  0
BLOCK_RECORD
  5
A
100
AcDbSymbolTableRecord
100
AcDbBlockTableRecord
  2
*MODEL_SPACE
  0
BLOCK_RECORD
  5
B
100
AcDbSymbolTableRecord
100
AcDbBlockTableRecord
  2
*PAPER_SPACE
  0
BLOCK_RECORD
  5
1E
100
AcDbSymbolTableRecord
100
AcDbBlockTableRecord
  2
MS_1
  0
BLOCK_RECORD
  5
1F
100
AcDbSymbolTableRecord
100
AcDbBlockTableRecord
  2
MS_2
  0
BLOCK_RECORD
  5
20
100
AcDbSymbolTableRecord
100
AcDbBlockTableRecord
  2
MS_3
  0
BLOCK_RECORD
  5
21
100
AcDbSymbolTableRecord
100
AcDbBlockTableRecord
  2
MS_4
  0
BLOCK_RECORD
  5
22
100
AcDbSymbolTableRecord
100
AcDbBlockTableRecord
  2
MS_5
  0
BLOCK_RECORD
  5
23
100
AcDbSymbolTableRecord
100
AcDbBlockTableRecord
  2
MS_6
  0
BLOCK_RECORD
  5
24
100
AcDbSymbolTableRecord
100
AcDbBlockTableRecord
  2
MS_7
  0
BLOCK_RECORD
  5
25
100
AcDbSymbolTableRecord
100
AcDbBlockTableRecord
  2
MS_8
  0
ENDTAB
  0
ENDSEC
  0
SECTION
  2
BLOCKS
  0
BLOCK
  5
D
100
AcDbEntity
  8
0
100
AcDbBlockBegin
  2
*MODEL_SPACE
 70
               0
 10
0.0
 20
0.0
 30
0.0
  3
*MODEL_SPACE
  1

  0
ENDBLK
  5
E
100
AcDbEntity
  8
0
100
AcDbBlockEnd
  0
BLOCK
  5
F
100
AcDbEntity
 67
               1
  8
0
100
AcDbBlockBegin
  2
*PAPER_SPACE
 70
               0
 10
0.0
 20
0.0
 30
0.0
  3
*PAPER_SPACE
  1

  0
ENDBLK
  5
10
100
AcDbEntity
 67
               1
  8
0
100
AcDbBlockEnd
  0
BLOCK
  5
26
100
AcDbEntity
  8
0
100
AcDbBlockBegin
  2
MS_1
 70
               0
 10
0.0
 20
0.0
 30
0.0
  3
MS_1
  1

  0
CIRCLE
  5
27
100
AcDbEntity
  8
0
  6
CONTINUOUS
 62
               7
100
AcDbCircle
 10
6.0
 20
-41.5
 30
0.0
 40
2.25
  0
CIRCLE
  5
28
100
AcDbEntity
  8
0
  6
CONTINUOUS
 62
               7
100
AcDbCircle
 10
17.0
 20
-43.5
 30
0.0
 40
2.25
  0
CIRCLE
  5
29
100
AcDbEntity
  8
0
  6
CONTINUOUS
 62
               7
100
AcDbCircle
 10
0.0
 20
0.0000152587890625
 30
0.0
 40
1.6999998092651367
  0
CIRCLE
  5
2A
100
AcDbEntity
  8
0
  6
CONTINUOUS
 62
               7
100
AcDbCircle
 10
0.0
 20
-50.0
 30
0.0
 40
1.6999998092651367
  0
CIRCLE
  5
2B
100
AcDbEntity
  8
0
  6
CONTINUOUS
 62
               7
100
AcDbCircle
 10
6.0
 20
-6.5
 30
0.0
 40
2.25
  0
ARC
  5
2C
100
AcDbEntity
  8
0
  6
CONTINUOUS
 62
               7
100
AcDbCircle
 10
18.5
 20
-66.5
 30
0.0
 40
0.5
100
AcDbArc
 50
269.99999999999937
 51
0.0
  0
ARC
  5
2D
100
AcDbEntity
  8
0
  6
CONTINUOUS
 62
               7
100
AcDbCircle
 10
4.5
 20
-66.5
 30
0.0
 40
0.5
100
AcDbArc
 50
179.9999999999996
 51
269.99999999999937
  0
ARC
  5
2E
100
AcDbEntity
  8
0
  6
CONTINUOUS
 62
               7
100
AcDbCircle
 10
17.0
 20
-43.5
 30
0.0
 40
2.7000000000000011
100
AcDbArc
 50
89.999999999999801
 51
179.9999999999996
  0
ARC
  5
2F
100
AcDbEntity
  8
0
  6
CONTINUOUS
 62
               7
100
AcDbCircle
 10
4.2999938965464626
 20
-47.500006103453536
 30
0.0
 40
0.2999938966085499
100
AcDbArc
 50
179.99883430252353
 51
270.00116569747559
  0
ARC
  5
30
100
AcDbEntity
  8
0
  6
CONTINUOUS
 62
               7
100
AcDbCircle
 10
18.700006103453539
 20
-47.500006103453536
 30
0.0
 40
0.2999938966085499
100
AcDbArc
 50
269.99883430252265
 51
0.0011656974760504
  0
ARC
  5
31
100
AcDbEntity
  8
0
  6
CONTINUOUS
 62
               7
100
AcDbCircle
 10
18.700006103453539
 20
-2.4999938965464632
 30
0.0
 40
0.2999938966085513
100
AcDbArc
 50
359.99883430252305
 51
90.001165697476566
  0
ARC
  5
32
100
AcDbEntity
  8
0
  6
CONTINUOUS
 62
               7
100
AcDbCircle
 10
4.2999862670937246
 20
-2.4999862670937243
 30
0.0
 40
0.2999862674080598
100
AcDbArc
 50
89.997377088034213
 51
180.00262291196526
  0
ARC
  5
33
100
AcDbEntity
  8
0
  6
CONTINUOUS
 62
               7
100
AcDbCircle
 10
4.2999938965464626
 20
-44.499993896546464
 30
0.0
 40
0.2999938966085499
100
AcDbArc
 50
89.998834302523576
 51
180.00116569747564
  0
ARC
  5
34
100
AcDbEntity
  8
0
  6
CONTINUOUS
 62
               7
100
AcDbCircle
 10
18.700006103453539
 20
-11.499993896546464
 30
0.0
 40
0.2999938966085517
100
AcDbArc
 50
359.99883430252316
 51
90.001165697476566
  0
ARC
  5
35
100
AcDbEntity
  8
0
  6
CONTINUOUS
 62
               7
100
AcDbCircle
 10
4.2999938965464626
 20
-38.500006103453536
 30
0.0
 40
0.2999938966085499
100
AcDbArc
 50
179.99883430252353
 51
270.00116569747559
  0
ARC
  5
36
100
AcDbEntity
  8
0
  6
CONTINUOUS
 62
               7
100
AcDbCircle
 10
18.700013732906278
 20
-5.5000137329062762
 30
0.0
 40
0.2999862674080598
100
AcDbArc
 50
269.99737708803309
 51
0.0026229119657732
  0
ARC
  5
37
100
AcDbEntity
  8
0
  6
CONTINUOUS
 62
               7
100
AcDbCircle
 10
6.0
 20
-6.5
 30
0.0
 40
2.6999999999999993
100
AcDbArc
 50
269.99999999999937
 51
0.0
  0
CIRCLE
  5
38
100
AcDbEntity
  8
0
  6
CONTINUOUS
 62
               7
100
AcDbCircle
 10
17.0
 20
-8.499969482421875
 30
0.0
 40
2.25
  0
ARC
  5
39
100
AcDbEntity
  8
0
  6
CONTINUOUS
 62
               7
100
AcDbCircle
 10
6.0
 20
-41.5
 30
0.0
 40
2.7000000000000028
100
AcDbArc
 50
269.99999999999937
 51
89.999999999999801
  0
ARC
  5
3A
100
AcDbEntity
  8
0
  6
CONTINUOUS
 62
               7
100
AcDbCircle
 10
17.0
 20
-8.5
 30
0.0
 40
2.6999999999999997
100
AcDbArc
 50
89.999999999999801
 51
269.99999999999937
  0
ARC
  5
3B
100
AcDbEntity
  8
0
  6
CONTINUOUS
 62
               4
100
AcDbCircle
 10
7.049986267092172
 20
52.000013732907831
 30
0.0
 40
0.4999862672807701
100
AcDbArc
 50
89.998426281458791
 51
180.00157371854101
  0
ARC
  5
3C
100
AcDbEntity
  8
0
  6
CONTINUOUS
 62
               4
100
AcDbCircle
 10
15.950006103478373
 20
52.00000610347837
 30
0.0
 40
0.4999938965588804
100
AcDbArc
 50
359.99930058435962
 51
90.000699415639815
  0
CIRCLE
  5
3D
100
AcDbEntity
  8
0
  6
CONTINUOUS
 62
               7
100
AcDbCircle
 10
11.5
 20
16.199996948242187
 30
0.0
 40
1.9499998092651367
  0
LINE
  5
3E
100
AcDbEntity
  8
0
  6
CONTINUOUS
 62
               4
100
AcDbLine
 10
16.5
 20
19.399999999999999
 30
0.0
 11
16.5
 21
43.5
 31
0.0
  0
LINE
  5
3F
100
AcDbEntity
  8
0
  6
CONTINUOUS
 62
               4
100
AcDbLine
 10
6.5
 20
19.399999999999999
 30
0.0
 11
6.5
 21
43.5
 31
0.0
  0
LINE
  5
40
100
AcDbEntity
  8
0
  6
CONTINUOUS
 62
               7
100
AcDbLine
 10
16.5
 20
8.5
 30
0.0
 11
17.0
 21
8.5
 31
0.0
  0
LINE
  5
41
100
AcDbEntity
  8
0
  6
CONTINUOUS
 62
               7
100
AcDbLine
 10
6.0
 20
8.5
 30
0.0
 11
6.5
 21
8.5
 31
0.0
  0
LINE
  5
42
100
AcDbEntity
  8
0
  6
CONTINUOUS
 62
               7
100
AcDbLine
 10
19.0
 20
-7.46
 30
0.0
 11
19.0
 21
6.5
 31
0.0
  0
LINE
  5
43
100
AcDbEntity
  8
0
  6
CONTINUOUS
 62
               7
100
AcDbLine
 10
4.0
 20
-40.460000000000001
 30
0.0
 11
4.0
 21
-7.5300000000000002
 31
0.0
  0
LINE
  5
44
100
AcDbEntity
  8
0
  6
CONTINUOUS
 62
               7
100
AcDbLine
 10
6.9100000000000001
 20
-42.409999999999997
 30
0.0
 11
5.0800000000000001
 21
-40.579999999999998
 31
0.0
  0
LINE
  5
45
100
AcDbEntity
  8
0
  6
CONTINUOUS
 62
               7
100
AcDbLine
 10
5.0800000000000001
 20
-42.409999999999997
 30
0.0
 11
6.9100000000000001
 21
-40.579999999999998
 31
0.0
  0
LINE
  5
46
100
AcDbEntity
  8
0
  6
CONTINUOUS
 62
               7
100
AcDbLine
 10
17.91
 20
-44.409999999999997
 30
0.0
 11
16.079999999999998
 21
-42.579999999999998
 31
0.0
  0
LINE
  5
47
100
AcDbEntity
  8
0
  6
CONTINUOUS
 62
               7
100
AcDbLine
 10
16.079999999999998
 20
-44.409999999999997
 30
0.0
 11
17.91
 21
-42.579999999999998
 31
0.0
  0
LINE
  5
49
100
AcDbEntity
  8
0
  6
CENTER
 62
               2
100
AcDbLine
 10
0.0
 20
-2.7000000000000002
 30
0.0
 11
0.0
 21
2.7000000000000002
 31
0.0
  0
LINE
  5
4A
100
AcDbEntity
  8
0
  6
CENTER
 62
               2
100
AcDbLine
 10
0.0
 20
-52.700000000000003
 30
0.0
 11
0.0
 21
-47.299999999999997
 31
0.0
  0
LINE
  5
4B
100
AcDbEntity
  8
0
  6
CENTER
 62
               2
100
AcDbLine
 10
-2.7000000000000002
 20
0.0
 30
0.0
 11
2.7000000000000002
 21
0.0
 31
0.0
  0
LINE
  5
4C
100
AcDbEntity
  8
0
  6
CENTER
 62
               2
100
AcDbLine
 10
-2.7000000000000002
 20
-50.0
 30
0.0
 11
2.7000000000000002
 21
-50.0
 31
0.0
  0
LINE
  5
4D
100
AcDbEntity
  8
0
  6
CONTINUOUS
 62
               7
100
AcDbLine
 10
19.0
 20
6.0
 30
0.0
 11
26.5
 21
6.0
 31
0.0
  0
LINE
  5
4E
100
AcDbEntity
  8
0
  6
CONTINUOUS
 62
               7
100
AcDbLine
 10
19.0
 20
-56.0
 30
0.0
 11
26.5
 21
-56.0
 31
0.0
  0
LINE
  5
4F
100
AcDbEntity
  8
0
  6
CONTINUOUS
 62
               7
100
AcDbLine
 10
-3.5
 20
-56.0
 30
0.0
 11
-3.5
 21
6.0
 31
0.0
  0
LINE
  5
50
100
AcDbEntity
  8
0
  6
CONTINUOUS
 62
               7
100
AcDbLine
 10
26.5
 20
-56.0
 30
0.0
 11
26.5
 21
6.0
 31
0.0
  0
LINE
  5
51
100
AcDbEntity
  8
0
  6
CONTINUOUS
 62
               7
100
AcDbLine
 10
-3.5
 20
6.0
 30
0.0
 11
4.0
 21
6.0
 31
0.0
  0
LINE
  5
52
100
AcDbEntity
  8
0
  6
CONTINUOUS
 62
               7
100
AcDbLine
 10
-3.5
 20
-56.0
 30
0.0
 11
4.0
 21
-56.0
 31
0.0
  0
LINE
  5
53
100
AcDbEntity
  8
0
  6
CONTINUOUS
 62
               4
100
AcDbLine
 10
15.5
 20
57.0
 30
0.0
 11
15.5
 21
63.5
 31
0.0
  0
LINE
  5
54
100
AcDbEntity
  8
0
  6
CONTINUOUS
 62
               4
100
AcDbLine
 10
7.5
 20
57.0
 30
0.0
 11
7.5
 21
63.5
 31
0.0
  0
LINE
  5
55
100
AcDbEntity
  8
0
  6
CONTINUOUS
 62
               4
100
AcDbLine
 10
6.5999999999999996
 20
57.0
 30
0.0
 11
6.5999999999999996
 21
63.5
 31
0.0
  0
LINE
  5
56
100
AcDbEntity
  8
0
  6
CONTINUOUS
 62
               4
100
AcDbLine
 10
16.399999999999999
 20
57.0
 30
0.0
 11
16.399999999999999
 21
63.5
 31
0.0
  0
LINE
  5
57
100
AcDbEntity
  8
0
  6
CONTINUOUS
 62
               7
100
AcDbLine
 10
19.0
 20
-42.460000000000001
 30
0.0
 11
19.0
 21
-9.5299999999999994
 31
0.0
  0
LINE
  5
58
100
AcDbEntity
  8
0
  6
CONTINUOUS
 62
               7
100
AcDbLine
 10
4.0
 20
-5.46
 30
0.0
 11
4.0
 21
6.5
 31
0.0
  0
LINE
  5
59
100
AcDbEntity
  8
0
  6
CONTINUOUS
 62
               7
100
AcDbLine
 10
16.079999999999998
 20
-9.4100000000000001
 30
0.0
 11
17.91
 21
-7.5800000000000001
 31
0.0
  0
LINE
  5
5A
100
AcDbEntity
  8
0
  6
CONTINUOUS
 62
               7
100
AcDbLine
 10
5.0800000000000001
 20
-7.4100000000000001
 30
0.0
 11
6.9100000000000001
 21
-5.5800000000000001
 31
0.0
  0
LINE
  5
5B
100
AcDbEntity
  8
0
  6
CONTINUOUS
 62
               7
100
AcDbLine
 10
6.9100000000000001
 20
-7.4100000000000001
 30
0.0
 11
5.0800000000000001
 21
-5.5800000000000001
 31
0.0
  0
LINE
  5
5C
100
AcDbEntity
  8
0
  6
CONTINUOUS
 62
               7
100
AcDbLine
 10
17.91
 20
-9.4100000000000001
 30
0.0
 11
16.079999999999998
 21
-7.5800000000000001
 31
0.0
  0
LINE
  5
5D
100
AcDbEntity
  8
0
  6
CONTINUOUS
 62
               7
100
AcDbLine
 10
4.5
 20
-67.0
 30
0.0
 11
18.5
 21
-67.0
 31
0.0
  0
LINE
  5
5E
100
AcDbEntity
  8
0
  6
CONTINUOUS
 62
               7
100
AcDbLine
 10
5.0
 20
-57.0
 30
0.0
 11
4.0
 21
-58.0
 31
0.0
  0
LINE
  5
5F
100
AcDbEntity
  8
0
  6
CONTINUOUS
 62
               7
100
AcDbLine
 10
18.0
 20
-57.0
 30
0.0
 11
19.0
 21
-58.0
 31
0.0
  0
LINE
  5
60
100
AcDbEntity
  8
0
  6
CONTINUOUS
 62
               7
100
AcDbLine
 10
19.0
 20
-48.0
 30
0.0
 11
18.0
 21
-49.0
 31
0.0
  0
LINE
  5
61
100
AcDbEntity
  8
0
  6
CONTINUOUS
 62
               7
100
AcDbLine
 10
4.0
 20
-48.0
 30
0.0
 11
5.0
 21
-49.0
 31
0.0
  0
LINE
  5
62
100
AcDbEntity
  8
0
  6
CONTINUOUS
 62
               7
100
AcDbLine
 10
5.0
 20
-57.0
 30
0.0
 11
5.0
 21
-49.0
 31
0.0
  0
LINE
  5
63
100
AcDbEntity
  8
0
  6
CONTINUOUS
 62
               7
100
AcDbLine
 10
18.0
 20
-57.0
 30
0.0
 11
18.0
 21
-49.0
 31
0.0
  0
LINE
  5
64
100
AcDbEntity
  8
0
  6
CONTINUOUS
 62
               7
100
AcDbLine
 10
5.0
 20
-49.0
 30
0.0
 11
18.0
 21
-49.0
 31
0.0
  0
LINE
  5
65
100
AcDbEntity
  8
0
  6
CONTINUOUS
 62
               7
100
AcDbLine
 10
5.0
 20
-57.0
 30
0.0
 11
18.0
 21
-57.0
 31
0.0
  0
LINE
  5
66
100
AcDbEntity
  8
0
  6
CONTINUOUS
 62
               7
100
AcDbLine
 10
4.0
 20
-58.0
 30
0.0
 11
19.0
 21
-58.0
 31
0.0
  0
LINE
  5
67
100
AcDbEntity
  8
0
  6
CONTINUOUS
 62
               7
100
AcDbLine
 10
4.0
 20
-48.0
 30
0.0
 11
19.0
 21
-48.0
 31
0.0
  0
LINE
  5
68
100
AcDbEntity
  8
0
  6
CONTINUOUS
 62
               7
100
AcDbLine
 10
19.0
 20
-4.2000000000000002
 30
0.0
 11
8.6999999999999993
 21
-4.2000000000000002
 31
0.0
  0
LINE
  5
69
100
AcDbEntity
  8
0
  6
CONTINUOUS
 62
               7
100
AcDbLine
 10
14.300000000000001
 20
-45.799999999999997
 30
0.0
 11
4.0
 21
-45.799999999999997
 31
0.0
  0
LINE
  5
6A
100
AcDbEntity
  8
0
  6
CONTINUOUS
 62
               7
100
AcDbLine
 10
8.6999999999999993
 20
-2.2000000000000002
 30
0.0
 11
8.6999999999999993
 21
-6.5
 31
0.0
  0
LINE
  5
6B
100
AcDbEntity
  8
0
  6
CONTINUOUS
 62
               7
100
AcDbLine
 10
14.300000000000001
 20
-43.5
 30
0.0
 11
14.300000000000001
 21
-47.799999999999997
 31
0.0
  0
LINE
  5
6C
100
AcDbEntity
  8
0
  6
CONTINUOUS
 62
               7
100
AcDbLine
 10
17.0
 20
-40.799999999999997
 30
0.0
 11
19.0
 21
-40.799999999999997
 31
0.0
  0
LINE
  5
6D
100
AcDbEntity
  8
0
  6
CONTINUOUS
 62
               7
100
AcDbLine
 10
6.0
 20
-9.1999999999999993
 30
0.0
 11
4.0
 21
-9.1999999999999993
 31
0.0
  0
LINE
  5
6E
100
AcDbEntity
  8
0
  6
CONTINUOUS
 62
               7
100
AcDbLine
 10
18.699999999999999
 20
-47.799999999999997
 30
0.0
 11
4.2999999999999998
 21
-47.799999999999997
 31
0.0
  0
LINE
  5
6F
100
AcDbEntity
  8
0
  6
CONTINUOUS
 62
               7
100
AcDbLine
 10
18.699999999999999
 20
-2.2000000000000002
 30
0.0
 11
4.2999999999999998
 21
-2.2000000000000002
 31
0.0
  0
LINE
  5
70
100
AcDbEntity
  8
0
  6
CONTINUOUS
 62
               7
100
AcDbLine
 10
17.0
 20
-11.199999999999999
 30
0.0
 11
18.699999999999999
 21
-11.199999999999999
 31
0.0
  0
LINE
  5
71
100
AcDbEntity
  8
0
  6
CONTINUOUS
 62
               7
100
AcDbLine
 10
6.0
 20
-38.799999999999997
 30
0.0
 11
4.2999999999999998
 21
-38.799999999999997
 31
0.0
  0
LINE
  5
72
100
AcDbEntity
  8
0
  6
CONTINUOUS
 62
               7
100
AcDbLine
 10
6.0
 20
-44.200000000000003
 30
0.0
 11
4.2999999999999998
 21
-44.200000000000003
 31
0.0
  0
LINE
  5
73
100
AcDbEntity
  8
0
  6
CONTINUOUS
 62
               7
100
AcDbLine
 10
17.0
 20
-5.7999999999999998
 30
0.0
 11
18.699999999999999
 21
-5.7999999999999998
 31
0.0
  0
LINE
  5
74
100
AcDbEntity
  8
0
  6
CONTINUOUS
 62
               7
100
AcDbLine
 10
17.0
 20
8.5
 30
0.0
 11
19.0
 21
6.5
 31
0.0
  0
LINE
  5
75
100
AcDbEntity
  8
0
  6
CONTINUOUS
 62
               7
100
AcDbLine
 10
6.0
 20
8.5
 30
0.0
 11
4.0
 21
6.5
 31
0.0
  0
LINE
  5
76
100
AcDbEntity
  8
0
  6
CONTINUOUS
 62
               7
100
AcDbLine
 10
4.0
 20
-2.0
 30
0.0
 11
19.0
 21
-2.0
 31
0.0
  0
LINE
  5
77
100
AcDbEntity
  8
0
  6
CONTINUOUS
 62
               7
100
AcDbLine
 10
4.0
 20
-66.5
 30
0.0
 11
4.0
 21
-42.530000000000001
 31
0.0
  0
LINE
  5
78
100
AcDbEntity
  8
0
  6
CONTINUOUS
 62
               7
100
AcDbLine
 10
19.0
 20
-66.5
 30
0.0
 11
19.0
 21
-44.530000000000001
 31
0.0
  0
LINE
  5
79
100
AcDbEntity
  8
0
  6
CONTINUOUS
 62
               7
100
AcDbLine
 10
6.5
 20
8.0
 30
0.0
 11
6.5
 21
19.399999999999999
 31
0.0
  0
LINE
  5
7A
100
AcDbEntity
  8
0
  6
CONTINUOUS
 62
               7
100
AcDbLine
 10
16.5
 20
8.0
 30
0.0
 11
16.5
 21
19.399999999999999
 31
0.0
  0
LINE
  5
7B
100
AcDbEntity
  8
0
  6
CONTINUOUS
 62
             200
100
AcDbLine
 10
15.550000000000001
 20
69.730000000000004
 30
0.0
 11
7.4500000000000002
 21
65.049999999999997
 31
0.0
  0
LINE
  5
7C
100
AcDbEntity
  8
0
  6
CONTINUOUS
 62
               4
100
AcDbLine
 10
8.7799999999999994
 20
63.5
 30
0.0
 11
8.7799999999999994
 21
64.670000000000002
 31
0.0
  0
LINE
  5
7D
100
AcDbEntity
  8
0
  6
CONTINUOUS
 62
               4
100
AcDbLine
 10
10.210000000000001
 20
63.5
 30
0.0
 11
10.210000000000001
 21
65.5
 31
0.0
  0
LINE
  5
7E
100
AcDbEntity
  8
0
  6
CONTINUOUS
 62
               4
100
AcDbLine
 10
9.0999999999999996
 20
76.5
 30
0.0
 11
9.9000000000000004
 21
76.5
 31
0.0
  0
LINE
  5
7F
100
AcDbEntity
  8
0
  6
CONTINUOUS
 62
               4
100
AcDbLine
 10
9.0999999999999996
 20
71.5
 30
0.0
 11
9.0999999999999996
 21
76.5
 31
0.0
  0
LINE
  5
80
100
AcDbEntity
  8
0
  6
CONTINUOUS
 62
               4
100
AcDbLine
 10
9.9000000000000004
 20
71.5
 30
0.0
 11
9.9000000000000004
 21
76.5
 31
0.0
  0
LINE
  5
81
100
AcDbEntity
  8
0
  6
CONTINUOUS
 62
               4
100
AcDbLine
 10
8.7799999999999994
 20
71.5
 30
0.0
 11
10.210000000000001
 21
71.5
 31
0.0
  0
LINE
  5
82
100
AcDbEntity
  8
0
  6
CONTINUOUS
 62
               4
100
AcDbLine
 10
8.7799999999999994
 20
65.819999999999993
 30
0.0
 11
8.7799999999999994
 21
71.5
 31
0.0
  0
LINE
  5
83
100
AcDbEntity
  8
0
  6
CONTINUOUS
 62
               4
100
AcDbLine
 10
10.210000000000001
 20
66.650000000000006
 30
0.0
 11
10.210000000000001
 21
71.5
 31
0.0
  0
LINE
  5
84
100
AcDbEntity
  8
0
  6
CONTINUOUS
 62
               4
100
AcDbLine
 10
15.550000000000001
 20
56.0
 30
0.0
 11
15.550000000000001
 21
57.0
 31
0.0
  0
LINE
  5
85
100
AcDbEntity
  8
0
  6
CONTINUOUS
 62
               4
100
AcDbLine
 10
7.4500000000000002
 20
56.0
 30
0.0
 11
7.4500000000000002
 21
57.0
 31
0.0
  0
LINE
  5
86
100
AcDbEntity
  8
0
  6
CONTINUOUS
 62
               4
100
AcDbLine
 10
7.4500000000000002
 20
55.0
 30
0.0
 11
8.0
 21
55.0
 31
0.0
  0
LINE
  5
87
100
AcDbEntity
  8
0
  6
CONTINUOUS
 62
               4
100
AcDbLine
 10
7.4500000000000002
 20
56.0
 30
0.0
 11
8.0
 21
56.0
 31
0.0
  0
LINE
  5
88
100
AcDbEntity
  8
0
  6
CONTINUOUS
 62
               4
100
AcDbLine
 10
15.0
 20
55.0
 30
0.0
 11
15.550000000000001
 21
55.0
 31
0.0
  0
LINE
  5
89
100
AcDbEntity
  8
0
  6
CONTINUOUS
 62
               4
100
AcDbLine
 10
15.0
 20
56.0
 30
0.0
 11
15.550000000000001
 21
56.0
 31
0.0
  0
LINE
  5
8A
100
AcDbEntity
  8
0
  6
CONTINUOUS
 62
               4
100
AcDbLine
 10
15.0
 20
57.0
 30
0.0
 11
16.449999999999999
 21
57.0
 31
0.0
  0
LINE
  5
8B
100
AcDbEntity
  8
0
  6
CONTINUOUS
 62
               4
100
AcDbLine
 10
6.5999999999999996
 20
63.5
 30
0.0
 11
16.399999999999999
 21
63.5
 31
0.0
  0
LINE
  5
8C
100
AcDbEntity
  8
0
  6
CONTINUOUS
 62
               4
100
AcDbLine
 10
8.0
 20
62.0
 30
0.0
 11
15.0
 21
62.0
 31
0.0
  0
LINE
  5
8D
100
AcDbEntity
  8
0
  6
CONTINUOUS
 62
               4
100
AcDbLine
 10
8.0
 20
56.549999999999997
 30
0.0
 11
15.0
 21
56.549999999999997
 31
0.0
  0
LINE
  5
8E
100
AcDbEntity
  8
0
  6
CONTINUOUS
 62
               4
100
AcDbLine
 10
8.0
 20
52.990000000000002
 30
0.0
 11
15.0
 21
52.990000000000002
 31
0.0
  0
LINE
  5
8F
100
AcDbEntity
  8
0
  6
CONTINUOUS
 62
               4
100
AcDbLine
 10
8.0
 20
52.990000000000002
 30
0.0
 11
8.0
 21
63.5
 31
0.0
  0
LINE
  5
90
100
AcDbEntity
  8
0
  6
CONTINUOUS
 62
               4
100
AcDbLine
 10
15.0
 20
52.990000000000002
 30
0.0
 11
15.0
 21
63.5
 31
0.0
  0
LINE
  5
91
100
AcDbEntity
  8
0
  6
CONTINUOUS
 62
               4
100
AcDbLine
 10
15.550000000000001
 20
52.5
 30
0.0
 11
15.550000000000001
 21
55.0
 31
0.0
  0
LINE
  5
92
100
AcDbEntity
  8
0
  6
CONTINUOUS
 62
               4
100
AcDbLine
 10
7.4500000000000002
 20
52.5
 30
0.0
 11
7.4500000000000002
 21
55.0
 31
0.0
  0
LINE
  5
93
100
AcDbEntity
  8
0
  6
CONTINUOUS
 62
               4
100
AcDbLine
 10
6.5499999999999998
 20
57.0
 30
0.0
 11
8.0
 21
57.0
 31
0.0
  0
LINE
  5
94
100
AcDbEntity
  8
0
  6
CONTINUOUS
 62
               4
100
AcDbLine
 10
14.210000000000001
 20
68.960000000000008
 30
0.0
 11
14.210000000000001
 21
71.5
 31
0.0
  0
LINE
  5
95
100
AcDbEntity
  8
0
  6
CONTINUOUS
 62
               4
100
AcDbLine
 10
12.779999999999999
 20
68.129999999999995
 30
0.0
 11
12.779999999999999
 21
71.5
 31
0.0
  0
LINE
  5
96
100
AcDbEntity
  8
0
  6
CONTINUOUS
 62
             200
100
AcDbLine
 10
15.550000000000001
 20
68.579999999999998
 30
0.0
 11
7.4500000000000002
 21
63.899999999999999
 31
0.0
  0
LINE
  5
97
100
AcDbEntity
  8
0
  6
CONTINUOUS
 62
               4
100
AcDbLine
 10
12.779999999999999
 20
71.5
 30
0.0
 11
14.210000000000001
 21
71.5
 31
0.0
  0
LINE
  5
98
100
AcDbEntity
  8
0
  6
CONTINUOUS
 62
               4
100
AcDbLine
 10
13.1
 20
76.5
 30
0.0
 11
13.9
 21
76.5
 31
0.0
  0
LINE
  5
99
100
AcDbEntity
  8
0
  6
CONTINUOUS
 62
               4
100
AcDbLine
 10
13.9
 20
71.5
 30
0.0
 11
13.9
 21
76.5
 31
0.0
  0
LINE
  5
9A
100
AcDbEntity
  8
0
  6
CONTINUOUS
 62
               4
100
AcDbLine
 10
13.1
 20
71.5
 30
0.0
 11
13.1
 21
76.5
 31
0.0
  0
LINE
  5
9B
100
AcDbEntity
  8
0
  6
CONTINUOUS
 62
               4
100
AcDbLine
 10
14.210000000000001
 20
63.5
 30
0.0
 11
14.210000000000001
 21
67.810000000000002
 31
0.0
  0
LINE
  5
9C
100
AcDbEntity
  8
0
  6
CONTINUOUS
 62
               4
100
AcDbLine
 10
12.779999999999999
 20
63.5
 30
0.0
 11
12.779999999999999
 21
66.97999999999999
 31
0.0
  0
LINE
  5
9D
100
AcDbEntity
  8
0
  6
CONTINUOUS
 62
               4
100
AcDbLine
 10
16.449999999999999
 20
43.5
 30
0.0
 11
16.449999999999999
 21
57.0
 31
0.0
  0
LINE
  5
9E
100
AcDbEntity
  8
0
  6
CONTINUOUS
 62
               4
100
AcDbLine
 10
16.449999999999999
 20
48.0
 30
0.0
 11
6.5499999999999998
 21
48.0
 31
0.0
  0
LINE
  5
9F
100
AcDbEntity
  8
0
  6
CONTINUOUS
 62
               4
100
AcDbLine
 10
16.0
 20
52.5
 30
0.0
 11
7.0
 21
52.5
 31
0.0
  0
LINE
  5
A0
100
AcDbEntity
  8
0
  6
CONTINUOUS
 62
               4
100
AcDbLine
 10
6.5499999999999998
 20
43.5
 30
0.0
 11
6.5499999999999998
 21
57.0
 31
0.0
  0
LINE
  5
A1
100
AcDbEntity
  8
0
  6
CONTINUOUS
 62
               7
100
AcDbLine
 10
9.5700000000000003
 20
16.5
 30
0.0
 11
13.42
 21
16.5
 31
0.0
  0
LINE
  5
A2
100
AcDbEntity
  8
0
  6
CONTINUOUS
 62
               7
100
AcDbLine
 10
9.5700000000000003
 20
15.9
 30
0.0
 11
13.42
 21
15.9
 31
0.0
  0
LINE
  5
A3
100
AcDbEntity
  8
0
  6
CONTINUOUS
 62
               4
100
AcDbLine
 10
6.5
 20
43.5
 30
0.0
 11
16.5
 21
43.5
 31
0.0
  0
LINE
  5
A4
100
AcDbEntity
  8
0
  6
CENTER
 62
               2
100
AcDbLine
 10
11.5
 20
-69.659999999999997
 30
0.0
 11
11.5
 21
65.25
 31
0.0
  0
LINE
  5
A5
100
AcDbEntity
  8
0
  6
CENTER
 62
               2
100
AcDbLine
 10
9.0
 20
16.199999999999999
 30
0.0
 11
14.0
 21
16.199999999999999
 31
0.0
  0
LINE
  5
A6
100
AcDbEntity
  8
0
  6
CONTINUOUS
 62
               7
100
AcDbLine
 10
6.5
 20
19.399999999999999
 30
0.0
 11
16.5
 21
19.399999999999999
 31
0.0
  0
LINE
  5
A7
100
AcDbEntity
  8
0
  6
CONTINUOUS
 62
               7
100
AcDbLine
 10
6.5
 20
8.0
 30
0.0
 11
16.5
 21
8.0
 31
0.0
  0
ENDBLK
  5
A8
100
AcDbEntity
  8
0
100
AcDbBlockEnd
  0
BLOCK
  5
A9
100
AcDbEntity
  8
0
100
AcDbBlockBegin
  2
MS_2
 70
               0
 10
0.0
 20
0.0
 30
0.0
  3
MS_2
  1

  0
LINE
  5
AA
100
AcDbEntity
  8
0
  6
CONTINUOUS
 62
               4
100
AcDbLine
 10
25.5
 20
43.5
 30
0.0
 11
52.499992370605469
 21
43.5
 31
0.0
  0
LINE
  5
AB
100
AcDbEntity
  8
0
  6
CONTINUOUS
 62
               4
100
AcDbLine
 10
36.599999999999994
 20
57.0
 30
0.0
 11
36.599999999999994
 21
52.5
 31
0.0
  0
LINE
  5
AC
100
AcDbEntity
  8
0
  6
CONTINUOUS
 62
               4
100
AcDbLine
 10
27.649987792968744
 20
63.5
 30
0.0
 11
36.649987792968744
 21
63.5
 31
0.0
  0
LINE
  5
AD
100
AcDbEntity
  8
0
  6
CONTINUOUS
 62
               4
100
AcDbLine
 10
28.0
 20
57.0
 30
0.0
 11
36.650003051757807
 21
57.0
 31
0.0
  0
LINE
  5
AE
100
AcDbEntity
  8
0
  6
CONTINUOUS
 62
               4
100
AcDbLine
 10
37.227349853515619
 20
63.5
 30
0.0
 11
38.649995422363276
 21
63.5
 31
0.0
  0
LINE
  5
AF
100
AcDbEntity
  8
0
  6
CONTINUOUS
 62
               4
100
AcDbLine
 10
36.599999999999994
 20
54.498458862304688
 30
0.0
 11
36.650003051757807
 21
54.498458862304688
 31
0.0
  0
LINE
  5
B0
100
AcDbEntity
  8
0
  6
CONTINUOUS
 62
               4
100
AcDbLine
 10
36.650003051757807
 20
52.998458862304687
 30
0.0
 11
37.649995422363276
 21
52.998458862304687
 31
0.0
  0
LINE
  5
B1
100
AcDbEntity
  8
0
  6
CONTINUOUS
 62
               4
100
AcDbLine
 10
36.650003051757807
 20
54.498458862304688
 30
0.0
 11
36.650003051757807
 21
57.0
 31
0.0
  0
LINE
  5
B2
100
AcDbEntity
  8
0
  6
CONTINUOUS
 62
               4
100
AcDbLine
 10
38.149995422363276
 20
62.0
 30
0.0
 11
38.649995422363276
 21
62.0
 31
0.0
  0
LINE
  5
B3
100
AcDbEntity
  8
0
  6
CONTINUOUS
 62
               4
100
AcDbLine
 10
36.650000209407693
 20
52.998474151870141
 30
0.0
 11
36.599979656101453
 21
53.048494705176381
 31
0.0
  0
LINE
  5
B4
100
AcDbEntity
  8
0
  6
CONTINUOUS
 62
               4
100
AcDbLine
 10
28.150003051757807
 20
57.0
 30
0.0
 11
28.150003051757807
 21
62.5
 31
0.0
  0
LINE
  5
B5
100
AcDbEntity
  8
0
  6
CONTINUOUS
 62
               4
100
AcDbLine
 10
27.650003051757807
 20
62.5
 30
0.0
 11
27.650003051757807
 21
63.5
 31
0.0
  0
LINE
  5
B6
100
AcDbEntity
  8
0
  6
CONTINUOUS
 62
               4
100
AcDbLine
 10
27.649987792968744
 20
62.5
 30
0.0
 11
28.149987792968744
 21
62.5
 31
0.0
  0
LINE
  5
B7
100
AcDbEntity
  8
0
  6
CONTINUOUS
 62
               4
100
AcDbLine
 10
38.150003051757807
 20
56.55615234375
 30
0.0
 11
38.150003051757807
 21
62.0
 31
0.0
  0
LINE
  5
B8
100
AcDbEntity
  8
0
  6
CONTINUOUS
 62
               4
100
AcDbLine
 10
37.650001302236518
 20
52.99845074175937
 30
0.0
 11
38.150000411113609
 21
56.556138825448215
 31
0.0
  0
LINE
  5
B9
100
AcDbEntity
  8
0
  6
CONTINUOUS
 62
               4
100
AcDbLine
 10
36.650003051757807
 20
57.0
 30
0.0
 11
36.650003051757807
 21
63.5
 31
0.0
  0
LINE
  5
BA
100
AcDbEntity
  8
0
  6
CONTINUOUS
 62
               4
100
AcDbLine
 10
36.650044511604023
 20
62.499958942901685
 30
0.0
 11
37.227396327367927
 21
63.499967647856465
 31
0.0
  0
LINE
  5
BB
100
AcDbEntity
  8
0
  6
CONTINUOUS
 62
               4
100
AcDbLine
 10
38.650003051757807
 20
62.0
 30
0.0
 11
38.650003051757807
 21
63.5
 31
0.0
  0
LINE
  5
BC
100
AcDbEntity
  8
0
  6
CONTINUOUS
 62
               4
100
AcDbLine
 10
33.500009155273432
 20
76.5
 30
0.0
 11
32.700006103515619
 21
76.5
 31
0.0
  0
LINE
  5
BD
100
AcDbEntity
  8
0
  6
CONTINUOUS
 62
               4
100
AcDbLine
 10
32.700006103515619
 20
71.5
 30
0.0
 11
32.700006103515619
 21
76.5
 31
0.0
  0
LINE
  5
BE
100
AcDbEntity
  8
0
  6
CONTINUOUS
 62
               4
100
AcDbLine
 10
33.500009155273432
 20
71.5
 30
0.0
 11
33.500009155273432
 21
76.5
 31
0.0
  0
LINE
  5
BF
100
AcDbEntity
  8
0
  6
CONTINUOUS
 62
               4
100
AcDbLine
 10
33.815011596679682
 20
63.5
 30
0.0
 11
33.815011596679682
 21
68.098403930664063
 31
0.0
  0
LINE
  5
C0
100
AcDbEntity
  8
0
  6
CONTINUOUS
 62
               4
100
AcDbLine
 10
32.385003662109369
 20
63.5
 30
0.0
 11
32.385003662109369
 21
67.272796630859375
 31
0.0
  0
LINE
  5
C1
100
AcDbEntity
  8
0
  6
CONTINUOUS
 62
               4
100
AcDbLine
 10
33.815011596679682
 20
71.5
 30
0.0
 11
32.385003662109369
 21
71.5
 31
0.0
  0
LINE
  5
C2
100
AcDbEntity
  8
0
  6
CONTINUOUS
 62
               4
100
AcDbLine
 10
32.385003662109369
 20
68.427490234375
 30
0.0
 11
32.385003662109369
 21
71.5
 31
0.0
  0
LINE
  5
C3
100
AcDbEntity
  8
0
  6
CONTINUOUS
 62
               4
100
AcDbLine
 10
33.815011596679682
 20
69.25311279296875
 30
0.0
 11
33.815011596679682
 21
71.5
 31
0.0
  0
LINE
  5
C4
100
AcDbEntity
  8
0
  6
CONTINUOUS
 62
               7
100
AcDbLine
 10
25.5
 20
19.5
 30
0.0
 11
52.5
 21
19.5
 31
0.0
  0
LINE
  5
C5
100
AcDbEntity
  8
0
  6
CONTINUOUS
 62
               4
100
AcDbLine
 10
31.315011596679682
 20
67.809738159179688
 30
0.0
 11
31.315011596679682
 21
71.5
 31
0.0
  0
LINE
  5
C6
100
AcDbEntity
  8
0
  6
CONTINUOUS
 62
               4
100
AcDbLine
 10
29.885003662109369
 20
66.984115600585937
 30
0.0
 11
29.885003662109369
 21
71.5
 31
0.0
  0
LINE
  5
C7
100
AcDbEntity
  8
0
  6
CONTINUOUS
 62
               4
100
AcDbLine
 10
29.885003662109369
 20
71.5
 30
0.0
 11
31.315011596679682
 21
71.5
 31
0.0
  0
LINE
  5
C8
100
AcDbEntity
  8
0
  6
CONTINUOUS
 62
               4
100
AcDbLine
 10
31.000009155273432
 20
71.5
 30
0.0
 11
31.000009155273432
 21
76.5
 31
0.0
  0
LINE
  5
C9
100
AcDbEntity
  8
0
  6
CONTINUOUS
 62
               4
100
AcDbLine
 10
30.200006103515619
 20
71.5
 30
0.0
 11
30.200006103515619
 21
76.499984741210937
 31
0.0
  0
LINE
  5
CA
100
AcDbEntity
  8
0
  6
CONTINUOUS
 62
               4
100
AcDbLine
 10
30.200006103515619
 20
76.5
 30
0.0
 11
31.000009155273432
 21
76.5
 31
0.0
  0
LINE
  5
CB
100
AcDbEntity
  8
0
  6
CONTINUOUS
 62
               4
100
AcDbLine
 10
31.315011596679682
 20
63.5
 30
0.0
 11
31.315011596679682
 21
66.655029296875
 31
0.0
  0
LINE
  5
CC
100
AcDbEntity
  8
0
  6
CONTINUOUS
 62
               4
100
AcDbLine
 10
29.885003662109369
 20
63.5
 30
0.0
 11
29.885003662109369
 21
65.829421997070313
 31
0.0
  0
LINE
  5
CD
100
AcDbEntity
  8
0
  6
CONTINUOUS
 62
             200
100
AcDbLine
 10
35.315018891472022
 20
70.119105809934808
 30
0.0
 11
28.384989799908539
 21
66.118057246153512
 31
0.0
  0
LINE
  5
CE
100
AcDbEntity
  8
0
  6
CONTINUOUS
 62
             200
100
AcDbLine
 10
35.314994343097709
 20
68.964464815078827
 30
0.0
 11
28.384984189578603
 21
64.96341291056342
 31
0.0
  0
ARC
  5
CF
100
AcDbEntity
  8
0
  6
CONTINUOUS
 62
               4
100
AcDbCircle
 10
26.0
 20
52.0
 30
0.0
 40
0.5
100
AcDbArc
 50
89.999999999999801
 51
179.9999999999996
  0
LINE
  5
D0
100
AcDbEntity
  8
0
  6
CONTINUOUS
 62
               4
100
AcDbLine
 10
28.0
 20
52.5
 30
0.0
 11
26.0
 21
52.5
 31
0.0
  0
LINE
  5
D1
100
AcDbEntity
  8
0
  6
CONTINUOUS
 62
               4
100
AcDbLine
 10
28.0
 20
57.0
 30
0.0
 11
28.0
 21
52.5
 31
0.0
  0
LINE
  5
D2
100
AcDbEntity
  8
0
  6
CONTINUOUS
 62
               4
100
AcDbLine
 10
36.599999999999994
 20
57.0
 30
0.0
 11
36.599999999999994
 21
52.5
 31
0.0
  0
ARC
  5
D3
100
AcDbEntity
  8
0
  6
CONTINUOUS
 62
               4
100
AcDbCircle
 10
51.002020395360574
 20
47.679610903929301
 30
0.0
 40
1.4979796551727449
100
AcDbArc
 50
0.0148824203654679
 51
24.046309772710686
  0
ARC
  5
D4
100
AcDbEntity
  8
0
  6
CONTINUOUS
 62
               4
100
AcDbCircle
 10
50.174020838564047
 20
52.000099937446265
 30
0.0
 40
0.4999010215015999
100
AcDbArc
 50
24.197376208904771
 51
89.887774076864815
  0
LINE
  5
D5
100
AcDbEntity
  8
0
  6
CONTINUOUS
 62
               4
100
AcDbLine
 10
50.629999999999995
 20
52.205000000000013
 30
0.0
 11
52.370000000000005
 21
48.289999999999992
 31
0.0
  0
LINE
  5
D6
100
AcDbEntity
  8
0
  6
CONTINUOUS
 62
               4
100
AcDbLine
 10
52.5
 20
47.680000000000007
 30
0.0
 11
52.5
 21
43.5
 31
0.0
  0
LINE
  5
D7
100
AcDbEntity
  8
0
  6
CONTINUOUS
 62
               4
100
AcDbLine
 10
25.5
 20
52.0
 30
0.0
 11
25.5
 21
43.5
 31
0.0
  0
LINE
  5
D8
100
AcDbEntity
  8
0
  6
CONTINUOUS
 62
               4
100
AcDbLine
 10
25.5
 20
19.5
 30
0.0
 11
25.5
 21
43.5
 31
0.0
  0
LINE
  5
D9
100
AcDbEntity
  8
0
  6
CONTINUOUS
 62
               4
100
AcDbLine
 10
52.5
 20
19.5
 30
0.0
 11
52.5
 21
43.5
 31
0.0
  0
LINE
  5
DA
100
AcDbEntity
  8
0
  6
CONTINUOUS
 62
               4
100
AcDbLine
 10
36.599999999999994
 20
52.5
 30
0.0
 11
50.174999999999983
 21
52.5
 31
0.0
  0
ARC
  5
DB
100
AcDbEntity
  8
0
  6
CONTINUOUS
 62
               7
100
AcDbCircle
 10
55.367216836767305
 20
-47.503505952457047
 30
0.0
 40
0.2965071099079706
100
AcDbArc
 50
270.53781458628629
 51
315.85936644100815
  0
ARC
  5
DC
100
AcDbEntity
  8
0
  6
CONTINUOUS
 62
               7
100
AcDbCircle
 10
57.203504374105258
 20
-45.667216160330831
 30
0.0
 40
0.2965086945403413
100
AcDbArc
 50
314.14076140144687
 51
359.46205757125625
  0
ARC
  5
DD
100
AcDbEntity
  8
0
  6
CONTINUOUS
 62
               7
100
AcDbCircle
 10
57.2000057831577
 20
-4.3242832357895589
 30
0.0
 40
0.3000247927216219
100
AcDbArc
 50
0.817997966880754
 51
45.579183060416383
  0
ARC
  5
DE
100
AcDbEntity
  8
0
  6
CONTINUOUS
 62
               7
100
AcDbCircle
 10
55.375924481715437
 20
-2.5000732354969575
 30
0.0
 40
0.3001317146607619
100
AcDbArc
 50
47.160014361038556
 51
91.131069559802569
  0
ARC
  5
DF
100
AcDbEntity
  8
0
  6
CONTINUOUS
 62
               7
100
AcDbCircle
 10
52.400010681148459
 20
-64.799989318851544
 30
0.0
 40
0.2999893190416899
100
AcDbArc
 50
359.99795997827846
 51
90.002040021721896
  0
ARC
  5
E0
100
AcDbEntity
  8
0
  6
CONTINUOUS
 62
               7
100
AcDbCircle
 10
46.600004578106265
 20
-64.800004578106268
 30
0.0
 40
0.3000045781411932
100
AcDbArc
 50
90.00087434054727
 51
179.99912565945078
  0
ARC
  5
E1
100
AcDbEntity
  8
0
  6
CONTINUOUS
 62
               7
100
AcDbCircle
 10
46.000013732906275
 20
-66.700013732906271
 30
0.0
 40
0.2999862674080585
100
AcDbArc
 50
269.99737708803377
 51
0.0026229119642465
  0
ARC
  5
E2
100
AcDbEntity
  8
0
  6
CONTINUOUS
 62
               7
100
AcDbCircle
 10
53.00000152619323
 20
-66.699998473806772
 30
0.0
 40
0.3000015261971083
100
AcDbArc
 50
180.00029147995284
 51
269.99970852004617
  0
ARC
  5
E3
100
AcDbEntity
  8
0
  6
CONTINUOUS
 62
               7
100
AcDbCircle
 10
28.494999999999997
 20
9.5000019945714982
 30
0.0
 40
2.5034034810926853
100
AcDbArc
 50
203.54423607349247
 51
336.45576392650634
  0
CIRCLE
  5
E4
100
AcDbEntity
  8
0
  6
CONTINUOUS
 62
               7
100
AcDbCircle
 10
17.0
 20
-17.5
 30
0.0
 40
4.2829999923706055
  0
CIRCLE
  5
E5
100
AcDbEntity
  8
0
  6
CONTINUOUS
 62
               7
100
AcDbCircle
 10
9.0607757568359375
 20
-32.45013427734375
 30
0.0
 40
4.2829999923706055
  0
CIRCLE
  5
E6
100
AcDbEntity
  8
0
  6
CONTINUOUS
 62
               2
100
AcDbCircle
 10
17.0
 20
-17.5
 30
0.0
 40
4.8639993667602539
  0
CIRCLE
  5
E7
100
AcDbEntity
  8
0
  6
CONTINUOUS
 62
               2
100
AcDbCircle
 10
9.0607757568359375
 20
-32.45013427734375
 30
0.0
 40
4.8639993667602539
  0
ARC
  5
E8
100
AcDbEntity
  8
0
  6
CONTINUOUS
 62
               7
100
AcDbCircle
 10
55.699994659422082
 20
-7.2499946594220805
 30
0.0
 40
1.5000053405874267
100
AcDbArc
 50
270.00020399432316
 51
359.99979600567553
  0
ARC
  5
E9
100
AcDbEntity
  8
0
  6
CONTINUOUS
 62
               7
100
AcDbCircle
 10
55.699994659422082
 20
-5.7500053405779195
 30
0.0
 40
1.5000053405874267
100
AcDbArc
 50
0.0002039943236644
 51
89.99979600567606
  0
ARC
  5
EA
100
AcDbEntity
  8
0
  6
CONTINUOUS
 62
               7
100
AcDbCircle
 10
53.30000152587813
 20
-40.749998474121867
 30
0.0
 40
1.4999984741226444
100
AcDbArc
 50
359.99994171568852
 51
90.00005828431047
  0
ARC
  5
EB
100
AcDbEntity
  8
0
  6
CONTINUOUS
 62
               7
100
AcDbCircle
 10
53.30000152587813
 20
-42.250001525878133
 30
0.0
 40
1.4999984741226444
100
AcDbArc
 50
269.99994171568875
 51
0.0000582843106739
  0
ARC
  5
EC
100
AcDbEntity
  8
0
  6
CONTINUOUS
 62
               7
100
AcDbCircle
 10
48.250007629413936
 20
-64.999992370586071
 30
0.0
 40
1.5000076294333362
100
AcDbArc
 50
180.00029142066288
 51
269.99970857933585
  0
ARC
  5
ED
100
AcDbEntity
  8
0
  6
CONTINUOUS
 62
               7
100
AcDbCircle
 10
50.750007629375126
 20
-65.000007629375133
 30
0.0
 40
1.4999923706442737
100
AcDbArc
 50
269.99970857785377
 51
0.0002914221458685
  0
ARC
  5
EE
100
AcDbEntity
  8
0
  6
CONTINUOUS
 62
               7
100
AcDbCircle
 10
26.000007629452739
 20
-66.499992370547261
 30
0.0
 40
0.5000076295109466
100
AcDbArc
 50
180.00087425754319
 51
269.99912574245582
  0
ARC
  5
EF
100
AcDbEntity
  8
0
  6
CONTINUOUS
 62
               7
100
AcDbCircle
 10
55.0
 20
-66.5
 30
0.0
 40
0.5
100
AcDbArc
 50
269.99999999999937
 51
0.0
  0
LINE
  5
F0
100
AcDbEntity
  8
0
  6
CONTINUOUS
 62
               7
100
AcDbLine
 10
57.409999999999997
 20
-45.880000000000003
 30
0.0
 11
55.579999999999998
 21
-47.710000000000001
 31
0.0
  0
LINE
  5
F1
100
AcDbEntity
  8
0
  6
CONTINUOUS
 62
               7
100
AcDbLine
 10
57.5
 20
-9.1999999999999993
 30
0.0
 11
55.5
 21
-9.1999999999999993
 31
0.0
  0
LINE
  5
F2
100
AcDbEntity
  8
0
  6
CONTINUOUS
 62
               7
100
AcDbLine
 10
57.409999999999997
 20
-4.1100000000000003
 30
0.0
 11
55.579999999999998
 21
-2.2799999999999998
 31
0.0
  0
LINE
  5
F3
100
AcDbEntity
  8
0
  6
CONTINUOUS
 62
               7
100
AcDbLine
 10
55.369999999999997
 20
-47.799999999999997
 30
0.0
 11
52.5
 21
-47.799999999999997
 31
0.0
  0
LINE
  5
F4
100
AcDbEntity
  8
0
  6
CONTINUOUS
 62
               7
100
AcDbLine
 10
55.369999999999997
 20
-2.2000000000000002
 30
0.0
 11
52.5
 21
-2.2000000000000002
 31
0.0
  0
LINE
  5
F5
100
AcDbEntity
  8
0
  6
CENTER
 62
               2
100
AcDbLine
 10
-3.0
 20
-50.0
 30
0.0
 11
3.0
 21
-50.0
 31
0.0
  0
LINE
  5
F6
100
AcDbEntity
  8
0
  6
CENTER
 62
               2
100
AcDbLine
 10
-3.0
 20
0.0
 30
0.0
 11
3.0
 21
0.0
 31
0.0
  0
LINE
  5
F7
100
AcDbEntity
  8
0
  6
CONTINUOUS
 62
               7
100
AcDbLine
 10
52.5
 20
-44.0
 30
0.0
 11
53.100000000000001
 21
-44.0
 31
0.0
  0
LINE
  5
F8
100
AcDbEntity
  8
0
  6
CONTINUOUS
 62
               7
100
AcDbLine
 10
52.5
 20
-39.0
 30
0.0
 11
53.100000000000001
 21
-39.0
 31
0.0
  0
LINE
  5
F9
100
AcDbEntity
  8
0
  6
CONTINUOUS
 62
               7
100
AcDbLine
 10
53.100000000000001
 20
-44.0
 30
0.0
 11
53.100000000000001
 21
-39.0
 31
0.0
  0
LINE
  5
FA
100
AcDbEntity
  8
0
  6
CONTINUOUS
 62
               7
100
AcDbLine
 10
52.5
 20
8.5
 30
0.0
 11
25.5
 21
8.5
 31
0.0
  0
LINE
  5
FB
100
AcDbEntity
  8
0
  6
CONTINUOUS
 62
               7
100
AcDbLine
 10
55.5
 20
-9.1999999999999993
 30
0.0
 11
55.5
 21
-2.2200000000000002
 31
0.0
  0
LINE
  5
FC
100
AcDbEntity
  8
0
  6
CONTINUOUS
 62
               7
100
AcDbLine
 10
52.399999999999999
 20
-64.5
 30
0.0
 11
46.600000000000001
 21
-64.5
 31
0.0
  0
LINE
  5
FD
100
AcDbEntity
  8
0
  6
CONTINUOUS
 62
               7
100
AcDbLine
 10
52.700000000000003
 20
-66.700000000000003
 30
0.0
 11
52.700000000000003
 21
-64.799999999999997
 31
0.0
  0
LINE
  5
FE
100
AcDbEntity
  8
0
  6
CONTINUOUS
 62
               7
100
AcDbLine
 10
46.299999999999997
 20
-66.700000000000003
 30
0.0
 11
46.299999999999997
 21
-64.799999999999997
 31
0.0
  0
LINE
  5
FF
100
AcDbEntity
  8
0
  6
CONTINUOUS
 62
               7
100
AcDbLine
 10
52.5
 20
6.5
 30
0.0
 11
25.5
 21
6.5
 31
0.0
  0
LINE
  5
100
100
AcDbEntity
  8
0
  6
CENTER
 62
               2
100
AcDbLine
 10
17.0
 20
-23.359999999999999
 30
0.0
 11
17.0
 21
-11.630000000000001
 31
0.0
  0
LINE
  5
101
100
AcDbEntity
  8
0
  6
CENTER
 62
               2
100
AcDbLine
 10
9.0
 20
-38.310000000000002
 30
0.0
 11
9.0
 21
-26.579999999999998
 31
0.0
  0
LINE
  5
102
100
AcDbEntity
  8
0
  6
CENTER
 62
               2
100
AcDbLine
 10
14.92
 20
-32.5
 30
0.0
 11
3.1899999999999999
 21
-32.5
 31
0.0
  0
LINE
  5
103
100
AcDbEntity
  8
0
  6
CENTER
 62
               2
100
AcDbLine
 10
22.859999999999999
 20
-17.5
 30
0.0
 11
11.130000000000001
 21
-17.5
 31
0.0
  0
LINE
  5
104
100
AcDbEntity
  8
0
  6
CONTINUOUS
 62
               7
100
AcDbLine
 10
0.0
 20
-56.0
 30
0.0
 11
0.0
 21
6.0
 31
0.0
  0
LINE
  5
105
100
AcDbEntity
  8
0
  6
CONTINUOUS
 62
               7
100
AcDbLine
 10
25.0
 20
6.0
 30
0.0
 11
0.0
 21
6.0
 31
0.0
  0
LINE
  5
106
100
AcDbEntity
  8
0
  6
CONTINUOUS
 62
               7
100
AcDbLine
 10
25.0
 20
-56.0
 30
0.0
 11
0.0
 21
-56.0
 31
0.0
  0
LINE
  5
107
100
AcDbEntity
  8
0
  6
CONTINUOUS
 62
               7
100
AcDbLine
 10
25.0
 20
-56.0
 30
0.0
 11
25.0
 21
6.0
 31
0.0
  0
LINE
  5
108
100
AcDbEntity
  8
0
  6
CONTINUOUS
 62
               7
100
AcDbLine
 10
55.700000000000003
 20
-8.75
 30
0.0
 11
55.5
 21
-8.75
 31
0.0
  0
LINE
  5
109
100
AcDbEntity
  8
0
  6
CONTINUOUS
 62
               7
100
AcDbLine
 10
57.200000000000003
 20
-5.75
 30
0.0
 11
57.200000000000003
 21
-7.25
 31
0.0
  0
LINE
  5
10A
100
AcDbEntity
  8
0
  6
CONTINUOUS
 62
               7
100
AcDbLine
 10
55.700000000000003
 20
-4.25
 30
0.0
 11
55.5
 21
-4.25
 31
0.0
  0
LINE
  5
10B
100
AcDbEntity
  8
0
  6
CONTINUOUS
 62
               7
100
AcDbLine
 10
54.799999999999997
 20
-40.75
 30
0.0
 11
54.799999999999997
 21
-42.25
 31
0.0
  0
LINE
  5
10C
100
AcDbEntity
  8
0
  6
CONTINUOUS
 62
               7
100
AcDbLine
 10
53.299999999999997
 20
-39.25
 30
0.0
 11
53.100000000000001
 21
-39.25
 31
0.0
  0
LINE
  5
10D
100
AcDbEntity
  8
0
  6
CONTINUOUS
 62
               7
100
AcDbLine
 10
53.299999999999997
 20
-43.75
 30
0.0
 11
53.100000000000001
 21
-43.75
 31
0.0
  0
LINE
  5
10E
100
AcDbEntity
  8
0
  6
CONTINUOUS
 62
               7
100
AcDbLine
 10
57.5
 20
-38.799999999999997
 30
0.0
 11
52.5
 21
-38.799999999999997
 31
0.0
  0
LINE
  5
10F
100
AcDbEntity
  8
0
  6
CONTINUOUS
 62
               7
100
AcDbLine
 10
57.5
 20
-44.200000000000003
 30
0.0
 11
52.5
 21
-44.200000000000003
 31
0.0
  0
LINE
  5
110
100
AcDbEntity
  8
0
  6
CONTINUOUS
 62
               7
100
AcDbLine
 10
56.5
 20
-58.0
 30
0.0
 11
56.5
 21
-48.0
 31
0.0
  0
LINE
  5
111
100
AcDbEntity
  8
0
  6
CONTINUOUS
 62
               7
100
AcDbLine
 10
53.600000000000001
 20
-49.899999999999999
 30
0.0
 11
53.600000000000001
 21
-48.0
 31
0.0
  0
LINE
  5
112
100
AcDbEntity
  8
0
  6
CONTINUOUS
 62
               7
100
AcDbLine
 10
56.299999999999997
 20
-56.100000000000001
 30
0.0
 11
53.600000000000001
 21
-56.100000000000001
 31
0.0
  0
LINE
  5
113
100
AcDbEntity
  8
0
  6
CONTINUOUS
 62
               7
100
AcDbLine
 10
56.299999999999997
 20
-49.899999999999999
 30
0.0
 11
53.600000000000001
 21
-49.899999999999999
 31
0.0
  0
LINE
  5
114
100
AcDbEntity
  8
0
  6
CONTINUOUS
 62
               7
100
AcDbLine
 10
53.600000000000001
 20
-58.0
 30
0.0
 11
53.600000000000001
 21
-56.100000000000001
 31
0.0
  0
LINE
  5
115
100
AcDbEntity
  8
0
  6
CONTINUOUS
 62
               7
100
AcDbLine
 10
50.75
 20
-66.5
 30
0.0
 11
48.25
 21
-66.5
 31
0.0
  0
LINE
  5
116
100
AcDbEntity
  8
0
  6
CONTINUOUS
 62
               7
100
AcDbLine
 10
46.75
 20
-65.0
 30
0.0
 11
46.75
 21
-64.5
 31
0.0
  0
LINE
  5
117
100
AcDbEntity
  8
0
  6
CONTINUOUS
 62
               7
100
AcDbLine
 10
52.25
 20
-65.0
 30
0.0
 11
52.25
 21
-64.5
 31
0.0
  0
LINE
  5
118
100
AcDbEntity
  8
0
  6
CONTINUOUS
 62
               7
100
AcDbLine
 10
55.5
 20
-66.5
 30
0.0
 11
55.5
 21
-58.0
 31
0.0
  0
LINE
  5
119
100
AcDbEntity
  8
0
  6
CONTINUOUS
 62
               7
100
AcDbLine
 10
25.5
 20
-66.5
 30
0.0
 11
25.5
 21
19.5
 31
0.0
  0
LINE
  5
11A
100
AcDbEntity
  8
0
  6
CONTINUOUS
 62
               7
100
AcDbLine
 10
55.0
 20
-67.0
 30
0.0
 11
26.0
 21
-67.0
 31
0.0
  0
LINE
  5
11B
100
AcDbEntity
  8
0
  6
CONTINUOUS
 62
               7
100
AcDbLine
 10
56.5
 20
-58.0
 30
0.0
 11
25.5
 21
-58.0
 31
0.0
  0
LINE
  5
11C
100
AcDbEntity
  8
0
  6
CONTINUOUS
 62
               7
100
AcDbLine
 10
56.299999999999997
 20
-56.100000000000001
 30
0.0
 11
56.299999999999997
 21
-49.899999999999999
 31
0.0
  0
LINE
  5
11D
100
AcDbEntity
  8
0
  6
CONTINUOUS
 62
               7
100
AcDbLine
 10
56.5
 20
-58.0
 30
0.0
 11
57.5
 21
-57.0
 31
0.0
  0
LINE
  5
11E
100
AcDbEntity
  8
0
  6
CONTINUOUS
 62
               7
100
AcDbLine
 10
56.5
 20
-48.0
 30
0.0
 11
57.5
 21
-49.0
 31
0.0
  0
LINE
  5
11F
100
AcDbEntity
  8
0
  6
CONTINUOUS
 62
               7
100
AcDbLine
 10
57.5
 20
-57.0
 30
0.0
 11
57.5
 21
-49.0
 31
0.0
  0
LINE
  5
120
100
AcDbEntity
  8
0
  6
CONTINUOUS
 62
               7
100
AcDbLine
 10
55.5
 20
-56.100000000000001
 30
0.0
 11
55.5
 21
-49.899999999999999
 31
0.0
  0
LINE
  5
121
100
AcDbEntity
  8
0
  6
CONTINUOUS
 62
               7
100
AcDbLine
 10
57.5
 20
-4.3200000000000003
 30
0.0
 11
57.5
 21
-45.670000000000002
 31
0.0
  0
LINE
  5
122
100
AcDbEntity
  8
0
  6
CONTINUOUS
 62
               7
100
AcDbLine
 10
52.5
 20
-48.0
 30
0.0
 11
52.5
 21
19.5
 31
0.0
  0
LINE
  5
123
100
AcDbEntity
  8
0
  6
CONTINUOUS
 62
               7
100
AcDbLine
 10
56.5
 20
-48.0
 30
0.0
 11
25.5
 21
-48.0
 31
0.0
  0
LINE
  5
124
100
AcDbEntity
  8
0
  6
CONTINUOUS
 62
               7
100
AcDbLine
 10
52.5
 20
-2.0
 30
0.0
 11
25.5
 21
-2.0
 31
0.0
  0
LINE
  5
125
100
AcDbEntity
  8
0
  6
CONTINUOUS
 62
               7
100
AcDbLine
 10
25.5
 20
19.5
 30
0.0
 11
52.5
 21
19.5
 31
0.0
  0
LINE
  5
126
100
AcDbEntity
  8
0
  6
CONTINUOUS
 62
               7
100
AcDbLine
 10
53.5
 20
16.5
 30
0.0
 11
53.5
 21
18.149999999999999
 31
0.0
  0
LINE
  5
127
100
AcDbEntity
  8
0
  6
CONTINUOUS
 62
               7
100
AcDbLine
 10
53.5
 20
16.5
 30
0.0
 11
52.899999999999999
 21
16.5
 31
0.0
  0
LINE
  5
128
100
AcDbEntity
  8
0
  6
CONTINUOUS
 62
               7
100
AcDbLine
 10
53.5
 20
15.9
 30
0.0
 11
52.899999999999999
 21
15.9
 31
0.0
  0
LINE
  5
129
100
AcDbEntity
  8
0
  6
CONTINUOUS
 62
               7
100
AcDbLine
 10
52.899999999999999
 20
15.9
 30
0.0
 11
52.899999999999999
 21
16.5
 31
0.0
  0
LINE
  5
12A
100
AcDbEntity
  8
0
  6
CONTINUOUS
 62
               7
100
AcDbLine
 10
53.5
 20
18.149999999999999
 30
0.0
 11
52.5
 21
18.149999999999999
 31
0.0
  0
LINE
  5
12B
100
AcDbEntity
  8
0
  6
CONTINUOUS
 62
               7
100
AcDbLine
 10
53.5
 20
14.25
 30
0.0
 11
52.5
 21
14.25
 31
0.0
  0
LINE
  5
12C
100
AcDbEntity
  8
0
  6
CONTINUOUS
 62
               7
100
AcDbLine
 10
53.5
 20
14.25
 30
0.0
 11
53.5
 21
15.9
 31
0.0
  0
LINE
  5
12D
100
AcDbEntity
  8
0
  6
CONTINUOUS
 62
               7
100
AcDbLine
 10
25.5
 20
8.0
 30
0.0
 11
25.5
 21
10.0
 31
0.0
  0
LINE
  5
12E
100
AcDbEntity
  8
0
  6
CONTINUOUS
 62
               7
100
AcDbLine
 10
52.5
 20
8.0
 30
0.0
 11
52.5
 21
10.0
 31
0.0
  0
LINE
  5
12F
100
AcDbEntity
  8
0
  6
CENTER
 62
               2
100
AcDbLine
 10
54.5
 20
16.199999999999999
 30
0.0
 11
51.799999999999997
 21
16.199999999999999
 31
0.0
  0
ENDBLK
  5
130
100
AcDbEntity
  8
0
100
AcDbBlockEnd
  0
BLOCK
  5
131
100
AcDbEntity
  8
0
100
AcDbBlockBegin
  2
MS_3
 70
               0
 10
0.0
 20
0.0
 30
0.0
  3
MS_3
  1

  0
LINE
  5
132
100
AcDbEntity
  8
0
  6
CONTINUOUS
 62
               4
100
AcDbLine
 10
-25.5
 20
43.5
 30
0.0
 11
-52.499992370605469
 21
43.5
 31
0.0
  0
LINE
  5
133
100
AcDbEntity
  8
0
  6
CONTINUOUS
 62
               4
100
AcDbLine
 10
-36.599999999999994
 20
57.0
 30
0.0
 11
-36.599999999999994
 21
52.5
 31
0.0
  0
LINE
  5
134
100
AcDbEntity
  8
0
  6
CONTINUOUS
 62
               4
100
AcDbLine
 10
-27.649987792968744
 20
63.5
 30
0.0
 11
-36.649987792968744
 21
63.5
 31
0.0
  0
LINE
  5
135
100
AcDbEntity
  8
0
  6
CONTINUOUS
 62
               4
100
AcDbLine
 10
-28.0
 20
57.0
 30
0.0
 11
-36.650003051757807
 21
57.0
 31
0.0
  0
LINE
  5
136
100
AcDbEntity
  8
0
  6
CONTINUOUS
 62
               4
100
AcDbLine
 10
-37.227349853515619
 20
63.5
 30
0.0
 11
-38.649995422363276
 21
63.5
 31
0.0
  0
LINE
  5
137
100
AcDbEntity
  8
0
  6
CONTINUOUS
 62
               4
100
AcDbLine
 10
-36.599999999999994
 20
54.498458862304688
 30
0.0
 11
-36.650003051757807
 21
54.498458862304688
 31
0.0
  0
LINE
  5
138
100
AcDbEntity
  8
0
  6
CONTINUOUS
 62
               4
100
AcDbLine
 10
-36.650003051757807
 20
52.998458862304687
 30
0.0
 11
-37.649995422363276
 21
52.998458862304687
 31
0.0
  0
LINE
  5
139
100
AcDbEntity
  8
0
  6
CONTINUOUS
 62
               4
100
AcDbLine
 10
-36.650003051757807
 20
54.498458862304688
 30
0.0
 11
-36.650003051757807
 21
57.0
 31
0.0
  0
LINE
  5
13A
100
AcDbEntity
  8
0
  6
CONTINUOUS
 62
               4
100
AcDbLine
 10
-38.149995422363276
 20
62.0
 30
0.0
 11
-38.649995422363276
 21
62.0
 31
0.0
  0
LINE
  5
13B
100
AcDbEntity
  8
0
  6
CONTINUOUS
 62
               4
100
AcDbLine
 10
-36.650000209407693
 20
52.998474151870141
 30
0.0
 11
-36.599979656101453
 21
53.048494705176381
 31
0.0
  0
LINE
  5
13C
100
AcDbEntity
  8
0
  6
CONTINUOUS
 62
               4
100
AcDbLine
 10
-28.150003051757807
 20
57.0
 30
0.0
 11
-28.150003051757807
 21
62.5
 31
0.0
  0
LINE
  5
13D
100
AcDbEntity
  8
0
  6
CONTINUOUS
 62
               4
100
AcDbLine
 10
-27.650003051757807
 20
62.5
 30
0.0
 11
-27.650003051757807
 21
63.5
 31
0.0
  0
LINE
  5
13E
100
AcDbEntity
  8
0
  6
CONTINUOUS
 62
               4
100
AcDbLine
 10
-27.649987792968744
 20
62.5
 30
0.0
 11
-28.149987792968744
 21
62.5
 31
0.0
  0
LINE
  5
13F
100
AcDbEntity
  8
0
  6
CONTINUOUS
 62
               4
100
AcDbLine
 10
-38.150003051757807
 20
56.55615234375
 30
0.0
 11
-38.150003051757807
 21
62.0
 31
0.0
  0
LINE
  5
140
100
AcDbEntity
  8
0
  6
CONTINUOUS
 62
               4
100
AcDbLine
 10
-37.650001302236518
 20
52.99845074175937
 30
0.0
 11
-38.150000411113609
 21
56.556138825448215
 31
0.0
  0
LINE
  5
141
100
AcDbEntity
  8
0
  6
CONTINUOUS
 62
               4
100
AcDbLine
 10
-36.650003051757807
 20
57.0
 30
0.0
 11
-36.650003051757807
 21
63.5
 31
0.0
  0
LINE
  5
142
100
AcDbEntity
  8
0
  6
CONTINUOUS
 62
               4
100
AcDbLine
 10
-36.650044511604023
 20
62.499958942901685
 30
0.0
 11
-37.227396327367927
 21
63.499967647856465
 31
0.0
  0
LINE
  5
143
100
AcDbEntity
  8
0
  6
CONTINUOUS
 62
               4
100
AcDbLine
 10
-38.650003051757807
 20
62.0
 30
0.0
 11
-38.650003051757807
 21
63.5
 31
0.0
  0
LINE
  5
144
100
AcDbEntity
  8
0
  6
CONTINUOUS
 62
               4
100
AcDbLine
 10
-30.200006103515619
 20
76.5
 30
0.0
 11
-31.000009155273432
 21
76.5
 31
0.0
  0
LINE
  5
145
100
AcDbEntity
  8
0
  6
CONTINUOUS
 62
               4
100
AcDbLine
 10
-31.000009155273432
 20
71.5
 30
0.0
 11
-31.000009155273432
 21
76.5
 31
0.0
  0
LINE
  5
146
100
AcDbEntity
  8
0
  6
CONTINUOUS
 62
               4
100
AcDbLine
 10
-30.200006103515619
 20
71.5
 30
0.0
 11
-30.200006103515619
 21
76.5
 31
0.0
  0
LINE
  5
147
100
AcDbEntity
  8
0
  6
CONTINUOUS
 62
               4
100
AcDbLine
 10
-29.885003662109369
 20
63.5
 30
0.0
 11
-29.885003662109369
 21
68.098403930664063
 31
0.0
  0
LINE
  5
148
100
AcDbEntity
  8
0
  6
CONTINUOUS
 62
               4
100
AcDbLine
 10
-31.315011596679682
 20
63.5
 30
0.0
 11
-31.315011596679682
 21
67.272796630859375
 31
0.0
  0
LINE
  5
149
100
AcDbEntity
  8
0
  6
CONTINUOUS
 62
               4
100
AcDbLine
 10
-29.885003662109369
 20
71.5
 30
0.0
 11
-31.315011596679682
 21
71.5
 31
0.0
  0
LINE
  5
14A
100
AcDbEntity
  8
0
  6
CONTINUOUS
 62
               4
100
AcDbLine
 10
-31.315011596679682
 20
68.427490234375
 30
0.0
 11
-31.315011596679682
 21
71.5
 31
0.0
  0
LINE
  5
14B
100
AcDbEntity
  8
0
  6
CONTINUOUS
 62
               4
100
AcDbLine
 10
-29.885003662109369
 20
69.25311279296875
 30
0.0
 11
-29.885003662109369
 21
71.5
 31
0.0
  0
LINE
  5
14C
100
AcDbEntity
  8
0
  6
CONTINUOUS
 62
               7
100
AcDbLine
 10
-52.5
 20
19.5
 30
0.0
 11
-25.5
 21
19.5
 31
0.0
  0
LINE
  5
14D
100
AcDbEntity
  8
0
  6
CONTINUOUS
 62
               4
100
AcDbLine
 10
-32.385003662109369
 20
67.809738159179688
 30
0.0
 11
-32.385003662109369
 21
71.5
 31
0.0
  0
LINE
  5
14E
100
AcDbEntity
  8
0
  6
CONTINUOUS
 62
               4
100
AcDbLine
 10
-33.815011596679682
 20
66.984115600585937
 30
0.0
 11
-33.815011596679682
 21
71.5
 31
0.0
  0
LINE
  5
14F
100
AcDbEntity
  8
0
  6
CONTINUOUS
 62
               4
100
AcDbLine
 10
-33.815011596679682
 20
71.5
 30
0.0
 11
-32.385003662109369
 21
71.5
 31
0.0
  0
LINE
  5
150
100
AcDbEntity
  8
0
  6
CONTINUOUS
 62
               4
100
AcDbLine
 10
-32.700006103515619
 20
71.5
 30
0.0
 11
-32.700006103515619
 21
76.5
 31
0.0
  0
LINE
  5
151
100
AcDbEntity
  8
0
  6
CONTINUOUS
 62
               4
100
AcDbLine
 10
-33.500009155273432
 20
71.5
 30
0.0
 11
-33.500009155273432
 21
76.499984741210937
 31
0.0
  0
LINE
  5
152
100
AcDbEntity
  8
0
  6
CONTINUOUS
 62
               4
100
AcDbLine
 10
-33.500009155273432
 20
76.5
 30
0.0
 11
-32.700006103515619
 21
76.5
 31
0.0
  0
LINE
  5
153
100
AcDbEntity
  8
0
  6
CONTINUOUS
 62
               4
100
AcDbLine
 10
-32.385003662109369
 20
63.5
 30
0.0
 11
-32.385003662109369
 21
66.655029296875
 31
0.0
  0
LINE
  5
154
100
AcDbEntity
  8
0
  6
CONTINUOUS
 62
               4
100
AcDbLine
 10
-33.815011596679682
 20
63.5
 30
0.0
 11
-33.815011596679682
 21
65.829421997070313
 31
0.0
  0
LINE
  5
155
100
AcDbEntity
  8
0
  6
CONTINUOUS
 62
             200
100
AcDbLine
 10
-28.384996367317029
 20
70.119105809934808
 30
0.0
 11
-35.315025458880513
 21
66.118057246153512
 31
0.0
  0
LINE
  5
156
100
AcDbEntity
  8
0
  6
CONTINUOUS
 62
             200
100
AcDbLine
 10
-28.385020915691342
 20
68.964464815078827
 30
0.0
 11
-35.315031069210448
 21
64.96341291056342
 31
0.0
  0
ARC
  5
157
100
AcDbEntity
  8
0
  6
CONTINUOUS
 62
               4
100
AcDbCircle
 10
-26.0
 20
52.0
 30
0.0
 40
0.5
100
AcDbArc
 50
0.0
 51
89.999999999999801
  0
LINE
  5
158
100
AcDbEntity
  8
0
  6
CONTINUOUS
 62
               4
100
AcDbLine
 10
-28.0
 20
52.5
 30
0.0
 11
-26.0
 21
52.5
 31
0.0
  0
LINE
  5
159
100
AcDbEntity
  8
0
  6
CONTINUOUS
 62
               4
100
AcDbLine
 10
-28.0
 20
57.0
 30
0.0
 11
-28.0
 21
52.5
 31
0.0
  0
LINE
  5
15A
100
AcDbEntity
  8
0
  6
CONTINUOUS
 62
               4
100
AcDbLine
 10
-36.599999999999994
 20
57.0
 30
0.0
 11
-36.599999999999994
 21
52.5
 31
0.0
  0
ARC
  5
15B
100
AcDbEntity
  8
0
  6
CONTINUOUS
 62
               4
100
AcDbCircle
 10
-51.002020395360574
 20
47.679610903929301
 30
0.0
 40
1.4979796551727449
100
AcDbArc
 50
155.95369022728892
 51
179.98511757963411
  0
ARC
  5
15C
100
AcDbEntity
  8
0
  6
CONTINUOUS
 62
               4
100
AcDbCircle
 10
-50.174020838564047
 20
52.000099937446265
 30
0.0
 40
0.4999010215015999
100
AcDbArc
 50
90.112225923134773
 51
155.80262379109485
  0
LINE
  5
15D
100
AcDbEntity
  8
0
  6
CONTINUOUS
 62
               4
100
AcDbLine
 10
-50.629999999999995
 20
52.205000000000013
 30
0.0
 11
-52.370000000000005
 21
48.289999999999992
 31
0.0
  0
LINE
  5
15E
100
AcDbEntity
  8
0
  6
CONTINUOUS
 62
               4
100
AcDbLine
 10
-52.5
 20
47.680000000000007
 30
0.0
 11
-52.5
 21
43.5
 31
0.0
  0
LINE
  5
15F
100
AcDbEntity
  8
0
  6
CONTINUOUS
 62
               4
100
AcDbLine
 10
-25.5
 20
52.0
 30
0.0
 11
-25.5
 21
43.5
 31
0.0
  0
LINE
  5
160
100
AcDbEntity
  8
0
  6
CONTINUOUS
 62
               4
100
AcDbLine
 10
-25.5
 20
19.5
 30
0.0
 11
-25.5
 21
43.5
 31
0.0
  0
LINE
  5
161
100
AcDbEntity
  8
0
  6
CONTINUOUS
 62
               4
100
AcDbLine
 10
-52.5
 20
19.5
 30
0.0
 11
-52.5
 21
43.5
 31
0.0
  0
LINE
  5
162
100
AcDbEntity
  8
0
  6
CONTINUOUS
 62
               4
100
AcDbLine
 10
-36.599999999999994
 20
52.5
 30
0.0
 11
-50.174999999999983
 21
52.5
 31
0.0
  0
ARC
  5
163
100
AcDbEntity
  8
0
  6
CONTINUOUS
 62
               7
100
AcDbCircle
 10
-55.375922544593188
 20
-2.5000783204428623
 30
0.0
 40
0.3001367603847739
100
AcDbArc
 50
88.869319324109398
 51
132.83959675504863
  0
ARC
  5
164
100
AcDbEntity
  8
0
  6
CONTINUOUS
 62
               7
100
AcDbCircle
 10
-57.199992201223857
 20
-4.3242890566183494
 30
0.0
 40
0.3000384564238065
100
AcDbArc
 50
134.42189135291542
 51
179.18092761978636
  0
ARC
  5
165
100
AcDbEntity
  8
0
  6
CONTINUOUS
 62
               7
100
AcDbCircle
 10
-57.203504374105258
 20
-45.667216160330831
 30
0.0
 40
0.2965086945403413
100
AcDbArc
 50
180.53794242874255
 51
225.85923859855194
  0
ARC
  5
166
100
AcDbEntity
  8
0
  6
CONTINUOUS
 62
               7
100
AcDbCircle
 10
-55.367216836767305
 20
-47.503505952457047
 30
0.0
 40
0.2965071099079706
100
AcDbArc
 50
224.14063355899063
 51
269.46218541371252
  0
ARC
  5
167
100
AcDbEntity
  8
0
  6
CONTINUOUS
 62
               7
100
AcDbCircle
 10
-55.699998474120321
 20
-42.750001525879682
 30
0.0
 40
1.5000015258804598
100
AcDbArc
 50
90.000058284251068
 51
179.99994171574835
  0
ARC
  5
168
100
AcDbEntity
  8
0
  6
CONTINUOUS
 62
               7
100
AcDbCircle
 10
-55.699990844714144
 20
-44.249990844714141
 30
0.0
 40
1.5000091553137962
100
AcDbArc
 50
180.00034970402513
 51
269.99965029597388
  0
ARC
  5
169
100
AcDbEntity
  8
0
  6
CONTINUOUS
 62
               7
100
AcDbCircle
 10
-53.299994373307101
 20
-9.2499943733070999
 30
0.0
 40
1.5000056267034521
100
AcDbArc
 50
180.00021492303057
 51
269.99978507696858
  0
ARC
  5
16A
100
AcDbEntity
  8
0
  6
CONTINUOUS
 62
               7
100
AcDbCircle
 10
-53.299993896471953
 20
-7.7500061035280412
 30
0.0
 40
1.5000061035404588
100
AcDbArc
 50
90.0002331366492
 51
179.99976686335032
  0
ARC
  5
16B
100
AcDbEntity
  8
0
  6
CONTINUOUS
 62
               7
100
AcDbCircle
 10
-49.495000000000005
 20
9.5000019945714982
 30
0.0
 40
2.5034034810926835
100
AcDbArc
 50
203.5442360734925
 51
336.45576392650634
  0
CIRCLE
  5
16C
100
AcDbEntity
  8
0
  6
CONTINUOUS
 62
               7
100
AcDbCircle
 10
-20.0
 20
1.0
 30
0.0
 40
2.0669994354248047
  0
CIRCLE
  5
16D
100
AcDbEntity
  8
0
  6
CONTINUOUS
 62
               7
100
AcDbCircle
 10
-9.0
 20
-10.0
 30
0.0
 40
4.2829999923706055
  0
CIRCLE
  5
16E
100
AcDbEntity
  8
0
  6
CONTINUOUS
 62
               7
100
AcDbCircle
 10
-17.0
 20
-25.0
 30
0.0
 40
4.2829999923706055
  0
CIRCLE
  5
16F
100
AcDbEntity
  8
0
  6
CONTINUOUS
 62
               7
100
AcDbCircle
 10
-9.060760498046875
 20
-39.95013427734375
 30
0.0
 40
4.2829999923706055
  0
CIRCLE
  5
170
100
AcDbEntity
  8
0
  6
CONTINUOUS
 62
               2
100
AcDbCircle
 10
-20.0
 20
1.0
 30
0.0
 40
2.5
  0
CIRCLE
  5
171
100
AcDbEntity
  8
0
  6
CONTINUOUS
 62
               2
100
AcDbCircle
 10
-17.0
 20
-25.0
 30
0.0
 40
4.8639993667602539
  0
CIRCLE
  5
172
100
AcDbEntity
  8
0
  6
CONTINUOUS
 62
               2
100
AcDbCircle
 10
-9.0
 20
-10.0
 30
0.0
 40
4.8639993667602539
  0
CIRCLE
  5
173
100
AcDbEntity
  8
0
  6
CONTINUOUS
 62
               2
100
AcDbCircle
 10
-9.060760498046875
 20
-39.95013427734375
 30
0.0
 40
4.8639993667602539
  0
ARC
  5
174
100
AcDbEntity
  8
0
  6
CONTINUOUS
 62
               7
100
AcDbCircle
 10
-27.25
 20
-65.0
 30
0.0
 40
1.5
100
AcDbArc
 50
269.99999999999937
 51
0.0
  0
ARC
  5
175
100
AcDbEntity
  8
0
  6
CONTINUOUS
 62
               7
100
AcDbCircle
 10
-29.75
 20
-65.0
 30
0.0
 40
1.5
100
AcDbArc
 50
179.9999999999996
 51
269.99999999999937
  0
ARC
  5
176
100
AcDbEntity
  8
0
  6
CONTINUOUS
 62
               7
100
AcDbCircle
 10
-25.799987792968746
 20
-64.20001220703125
 30
0.0
 40
0.2999877932171128
100
AcDbArc
 50
269.99766853389559
 51
0.002331466102483
  0
ARC
  5
177
100
AcDbEntity
  8
0
  6
CONTINUOUS
 62
               7
100
AcDbCircle
 10
-31.999993896546464
 20
-66.700006103453532
 30
0.0
 40
0.2999938966085517
100
AcDbArc
 50
269.99883430252328
 51
0.0011656974747273
  0
ARC
  5
178
100
AcDbEntity
  8
0
  6
CONTINUOUS
 62
               7
100
AcDbCircle
 10
-31.400018310484786
 20
-64.799981689515221
 30
0.0
 40
0.2999816900740366
100
AcDbArc
 50
89.996502741552021
 51
180.00349725844532
  0
ARC
  5
179
100
AcDbEntity
  8
0
  6
CONTINUOUS
 62
               7
100
AcDbCircle
 10
-26.0
 20
-66.5
 30
0.0
 40
0.5
100
AcDbArc
 50
269.99999999999937
 51
0.0
  0
ARC
  5
17A
100
AcDbEntity
  8
0
  6
CONTINUOUS
 62
               7
100
AcDbCircle
 10
-55.0
 20
-66.5
 30
0.0
 40
0.5
100
AcDbArc
 50
179.9999999999996
 51
269.99999999999937
  0
LINE
  5
17B
100
AcDbEntity
  8
0
  6
CONTINUOUS
 62
               7
100
AcDbLine
 10
-57.409999999999997
 20
-4.1100000000000003
 30
0.0
 11
-55.579999999999998
 21
-2.2799999999999998
 31
0.0
  0
LINE
  5
17C
100
AcDbEntity
  8
0
  6
CONTINUOUS
 62
               7
100
AcDbLine
 10
-57.5
 20
-40.799999999999997
 30
0.0
 11
-55.5
 21
-40.799999999999997
 31
0.0
  0
LINE
  5
17D
100
AcDbEntity
  8
0
  6
CONTINUOUS
 62
               7
100
AcDbLine
 10
-57.409999999999997
 20
-45.880000000000003
 30
0.0
 11
-55.579999999999998
 21
-47.710000000000001
 31
0.0
  0
LINE
  5
17E
100
AcDbEntity
  8
0
  6
CONTINUOUS
 62
               7
100
AcDbLine
 10
-55.369999999999997
 20
-2.2000000000000002
 30
0.0
 11
-52.5
 21
-2.2000000000000002
 31
0.0
  0
LINE
  5
17F
100
AcDbEntity
  8
0
  6
CONTINUOUS
 62
               7
100
AcDbLine
 10
-55.369999999999997
 20
-47.799999999999997
 30
0.0
 11
-52.5
 21
-47.799999999999997
 31
0.0
  0
LINE
  5
180
100
AcDbEntity
  8
0
  6
CONTINUOUS
 62
               7
100
AcDbLine
 10
-52.5
 20
-6.0
 30
0.0
 11
-53.100000000000001
 21
-6.0
 31
0.0
  0
LINE
  5
181
100
AcDbEntity
  8
0
  6
CONTINUOUS
 62
               7
100
AcDbLine
 10
-52.5
 20
-11.0
 30
0.0
 11
-53.100000000000001
 21
-11.0
 31
0.0
  0
LINE
  5
182
100
AcDbEntity
  8
0
  6
CONTINUOUS
 62
               7
100
AcDbLine
 10
-53.100000000000001
 20
-6.0
 30
0.0
 11
-53.100000000000001
 21
-11.0
 31
0.0
  0
LINE
  5
183
100
AcDbEntity
  8
0
  6
CONTINUOUS
 62
               7
100
AcDbLine
 10
-55.5
 20
-40.799999999999997
 30
0.0
 11
-55.5
 21
-47.770000000000003
 31
0.0
  0
LINE
  5
184
100
AcDbEntity
  8
0
  6
CONTINUOUS
 62
               7
100
AcDbLine
 10
-55.700000000000003
 20
-41.25
 30
0.0
 11
-55.5
 21
-41.25
 31
0.0
  0
LINE
  5
185
100
AcDbEntity
  8
0
  6
CONTINUOUS
 62
               7
100
AcDbLine
 10
-57.200000000000003
 20
-44.25
 30
0.0
 11
-57.200000000000003
 21
-42.75
 31
0.0
  0
LINE
  5
186
100
AcDbEntity
  8
0
  6
CONTINUOUS
 62
               7
100
AcDbLine
 10
-55.700000000000003
 20
-45.75
 30
0.0
 11
-55.5
 21
-45.75
 31
0.0
  0
LINE
  5
187
100
AcDbEntity
  8
0
  6
CONTINUOUS
 62
               7
100
AcDbLine
 10
-54.799999999999997
 20
-9.25
 30
0.0
 11
-54.799999999999997
 21
-7.75
 31
0.0
  0
LINE
  5
188
100
AcDbEntity
  8
0
  6
CONTINUOUS
 62
               7
100
AcDbLine
 10
-53.299999999999997
 20
-10.75
 30
0.0
 11
-53.100000000000001
 21
-10.75
 31
0.0
  0
LINE
  5
189
100
AcDbEntity
  8
0
  6
CONTINUOUS
 62
               7
100
AcDbLine
 10
-53.299999999999997
 20
-6.25
 30
0.0
 11
-53.100000000000001
 21
-6.25
 31
0.0
  0
LINE
  5
18A
100
AcDbEntity
  8
0
  6
CONTINUOUS
 62
               7
100
AcDbLine
 10
-57.5
 20
-11.199999999999999
 30
0.0
 11
-52.5
 21
-11.199999999999999
 31
0.0
  0
LINE
  5
18B
100
AcDbEntity
  8
0
  6
CONTINUOUS
 62
               7
100
AcDbLine
 10
-57.5
 20
-5.7999999999999998
 30
0.0
 11
-52.5
 21
-5.7999999999999998
 31
0.0
  0
LINE
  5
18C
100
AcDbEntity
  8
0
  6
CONTINUOUS
 62
               7
100
AcDbLine
 10
-57.5
 20
-45.670000000000002
 30
0.0
 11
-57.5
 21
-4.3200000000000003
 31
0.0
  0
LINE
  5
18D
100
AcDbEntity
  8
0
  6
CENTER
 62
               2
100
AcDbLine
 10
-3.0
 20
-50.0
 30
0.0
 11
3.0
 21
-50.0
 31
0.0
  0
LINE
  5
18E
100
AcDbEntity
  8
0
  6
CENTER
 62
               2
100
AcDbLine
 10
-3.0
 20
0.0
 30
0.0
 11
3.0
 21
0.0
 31
0.0
  0
LINE
  5
18F
100
AcDbEntity
  8
0
  6
CONTINUOUS
 62
               7
100
AcDbLine
 10
-25.5
 20
5.0
 30
0.0
 11
-25.0
 21
5.0
 31
0.0
  0
LINE
  5
190
100
AcDbEntity
  8
0
  6
CONTINUOUS
 62
               7
100
AcDbLine
 10
-25.5
 20
-48.0
 30
0.0
 11
-25.0
 21
-48.0
 31
0.0
  0
LINE
  5
191
100
AcDbEntity
  8
0
  6
CONTINUOUS
 62
               7
100
AcDbLine
 10
-52.5
 20
8.5
 30
0.0
 11
-25.5
 21
8.5
 31
0.0
  0
LINE
  5
192
100
AcDbEntity
  8
0
  6
CONTINUOUS
 62
               7
100
AcDbLine
 10
-52.5
 20
6.5
 30
0.0
 11
-25.5
 21
6.5
 31
0.0
  0
LINE
  5
193
100
AcDbEntity
  8
0
  6
CENTER
 62
               2
100
AcDbLine
 10
-9.0
 20
-45.810000000000002
 30
0.0
 11
-9.0
 21
-4.1299999999999999
 31
0.0
  0
LINE
  5
194
100
AcDbEntity
  8
0
  6
CENTER
 62
               2
100
AcDbLine
 10
-17.0
 20
-30.859999999999999
 30
0.0
 11
-17.0
 21
-19.129999999999999
 31
0.0
  0
LINE
  5
195
100
AcDbEntity
  8
0
  6
CENTER
 62
               2
100
AcDbLine
 10
-20.0
 20
-2.5
 30
0.0
 11
-20.0
 21
4.5
 31
0.0
  0
LINE
  5
196
100
AcDbEntity
  8
0
  6
CENTER
 62
               2
100
AcDbLine
 10
-23.5
 20
1.0
 30
0.0
 11
-16.5
 21
1.0
 31
0.0
  0
LINE
  5
197
100
AcDbEntity
  8
0
  6
CENTER
 62
               2
100
AcDbLine
 10
-14.92
 20
-40.0
 30
0.0
 11
-3.1899999999999999
 21
-40.0
 31
0.0
  0
LINE
  5
198
100
AcDbEntity
  8
0
  6
CENTER
 62
               2
100
AcDbLine
 10
-14.859999999999999
 20
-10.0
 30
0.0
 11
-3.1299999999999999
 21
-10.0
 31
0.0
  0
LINE
  5
199
100
AcDbEntity
  8
0
  6
CONTINUOUS
 62
               7
100
AcDbLine
 10
0.0
 20
-56.0
 30
0.0
 11
0.0
 21
6.0
 31
0.0
  0
LINE
  5
19A
100
AcDbEntity
  8
0
  6
CONTINUOUS
 62
               7
100
AcDbLine
 10
-25.0
 20
6.0
 30
0.0
 11
0.0
 21
6.0
 31
0.0
  0
LINE
  5
19B
100
AcDbEntity
  8
0
  6
CONTINUOUS
 62
               7
100
AcDbLine
 10
-25.0
 20
-56.0
 30
0.0
 11
0.0
 21
-56.0
 31
0.0
  0
LINE
  5
19C
100
AcDbEntity
  8
0
  6
CONTINUOUS
 62
               7
100
AcDbLine
 10
-25.0
 20
-56.0
 30
0.0
 11
-25.0
 21
6.0
 31
0.0
  0
LINE
  5
19D
100
AcDbEntity
  8
0
  6
CONTINUOUS
 62
               7
100
AcDbLine
 10
-56.5
 20
-58.0
 30
0.0
 11
-56.5
 21
-48.0
 31
0.0
  0
LINE
  5
19E
100
AcDbEntity
  8
0
  6
CONTINUOUS
 62
               7
100
AcDbLine
 10
-53.600000000000001
 20
-49.899999999999999
 30
0.0
 11
-53.600000000000001
 21
-48.0
 31
0.0
  0
LINE
  5
19F
100
AcDbEntity
  8
0
  6
CONTINUOUS
 62
               7
100
AcDbLine
 10
-56.299999999999997
 20
-56.100000000000001
 30
0.0
 11
-53.600000000000001
 21
-56.100000000000001
 31
0.0
  0
LINE
  5
1A0
100
AcDbEntity
  8
0
  6
CONTINUOUS
 62
               7
100
AcDbLine
 10
-56.299999999999997
 20
-49.899999999999999
 30
0.0
 11
-53.600000000000001
 21
-49.899999999999999
 31
0.0
  0
LINE
  5
1A1
100
AcDbEntity
  8
0
  6
CONTINUOUS
 62
               7
100
AcDbLine
 10
-53.600000000000001
 20
-58.0
 30
0.0
 11
-53.600000000000001
 21
-56.100000000000001
 31
0.0
  0
LINE
  5
1A2
100
AcDbEntity
  8
0
  6
CONTINUOUS
 62
               7
100
AcDbLine
 10
-29.75
 20
-66.5
 30
0.0
 11
-27.25
 21
-66.5
 31
0.0
  0
LINE
  5
1A3
100
AcDbEntity
  8
0
  6
CONTINUOUS
 62
               7
100
AcDbLine
 10
-25.75
 20
-65.0
 30
0.0
 11
-25.75
 21
-64.5
 31
0.0
  0
LINE
  5
1A4
100
AcDbEntity
  8
0
  6
CONTINUOUS
 62
               7
100
AcDbLine
 10
-31.25
 20
-65.0
 30
0.0
 11
-31.25
 21
-64.5
 31
0.0
  0
LINE
  5
1A5
100
AcDbEntity
  8
0
  6
CONTINUOUS
 62
               7
100
AcDbLine
 10
-31.699999999999999
 20
-66.700000000000003
 30
0.0
 11
-31.699999999999999
 21
-64.799999999999997
 31
0.0
  0
LINE
  5
1A6
100
AcDbEntity
  8
0
  6
CONTINUOUS
 62
               7
100
AcDbLine
 10
-31.399999999999999
 20
-64.5
 30
0.0
 11
-25.800000000000001
 21
-64.5
 31
0.0
  0
LINE
  5
1A7
100
AcDbEntity
  8
0
  6
CONTINUOUS
 62
               7
100
AcDbLine
 10
-55.5
 20
-66.5
 30
0.0
 11
-55.5
 21
-58.0
 31
0.0
  0
LINE
  5
1A8
100
AcDbEntity
  8
0
  6
CONTINUOUS
 62
               7
100
AcDbLine
 10
-25.5
 20
-66.5
 30
0.0
 11
-25.5
 21
19.5
 31
0.0
  0
LINE
  5
1A9
100
AcDbEntity
  8
0
  6
CONTINUOUS
 62
               7
100
AcDbLine
 10
-55.0
 20
-67.0
 30
0.0
 11
-26.0
 21
-67.0
 31
0.0
  0
LINE
  5
1AA
100
AcDbEntity
  8
0
  6
CONTINUOUS
 62
               7
100
AcDbLine
 10
-56.5
 20
-58.0
 30
0.0
 11
-25.5
 21
-58.0
 31
0.0
  0
LINE
  5
1AB
100
AcDbEntity
  8
0
  6
CONTINUOUS
 62
               7
100
AcDbLine
 10
-56.299999999999997
 20
-56.100000000000001
 30
0.0
 11
-56.299999999999997
 21
-49.899999999999999
 31
0.0
  0
LINE
  5
1AC
100
AcDbEntity
  8
0
  6
CONTINUOUS
 62
               7
100
AcDbLine
 10
-56.5
 20
-58.0
 30
0.0
 11
-57.5
 21
-57.0
 31
0.0
  0
LINE
  5
1AD
100
AcDbEntity
  8
0
  6
CONTINUOUS
 62
               7
100
AcDbLine
 10
-56.5
 20
-48.0
 30
0.0
 11
-57.5
 21
-49.0
 31
0.0
  0
LINE
  5
1AE
100
AcDbEntity
  8
0
  6
CONTINUOUS
 62
               7
100
AcDbLine
 10
-57.5
 20
-57.0
 30
0.0
 11
-57.5
 21
-49.0
 31
0.0
  0
LINE
  5
1AF
100
AcDbEntity
  8
0
  6
CONTINUOUS
 62
               7
100
AcDbLine
 10
-55.5
 20
-56.100000000000001
 30
0.0
 11
-55.5
 21
-49.899999999999999
 31
0.0
  0
LINE
  5
1B0
100
AcDbEntity
  8
0
  6
CENTER
 62
               2
100
AcDbLine
 10
-22.859999999999999
 20
-25.0
 30
0.0
 11
-11.130000000000001
 21
-25.0
 31
0.0
  0
LINE
  5
1B1
100
AcDbEntity
  8
0
  6
CONTINUOUS
 62
               7
100
AcDbLine
 10
-52.5
 20
-48.0
 30
0.0
 11
-52.5
 21
19.5
 31
0.0
  0
LINE
  5
1B2
100
AcDbEntity
  8
0
  6
CONTINUOUS
 62
               7
100
AcDbLine
 10
-56.5
 20
-48.0
 30
0.0
 11
-25.5
 21
-48.0
 31
0.0
  0
LINE
  5
1B3
100
AcDbEntity
  8
0
  6
CONTINUOUS
 62
               7
100
AcDbLine
 10
-52.5
 20
-2.0
 30
0.0
 11
-25.5
 21
-2.0
 31
0.0
  0
LINE
  5
1B4
100
AcDbEntity
  8
0
  6
CONTINUOUS
 62
               7
100
AcDbLine
 10
-25.5
 20
19.5
 30
0.0
 11
-52.5
 21
19.5
 31
0.0
  0
LINE
  5
1B5
100
AcDbEntity
  8
0
  6
CONTINUOUS
 62
               7
100
AcDbLine
 10
-53.5
 20
16.5
 30
0.0
 11
-53.5
 21
18.149999999999999
 31
0.0
  0
LINE
  5
1B6
100
AcDbEntity
  8
0
  6
CONTINUOUS
 62
               7
100
AcDbLine
 10
-53.5
 20
16.5
 30
0.0
 11
-52.899999999999999
 21
16.5
 31
0.0
  0
LINE
  5
1B7
100
AcDbEntity
  8
0
  6
CONTINUOUS
 62
               7
100
AcDbLine
 10
-53.5
 20
15.9
 30
0.0
 11
-52.899999999999999
 21
15.9
 31
0.0
  0
LINE
  5
1B8
100
AcDbEntity
  8
0
  6
CONTINUOUS
 62
               7
100
AcDbLine
 10
-52.899999999999999
 20
15.9
 30
0.0
 11
-52.899999999999999
 21
16.5
 31
0.0
  0
LINE
  5
1B9
100
AcDbEntity
  8
0
  6
CONTINUOUS
 62
               7
100
AcDbLine
 10
-53.5
 20
18.149999999999999
 30
0.0
 11
-52.5
 21
18.149999999999999
 31
0.0
  0
LINE
  5
1BA
100
AcDbEntity
  8
0
  6
CONTINUOUS
 62
               7
100
AcDbLine
 10
-53.5
 20
14.25
 30
0.0
 11
-52.5
 21
14.25
 31
0.0
  0
LINE
  5
1BB
100
AcDbEntity
  8
0
  6
CONTINUOUS
 62
               7
100
AcDbLine
 10
-53.5
 20
14.25
 30
0.0
 11
-53.5
 21
15.9
 31
0.0
  0
LINE
  5
1BC
100
AcDbEntity
  8
0
  6
CONTINUOUS
 62
               7
100
AcDbLine
 10
-25.5
 20
8.0
 30
0.0
 11
-25.5
 21
10.0
 31
0.0
  0
LINE
  5
1BD
100
AcDbEntity
  8
0
  6
CONTINUOUS
 62
               7
100
AcDbLine
 10
-52.5
 20
8.0
 30
0.0
 11
-52.5
 21
10.0
 31
0.0
  0
LINE
  5
1BE
100
AcDbEntity
  8
0
  6
CENTER
 62
               2
100
AcDbLine
 10
-54.5
 20
16.199999999999999
 30
0.0
 11
-51.799999999999997
 21
16.199999999999999
 31
0.0
  0
ENDBLK
  5
1BF
100
AcDbEntity
  8
0
100
AcDbBlockEnd
  0
BLOCK
  5
1C0
100
AcDbEntity
  8
0
100
AcDbBlockBegin
  2
MS_4
 70
               0
 10
0.0
 20
0.0
 30
0.0
  3
MS_4
  1

  0
ARC
  5
1C1
100
AcDbEntity
  8
0
  6
CONTINUOUS
 62
               7
100
AcDbCircle
 10
7.0
 20
49.5
 30
0.0
 40
3.0
100
AcDbArc
 50
269.99999999999937
 51
89.999999999999801
  0
CIRCLE
  5
1C2
100
AcDbEntity
  8
0
  6
CONTINUOUS
 62
               7
100
AcDbCircle
 10
7.0
 20
49.5
 30
0.0
 40
2.7999992370605469
  0
ARC
  5
1C3
100
AcDbEntity
  8
0
  6
CONTINUOUS
 62
               7
100
AcDbCircle
 10
16.0
 20
28.5
 30
0.0
 40
3.0
100
AcDbArc
 50
89.999999999999801
 51
179.9999999999996
  0
CIRCLE
  5
1C4
100
AcDbEntity
  8
0
  6
CONTINUOUS
 62
               7
100
AcDbCircle
 10
16.0
 20
28.5
 30
0.0
 40
2.7999992370605469
  0
ARC
  5
1C5
100
AcDbEntity
  8
0
  6
CONTINUOUS
 62
               7
100
AcDbCircle
 10
18.5
 20
57.0
 30
0.0
 40
0.5
100
AcDbArc
 50
0.0
 51
89.999999999999801
  0
ARC
  5
1C6
100
AcDbEntity
  8
0
  6
CONTINUOUS
 62
               7
100
AcDbCircle
 10
4.5
 20
57.0
 30
0.0
 40
0.5
100
AcDbArc
 50
89.999999999999801
 51
179.9999999999996
  0
LINE
  5
1C7
100
AcDbEntity
  8
0
  6
CONTINUOUS
 62
               7
100
AcDbLine
 10
19.0
 20
25.0
 30
0.0
 11
19.0
 21
25.5
 31
0.0
  0
LINE
  5
1C8
100
AcDbEntity
  8
0
  6
CONTINUOUS
 62
               7
100
AcDbLine
 10
4.0
 20
25.0
 30
0.0
 11
4.0
 21
25.5
 31
0.0
  0
LINE
  5
1C9
100
AcDbEntity
  8
0
  6
CONTINUOUS
 62
               7
100
AcDbLine
 10
4.0
 20
25.5
 30
0.0
 11
19.0
 21
25.5
 31
0.0
  0
LINE
  5
1CA
100
AcDbEntity
  8
0
  6
CONTINUOUS
 62
               7
100
AcDbLine
 10
7.0
 20
52.5
 30
0.0
 11
4.0
 21
52.5
 31
0.0
  0
LINE
  5
1CB
100
AcDbEntity
  8
0
  6
CONTINUOUS
 62
               7
100
AcDbLine
 10
8.0600000000000005
 20
48.43
 30
0.0
 11
5.9299999999999997
 21
50.560000000000002
 31
0.0
  0
LINE
  5
1CC
100
AcDbEntity
  8
0
  6
CONTINUOUS
 62
               7
100
AcDbLine
 10
5.9299999999999997
 20
48.43
 30
0.0
 11
8.0600000000000005
 21
50.560000000000002
 31
0.0
  0
LINE
  5
1CD
100
AcDbEntity
  8
0
  6
CONTINUOUS
 62
               7
100
AcDbLine
 10
7.0
 20
46.5
 30
0.0
 11
4.0
 21
46.5
 31
0.0
  0
LINE
  5
1CE
100
AcDbEntity
  8
0
  6
CONTINUOUS
 62
               7
100
AcDbLine
 10
16.0
 20
31.5
 30
0.0
 11
19.0
 21
31.5
 31
0.0
  0
LINE
  5
1CF
100
AcDbEntity
  8
0
  6
CONTINUOUS
 62
               7
100
AcDbLine
 10
13.0
 20
28.5
 30
0.0
 11
13.0
 21
25.5
 31
0.0
  0
LINE
  5
1D0
100
AcDbEntity
  8
0
  6
CONTINUOUS
 62
               7
100
AcDbLine
 10
14.93
 20
29.559999999999999
 30
0.0
 11
17.059999999999999
 21
27.43
 31
0.0
  0
LINE
  5
1D1
100
AcDbEntity
  8
0
  6
CONTINUOUS
 62
               7
100
AcDbLine
 10
17.059999999999999
 20
29.559999999999999
 30
0.0
 11
14.93
 21
27.43
 31
0.0
  0
LINE
  5
1D2
100
AcDbEntity
  8
0
  6
CONTINUOUS
 62
               7
100
AcDbLine
 10
18.0
 20
57.5
 30
0.0
 11
19.0
 21
56.5
 31
0.0
  0
LINE
  5
1D3
100
AcDbEntity
  8
0
  6
CONTINUOUS
 62
               7
100
AcDbLine
 10
4.0
 20
56.5
 30
0.0
 11
5.0
 21
57.5
 31
0.0
  0
LINE
  5
1D4
100
AcDbEntity
  8
0
  6
CONTINUOUS
 62
               7
100
AcDbLine
 10
4.0
 20
56.5
 30
0.0
 11
19.0
 21
56.5
 31
0.0
  0
LINE
  5
1D5
100
AcDbEntity
  8
0
  6
CONTINUOUS
 62
               7
100
AcDbLine
 10
4.5
 20
57.5
 30
0.0
 11
18.5
 21
57.5
 31
0.0
  0
LINE
  5
1D6
100
AcDbEntity
  8
0
  6
CONTINUOUS
 62
               7
100
AcDbLine
 10
4.0
 20
55.5
 30
0.0
 11
19.0
 21
55.5
 31
0.0
  0
LINE
  5
1D7
100
AcDbEntity
  8
0
  6
CONTINUOUS
 62
               7
100
AcDbLine
 10
19.0
 20
25.5
 30
0.0
 11
19.0
 21
57.0
 31
0.0
  0
LINE
  5
1D8
100
AcDbEntity
  8
0
  6
CONTINUOUS
 62
               7
100
AcDbLine
 10
4.0
 20
25.5
 30
0.0
 11
4.0
 21
57.0
 31
0.0
  0
LINE
  5
1D9
100
AcDbEntity
  8
0
  6
CENTER
 62
               2
100
AcDbLine
 10
11.5
 20
-7.5300000000000002
 30
0.0
 11
11.5
 21
62.920000000000002
 31
0.0
  0
LINE
  5
1DA
100
AcDbEntity
  8
0
  6
CONTINUOUS
 62
               7
100
AcDbLine
 10
-3.5
 20
25.0
 30
0.0
 11
26.5
 21
25.0
 31
0.0
  0
LINE
  5
1DB
100
AcDbEntity
  8
0
  6
CENTER
 62
               2
100
AcDbLine
 10
0.0
 20
3.0
 30
0.0
 11
0.0
 21
-3.0
 31
0.0
  0
LINE
  5
1DC
100
AcDbEntity
  8
0
  6
CONTINUOUS
 62
               7
100
AcDbLine
 10
26.5
 20
25.0
 30
0.0
 11
26.5
 21
0.0
 31
0.0
  0
LINE
  5
1DD
100
AcDbEntity
  8
0
  6
CONTINUOUS
 62
               7
100
AcDbLine
 10
-3.5
 20
25.0
 30
0.0
 11
-3.5
 21
0.0
 31
0.0
  0
LINE
  5
1DE
100
AcDbEntity
  8
0
  6
CONTINUOUS
 62
               7
100
AcDbLine
 10
-3.5
 20
0.0
 30
0.0
 11
26.5
 21
0.0
 31
0.0
  0
ENDBLK
  5
1DF
100
AcDbEntity
  8
0
100
AcDbBlockEnd
  0
BLOCK
  5
1E0
100
AcDbEntity
  8
0
100
AcDbBlockBegin
  2
MS_5
 70
               0
 10
0.0
 20
0.0
 30
0.0
  3
MS_5
  1

  0
LINE
  5
1E1
100
AcDbEntity
  8
0
  6
CONTINUOUS
 62
               4
100
AcDbLine
 10
25.5
 20
43.5
 30
0.0
 11
52.499992370605469
 21
43.5
 31
0.0
  0
LINE
  5
1E2
100
AcDbEntity
  8
0
  6
CONTINUOUS
 62
               4
100
AcDbLine
 10
27.649987792968773
 20
63.5
 30
0.0
 11
36.649987792968773
 21
63.5
 31
0.0
  0
LINE
  5
1E3
100
AcDbEntity
  8
0
  6
CONTINUOUS
 62
               4
100
AcDbLine
 10
28.0
 20
57.0
 30
0.0
 11
36.650003051757835
 21
57.0
 31
0.0
  0
LINE
  5
1E4
100
AcDbEntity
  8
0
  6
CONTINUOUS
 62
               4
100
AcDbLine
 10
37.227349853515648
 20
63.5
 30
0.0
 11
38.649995422363304
 21
63.5
 31
0.0
  0
LINE
  5
1E5
100
AcDbEntity
  8
0
  6
CONTINUOUS
 62
               4
100
AcDbLine
 10
36.600000000000023
 20
54.498458862304688
 30
0.0
 11
36.650003051757835
 21
54.498458862304688
 31
0.0
  0
LINE
  5
1E6
100
AcDbEntity
  8
0
  6
CONTINUOUS
 62
               4
100
AcDbLine
 10
36.650003051757835
 20
52.998458862304687
 30
0.0
 11
37.649995422363304
 21
52.998458862304687
 31
0.0
  0
LINE
  5
1E7
100
AcDbEntity
  8
0
  6
CONTINUOUS
 62
               4
100
AcDbLine
 10
36.650003051757835
 20
54.498458862304688
 30
0.0
 11
36.650003051757835
 21
57.0
 31
0.0
  0
LINE
  5
1E8
100
AcDbEntity
  8
0
  6
CONTINUOUS
 62
               4
100
AcDbLine
 10
38.149995422363304
 20
62.0
 30
0.0
 11
38.649995422363304
 21
62.0
 31
0.0
  0
LINE
  5
1E9
100
AcDbEntity
  8
0
  6
CONTINUOUS
 62
               4
100
AcDbLine
 10
36.650000209407722
 20
52.998474151870141
 30
0.0
 11
36.599979656101482
 21
53.048494705176381
 31
0.0
  0
LINE
  5
1EA
100
AcDbEntity
  8
0
  6
CONTINUOUS
 62
               4
100
AcDbLine
 10
28.150003051757835
 20
57.0
 30
0.0
 11
28.150003051757835
 21
62.5
 31
0.0
  0
LINE
  5
1EB
100
AcDbEntity
  8
0
  6
CONTINUOUS
 62
               4
100
AcDbLine
 10
27.650003051757835
 20
62.5
 30
0.0
 11
27.650003051757835
 21
63.5
 31
0.0
  0
LINE
  5
1EC
100
AcDbEntity
  8
0
  6
CONTINUOUS
 62
               4
100
AcDbLine
 10
27.649987792968773
 20
62.5
 30
0.0
 11
28.149987792968773
 21
62.5
 31
0.0
  0
LINE
  5
1ED
100
AcDbEntity
  8
0
  6
CONTINUOUS
 62
               4
100
AcDbLine
 10
38.150003051757835
 20
56.55615234375
 30
0.0
 11
38.150003051757835
 21
62.0
 31
0.0
  0
LINE
  5
1EE
100
AcDbEntity
  8
0
  6
CONTINUOUS
 62
               4
100
AcDbLine
 10
37.650001302236547
 20
52.99845074175937
 30
0.0
 11
38.150000411113638
 21
56.556138825448215
 31
0.0
  0
LINE
  5
1EF
100
AcDbEntity
  8
0
  6
CONTINUOUS
 62
               4
100
AcDbLine
 10
36.650003051757835
 20
57.0
 30
0.0
 11
36.650003051757835
 21
63.5
 31
0.0
  0
LINE
  5
1F0
100
AcDbEntity
  8
0
  6
CONTINUOUS
 62
               4
100
AcDbLine
 10
36.650044511604051
 20
62.499958942901685
 30
0.0
 11
37.227396327367956
 21
63.499967647856465
 31
0.0
  0
LINE
  5
1F1
100
AcDbEntity
  8
0
  6
CONTINUOUS
 62
               4
100
AcDbLine
 10
38.650003051757835
 20
62.0
 30
0.0
 11
38.650003051757835
 21
63.5
 31
0.0
  0
LINE
  5
1F2
100
AcDbEntity
  8
0
  6
CONTINUOUS
 62
               4
100
AcDbLine
 10
33.50000915527346
 20
76.5
 30
0.0
 11
32.700006103515648
 21
76.5
 31
0.0
  0
LINE
  5
1F3
100
AcDbEntity
  8
0
  6
CONTINUOUS
 62
               4
100
AcDbLine
 10
32.700006103515648
 20
71.5
 30
0.0
 11
32.700006103515648
 21
76.5
 31
0.0
  0
LINE
  5
1F4
100
AcDbEntity
  8
0
  6
CONTINUOUS
 62
               4
100
AcDbLine
 10
33.50000915527346
 20
71.5
 30
0.0
 11
33.50000915527346
 21
76.5
 31
0.0
  0
LINE
  5
1F5
100
AcDbEntity
  8
0
  6
CONTINUOUS
 62
               4
100
AcDbLine
 10
33.81501159667971
 20
63.5
 30
0.0
 11
33.81501159667971
 21
68.098403930664063
 31
0.0
  0
LINE
  5
1F6
100
AcDbEntity
  8
0
  6
CONTINUOUS
 62
               4
100
AcDbLine
 10
32.385003662109398
 20
63.5
 30
0.0
 11
32.385003662109398
 21
67.272796630859375
 31
0.0
  0
LINE
  5
1F7
100
AcDbEntity
  8
0
  6
CONTINUOUS
 62
               4
100
AcDbLine
 10
33.81501159667971
 20
71.5
 30
0.0
 11
32.385003662109398
 21
71.5
 31
0.0
  0
LINE
  5
1F8
100
AcDbEntity
  8
0
  6
CONTINUOUS
 62
               4
100
AcDbLine
 10
32.385003662109398
 20
68.427490234375
 30
0.0
 11
32.385003662109398
 21
71.5
 31
0.0
  0
LINE
  5
1F9
100
AcDbEntity
  8
0
  6
CONTINUOUS
 62
               4
100
AcDbLine
 10
33.81501159667971
 20
69.25311279296875
 30
0.0
 11
33.81501159667971
 21
71.5
 31
0.0
  0
LINE
  5
1FA
100
AcDbEntity
  8
0
  6
CONTINUOUS
 62
               4
100
AcDbLine
 10
31.31501159667971
 20
67.809738159179688
 30
0.0
 11
31.31501159667971
 21
71.5
 31
0.0
  0
LINE
  5
1FB
100
AcDbEntity
  8
0
  6
CONTINUOUS
 62
               4
100
AcDbLine
 10
29.885003662109398
 20
66.984115600585937
 30
0.0
 11
29.885003662109398
 21
71.5
 31
0.0
  0
LINE
  5
1FC
100
AcDbEntity
  8
0
  6
CONTINUOUS
 62
               4
100
AcDbLine
 10
29.885003662109398
 20
71.5
 30
0.0
 11
31.31501159667971
 21
71.5
 31
0.0
  0
LINE
  5
1FD
100
AcDbEntity
  8
0
  6
CONTINUOUS
 62
               4
100
AcDbLine
 10
31.00000915527346
 20
71.5
 30
0.0
 11
31.00000915527346
 21
76.5
 31
0.0
  0
LINE
  5
1FE
100
AcDbEntity
  8
0
  6
CONTINUOUS
 62
               4
100
AcDbLine
 10
30.200006103515648
 20
71.5
 30
0.0
 11
30.200006103515648
 21
76.499984741210937
 31
0.0
  0
LINE
  5
1FF
100
AcDbEntity
  8
0
  6
CONTINUOUS
 62
               4
100
AcDbLine
 10
30.200006103515648
 20
76.5
 30
0.0
 11
31.00000915527346
 21
76.5
 31
0.0
  0
LINE
  5
200
100
AcDbEntity
  8
0
  6
CONTINUOUS
 62
               4
100
AcDbLine
 10
31.31501159667971
 20
63.5
 30
0.0
 11
31.31501159667971
 21
66.655029296875
 31
0.0
  0
LINE
  5
201
100
AcDbEntity
  8
0
  6
CONTINUOUS
 62
               4
100
AcDbLine
 10
29.885003662109398
 20
63.5
 30
0.0
 11
29.885003662109398
 21
65.829421997070313
 31
0.0
  0
LINE
  5
202
100
AcDbEntity
  8
0
  6
CONTINUOUS
 62
             200
100
AcDbLine
 10
35.31501889147205
 20
70.119105809934808
 30
0.0
 11
28.384989799908567
 21
66.118057246153512
 31
0.0
  0
LINE
  5
203
100
AcDbEntity
  8
0
  6
CONTINUOUS
 62
             200
100
AcDbLine
 10
35.314994343097737
 20
68.964464815078827
 30
0.0
 11
28.384984189578631
 21
64.96341291056342
 31
0.0
  0
ARC
  5
204
100
AcDbEntity
  8
0
  6
CONTINUOUS
 62
               4
100
AcDbCircle
 10
26.0
 20
52.0
 30
0.0
 40
0.5
100
AcDbArc
 50
89.999999999999801
 51
179.9999999999996
  0
LINE
  5
205
100
AcDbEntity
  8
0
  6
CONTINUOUS
 62
               4
100
AcDbLine
 10
28.0
 20
52.5
 30
0.0
 11
26.0
 21
52.5
 31
0.0
  0
LINE
  5
206
100
AcDbEntity
  8
0
  6
CONTINUOUS
 62
               4
100
AcDbLine
 10
28.0
 20
57.0
 30
0.0
 11
28.0
 21
52.5
 31
0.0
  0
LINE
  5
207
100
AcDbEntity
  8
0
  6
CONTINUOUS
 62
               4
100
AcDbLine
 10
36.600000000000023
 20
57.0
 30
0.0
 11
36.600000000000023
 21
52.5
 31
0.0
  0
ARC
  5
208
100
AcDbEntity
  8
0
  6
CONTINUOUS
 62
               4
100
AcDbCircle
 10
51.002020395360546
 20
47.679610903929301
 30
0.0
 40
1.4979796551727449
100
AcDbArc
 50
0.0148824203654679
 51
24.046309772710686
  0
ARC
  5
209
100
AcDbEntity
  8
0
  6
CONTINUOUS
 62
               4
100
AcDbCircle
 10
50.174020838564047
 20
52.000099937446265
 30
0.0
 40
0.4999010215015999
100
AcDbArc
 50
24.197376208904771
 51
89.887774076864815
  0
LINE
  5
20A
100
AcDbEntity
  8
0
  6
CONTINUOUS
 62
               4
100
AcDbLine
 10
50.629999999999995
 20
52.205000000000013
 30
0.0
 11
52.370000000000005
 21
48.289999999999992
 31
0.0
  0
LINE
  5
20B
100
AcDbEntity
  8
0
  6
CONTINUOUS
 62
               4
100
AcDbLine
 10
52.5
 20
47.680000000000007
 30
0.0
 11
52.5
 21
43.5
 31
0.0
  0
LINE
  5
20C
100
AcDbEntity
  8
0
  6
CONTINUOUS
 62
               4
100
AcDbLine
 10
25.5
 20
52.0
 30
0.0
 11
25.5
 21
43.5
 31
0.0
  0
LINE
  5
20D
100
AcDbEntity
  8
0
  6
CONTINUOUS
 62
               4
100
AcDbLine
 10
25.5
 20
19.5
 30
0.0
 11
25.5
 21
43.5
 31
0.0
  0
LINE
  5
20E
100
AcDbEntity
  8
0
  6
CONTINUOUS
 62
               4
100
AcDbLine
 10
52.5
 20
19.5
 30
0.0
 11
52.5
 21
43.5
 31
0.0
  0
LINE
  5
20F
100
AcDbEntity
  8
0
  6
CONTINUOUS
 62
               4
100
AcDbLine
 10
36.600000000000023
 20
52.5
 30
0.0
 11
50.174999999999955
 21
52.5
 31
0.0
  0
ARC
  5
210
100
AcDbEntity
  8
0
  6
CONTINUOUS
 62
               7
100
AcDbCircle
 10
55.367216836767284
 20
-47.503505952457033
 30
0.0
 40
0.2965071099079706
100
AcDbArc
 50
270.53781458628629
 51
315.85936644100815
  0
ARC
  5
211
100
AcDbEntity
  8
0
  6
CONTINUOUS
 62
               7
100
AcDbCircle
 10
57.20350437410525
 20
-45.667216160330838
 30
0.0
 40
0.2965086945403413
100
AcDbArc
 50
314.14076140144687
 51
359.46205757125625
  0
ARC
  5
212
100
AcDbEntity
  8
0
  6
CONTINUOUS
 62
               7
100
AcDbCircle
 10
57.200005783157678
 20
-4.3242832357895509
 30
0.0
 40
0.3000247927216219
100
AcDbArc
 50
0.817997966880754
 51
45.579183060416383
  0
ARC
  5
213
100
AcDbEntity
  8
0
  6
CONTINUOUS
 62
               7
100
AcDbCircle
 10
55.375924481715458
 20
-2.5000732354969557
 30
0.0
 40
0.3001317146607619
100
AcDbArc
 50
47.160014361038556
 51
91.131069559802569
  0
ARC
  5
214
100
AcDbEntity
  8
0
  6
CONTINUOUS
 62
               7
100
AcDbCircle
 10
52.400010681148444
 20
-64.799989318851544
 30
0.0
 40
0.2999893190416899
100
AcDbArc
 50
359.99795997827846
 51
90.002040021721896
  0
ARC
  5
215
100
AcDbEntity
  8
0
  6
CONTINUOUS
 62
               7
100
AcDbCircle
 10
46.600004578106279
 20
-64.800004578106268
 30
0.0
 40
0.3000045781411932
100
AcDbArc
 50
90.00087434054727
 51
179.99912565945078
  0
ARC
  5
216
100
AcDbEntity
  8
0
  6
CONTINUOUS
 62
               7
100
AcDbCircle
 10
46.000013732906268
 20
-66.700013732906257
 30
0.0
 40
0.2999862674080585
100
AcDbArc
 50
269.99737708803377
 51
0.0026229119642465
  0
ARC
  5
217
100
AcDbEntity
  8
0
  6
CONTINUOUS
 62
               7
100
AcDbCircle
 10
53.000001526193216
 20
-66.699998473806772
 30
0.0
 40
0.3000015261971083
100
AcDbArc
 50
180.00029147995284
 51
269.99970852004617
  0
ARC
  5
218
100
AcDbEntity
  8
0
  6
CONTINUOUS
 62
               7
100
AcDbCircle
 10
28.495000000000005
 20
9.5000019945715053
 30
0.0
 40
2.5034034810926853
100
AcDbArc
 50
203.54423607349247
 51
336.45576392650634
  0
CIRCLE
  5
219
100
AcDbEntity
  8
0
  6
CONTINUOUS
 62
               7
100
AcDbCircle
 10
17.0
 20
-17.5
 30
0.0
 40
4.2829999923706055
  0
CIRCLE
  5
21A
100
AcDbEntity
  8
0
  6
CONTINUOUS
 62
               7
100
AcDbCircle
 10
9.0607757568359375
 20
-32.45013427734375
 30
0.0
 40
4.2829999923706055
  0
CIRCLE
  5
21B
100
AcDbEntity
  8
0
  6
CONTINUOUS
 62
               2
100
AcDbCircle
 10
17.0
 20
-17.5
 30
0.0
 40
4.8639993667602539
  0
CIRCLE
  5
21C
100
AcDbEntity
  8
0
  6
CONTINUOUS
 62
               2
100
AcDbCircle
 10
9.0607757568359375
 20
-32.45013427734375
 30
0.0
 40
4.8639993667602539
  0
ARC
  5
21D
100
AcDbEntity
  8
0
  6
CONTINUOUS
 62
               7
100
AcDbCircle
 10
55.699994659422089
 20
-7.2499946594220717
 30
0.0
 40
1.5000053405874267
100
AcDbArc
 50
270.00020399432316
 51
359.99979600567553
  0
ARC
  5
21E
100
AcDbEntity
  8
0
  6
CONTINUOUS
 62
               7
100
AcDbCircle
 10
55.699994659422089
 20
-5.7500053405779283
 30
0.0
 40
1.5000053405874267
100
AcDbArc
 50
0.0002039943236644
 51
89.99979600567606
  0
ARC
  5
21F
100
AcDbEntity
  8
0
  6
CONTINUOUS
 62
               7
100
AcDbCircle
 10
53.300001525878145
 20
-40.749998474121867
 30
0.0
 40
1.4999984741226444
100
AcDbArc
 50
359.99994171568852
 51
90.00005828431047
  0
ARC
  5
220
100
AcDbEntity
  8
0
  6
CONTINUOUS
 62
               7
100
AcDbCircle
 10
53.300001525878145
 20
-42.250001525878133
 30
0.0
 40
1.4999984741226444
100
AcDbArc
 50
269.99994171568875
 51
0.0000582843106739
  0
ARC
  5
221
100
AcDbEntity
  8
0
  6
CONTINUOUS
 62
               7
100
AcDbCircle
 10
48.250007629413915
 20
-64.999992370586085
 30
0.0
 40
1.5000076294333362
100
AcDbArc
 50
180.00029142066288
 51
269.99970857933585
  0
ARC
  5
222
100
AcDbEntity
  8
0
  6
CONTINUOUS
 62
               7
100
AcDbCircle
 10
50.750007629375148
 20
-65.000007629375148
 30
0.0
 40
1.4999923706442737
100
AcDbArc
 50
269.99970857785377
 51
0.0002914221458685
  0
ARC
  5
223
100
AcDbEntity
  8
0
  6
CONTINUOUS
 62
               7
100
AcDbCircle
 10
26.000007629452739
 20
-66.499992370547261
 30
0.0
 40
0.5000076295109466
100
AcDbArc
 50
180.00087425754319
 51
269.99912574245582
  0
ARC
  5
224
100
AcDbEntity
  8
0
  6
CONTINUOUS
 62
               7
100
AcDbCircle
 10
55.0
 20
-66.5
 30
0.0
 40
0.5
100
AcDbArc
 50
269.99999999999937
 51
0.0
  0
LINE
  5
225
100
AcDbEntity
  8
0
  6
CONTINUOUS
 62
               7
100
AcDbLine
 10
57.409999999999968
 20
-45.879999999999995
 30
0.0
 11
55.579999999999984
 21
-47.710000000000008
 31
0.0
  0
LINE
  5
226
100
AcDbEntity
  8
0
  6
CONTINUOUS
 62
               7
100
AcDbLine
 10
57.5
 20
-9.1999999999999886
 30
0.0
 11
55.5
 21
-9.1999999999999886
 31
0.0
  0
LINE
  5
227
100
AcDbEntity
  8
0
  6
CONTINUOUS
 62
               7
100
AcDbLine
 10
57.409999999999968
 20
-4.1100000000000136
 30
0.0
 11
55.579999999999984
 21
-2.2800000000000011
 31
0.0
  0
LINE
  5
228
100
AcDbEntity
  8
0
  6
CONTINUOUS
 62
               7
100
AcDbLine
 10
55.370000000000005
 20
-47.800000000000011
 30
0.0
 11
52.5
 21
-47.800000000000011
 31
0.0
  0
LINE
  5
229
100
AcDbEntity
  8
0
  6
CONTINUOUS
 62
               7
100
AcDbLine
 10
55.370000000000005
 20
-2.1999999999999886
 30
0.0
 11
52.5
 21
-2.1999999999999886
 31
0.0
  0
LINE
  5
22A
100
AcDbEntity
  8
0
  6
CENTER
 62
               2
100
AcDbLine
 10
-3.0
 20
-50.0
 30
0.0
 11
3.0
 21
-50.0
 31
0.0
  0
LINE
  5
22B
100
AcDbEntity
  8
0
  6
CENTER
 62
               2
100
AcDbLine
 10
-3.0
 20
0.0
 30
0.0
 11
3.0
 21
0.0
 31
0.0
  0
LINE
  5
22C
100
AcDbEntity
  8
0
  6
CONTINUOUS
 62
               7
100
AcDbLine
 10
52.5
 20
-44.0
 30
0.0
 11
53.100000000000023
 21
-44.0
 31
0.0
  0
LINE
  5
22D
100
AcDbEntity
  8
0
  6
CONTINUOUS
 62
               7
100
AcDbLine
 10
52.5
 20
-39.0
 30
0.0
 11
53.100000000000023
 21
-39.0
 31
0.0
  0
LINE
  5
22E
100
AcDbEntity
  8
0
  6
CONTINUOUS
 62
               7
100
AcDbLine
 10
53.100000000000023
 20
-44.0
 30
0.0
 11
53.100000000000023
 21
-39.0
 31
0.0
  0
LINE
  5
22F
100
AcDbEntity
  8
0
  6
CONTINUOUS
 62
               7
100
AcDbLine
 10
52.5
 20
8.5
 30
0.0
 11
25.5
 21
8.5
 31
0.0
  0
LINE
  5
230
100
AcDbEntity
  8
0
  6
CONTINUOUS
 62
               7
100
AcDbLine
 10
55.5
 20
-9.1999999999999886
 30
0.0
 11
55.5
 21
-2.2199999999999989
 31
0.0
  0
LINE
  5
231
100
AcDbEntity
  8
0
  6
CONTINUOUS
 62
               7
100
AcDbLine
 10
52.399999999999977
 20
-64.5
 30
0.0
 11
46.600000000000023
 21
-64.5
 31
0.0
  0
LINE
  5
232
100
AcDbEntity
  8
0
  6
CONTINUOUS
 62
               7
100
AcDbLine
 10
52.699999999999989
 20
-66.699999999999989
 30
0.0
 11
52.699999999999989
 21
-64.800000000000011
 31
0.0
  0
LINE
  5
233
100
AcDbEntity
  8
0
  6
CONTINUOUS
 62
               7
100
AcDbLine
 10
46.300000000000011
 20
-66.699999999999989
 30
0.0
 11
46.300000000000011
 21
-64.800000000000011
 31
0.0
  0
LINE
  5
234
100
AcDbEntity
  8
0
  6
CONTINUOUS
 62
               7
100
AcDbLine
 10
52.5
 20
6.5
 30
0.0
 11
25.5
 21
6.5
 31
0.0
  0
LINE
  5
235
100
AcDbEntity
  8
0
  6
CENTER
 62
               2
100
AcDbLine
 10
17.0
 20
-23.360000000000014
 30
0.0
 11
17.0
 21
-11.629999999999995
 31
0.0
  0
LINE
  5
236
100
AcDbEntity
  8
0
  6
CENTER
 62
               2
100
AcDbLine
 10
9.0
 20
-38.310000000000002
 30
0.0
 11
9.0
 21
-26.579999999999984
 31
0.0
  0
LINE
  5
237
100
AcDbEntity
  8
0
  6
CENTER
 62
               2
100
AcDbLine
 10
14.920000000000016
 20
-32.5
 30
0.0
 11
3.1899999999999977
 21
-32.5
 31
0.0
  0
LINE
  5
238
100
AcDbEntity
  8
0
  6
CENTER
 62
               2
100
AcDbLine
 10
22.860000000000014
 20
-17.5
 30
0.0
 11
11.129999999999995
 21
-17.5
 31
0.0
  0
LINE
  5
239
100
AcDbEntity
  8
0
  6
CONTINUOUS
 62
               7
100
AcDbLine
 10
0.0
 20
-56.0
 30
0.0
 11
0.0
 21
6.0
 31
0.0
  0
LINE
  5
23A
100
AcDbEntity
  8
0
  6
CONTINUOUS
 62
               7
100
AcDbLine
 10
25.0
 20
6.0
 30
0.0
 11
0.0
 21
6.0
 31
0.0
  0
LINE
  5
23B
100
AcDbEntity
  8
0
  6
CONTINUOUS
 62
               7
100
AcDbLine
 10
25.0
 20
-56.0
 30
0.0
 11
0.0
 21
-56.0
 31
0.0
  0
LINE
  5
23C
100
AcDbEntity
  8
0
  6
CONTINUOUS
 62
               7
100
AcDbLine
 10
25.0
 20
-56.0
 30
0.0
 11
25.0
 21
6.0
 31
0.0
  0
LINE
  5
23D
100
AcDbEntity
  8
0
  6
CONTINUOUS
 62
               7
100
AcDbLine
 10
55.699999999999989
 20
-8.75
 30
0.0
 11
55.5
 21
-8.75
 31
0.0
  0
LINE
  5
23E
100
AcDbEntity
  8
0
  6
CONTINUOUS
 62
               7
100
AcDbLine
 10
57.199999999999989
 20
-5.75
 30
0.0
 11
57.199999999999989
 21
-7.25
 31
0.0
  0
LINE
  5
23F
100
AcDbEntity
  8
0
  6
CONTINUOUS
 62
               7
100
AcDbLine
 10
55.699999999999989
 20
-4.25
 30
0.0
 11
55.5
 21
-4.25
 31
0.0
  0
LINE
  5
240
100
AcDbEntity
  8
0
  6
CONTINUOUS
 62
               7
100
AcDbLine
 10
54.800000000000011
 20
-40.75
 30
0.0
 11
54.800000000000011
 21
-42.25
 31
0.0
  0
LINE
  5
241
100
AcDbEntity
  8
0
  6
CONTINUOUS
 62
               7
100
AcDbLine
 10
53.300000000000011
 20
-39.25
 30
0.0
 11
53.100000000000023
 21
-39.25
 31
0.0
  0
LINE
  5
242
100
AcDbEntity
  8
0
  6
CONTINUOUS
 62
               7
100
AcDbLine
 10
53.300000000000011
 20
-43.75
 30
0.0
 11
53.100000000000023
 21
-43.75
 31
0.0
  0
LINE
  5
243
100
AcDbEntity
  8
0
  6
CONTINUOUS
 62
               7
100
AcDbLine
 10
57.5
 20
-38.800000000000011
 30
0.0
 11
52.5
 21
-38.800000000000011
 31
0.0
  0
LINE
  5
244
100
AcDbEntity
  8
0
  6
CONTINUOUS
 62
               7
100
AcDbLine
 10
57.5
 20
-44.199999999999989
 30
0.0
 11
52.5
 21
-44.199999999999989
 31
0.0
  0
LINE
  5
245
100
AcDbEntity
  8
0
  6
CONTINUOUS
 62
               7
100
AcDbLine
 10
56.5
 20
-58.0
 30
0.0
 11
56.5
 21
-48.0
 31
0.0
  0
LINE
  5
246
100
AcDbEntity
  8
0
  6
CONTINUOUS
 62
               7
100
AcDbLine
 10
53.600000000000023
 20
-49.900000000000006
 30
0.0
 11
53.600000000000023
 21
-48.0
 31
0.0
  0
LINE
  5
247
100
AcDbEntity
  8
0
  6
CONTINUOUS
 62
               7
100
AcDbLine
 10
56.300000000000011
 20
-56.099999999999994
 30
0.0
 11
53.600000000000023
 21
-56.099999999999994
 31
0.0
  0
LINE
  5
248
100
AcDbEntity
  8
0
  6
CONTINUOUS
 62
               7
100
AcDbLine
 10
56.300000000000011
 20
-49.900000000000006
 30
0.0
 11
53.600000000000023
 21
-49.900000000000006
 31
0.0
  0
LINE
  5
249
100
AcDbEntity
  8
0
  6
CONTINUOUS
 62
               7
100
AcDbLine
 10
53.600000000000023
 20
-58.0
 30
0.0
 11
53.600000000000023
 21
-56.099999999999994
 31
0.0
  0
LINE
  5
24A
100
AcDbEntity
  8
0
  6
CONTINUOUS
 62
               7
100
AcDbLine
 10
50.75
 20
-66.5
 30
0.0
 11
48.25
 21
-66.5
 31
0.0
  0
LINE
  5
24B
100
AcDbEntity
  8
0
  6
CONTINUOUS
 62
               7
100
AcDbLine
 10
46.75
 20
-65.0
 30
0.0
 11
46.75
 21
-64.5
 31
0.0
  0
LINE
  5
24C
100
AcDbEntity
  8
0
  6
CONTINUOUS
 62
               7
100
AcDbLine
 10
52.25
 20
-65.0
 30
0.0
 11
52.25
 21
-64.5
 31
0.0
  0
LINE
  5
24D
100
AcDbEntity
  8
0
  6
CONTINUOUS
 62
               7
100
AcDbLine
 10
55.5
 20
-66.5
 30
0.0
 11
55.5
 21
-58.0
 31
0.0
  0
LINE
  5
24E
100
AcDbEntity
  8
0
  6
CONTINUOUS
 62
               7
100
AcDbLine
 10
25.5
 20
-66.5
 30
0.0
 11
25.5
 21
19.5
 31
0.0
  0
LINE
  5
24F
100
AcDbEntity
  8
0
  6
CONTINUOUS
 62
               7
100
AcDbLine
 10
55.0
 20
-67.0
 30
0.0
 11
26.0
 21
-67.0
 31
0.0
  0
LINE
  5
250
100
AcDbEntity
  8
0
  6
CONTINUOUS
 62
               7
100
AcDbLine
 10
56.5
 20
-58.0
 30
0.0
 11
25.5
 21
-58.0
 31
0.0
  0
LINE
  5
251
100
AcDbEntity
  8
0
  6
CONTINUOUS
 62
               7
100
AcDbLine
 10
56.300000000000011
 20
-56.099999999999994
 30
0.0
 11
56.300000000000011
 21
-49.900000000000006
 31
0.0
  0
LINE
  5
252
100
AcDbEntity
  8
0
  6
CONTINUOUS
 62
               7
100
AcDbLine
 10
56.5
 20
-58.0
 30
0.0
 11
57.5
 21
-57.0
 31
0.0
  0
LINE
  5
253
100
AcDbEntity
  8
0
  6
CONTINUOUS
 62
               7
100
AcDbLine
 10
56.5
 20
-48.0
 30
0.0
 11
57.5
 21
-49.0
 31
0.0
  0
LINE
  5
254
100
AcDbEntity
  8
0
  6
CONTINUOUS
 62
               7
100
AcDbLine
 10
57.5
 20
-57.0
 30
0.0
 11
57.5
 21
-49.0
 31
0.0
  0
LINE
  5
255
100
AcDbEntity
  8
0
  6
CONTINUOUS
 62
               7
100
AcDbLine
 10
55.5
 20
-56.099999999999994
 30
0.0
 11
55.5
 21
-49.900000000000006
 31
0.0
  0
LINE
  5
256
100
AcDbEntity
  8
0
  6
CONTINUOUS
 62
               7
100
AcDbLine
 10
57.5
 20
-4.3199999999999932
 30
0.0
 11
57.5
 21
-45.670000000000016
 31
0.0
  0
LINE
  5
257
100
AcDbEntity
  8
0
  6
CONTINUOUS
 62
               7
100
AcDbLine
 10
52.5
 20
-48.0
 30
0.0
 11
52.5
 21
19.5
 31
0.0
  0
LINE
  5
258
100
AcDbEntity
  8
0
  6
CONTINUOUS
 62
               7
100
AcDbLine
 10
56.5
 20
-48.0
 30
0.0
 11
25.5
 21
-48.0
 31
0.0
  0
LINE
  5
259
100
AcDbEntity
  8
0
  6
CONTINUOUS
 62
               7
100
AcDbLine
 10
52.5
 20
-2.0
 30
0.0
 11
25.5
 21
-2.0
 31
0.0
  0
LINE
  5
25A
100
AcDbEntity
  8
0
  6
CONTINUOUS
 62
               7
100
AcDbLine
 10
25.5
 20
19.5
 30
0.0
 11
52.5
 21
19.5
 31
0.0
  0
LINE
  5
25B
100
AcDbEntity
  8
0
  6
CONTINUOUS
 62
               7
100
AcDbLine
 10
53.5
 20
16.5
 30
0.0
 11
53.5
 21
18.150000000000006
 31
0.0
  0
LINE
  5
25C
100
AcDbEntity
  8
0
  6
CONTINUOUS
 62
               7
100
AcDbLine
 10
53.5
 20
16.5
 30
0.0
 11
52.899999999999977
 21
16.5
 31
0.0
  0
LINE
  5
25D
100
AcDbEntity
  8
0
  6
CONTINUOUS
 62
               7
100
AcDbLine
 10
53.5
 20
15.900000000000006
 30
0.0
 11
52.899999999999977
 21
15.900000000000006
 31
0.0
  0
LINE
  5
25E
100
AcDbEntity
  8
0
  6
CONTINUOUS
 62
               7
100
AcDbLine
 10
52.899999999999977
 20
15.900000000000006
 30
0.0
 11
52.899999999999977
 21
16.5
 31
0.0
  0
LINE
  5
25F
100
AcDbEntity
  8
0
  6
CONTINUOUS
 62
               7
100
AcDbLine
 10
53.5
 20
18.150000000000006
 30
0.0
 11
52.5
 21
18.150000000000006
 31
0.0
  0
LINE
  5
260
100
AcDbEntity
  8
0
  6
CONTINUOUS
 62
               7
100
AcDbLine
 10
53.5
 20
14.25
 30
0.0
 11
52.5
 21
14.25
 31
0.0
  0
LINE
  5
261
100
AcDbEntity
  8
0
  6
CONTINUOUS
 62
               7
100
AcDbLine
 10
53.5
 20
14.25
 30
0.0
 11
53.5
 21
15.900000000000006
 31
0.0
  0
LINE
  5
262
100
AcDbEntity
  8
0
  6
CENTER
 62
               2
100
AcDbLine
 10
54.5
 20
16.199999999999989
 30
0.0
 11
51.800000000000011
 21
16.199999999999989
 31
0.0
  0
LINE
  5
263
100
AcDbEntity
  8
0
  6
CENTER
 62
               2
100
AcDbLine
 10
12.5
 20
-5.5
 30
0.0
 11
2.5
 21
-5.5
 31
0.0
  0
LINE
  5
264
100
AcDbEntity
  8
0
  6
CENTER
 62
               2
100
AcDbLine
 10
7.5
 20
-0.5
 30
0.0
 11
7.5
 21
-10.5
 31
0.0
  0
LINE
  5
265
100
AcDbEntity
  8
0
  6
CENTER
 62
               2
100
AcDbLine
 10
12.5
 20
-5.5
 30
0.0
 11
2.5
 21
-5.5
 31
0.0
  0
LINE
  5
266
100
AcDbEntity
  8
0
  6
CENTER
 62
               2
100
AcDbLine
 10
7.5
 20
-0.5
 30
0.0
 11
7.5
 21
-10.5
 31
0.0
  0
CIRCLE
  5
267
100
AcDbEntity
  8
0
  6
CONTINUOUS
 62
               7
100
AcDbCircle
 10
7.5
 20
-5.5
 30
0.0
 40
2.0669994354248047
  0
CIRCLE
  5
268
100
AcDbEntity
  8
0
  6
CONTINUOUS
 62
               2
100
AcDbCircle
 10
7.5
 20
-5.5
 30
0.0
 40
2.5
  0
ENDBLK
  5
269
100
AcDbEntity
  8
0
100
AcDbBlockEnd
  0
BLOCK
  5
26A
100
AcDbEntity
  8
0
100
AcDbBlockBegin
  2
MS_6
 70
               0
 10
0.0
 20
0.0
 30
0.0
  3
MS_6
  1

  0
LINE
  5
26B
100
AcDbEntity
  8
0
  6
CENTER
 62
             200
100
AcDbLine
 10
5.0001086425781125
 20
-4.7292675781249898
 30
0.0
 11
5.0001086425781125
 21
36.260989328082502
 31
0.0
  0
ARC
  5
26C
100
AcDbEntity
  8
0
  6
CONTINUOUS
 62
               4
100
AcDbCircle
 10
0.549986267092172
 20
32.500013732907831
 30
0.0
 40
0.49998626728077
100
AcDbArc
 50
89.998426281458762
 51
180.00157371854061
  0
ARC
  5
26D
100
AcDbEntity
  8
0
  6
CONTINUOUS
 62
               4
100
AcDbCircle
 10
9.4500061034783727
 20
32.50000610347837
 30
0.0
 40
0.4999938965588804
100
AcDbArc
 50
359.99930058435922
 51
90.000699415639815
  0
LINE
  5
26E
100
AcDbEntity
  8
0
  6
CONTINUOUS
 62
               4
100
AcDbLine
 10
10.0
 20
0.0
 30
0.0
 11
10.0
 21
24.0
 31
0.0
  0
LINE
  5
26F
100
AcDbEntity
  8
0
  6
CONTINUOUS
 62
               4
100
AcDbLine
 10
0.0
 20
0.0
 30
0.0
 11
0.0
 21
24.0
 31
0.0
  0
LINE
  5
270
100
AcDbEntity
  8
0
  6
CONTINUOUS
 62
               4
100
AcDbLine
 10
9.9499999999999993
 20
24.0
 30
0.0
 11
9.9499999999999993
 21
32.5
 31
0.0
  0
LINE
  5
271
100
AcDbEntity
  8
0
  6
CONTINUOUS
 62
               4
100
AcDbLine
 10
9.9499999999999993
 20
28.5
 30
0.0
 11
0.05
 21
28.5
 31
0.0
  0
LINE
  5
272
100
AcDbEntity
  8
0
  6
CONTINUOUS
 62
               4
100
AcDbLine
 10
9.5
 20
33.0
 30
0.0
 11
0.5
 21
33.0
 31
0.0
  0
LINE
  5
273
100
AcDbEntity
  8
0
  6
CONTINUOUS
 62
               4
100
AcDbLine
 10
0.05
 20
24.0
 30
0.0
 11
0.05
 21
32.5
 31
0.0
  0
LINE
  5
274
100
AcDbEntity
  8
0
  6
CONTINUOUS
 62
               4
100
AcDbLine
 10
0.0
 20
24.0
 30
0.0
 11
10.0
 21
24.0
 31
0.0
  0
ENDBLK
  5
275
100
AcDbEntity
  8
0
100
AcDbBlockEnd
  0
BLOCK
  5
276
100
AcDbEntity
  8
0
100
AcDbBlockBegin
  2
MS_7
 70
               0
 10
0.0
 20
0.0
 30
0.0
  3
MS_7
  1

  0
LINE
  5
277
100
AcDbEntity
  8
0
  6
CONTINUOUS
 62
               4
100
AcDbLine
 10
-16.5
 20
16.499999913736957
 30
0.0
 11
-16.5
 21
25.499999913736957
 31
0.0
  0
LINE
  5
278
100
AcDbEntity
  8
0
  6
CONTINUOUS
 62
               4
100
AcDbLine
 10
-10.0
 20
25.449996861979145
 30
0.0
 11
-10.0
 21
25.499999913736957
 31
0.0
  0
LINE
  5
279
100
AcDbEntity
  8
0
  6
CONTINUOUS
 62
               4
100
AcDbLine
 10
-16.5
 20
26.07734671549477
 30
0.0
 11
-16.5
 21
27.499999913736957
 31
0.0
  0
LINE
  5
27A
100
AcDbEntity
  8
0
  6
CONTINUOUS
 62
               4
100
AcDbLine
 10
-5.9984588623046875
 20
25.499999913736957
 30
0.0
 11
-5.9984588623046875
 21
26.499999913736957
 31
0.0
  0
LINE
  5
27B
100
AcDbEntity
  8
0
  6
CONTINUOUS
 62
               4
100
AcDbLine
 10
-15.0
 20
26.999999913736957
 30
0.0
 11
-15.0
 21
27.499999913736957
 31
0.0
  0
LINE
  5
27C
100
AcDbEntity
  8
0
  6
CONTINUOUS
 62
               4
100
AcDbLine
 10
-10.0
 20
16.999999913736957
 30
0.0
 11
-15.5
 21
16.999999913736957
 31
0.0
  0
LINE
  5
27D
100
AcDbEntity
  8
0
  6
CONTINUOUS
 62
               4
100
AcDbLine
 10
-15.5
 20
16.499999913736957
 30
0.0
 11
-16.5
 21
16.499999913736957
 31
0.0
  0
LINE
  5
27E
100
AcDbEntity
  8
0
  6
CONTINUOUS
 62
               4
100
AcDbLine
 10
-15.5
 20
16.499999913736957
 30
0.0
 11
-15.5
 21
16.999999913736957
 31
0.0
  0
LINE
  5
27F
100
AcDbEntity
  8
0
  6
CONTINUOUS
 62
               4
100
AcDbLine
 10
-9.55615234375
 20
26.999999913736957
 30
0.0
 11
-15.0
 21
26.999999913736957
 31
0.0
  0
LINE
  5
280
100
AcDbEntity
  8
0
  6
CONTINUOUS
 62
               4
100
AcDbLine
 10
-5.998454579468671
 20
26.500071061293767
 30
0.0
 11
-9.5561426631575159
 21
27.000070384309566
 31
0.0
  0
LINE
  5
281
100
AcDbEntity
  8
0
  6
CONTINUOUS
 62
               4
100
AcDbLine
 10
-10.0
 20
25.499999913736957
 30
0.0
 11
-16.5
 21
25.499999913736957
 31
0.0
  0
LINE
  5
282
100
AcDbEntity
  8
0
  6
CONTINUOUS
 62
               4
100
AcDbLine
 10
-15.499999958178705
 20
25.499978352823547
 30
0.0
 11
-16.499994209762917
 21
26.077324672805645
 31
0.0
  0
LINE
  5
283
100
AcDbEntity
  8
0
  6
CONTINUOUS
 62
               4
100
AcDbLine
 10
-15.0
 20
27.499999913736957
 30
0.0
 11
-16.5
 21
27.499999913736957
 31
0.0
  0
LINE
  5
284
100
AcDbEntity
  8
0
  6
CONTINUOUS
 62
               4
100
AcDbLine
 10
-29.5
 20
19.05000296549477
 30
0.0
 11
-29.5
 21
19.850006017252582
 31
0.0
  0
LINE
  5
285
100
AcDbEntity
  8
0
  6
CONTINUOUS
 62
               4
100
AcDbLine
 10
-24.500015258789063
 20
19.850006017252582
 30
0.0
 11
-29.5
 21
19.850006017252582
 31
0.0
  0
LINE
  5
286
100
AcDbEntity
  8
0
  6
CONTINUOUS
 62
               4
100
AcDbLine
 10
-24.500015258789063
 20
19.05000296549477
 30
0.0
 11
-29.5
 21
19.05000296549477
 31
0.0
  0
LINE
  5
287
100
AcDbEntity
  8
0
  6
CONTINUOUS
 62
               4
100
AcDbLine
 10
-16.5
 20
22.665023717447895
 30
0.0
 11
-19.455841064453125
 21
22.665023717447895
 31
0.0
  0
LINE
  5
288
100
AcDbEntity
  8
0
  6
CONTINUOUS
 62
               4
100
AcDbLine
 10
-16.5
 20
21.235015782877582
 30
0.0
 11
-19.839019775390625
 21
21.235015782877582
 31
0.0
  0
LINE
  5
289
100
AcDbEntity
  8
0
  6
CONTINUOUS
 62
               4
100
AcDbLine
 10
-16.5
 20
18.735015782877582
 30
0.0
 11
-20.508895874023438
 21
18.735015782877582
 31
0.0
  0
LINE
  5
28A
100
AcDbEntity
  8
0
  6
CONTINUOUS
 62
               4
100
AcDbLine
 10
-16.5
 20
20.165023717447895
 30
0.0
 11
-20.125717163085938
 21
20.165023717447895
 31
0.0
  0
LINE
  5
28B
100
AcDbEntity
  8
0
  6
CONTINUOUS
 62
               4
100
AcDbLine
 10
-24.500015258789063
 20
22.350006017252582
 30
0.0
 11
-29.5
 21
22.350006017252582
 31
0.0
  0
LINE
  5
28C
100
AcDbEntity
  8
0
  6
CONTINUOUS
 62
               4
100
AcDbLine
 10
-24.500015258789063
 20
21.55000296549477
 30
0.0
 11
-29.5
 21
21.55000296549477
 31
0.0
  0
LINE
  5
28D
100
AcDbEntity
  8
0
  6
CONTINUOUS
 62
               4
100
AcDbLine
 10
-29.5
 20
22.350006017252582
 30
0.0
 11
-29.5
 21
21.55000296549477
 31
0.0
  0
LINE
  5
28E
100
AcDbEntity
  8
0
  6
CONTINUOUS
 62
               4
100
AcDbLine
 10
-24.5
 20
18.73500052408852
 30
0.0
 11
-24.5
 21
20.165008458658832
 31
0.0
  0
LINE
  5
28F
100
AcDbEntity
  8
0
  6
CONTINUOUS
 62
               4
100
AcDbLine
 10
-24.5
 20
22.665008458658832
 30
0.0
 11
-24.5
 21
21.23500052408852
 31
0.0
  0
LINE
  5
290
100
AcDbEntity
  8
0
  6
CONTINUOUS
 62
               4
100
AcDbLine
 10
-21.544174194335937
 20
18.735015782877582
 30
0.0
 11
-24.500015258789063
 21
18.735015782877582
 31
0.0
  0
LINE
  5
291
100
AcDbEntity
  8
0
  6
CONTINUOUS
 62
               4
100
AcDbLine
 10
-21.160995483398438
 20
20.165023717447895
 30
0.0
 11
-24.500015258789063
 21
20.165023717447895
 31
0.0
  0
LINE
  5
292
100
AcDbEntity
  8
0
  6
CONTINUOUS
 62
               4
100
AcDbLine
 10
-20.874298095703125
 20
21.235015782877582
 30
0.0
 11
-24.500015258789063
 21
21.235015782877582
 31
0.0
  0
LINE
  5
293
100
AcDbEntity
  8
0
  6
CONTINUOUS
 62
               4
100
AcDbLine
 10
-20.491119384765625
 20
22.665023717447895
 30
0.0
 11
-24.500015258789063
 21
22.665023717447895
 31
0.0
  0
LINE
  5
294
100
AcDbEntity
  8
0
  6
CONTINUOUS
 62
             200
100
AcDbLine
 10
-19.053935707232995
 20
24.165006172564773
 30
0.0
 11
-20.910828860160109
 21
17.234986639697837
 31
0.0
  0
LINE
  5
295
100
AcDbEntity
  8
0
  6
CONTINUOUS
 62
             200
100
AcDbLine
 10
-20.089214565994553
 20
24.164996126888383
 30
0.0
 11
-21.946103769656474
 21
17.234991332879673
 31
0.0
  0
LINE
  5
296
100
AcDbEntity
  8
0
  6
CONTINUOUS
 62
               4
100
AcDbLine
 10
27.000000000000004
 20
28.184999913736931
 30
0.0
 11
27.000000000000004
 21
23.999999913736957
 31
0.0
  0
LINE
  5
297
100
AcDbEntity
  8
0
  6
CONTINUOUS
 62
               4
100
AcDbLine
 10
24.674999999999994
 20
32.999999913736957
 30
0.0
 11
-2.503080900033293
 21
32.999999913736957
 31
0.0
  0
LINE
  5
298
100
AcDbEntity
  8
0
  6
CONTINUOUS
 62
               4
100
AcDbLine
 10
25.129999999999999
 20
32.704999913736941
 30
0.0
 11
26.870000000000008
 21
28.789999913736949
 31
0.0
  0
ARC
  5
299
100
AcDbEntity
  8
0
  6
CONTINUOUS
 62
               4
100
AcDbCircle
 10
24.675687863874504
 20
32.50267102581455
 30
0.0
 40
0.4973293636201366
100
AcDbArc
 50
24.005903588636794
 51
90.079246697133684
  0
ARC
  5
29A
100
AcDbEntity
  8
0
  6
CONTINUOUS
 62
               4
100
AcDbCircle
 10
25.501123948313893
 20
28.179394315853983
 30
0.0
 40
1.4988865337462252
100
AcDbArc
 50
0.2142776266259142
 51
24.039904443234626
  0
LINE
  5
29B
100
AcDbEntity
  8
0
  6
CONTINUOUS
 62
               4
100
AcDbLine
 10
1.4999999999999964
 20
25.599999913736951
 30
0.0
 11
1.4999999999999964
 21
23.999999913736957
 31
0.0
  0
LINE
  5
29C
100
AcDbEntity
  8
0
  6
CONTINUOUS
 62
               4
100
AcDbLine
 10
-3.0000000000000142
 20
32.499999913736957
 30
0.0
 11
-3.0000000000000142
 21
25.599999913736951
 31
0.0
  0
ARC
  5
29D
100
AcDbEntity
  8
0
  6
CONTINUOUS
 62
               4
100
AcDbCircle
 10
-2.5015404500182825
 20
32.501540363755225
 30
0.0
 40
0.4984619302958243
100
AcDbArc
 50
89.822932465397898
 51
180.17706753460195
  0
LINE
  5
29E
100
AcDbEntity
  8
0
  6
CONTINUOUS
 62
               4
100
AcDbLine
 10
1.4999999999999964
 20
25.599999913736951
 30
0.0
 11
-3.0000000000000142
 21
25.599999913736951
 31
0.0
  0
LINE
  5
29F
100
AcDbEntity
  8
0
  6
CONTINUOUS
 62
               4
100
AcDbLine
 10
14.295000000000009
 20
23.999999913736957
 30
0.0
 11
12.795000000000009
 21
23.999999913736957
 31
0.0
  0
LINE
  5
2A0
100
AcDbEntity
  8
0
  6
CONTINUOUS
 62
               4
100
AcDbLine
 10
27.0
 20
23.999999913736957
 30
0.0
 11
1.3999999999999915
 21
23.999999913736957
 31
0.0
  0
LINE
  5
2A1
100
AcDbEntity
  8
0
  6
CONTINUOUS
 62
               4
100
AcDbLine
 10
-10.000000000000014
 20
16.999999913736957
 30
0.0
 11
1.3999999999999915
 21
16.999999913736957
 31
0.0
  0
LINE
  5
2A2
100
AcDbEntity
  8
0
  6
CONTINUOUS
 62
               4
100
AcDbLine
 10
-10.000000000000014
 20
25.499999913736957
 30
0.0
 11
1.3999999999999915
 21
25.499999913736957
 31
0.0
  0
LINE
  5
2A3
100
AcDbEntity
  8
0
  6
CONTINUOUS
 62
               4
100
AcDbLine
 10
-10.000000000000014
 20
25.499999913736957
 30
0.0
 11
-10.000000000000014
 21
16.999999913736957
 31
0.0
  0
LINE
  5
2A4
100
AcDbEntity
  8
0
  6
CONTINUOUS
 62
               4
100
AcDbLine
 10
1.3999999999999915
 20
16.999999913736957
 30
0.0
 11
1.3999999999999915
 21
25.499999909445421
 31
0.0
  0
LINE
  5
2A5
100
AcDbEntity
  8
0
  6
CONTINUOUS
 62
               4
100
AcDbLine
 10
-0.0000000000000036
 20
16.999999913736957
 30
0.0
 11
0.0000000000000071
 21
0.0000049999999874
 31
0.0
  0
LINE
  5
2A6
100
AcDbEntity
  8
0
  6
CONTINUOUS
 62
               7
100
AcDbLine
 10
27.0
 20
0.0
 30
0.0
 11
0.0000000000000071
 21
0.0
 31
0.0
  0
LINE
  5
2A7
100
AcDbEntity
  8
0
  6
CONTINUOUS
 62
               4
100
AcDbLine
 10
27.0
 20
23.999999913736957
 30
0.0
 11
27.0
 21
-0.0000000862630429
 31
0.0
  0
ENDBLK
  5
2A8
100
AcDbEntity
  8
0
100
AcDbBlockEnd
  0
BLOCK
  5
2A9
100
AcDbEntity
  8
0
100
AcDbBlockBegin
  2
MS_8
 70
               0
 10
0.0
 20
0.0
 30
0.0
  3
MS_8
  1

  0
LINE
  5
2AA
100
AcDbEntity
  8
0
  6
CONTINUOUS
 62
               4
100
AcDbLine
 10
16.500000000000007
 20
16.49999491373697
 30
0.0
 11
16.500000000000007
 21
25.49999491373697
 31
0.0
  0
LINE
  5
2AB
100
AcDbEntity
  8
0
  6
CONTINUOUS
 62
               4
100
AcDbLine
 10
10.000000000000007
 20
25.449991861979157
 30
0.0
 11
10.000000000000007
 21
25.49999491373697
 31
0.0
  0
LINE
  5
2AC
100
AcDbEntity
  8
0
  6
CONTINUOUS
 62
               4
100
AcDbLine
 10
16.500000000000007
 20
26.077341715494782
 30
0.0
 11
16.500000000000007
 21
27.49999491373697
 31
0.0
  0
LINE
  5
2AD
100
AcDbEntity
  8
0
  6
CONTINUOUS
 62
               4
100
AcDbLine
 10
5.9984588623046946
 20
25.49999491373697
 30
0.0
 11
5.9984588623046946
 21
26.49999491373697
 31
0.0
  0
LINE
  5
2AE
100
AcDbEntity
  8
0
  6
CONTINUOUS
 62
               4
100
AcDbLine
 10
15.000000000000007
 20
26.99999491373697
 30
0.0
 11
15.000000000000007
 21
27.49999491373697
 31
0.0
  0
LINE
  5
2AF
100
AcDbEntity
  8
0
  6
CONTINUOUS
 62
               4
100
AcDbLine
 10
10.000000000000007
 20
16.99999491373697
 30
0.0
 11
15.500000000000007
 21
16.99999491373697
 31
0.0
  0
LINE
  5
2B0
100
AcDbEntity
  8
0
  6
CONTINUOUS
 62
               4
100
AcDbLine
 10
15.500000000000007
 20
16.49999491373697
 30
0.0
 11
16.500000000000007
 21
16.49999491373697
 31
0.0
  0
LINE
  5
2B1
100
AcDbEntity
  8
0
  6
CONTINUOUS
 62
               4
100
AcDbLine
 10
15.500000000000007
 20
16.49999491373697
 30
0.0
 11
15.500000000000007
 21
16.99999491373697
 31
0.0
  0
LINE
  5
2B2
100
AcDbEntity
  8
0
  6
CONTINUOUS
 62
               4
100
AcDbLine
 10
9.5561523437500071
 20
26.99999491373697
 30
0.0
 11
15.000000000000007
 21
26.99999491373697
 31
0.0
  0
LINE
  5
2B3
100
AcDbEntity
  8
0
  6
CONTINUOUS
 62
               4
100
AcDbLine
 10
5.9984545794686781
 20
26.500066061293779
 30
0.0
 11
9.556142663157523
 21
27.000065384309579
 31
0.0
  0
LINE
  5
2B4
100
AcDbEntity
  8
0
  6
CONTINUOUS
 62
               4
100
AcDbLine
 10
10.000000000000007
 20
25.49999491373697
 30
0.0
 11
16.500000000000007
 21
25.49999491373697
 31
0.0
  0
LINE
  5
2B5
100
AcDbEntity
  8
0
  6
CONTINUOUS
 62
               4
100
AcDbLine
 10
15.499999958178712
 20
25.499973352823559
 30
0.0
 11
16.499994209762924
 21
26.077319672805658
 31
0.0
  0
LINE
  5
2B6
100
AcDbEntity
  8
0
  6
CONTINUOUS
 62
               4
100
AcDbLine
 10
15.000000000000007
 20
27.49999491373697
 30
0.0
 11
16.500000000000007
 21
27.49999491373697
 31
0.0
  0
LINE
  5
2B7
100
AcDbEntity
  8
0
  6
CONTINUOUS
 62
               4
100
AcDbLine
 10
29.500000000000007
 20
19.049997965494782
 30
0.0
 11
29.500000000000007
 21
19.850001017252595
 31
0.0
  0
LINE
  5
2B8
100
AcDbEntity
  8
0
  6
CONTINUOUS
 62
               4
100
AcDbLine
 10
24.50001525878907
 20
19.850001017252595
 30
0.0
 11
29.500000000000007
 21
19.850001017252595
 31
0.0
  0
LINE
  5
2B9
100
AcDbEntity
  8
0
  6
CONTINUOUS
 62
               4
100
AcDbLine
 10
24.50001525878907
 20
19.049997965494782
 30
0.0
 11
29.500000000000007
 21
19.049997965494782
 31
0.0
  0
LINE
  5
2BA
100
AcDbEntity
  8
0
  6
CONTINUOUS
 62
               4
100
AcDbLine
 10
16.500000000000007
 20
22.665018717447907
 30
0.0
 11
19.455841064453132
 21
22.665018717447907
 31
0.0
  0
LINE
  5
2BB
100
AcDbEntity
  8
0
  6
CONTINUOUS
 62
               4
100
AcDbLine
 10
16.500000000000007
 20
21.235010782877595
 30
0.0
 11
19.839019775390632
 21
21.235010782877595
 31
0.0
  0
LINE
  5
2BC
100
AcDbEntity
  8
0
  6
CONTINUOUS
 62
               4
100
AcDbLine
 10
16.500000000000007
 20
18.735010782877595
 30
0.0
 11
20.508895874023445
 21
18.735010782877595
 31
0.0
  0
LINE
  5
2BD
100
AcDbEntity
  8
0
  6
CONTINUOUS
 62
               4
100
AcDbLine
 10
16.500000000000007
 20
20.165018717447907
 30
0.0
 11
20.125717163085945
 21
20.165018717447907
 31
0.0
  0
LINE
  5
2BE
100
AcDbEntity
  8
0
  6
CONTINUOUS
 62
               4
100
AcDbLine
 10
24.50001525878907
 20
22.350001017252595
 30
0.0
 11
29.500000000000007
 21
22.350001017252595
 31
0.0
  0
LINE
  5
2BF
100
AcDbEntity
  8
0
  6
CONTINUOUS
 62
               4
100
AcDbLine
 10
24.50001525878907
 20
21.549997965494782
 30
0.0
 11
29.500000000000007
 21
21.549997965494782
 31
0.0
  0
LINE
  5
2C0
100
AcDbEntity
  8
0
  6
CONTINUOUS
 62
               4
100
AcDbLine
 10
29.500000000000007
 20
22.350001017252595
 30
0.0
 11
29.500000000000007
 21
21.549997965494782
 31
0.0
  0
LINE
  5
2C1
100
AcDbEntity
  8
0
  6
CONTINUOUS
 62
               4
100
AcDbLine
 10
24.500000000000007
 20
18.734995524088532
 30
0.0
 11
24.500000000000007
 21
20.165003458658845
 31
0.0
  0
LINE
  5
2C2
100
AcDbEntity
  8
0
  6
CONTINUOUS
 62
               4
100
AcDbLine
 10
24.500000000000007
 20
22.665003458658845
 30
0.0
 11
24.500000000000007
 21
21.234995524088532
 31
0.0
  0
LINE
  5
2C3
100
AcDbEntity
  8
0
  6
CONTINUOUS
 62
               4
100
AcDbLine
 10
21.544174194335945
 20
18.735010782877595
 30
0.0
 11
24.50001525878907
 21
18.735010782877595
 31
0.0
  0
LINE
  5
2C4
100
AcDbEntity
  8
0
  6
CONTINUOUS
 62
               4
100
AcDbLine
 10
21.160995483398445
 20
20.165018717447907
 30
0.0
 11
24.50001525878907
 21
20.165018717447907
 31
0.0
  0
LINE
  5
2C5
100
AcDbEntity
  8
0
  6
CONTINUOUS
 62
               4
100
AcDbLine
 10
20.874298095703132
 20
21.235010782877595
 30
0.0
 11
24.50001525878907
 21
21.235010782877595
 31
0.0
  0
LINE
  5
2C6
100
AcDbEntity
  8
0
  6
CONTINUOUS
 62
               4
100
AcDbLine
 10
20.491119384765632
 20
22.665018717447907
 30
0.0
 11
24.50001525878907
 21
22.665018717447907
 31
0.0
  0
LINE
  5
2C7
100
AcDbEntity
  8
0
  6
CONTINUOUS
 62
             200
100
AcDbLine
 10
19.053935707233002
 20
24.165001172564786
 30
0.0
 11
20.910828860160116
 21
17.23498163969785
 31
0.0
  0
LINE
  5
2C8
100
AcDbEntity
  8
0
  6
CONTINUOUS
 62
             200
100
AcDbLine
 10
20.08921456599456
 20
24.164991126888395
 30
0.0
 11
21.946103769656482
 21
17.234986332879686
 31
0.0
  0
LINE
  5
2C9
100
AcDbEntity
  8
0
  6
CONTINUOUS
 62
               4
100
AcDbLine
 10
-26.999999999999996
 20
28.184994913736944
 30
0.0
 11
-26.999999999999996
 21
23.99999491373697
 31
0.0
  0
LINE
  5
2CA
100
AcDbEntity
  8
0
  6
CONTINUOUS
 62
               4
100
AcDbLine
 10
-24.674999999999986
 20
32.99999491373697
 30
0.0
 11
2.5030809000333001
 21
32.99999491373697
 31
0.0
  0
LINE
  5
2CB
100
AcDbEntity
  8
0
  6
CONTINUOUS
 62
               4
100
AcDbLine
 10
-25.129999999999992
 20
32.704994913736954
 30
0.0
 11
-26.870000000000001
 21
28.789994913736962
 31
0.0
  0
ARC
  5
2CC
100
AcDbEntity
  8
0
  6
CONTINUOUS
 62
               4
100
AcDbCircle
 10
-24.675687863874497
 20
32.502666025814563
 30
0.0
 40
0.4973293636201366
100
AcDbArc
 50
89.920753302865904
 51
155.99409641136279
  0
ARC
  5
2CD
100
AcDbEntity
  8
0
  6
CONTINUOUS
 62
               4
100
AcDbCircle
 10
-25.501123948313886
 20
28.179389315853996
 30
0.0
 40
1.4988865337462252
100
AcDbArc
 50
155.96009555676497
 51
179.78572237337369
  0
LINE
  5
2CE
100
AcDbEntity
  8
0
  6
CONTINUOUS
 62
               4
100
AcDbLine
 10
-1.4999999999999893
 20
25.599994913736964
 30
0.0
 11
-1.4999999999999893
 21
23.99999491373697
 31
0.0
  0
LINE
  5
2CF
100
AcDbEntity
  8
0
  6
CONTINUOUS
 62
               4
100
AcDbLine
 10
3.0000000000000213
 20
32.49999491373697
 30
0.0
 11
3.0000000000000213
 21
25.599994913736964
 31
0.0
  0
ARC
  5
2D0
100
AcDbEntity
  8
0
  6
CONTINUOUS
 62
               4
100
AcDbCircle
 10
2.5015404500182896
 20
32.501535363755238
 30
0.0
 40
0.4984619302958243
100
AcDbArc
 50
359.82293246539683
 51
90.177067534601704
  0
LINE
  5
2D1
100
AcDbEntity
  8
0
  6
CONTINUOUS
 62
               4
100
AcDbLine
 10
-1.4999999999999893
 20
25.599994913736964
 30
0.0
 11
3.0000000000000213
 21
25.599994913736964
 31
0.0
  0
LINE
  5
2D2
100
AcDbEntity
  8
0
  6
CONTINUOUS
 62
               4
100
AcDbLine
 10
-14.295000000000002
 20
23.99999491373697
 30
0.0
 11
-12.795000000000002
 21
23.99999491373697
 31
0.0
  0
LINE
  5
2D3
100
AcDbEntity
  8
0
  6
CONTINUOUS
 62
               4
100
AcDbLine
 10
-26.999999999999993
 20
23.99999491373697
 30
0.0
 11
-1.3999999999999844
 21
23.99999491373697
 31
0.0
  0
LINE
  5
2D4
100
AcDbEntity
  8
0
  6
CONTINUOUS
 62
               4
100
AcDbLine
 10
10.000000000000021
 20
16.99999491373697
 30
0.0
 11
-1.3999999999999844
 21
16.99999491373697
 31
0.0
  0
LINE
  5
2D5
100
AcDbEntity
  8
0
  6
CONTINUOUS
 62
               4
100
AcDbLine
 10
10.000000000000021
 20
25.49999491373697
 30
0.0
 11
-1.3999999999999844
 21
25.49999491373697
 31
0.0
  0
LINE
  5
2D6
100
AcDbEntity
  8
0
  6
CONTINUOUS
 62
               4
100
AcDbLine
 10
10.000000000000021
 20
25.49999491373697
 30
0.0
 11
10.000000000000021
 21
16.99999491373697
 31
0.0
  0
LINE
  5
2D7
100
AcDbEntity
  8
0
  6
CONTINUOUS
 62
               4
100
AcDbLine
 10
-1.3999999999999844
 20
16.99999491373697
 30
0.0
 11
-1.3999999999999844
 21
25.499994909445434
 31
0.0
  0
LINE
  5
2D8
100
AcDbEntity
  8
0
  6
CONTINUOUS
 62
               4
100
AcDbLine
 10
0.0000000000000107
 20
16.99999491373697
 30
0.0
 11
0.0
 21
0.0
 31
0.0
  0
LINE
  5
2D9
100
AcDbEntity
  8
0
  6
CONTINUOUS
 62
               4
100
AcDbLine
 10
-26.999999999999993
 20
23.99999491373697
 30
0.0
 11
-26.999999999999993
 21
-0.0000050862630303
 31
0.0
  0
ENDBLK
  5
2DA
100
AcDbEntity
  8
0
100
AcDbBlockEnd
  0
ENDSEC
  0
SECTION
  2
ENTITIES
  0
INSERT
  5
2DB
100
AcDbEntity
  8
0
100
AcDbBlockReference
  2
MS_5
 10
-344.8974609375
 20
-172.2235501355014
 30
0.0
  0
MTEXT
  5
2DC
100
AcDbEntity
  8
0
  6
CONTINUOUS
 62
               7
100
AcDbMText
 10
-382.14285776482859
 20
-79.661965662845148
 30
0.0
 40
9.0
 41
0.0
 71
               4
 72
               1
  1
\W1.071;\A1;MODEL:CS-F15T1-G(V)-A2-PS
  7
MX_NOTE_STANDARD
  0
INSERT
  5
2DD
100
AcDbEntity
  8
0
100
AcDbBlockReference
  2
MS_8
 10
300.94489135742185
 20
10.249267578125
 30
0.0
 50
0.0000874264213558
  0
INSERT
  5
2DE
100
AcDbEntity
  8
0
100
AcDbBlockReference
  2
MS_7
 10
93.944921874999977
 20
10.249267578125
 30
0.0
  0
INSERT
  5
2DF
100
AcDbEntity
  8
0
100
AcDbBlockReference
  2
MS_6
 10
192.44489135742185
 20
10.249267578125
 30
0.0
  0
INSERT
  5
2E0
100
AcDbEntity
  8
0
100
AcDbBlockReference
  2
MS_4
 10
-212.23750305175781
 20
-34.4920654296875
 30
0.0
  0
INSERT
  5
2E1
100
AcDbEntity
  8
0
100
AcDbBlockReference
  2
MS_3
 10
-61.23748779296875
 20
138.68841552734375
 30
0.0
  0
INSERT
  5
2E2
100
AcDbEntity
  8
0
100
AcDbBlockReference
  2
MS_2
 10
-344.8974609375
 20
138.68841552734375
 30
0.0
  0
INSERT
  5
2E3
100
AcDbEntity
  8
0
100
AcDbBlockReference
  2
MS_1
 10
-212.23750305175781
 20
138.68841552734375
 30
0.0
  0
MTEXT
  5
2E4
100
AcDbEntity
  8
0
  6
CONTINUOUS
 62
               7
100
AcDbMText
 10
17.394999387717224
 20
87.583343505859375
 30
0.0
 40
9.0
 41
0.0
 71
               4
 72
               1
  1
\W1.080;\A1;MODEL:-PL
  7
MX_NOTE_STANDARD
  0
MTEXT
  5
2E5
100
AcDbEntity
  8
0
  6
CONTINUOUS
 62
               7
100
AcDbMText
 10
-376.11593384461054
 20
263.75
 30
0.0
 40
9.0
 41
0.0
 71
               4
 72
               1
  1
\W1.089;\A1;CS-F15 SERIES
  7
MX_NOTE_STANDARD
  0
MTEXT
  5
2E6
100
AcDbEntity
  8
0
  6
CONTINUOUS
 62
               7
100
AcDbMText
 10
-382.14285776020995
 20
231.25
 30
0.0
 40
9.0
 41
0.0
 71
               4
 72
               1
  1
\W1.071;\A1;MODEL:CS-F15T1-A2-PS
  7
MX_NOTE_STANDARD
  0
MTEXT
  5
2E7
100
AcDbEntity
  8
0
  6
CONTINUOUS
 62
               7
100
AcDbMText
 10
285.76701057054424
 20
263.75
 30
0.0
 40
9.0
 41
0.0
 71
               4
 72
               1
  1
\W1.311;\A1;Ver. 1.0
  7
MX_NOTE_STANDARD
  0
MTEXT
  5
2E8
100
AcDbEntity
  8
0
  6
CONTINUOUS
 62
               7
100
AcDbMText
 10
245.88456275493564
 20
-264.25
 30
0.0
 40
12.5
 41
0.0
 71
               4
 72
               1
  1
\W1.121;\A1;KOGANEI CORP.
  7
MX_NOTE_STANDARD
  0
LINE
  5
2E9
100
AcDbEntity
  8
0
  6
CONTINUOUS
 62
               7
100
AcDbLine
 10
273.94499999999999
 20
10.25
 30
0.0
 11
300.94499999999999
 21
10.25
 31
0.0
  0
LINE
  5
2EA
100
AcDbEntity
  8
0
  6
CONTINUOUS
 62
               7
100
AcDbLine
 10
192.44499999999996
 20
10.25
 30
0.0
 11
202.44499999999996
 21
10.25
 31
0.0
  0
LINE
  5
2EB
100
AcDbEntity
  8
0
  6
CONTINUOUS
 62
               7
100
AcDbLine
 10
93.944999999999993
 20
10.25
 30
0.0
 11
120.94499999999999
 21
10.25
 31
0.0
  0
LINE
  5
2EC
100
AcDbEntity
  8
0
  6
CONTINUOUS
 62
               7
100
AcDbLine
 10
0.27
 20
276.25
 30
0.0
 11
0.27
 21
-276.75
 31
0.0
  0
LINE
  5
2ED
100
AcDbEntity
  8
0
  6
CONTINUOUS
 62
               7
100
AcDbLine
 10
-239.25
 20
276.25
 30
0.0
 11
-239.25
 21
251.25
 31
0.0
  0
LINE
  5
2EE
100
AcDbEntity
  8
0
  6
CONTINUOUS
 62
               7
100
AcDbLine
 10
239.80000000000001
 20
251.25
 30
0.0
 11
239.80000000000001
 21
276.25
 31
0.0
  0
LINE
  5
2EF
100
AcDbEntity
  8
0
  6
CONTINUOUS
 62
               7
100
AcDbLine
 10
239.80000000000001
 20
-251.75
 30
0.0
 11
239.80000000000001
 21
-276.75
 31
0.0
  0
LINE
  5
2F0
100
AcDbEntity
  8
0
  6
CONTINUOUS
 62
               7
100
AcDbLine
 10
-399.25
 20
251.25
 30
0.0
 11
-239.25
 21
251.25
 31
0.0
  0
LINE
  5
2F1
100
AcDbEntity
  8
0
  6
CONTINUOUS
 62
               7
100
AcDbLine
 10
239.80000000000001
 20
251.25
 30
0.0
 11
399.80000000000001
 21
251.25
 31
0.0
  0
LINE
  5
2F2
100
AcDbEntity
  8
0
  6
CONTINUOUS
 62
               7
100
AcDbLine
 10
239.80000000000001
 20
-251.75
 30
0.0
 11
399.80000000000001
 21
-251.75
 31
0.0
  0
LINE
  5
2F3
100
AcDbEntity
  8
0
  6
CONTINUOUS
 62
               7
100
AcDbLine
 10
-399.25
 20
-276.75
 30
0.0
 11
399.80000000000001
 21
-276.75
 31
0.0
  0
LINE
  5
2F4
100
AcDbEntity
  8
0
  6
CONTINUOUS
 62
               7
100
AcDbLine
 10
-399.25
 20
276.25
 30
0.0
 11
399.80000000000001
 21
276.25
 31
0.0
  0
LINE
  5
2F5
100
AcDbEntity
  8
0
  6
CONTINUOUS
 62
               7
100
AcDbLine
 10
-399.25
 20
276.25
 30
0.0
 11
-399.25
 21
-276.75
 31
0.0
  0
LINE
  5
2F6
100
AcDbEntity
  8
0
  6
CONTINUOUS
 62
               7
100
AcDbLine
 10
399.80000000000001
 20
276.25
 30
0.0
 11
399.80000000000001
 21
-276.75
 31
0.0
  0
ENDSEC
  0
SECTION
  2
OBJECTS
  0
DICTIONARY
  5
19
100
AcDbDictionary
  3
ACAD_GROUP
350
1A
  3
ACAD_MLINESTYLE
350
1B
  0
DICTIONARY
  5
1A
102
{ACAD_REACTORS
330
19
102
}
100
AcDbDictionary
  0
DICTIONARY
  5
1B
102
{ACAD_REACTORS
330
19
102
}
100
AcDbDictionary
  3
STANDARD
350
1C
  0
MLINESTYLE
  5
1C
102
{ACAD_REACTORS
330
1B
102
}
100
AcDbMlineStyle
  2
Standard
 70
               0
  3

 62
               0
 51
90.0
 52
90.0
 71
               2
 49
0.5
 62
             256
  6
ByLayer
 49
-0.5
 62
             256
  6
ByLayer
  0
ENDSEC
  0
EOF
