  0
SECTION
  2
HEADER
  9
$ACADVER
  1
AC1012
  9
$DWGCODEPAGE
  3
dos932
  9
$INSBASE
 10
0.0
 20
0.0
 30
0.0
  9
$EXTMIN
 10
-194.25
 20
-133.5
 30
0.0
  9
$EXTMAX
 10
196.25000429153442
 20
132.59999999999999
 30
0.0
  9
$LIMMIN
 10
-194.25
 20
-133.5
  9
$LIMMAX
 10
196.25000429153442
 20
132.59999999999999
  9
$ORTHOMODE
 70
               0
  9
$REGENMODE
 70
               1
  9
$FILLMODE
 70
               1
  9
$QTEXTMODE
 70
               0
  9
$MIRRTEXT
 70
               1
  9
$DRAGMODE
 70
               2
  9
$LTSCALE
 40
1.0
  9
$OSMODE
 70
               0
  9
$ATTMODE
 70
               1
  9
$TEXTSIZE
 40
3.2000000476837158
  9
$TRACEWID
 40
0.05
  9
$TEXTSTYLE
  7
MX_NOTE_STANDARD
  9
$CLAYER
  8
0
  9
$CELTYPE
  6
CONTINUOUS
  9
$CECOLOR
 62
             256
  9
$CELTSCALE
 40
1.0
  9
$DELOBJ
 70
               1
  9
$DISPSILH
 70
               0
  9
$DIMSCALE
 40
1.0
  9
$DIMASZ
 40
2.5
  9
$DIMEXO
 40
1.5
  9
$DIMDLI
 40
3.75
  9
$DIMRND
 40
0.0
  9
$DIMDLE
 40
0.0
  9
$DIMEXE
 40
1.5
  9
$DIMTP
 40
0.0
  9
$DIMTM
 40
0.0
  9
$DIMTXT
 40
3.2000000476837158
  9
$DIMCEN
 40
2.5
  9
$DIMTSZ
 40
0.0
  9
$DIMTOL
 70
               0
  9
$DIMLIM
 70
               0
  9
$DIMTIH
 70
               0
  9
$DIMTOH
 70
               0
  9
$DIMSE1
 70
               0
  9
$DIMSE2
 70
               0
  9
$DIMTAD
 70
               1
  9
$DIMZIN
 70
               8
  9
$DIMBLK
  1

  9
$DIMASO
 70
               1
  9
$DIMSHO
 70
               1
  9
$DIMPOST
  1

  9
$DIMAPOST
  1

  9
$DIMALT
 70
               0
  9
$DIMALTD
 70
               4
  9
$DIMALTF
 40
0.0394
  9
$DIMLFAC
 40
1.0
  9
$DIMTOFL
 70
               1
  9
$DIMTVP
 40
0.0
  9
$DIMTIX
 70
               0
  9
$DIMSOXD
 70
               0
  9
$DIMSAH
 70
               0
  9
$DIMBLK1
  1

  9
$DIMBLK2
  1

  9
$DIMSTYLE
  2
MXDIMSTYLE
  9
$DIMCLRD
 70
               0
  9
$DIMCLRE
 70
               0
  9
$DIMCLRT
 70
               0
  9
$DIMTFAC
 40
1.0
  9
$DIMGAP
 40
1.0
  9
$DIMJUST
 70
               0
  9
$DIMSD1
 70
               0
  9
$DIMSD2
 70
               0
  9
$DIMTOLJ
 70
               1
  9
$DIMTZIN
 70
               0
  9
$DIMALTZ
 70
               0
  9
$DIMALTTZ
 70
               0
  9
$DIMFIT
 70
               3
  9
$DIMUPT
 70
               1
  9
$DIMUNIT
 70
               2
  9
$DIMDEC
 70
               4
  9
$DIMTDEC
 70
               4
  9
$DIMALTU
 70
               8
  9
$DIMALTTD
 70
               4
  9
$DIMTXSTY
  7
MX_NOTE_STANDARD
  9
$DIMAUNIT
 70
               0
  9
$LUNITS
 70
               2
  9
$LUPREC
 70
               4
  9
$SKETCHINC
 40
0.1
  9
$FILLETRAD
 40
0.0
  9
$AUNITS
 70
               0
  9
$AUPREC
 70
               0
  9
$MENU
  1
acad
  9
$ELEVATION
 40
0.0
  9
$PELEVATION
 40
0.0
  9
$THICKNESS
 40
0.0
  9
$LIMCHECK
 70
               0
  9
$BLIPMODE
 70
               1
  9
$CHAMFERA
 40
0.0
  9
$CHAMFERB
 40
0.0
  9
$CHAMFERC
 40
0.0
  9
$CHAMFERD
 40
0.0
  9
$SKPOLY
 70
               0
  9
$TDCREATE
 40
2452220.697164352
  9
$TDUPDATE
 40
2452220.697164352
  9
$TDINDWG
 40
0.0000000000
  9
$TDUSRTIMER
 40
0.0000000000
  9
$USRTIMER
 70
               1
  9
$ANGBASE
 50
0.0
  9
$ANGDIR
 70
               0
  9
$PDMODE
 70
               0
  9
$PDSIZE
 40
0.0
  9
$PLINEWID
 40
0.0
  9
$COORDS
 70
               1
  9
$SPLFRAME
 70
               0
  9
$SPLINETYPE
 70
               6
  9
$SPLINESEGS
 70
               8
  9
$ATTDIA
 70
               0
  9
$ATTREQ
 70
               1
  9
$HANDLING
 70
               1
  9
$HANDSEED
  5
227
  9
$SURFTAB1
 70
               6
  9
$SURFTAB2
 70
               6
  9
$SURFTYPE
 70
               6
  9
$SURFU
 70
               6
  9
$SURFV
 70
               6
  9
$UCSNAME
  2

  9
$UCSORG
 10
0.0
 20
0.0
 30
0.0
  9
$UCSXDIR
 10
1.0
 20
0.0
 30
0.0
  9
$UCSYDIR
 10
0.0
 20
1.0
 30
0.0
  9
$PUCSNAME
  2

  9
$PUCSORG
 10
0.0
 20
0.0
 30
0.0
  9
$PUCSXDIR
 10
1.0
 20
0.0
 30
0.0
  9
$PUCSYDIR
 10
0.0
 20
1.0
 30
0.0
  9
$USERI1
 70
               0
  9
$USERI2
 70
               0
  9
$USERI3
 70
               0
  9
$USERI4
 70
               0
  9
$USERI5
 70
               0
  9
$USERR1
 40
0.0
  9
$USERR2
 40
0.0
  9
$USERR3
 40
0.0
  9
$USERR4
 40
0.0
  9
$USERR5
 40
0.0
  9
$WORLDVIEW
 70
               1
  9
$SHADEDGE
 70
               3
  9
$SHADEDIF
 70
              70
  9
$TILEMODE
 70
               1
  9
$MAXACTVP
 70
              16
  9
$PINSBASE
 10
0.0
 20
0.0
 30
0.0
  9
$PLIMCHECK
 70
               0
  9
$PEXTMIN
 10
1.0000000000000000E+20
 20
1.0000000000000000E+20
 30
1.0000000000000000E+20
  9
$PEXTMAX
 10
-1.0000000000000000E+20
 20
-1.0000000000000000E+20
 30
-1.0000000000000000E+20
  9
$PLIMMIN
 10
0.0
 20
0.0
  9
$PLIMMAX
 10
12.0
 20
9.0
  9
$UNITMODE
 70
               0
  9
$VISRETAIN
 70
               0
  9
$PLINEGEN
 70
               1
  9
$PSLTSCALE
 70
               0
  9
$TREEDEPTH
 70
            3020
  9
$PICKSTYLE
 70
               1
  9
$CMLSTYLE
  2
Standard
  9
$CMLJUST
 70
               0
  9
$CMLSCALE
 40
1.0
  9
$SAVEIMAGES
 70
               0
  0
ENDSEC
  0
SECTION
  2
CLASSES
  0
CLASS
  1
LWPOLYLINE
  2
AcDbPolyline
  3
"AutoCAD"
 90
        0
280
               0
281
               1
  0
CLASS
  1
IMAGE
  2
AcDbRasterImage
  3
ISM
 90
      127
280
               0
281
               1
  0
CLASS
  1
OLE2FRAME
  2
AcDbOle2Frame
  3
""
 90
        0
280
               0
281
               1
  0
CLASS
  1
HATCH
  2
AcDbHatch
  3
"ACAD_SEDONA"
 90
        0
280
               0
281
               1
  0
CLASS
  1
DICTIONARYVAR
  2
AcDbDictionaryVar
  3
"AutoCAD"
 90
        0
280
               0
281
               0
  0
CLASS
  1
RASTERVARIABLES
  2
AcDbRasterVariables
  3
ISM
 90
        0
280
               0
281
               0
  0
CLASS
  1
IMAGEDEF
  2
AcDbRasterImageDef
  3
ISM
 90
        0
280
               0
281
               0
  0
CLASS
  1
IMAGEDEF_REACTOR
  2
AcDbRasterImageDefReactor
  3
ISM
 90
        1
280
               0
281
               0
  0
CLASS
  1
IDBUFFER
  2
AcDbIdBuffer
  3
"Acad"
 90
        0
280
               0
281
               0
  0
CLASS
  1
SPATIAL_FILTER
  2
AcDbSpatialFilter
  3
"Acad"
 90
        0
280
               0
281
               0
  0
CLASS
  1
XRECORD
  2
AcDbXrecord
  3
"<Built In>"
 90
        0
280
               0
281
               0
  0
CLASS
  1
SORTENTSTABLE
  2
AcDbSortentsTable
  3
"AutoCAD"
 90
        0
280
               0
281
               0
  0
CLASS
  1
LAYER_INDEX
  2
AcDbLayerIndex
  3
"Acad"
 90
        0
280
               0
281
               0
  0
CLASS
  1
SPATIAL_INDEX
  2
AcDbSpatialIndex
  3
"Acad"
 90
        0
280
               0
281
               0
  0
CLASS
  1
OBJECT_PTR
  2
CAseDLPNTableRecord
  3
"ASE-LPNTableRecord"
 90
        1
280
               0
281
               0
  0
CLASS
  1
LAYOUT
  2
AcDbLayout
  3
"AutoCAD 2000"
 90
        1
280
               0
281
               0
  0
CLASS
  1
PLOTSETTINGS
  2
AcDbPlotSettings
  3
"AutoCAD 2000"
 90
        1
280
               0
281
               0
  0
CLASS
  1
ACDBDICTIONARYWDFLT
  2
AcDbDictionaryWithDefault
  3
"AutoCAD 2000"
 90
        1
280
               0
281
               0
  0
CLASS
  1
ACDBPLACEHOLDER
  2
AcDbPlaceHolder
  3
"AutoCAD 2000"
 90
        1
280
               0
281
               0
  0
CLASS
  1
VBA_PROJECT
  2
AcDbVbaProject
  3
"acadvba"
 90
        1
280
               0
281
               0
  0
CLASS
  1
WIPEOUT
  2
AcDbWipeout
  3
WipeOut|AutoCAD Express Tool|expresstools@autodesk.com
 90
      127
280
               0
281
               1
  0
CLASS
  1
WIPEOUTVARIABLES
  2
AcDbWipeoutVariables
  3
WipeOut|AutoCAD Express Tool|expresstools@autodesk.com
 90
        0
280
               0
281
               0
  0
CLASS
  1
RTEXT
  2
RText
  3
RText|AutoCAD Express Tool|expresstools@autodesk.com
 90
        0
280
               0
281
               1
  0
CLASS
  1
ARCALIGNEDTEXT
  2
AcDbArcAlignedText
  3
ATEXT|AutoCAD Express Tool|expresstools@autodesk.com
 90
        0
280
               0
281
               1
  0
ENDSEC
  0
SECTION
  2
TABLES
  0
TABLE
  2
VPORT
  5
7
100
AcDbSymbolTable
 70
               1
  0
VPORT
  5
15
100
AcDbSymbolTableRecord
100
AcDbViewportTableRecord
  2
*ACTIVE
 70
               0
 10
0.0
 20
0.0
 11
1.0
 21
1.0
 12
1.0000021457672119
 22
-0.4499999999999886
 13
0.0
 23
0.0
 14
1.0
 24
1.0
 15
0.0
 25
0.0
 16
0.0
 26
0.0
 36
1.0
 17
0.0
 27
0.0
 37
0.0
 40
268.76100000000002
 41
1.7320508075688772
 42
50.0
 43
0.0
 44
0.0
 50
0.0
 51
0.0
 71
               0
 72
             100
 73
               1
 74
               1
 75
               0
 76
               0
 77
               0
 78
               0
  0
ENDTAB
  0
TABLE
  2
LTYPE
  5
4
100
AcDbSymbolTable
 70
               5
  0
LTYPE
  5
11
100
AcDbSymbolTableRecord
100
AcDbLinetypeTableRecord
  2
BYBLOCK
 70
              64
  3

 72
              65
 73
               0
 40
0.0
  0
LTYPE
  5
12
100
AcDbSymbolTableRecord
100
AcDbLinetypeTableRecord
  2
BYLAYER
 70
              64
  3

 72
              65
 73
               0
 40
0.0
  0
LTYPE
  5
13
100
AcDbSymbolTableRecord
100
AcDbLinetypeTableRecord
  2
CONTINUOUS
 70
              64
  3
Solid line
 72
              65
 73
               0
 40
0.0
  0
LTYPE
  5
37
100
AcDbSymbolTableRecord
100
AcDbLinetypeTableRecord
  2
CENTER
 70
              64
  3
Center ____ _ ____ _ ____ _ ____ _ ____ _ ____
 72
              65
 73
               4
 40
50.800000000000004
 49
31.75
 74
               0
 49
-6.3499999999999996
 74
               0
 49
6.3499999999999996
 74
               0
 49
-6.3499999999999996
 74
               0
  0
LTYPE
  5
115
100
AcDbSymbolTableRecord
100
AcDbLinetypeTableRecord
  2
PHANTOM
 70
              64
  3
Phantom ______  __  __  ______  __  __  ______
 72
              65
 73
               6
 40
63.500000000000007
 49
31.75
 74
               0
 49
-6.3499999999999996
 74
               0
 49
6.3499999999999996
 74
               0
 49
-6.3499999999999996
 74
               0
 49
6.3499999999999996
 74
               0
 49
-6.3499999999999996
 74
               0
  0
ENDTAB
  0
TABLE
  2
LAYER
  5
2
100
AcDbSymbolTable
 70
               2
  0
LAYER
  5
14
100
AcDbSymbolTableRecord
100
AcDbLayerTableRecord
  2
0
 70
               0
 62
               7
  6
CONTINUOUS
  0
LAYER
  5
1D
100
AcDbSymbolTableRecord
100
AcDbLayerTableRecord
  2
DEFPOINTS
 70
               0
 62
               7
  6
CONTINUOUS
  0
ENDTAB
  0
TABLE
  2
STYLE
  5
3
100
AcDbSymbolTable
 70
               1
  0
STYLE
  5
17
100
AcDbSymbolTableRecord
100
AcDbTextStyleTableRecord
  2
MX_NOTE_STANDARD
 70
               0
 40
3.2000000476837158
 41
1.0
 50
0.0
 71
               0
 42
3.2000000476837158
  3
txt.shx
  4
extfont.shx
  0
ENDTAB
  0
TABLE
  2
VIEW
  5
5
100
AcDbSymbolTable
 70
               0
  0
ENDTAB
  0
TABLE
  2
UCS
  5
6
100
AcDbSymbolTable
 70
               0
  0
ENDTAB
  0
TABLE
  2
APPID
  5
8
100
AcDbSymbolTable
 70
               1
  0
APPID
  5
16
100
AcDbSymbolTableRecord
100
AcDbRegAppTableRecord
  2
ACAD
 70
               0
  0
ENDTAB
  0
TABLE
  2
DIMSTYLE
  5
9
100
AcDbSymbolTable
 70
               1
  0
DIMSTYLE
105
18
100
AcDbSymbolTableRecord
100
AcDbDimStyleTableRecord
  2
MXDIMSTYLE
 70
               0
  3

  4

  5

  6

  7

 40
1.0
 41
2.5
 42
1.5
 43
3.75
 44
1.5
 45
0.0
 46
0.0
 47
0.0
 48
0.0
 71
               0
 72
               0
 73
               0
 74
               0
 75
               0
 76
               0
 77
               1
 78
               8
140
3.2000000476837158
141
2.5
142
0.0
143
0.0394
144
1.0
145
0.0
146
1.0
147
1.0
170
               0
171
               4
172
               1
173
               0
174
               0
175
               0
176
               0
177
               0
178
               0
270
               2
271
               4
272
               4
273
               8
274
               4
275
               0
280
               0
281
               0
282
               0
283
               1
284
               0
285
               0
286
               0
287
               3
288
               1
340
17
  0
ENDTAB
  0
TABLE
  2
BLOCK_RECORD
  5
1
100
AcDbSymbolTable
 70
               2
  0
BLOCK_RECORD
  5
A
100
AcDbSymbolTableRecord
100
AcDbBlockTableRecord
  2
*MODEL_SPACE
  0
BLOCK_RECORD
  5
B
100
AcDbSymbolTableRecord
100
AcDbBlockTableRecord
  2
*PAPER_SPACE
  0
BLOCK_RECORD
  5
1E
100
AcDbSymbolTableRecord
100
AcDbBlockTableRecord
  2
MS_1
  0
BLOCK_RECORD
  5
1F
100
AcDbSymbolTableRecord
100
AcDbBlockTableRecord
  2
MS_2
  0
ENDTAB
  0
ENDSEC
  0
SECTION
  2
BLOCKS
  0
BLOCK
  5
D
100
AcDbEntity
  8
0
100
AcDbBlockBegin
  2
*MODEL_SPACE
 70
               0
 10
0.0
 20
0.0
 30
0.0
  3
*MODEL_SPACE
  1

  0
ENDBLK
  5
E
100
AcDbEntity
  8
0
100
AcDbBlockEnd
  0
BLOCK
  5
F
100
AcDbEntity
 67
               1
  8
0
100
AcDbBlockBegin
  2
*PAPER_SPACE
 70
               0
 10
0.0
 20
0.0
 30
0.0
  3
*PAPER_SPACE
  1

  0
ENDBLK
  5
10
100
AcDbEntity
 67
               1
  8
0
100
AcDbBlockEnd
  0
BLOCK
  5
20
100
AcDbEntity
  8
0
100
AcDbBlockBegin
  2
MS_1
 70
               0
 10
0.0
 20
0.0
 30
0.0
  3
MS_1
  1

  0
ARC
  5
21
100
AcDbEntity
  8
0
  6
CONTINUOUS
 62
               7
100
AcDbCircle
 10
4.7572650909423828
 20
15.800000000000004
 30
0.0
 40
7.6468282610365721
100
AcDbArc
 50
342.49564442402169
 51
17.504355575977474
  0
ARC
  5
22
100
AcDbEntity
  8
0
  6
CONTINUOUS
 62
               7
100
AcDbCircle
 10
10.349734039541886
 20
12.354186994689364
 30
0.0
 40
2.0503150439460756
100
AcDbArc
 50
359.60354316836253
 51
33.97611757400599
  0
ARC
  5
23
100
AcDbEntity
  8
0
  6
CONTINUOUS
 62
               7
100
AcDbCircle
 10
11.946198511695115
 20
12.340834944646353
 30
0.0
 40
2.0461986820433311
100
AcDbArc
 50
145.49370184697213
 51
180.02337935514726
  0
ARC
  5
24
100
AcDbEntity
  8
0
  6
CONTINUOUS
 62
               7
100
AcDbCircle
 10
10.349734039541886
 20
19.245813005310644
 30
0.0
 40
2.0503150439460756
100
AcDbArc
 50
326.02388242599318
 51
0.3964568316366869
  0
ARC
  5
25
100
AcDbEntity
  8
0
  6
CONTINUOUS
 62
               7
100
AcDbCircle
 10
11.946198511695115
 20
19.259165055353655
 30
0.0
 40
2.0461986820433311
100
AcDbArc
 50
179.97662064485189
 51
214.50629815302702
  0
ARC
  5
26
100
AcDbEntity
  8
0
  6
CONTINUOUS
 62
               7
100
AcDbCircle
 10
17.542734146118164
 20
15.800000000000004
 30
0.0
 40
7.6372911849055143
100
AcDbArc
 50
162.47307799051785
 51
197.52692200948135
  0
LINE
  5
27
100
AcDbEntity
  8
0
  6
CONTINUOUS
 62
               7
100
AcDbLine
 10
14.0
 20
11.800000000000004
 30
0.0
 11
14.0
 21
19.800000000000004
 31
0.0
  0
LINE
  5
28
100
AcDbEntity
  8
0
  6
CONTINUOUS
 62
               7
100
AcDbLine
 10
2.3999999999999773
 20
18.029999999999994
 30
0.0
 11
0.8999999999999773
 21
17.770000000000003
 31
0.0
  0
LINE
  5
29
100
AcDbEntity
  8
0
  6
CONTINUOUS
 62
               7
100
AcDbLine
 10
0.8999999999999773
 20
13.830000000000005
 30
0.0
 11
0.8999999999999773
 21
17.770000000000003
 31
0.0
  0
LINE
  5
2A
100
AcDbEntity
  8
0
  6
CONTINUOUS
 62
               7
100
AcDbLine
 10
2.3999999999999773
 20
13.570000000000014
 30
0.0
 11
0.8999999999999773
 21
13.830000000000005
 31
0.0
  0
LINE
  5
2B
100
AcDbEntity
  8
0
  6
CONTINUOUS
 62
               7
100
AcDbLine
 10
14.0
 20
11.800000000000004
 30
0.0
 11
12.399999999999977
 21
11.800000000000004
 31
0.0
  0
LINE
  5
2C
100
AcDbEntity
  8
0
  6
CONTINUOUS
 62
               7
100
AcDbLine
 10
14.0
 20
19.800000000000004
 30
0.0
 11
12.399999999999977
 21
19.800000000000004
 31
0.0
  0
LINE
  5
2D
100
AcDbEntity
  8
0
  6
CONTINUOUS
 62
               7
100
AcDbLine
 10
13.399999999999977
 20
11.800000000000004
 30
0.0
 11
13.399999999999977
 21
19.800000000000004
 31
0.0
  0
LINE
  5
2E
100
AcDbEntity
  8
0
  6
CONTINUOUS
 62
               7
100
AcDbLine
 10
12.049999999999955
 20
11.189999999999991
 30
0.0
 11
10.259999999999991
 21
11.189999999999991
 31
0.0
  0
LINE
  5
2F
100
AcDbEntity
  8
0
  6
CONTINUOUS
 62
               7
100
AcDbLine
 10
12.049999999999955
 20
11.189999999999991
 30
0.0
 11
12.399999999999977
 21
11.800000000000004
 31
0.0
  0
LINE
  5
30
100
AcDbEntity
  8
0
  6
CONTINUOUS
 62
               7
100
AcDbLine
 10
10.259999999999991
 20
11.189999999999991
 30
0.0
 11
9.8999999999999773
 21
11.800000000000004
 31
0.0
  0
LINE
  5
31
100
AcDbEntity
  8
0
  6
CONTINUOUS
 62
               7
100
AcDbLine
 10
12.049999999999955
 20
20.410000000000018
 30
0.0
 11
12.399999999999977
 21
19.800000000000004
 31
0.0
  0
LINE
  5
32
100
AcDbEntity
  8
0
  6
CONTINUOUS
 62
               7
100
AcDbLine
 10
12.049999999999955
 20
13.499999999999993
 30
0.0
 11
10.259999999999991
 21
13.499999999999993
 31
0.0
  0
LINE
  5
33
100
AcDbEntity
  8
0
  6
CONTINUOUS
 62
               7
100
AcDbLine
 10
12.049999999999955
 20
18.100000000000016
 30
0.0
 11
10.259999999999991
 21
18.100000000000016
 31
0.0
  0
LINE
  5
34
100
AcDbEntity
  8
0
  6
CONTINUOUS
 62
               7
100
AcDbLine
 10
12.049999999999955
 20
20.410000000000018
 30
0.0
 11
10.259999999999991
 21
20.410000000000018
 31
0.0
  0
LINE
  5
35
100
AcDbEntity
  8
0
  6
CONTINUOUS
 62
               7
100
AcDbLine
 10
10.259999999999991
 20
20.410000000000018
 30
0.0
 11
9.8999999999999773
 21
19.800000000000004
 31
0.0
  0
LINE
  5
36
100
AcDbEntity
  8
0
  6
CONTINUOUS
 62
               7
100
AcDbLine
 10
12.399999999999977
 20
11.800000000000004
 30
0.0
 11
12.399999999999977
 21
19.800000000000004
 31
0.0
  0
LINE
  5
38
100
AcDbEntity
  8
0
  6
CENTER
 62
               2
100
AcDbLine
 10
25.095065115649163
 20
15.800000000000004
 30
0.0
 11
-0.6900000000000546
 21
15.800000000000004
 31
0.0
  0
LINE
  5
39
100
AcDbEntity
  8
0
  6
CONTINUOUS
 62
               7
100
AcDbLine
 10
9.8999999999999773
 20
20.300000000000004
 30
0.0
 11
2.3999999999999773
 21
20.300000000000004
 31
0.0
  0
LINE
  5
3A
100
AcDbEntity
  8
0
  6
CONTINUOUS
 62
               7
100
AcDbLine
 10
9.8999999999999773
 20
11.300000000000004
 30
0.0
 11
2.3999999999999773
 21
11.300000000000004
 31
0.0
  0
LINE
  5
3B
100
AcDbEntity
  8
0
  6
CONTINUOUS
 62
               7
100
AcDbLine
 10
2.3999999999999773
 20
11.300000000000004
 30
0.0
 11
2.3999999999999773
 21
20.300000000000004
 31
0.0
  0
LINE
  5
3C
100
AcDbEntity
  8
0
  6
CONTINUOUS
 62
               7
100
AcDbLine
 10
9.8999999999999773
 20
11.300000000000004
 30
0.0
 11
9.8999999999999773
 21
20.300000000000004
 31
0.0
  0
LINE
  5
3D
100
AcDbEntity
  8
0
  6
CONTINUOUS
 62
               7
100
AcDbLine
 10
24.5
 20
19.800000000000004
 30
0.0
 11
14.0
 21
19.800000000000004
 31
0.0
  0
LINE
  5
3E
100
AcDbEntity
  8
0
  6
CONTINUOUS
 62
               7
100
AcDbLine
 10
24.5
 20
11.800000000000004
 30
0.0
 11
14.0
 21
11.800000000000004
 31
0.0
  0
LINE
  5
3F
100
AcDbEntity
  8
0
  6
CONTINUOUS
 62
               7
100
AcDbLine
 10
24.5
 20
11.800000000000004
 30
0.0
 11
24.5
 21
19.800000000000004
 31
0.0
  0
LINE
  5
40
100
AcDbEntity
  8
0
  6
CONTINUOUS
 62
               7
100
AcDbLine
 10
1.2999999999999545
 20
-24.290000000000003
 30
0.0
 11
38.699999999999932
 21
-24.290000000000003
 31
0.0
  0
LINE
  5
41
100
AcDbEntity
  8
0
  6
CENTER
 62
               2
100
AcDbLine
 10
-5.3400000000000318
 20
0.0
 30
0.0
 11
55.120000000000005
 21
0.0
 31
0.0
  0
LINE
  5
42
100
AcDbEntity
  8
0
  6
CONTINUOUS
 62
               7
100
AcDbLine
 10
39.5
 20
24.299999999999997
 30
0.0
 11
39.5
 21
9.5
 31
0.0
  0
LINE
  5
43
100
AcDbEntity
  8
0
  6
CONTINUOUS
 62
               7
100
AcDbLine
 10
0.5
 20
24.299999999999997
 30
0.0
 11
0.5
 21
9.5
 31
0.0
  0
LINE
  5
44
100
AcDbEntity
  8
0
  6
CONTINUOUS
 62
               7
100
AcDbLine
 10
1.2999999999999545
 20
-24.290000000000003
 30
0.0
 11
0.5
 21
-23.490000000000002
 31
0.0
  0
LINE
  5
45
100
AcDbEntity
  8
0
  6
CONTINUOUS
 62
               7
100
AcDbLine
 10
38.699999999999932
 20
-24.290000000000003
 30
0.0
 11
39.5
 21
-23.490000000000002
 31
0.0
  0
LINE
  5
46
100
AcDbEntity
  8
0
  6
CONTINUOUS
 62
               7
100
AcDbLine
 10
4.6299999999999955
 20
9.0
 30
0.0
 11
4.6299999999999955
 21
-9.0
 31
0.0
  0
LINE
  5
47
100
AcDbEntity
  8
0
  6
CONTINUOUS
 62
               7
100
AcDbLine
 10
35.370000000000005
 20
9.0
 30
0.0
 11
35.370000000000005
 21
-9.0
 31
0.0
  0
LINE
  5
48
100
AcDbEntity
  8
0
  6
CONTINUOUS
 62
               7
100
AcDbLine
 10
0.0
 20
9.0
 30
0.0
 11
0.0
 21
-9.0
 31
0.0
  0
LINE
  5
49
100
AcDbEntity
  8
0
  6
CONTINUOUS
 62
               7
100
AcDbLine
 10
40.0
 20
9.0
 30
0.0
 11
40.0
 21
-9.0
 31
0.0
  0
LINE
  5
4A
100
AcDbEntity
  8
0
  6
CONTINUOUS
 62
               7
100
AcDbLine
 10
1.0
 20
-10.0
 30
0.0
 11
3.6299999999999955
 21
-10.0
 31
0.0
  0
LINE
  5
4B
100
AcDbEntity
  8
0
  6
CONTINUOUS
 62
               7
100
AcDbLine
 10
1.0
 20
10.0
 30
0.0
 11
3.6299999999999955
 21
10.0
 31
0.0
  0
LINE
  5
4C
100
AcDbEntity
  8
0
  6
CONTINUOUS
 62
               7
100
AcDbLine
 10
0.0
 20
-9.0
 30
0.0
 11
1.0
 21
-10.0
 31
0.0
  0
LINE
  5
4D
100
AcDbEntity
  8
0
  6
CONTINUOUS
 62
               7
100
AcDbLine
 10
0.0
 20
9.0
 30
0.0
 11
1.0
 21
10.0
 31
0.0
  0
LINE
  5
4E
100
AcDbEntity
  8
0
  6
CONTINUOUS
 62
               7
100
AcDbLine
 10
39.0
 20
10.0
 30
0.0
 11
40.0
 21
9.0
 31
0.0
  0
LINE
  5
4F
100
AcDbEntity
  8
0
  6
CONTINUOUS
 62
               7
100
AcDbLine
 10
40.0
 20
-9.0
 30
0.0
 11
39.0
 21
-10.0
 31
0.0
  0
LINE
  5
50
100
AcDbEntity
  8
0
  6
CONTINUOUS
 62
               7
100
AcDbLine
 10
36.370000000000005
 20
-10.0
 30
0.0
 11
39.0
 21
-10.0
 31
0.0
  0
LINE
  5
51
100
AcDbEntity
  8
0
  6
CONTINUOUS
 62
               7
100
AcDbLine
 10
36.370000000000005
 20
10.0
 30
0.0
 11
39.0
 21
10.0
 31
0.0
  0
LINE
  5
52
100
AcDbEntity
  8
0
  6
CONTINUOUS
 62
               7
100
AcDbLine
 10
0.5
 20
-9.5
 30
0.0
 11
0.5
 21
-23.490000000000002
 31
0.0
  0
LINE
  5
53
100
AcDbEntity
  8
0
  6
CONTINUOUS
 62
               7
100
AcDbLine
 10
39.5
 20
-9.5
 30
0.0
 11
39.5
 21
-23.490000000000002
 31
0.0
  0
LINE
  5
54
100
AcDbEntity
  8
0
  6
CONTINUOUS
 62
               7
100
AcDbLine
 10
1.0
 20
10.0
 30
0.0
 11
1.0
 21
-10.0
 31
0.0
  0
LINE
  5
55
100
AcDbEntity
  8
0
  6
CONTINUOUS
 62
               7
100
AcDbLine
 10
39.0
 20
-10.0
 30
0.0
 11
39.0
 21
10.0
 31
0.0
  0
LINE
  5
56
100
AcDbEntity
  8
0
  6
CONTINUOUS
 62
               7
100
AcDbLine
 10
2.0
 20
7.0
 30
0.0
 11
2.0
 21
-7.0
 31
0.0
  0
LINE
  5
57
100
AcDbEntity
  8
0
  6
CONTINUOUS
 62
               7
100
AcDbLine
 10
38.0
 20
7.0
 30
0.0
 11
38.0
 21
-7.0
 31
0.0
  0
LINE
  5
58
100
AcDbEntity
  8
0
  6
CONTINUOUS
 62
               7
100
AcDbLine
 10
2.0
 20
7.0
 30
0.0
 11
4.6299999999999955
 21
7.0
 31
0.0
  0
LINE
  5
59
100
AcDbEntity
  8
0
  6
CONTINUOUS
 62
               7
100
AcDbLine
 10
2.0
 20
-7.0
 30
0.0
 11
4.6299999999999955
 21
-7.0
 31
0.0
  0
LINE
  5
5A
100
AcDbEntity
  8
0
  6
CONTINUOUS
 62
               7
100
AcDbLine
 10
35.370000000000005
 20
7.0
 30
0.0
 11
38.0
 21
7.0
 31
0.0
  0
LINE
  5
5B
100
AcDbEntity
  8
0
  6
CONTINUOUS
 62
               7
100
AcDbLine
 10
35.370000000000005
 20
-7.0
 30
0.0
 11
38.0
 21
-7.0
 31
0.0
  0
LINE
  5
5C
100
AcDbEntity
  8
0
  6
CENTER
 62
               2
100
AcDbLine
 10
24.0
 20
12.539999999999999
 30
0.0
 11
24.0
 21
-23.080000000000002
 31
0.0
  0
LINE
  5
5D
100
AcDbEntity
  8
0
  6
CONTINUOUS
 62
               7
100
AcDbLine
 10
3.6299999999999955
 20
-10.0
 30
0.0
 11
4.6299999999999955
 21
-9.0
 31
0.0
  0
LINE
  5
5E
100
AcDbEntity
  8
0
  6
CONTINUOUS
 62
               7
100
AcDbLine
 10
3.6299999999999955
 20
10.0
 30
0.0
 11
4.6299999999999955
 21
9.0
 31
0.0
  0
LINE
  5
5F
100
AcDbEntity
  8
0
  6
CONTINUOUS
 62
               7
100
AcDbLine
 10
36.370000000000005
 20
10.0
 30
0.0
 11
35.370000000000005
 21
9.0
 31
0.0
  0
LINE
  5
60
100
AcDbEntity
  8
0
  6
CONTINUOUS
 62
               7
100
AcDbLine
 10
35.370000000000005
 20
-9.0
 30
0.0
 11
36.370000000000005
 21
-10.0
 31
0.0
  0
LINE
  5
61
100
AcDbEntity
  8
0
  6
CONTINUOUS
 62
               7
100
AcDbLine
 10
0.0
 20
9.0
 30
0.0
 11
4.6299999999999955
 21
9.0
 31
0.0
  0
LINE
  5
62
100
AcDbEntity
  8
0
  6
CONTINUOUS
 62
               7
100
AcDbLine
 10
0.0
 20
-9.0
 30
0.0
 11
4.6299999999999955
 21
-9.0
 31
0.0
  0
LINE
  5
63
100
AcDbEntity
  8
0
  6
CONTINUOUS
 62
               7
100
AcDbLine
 10
35.370000000000005
 20
-9.0
 30
0.0
 11
40.0
 21
-9.0
 31
0.0
  0
LINE
  5
64
100
AcDbEntity
  8
0
  6
CONTINUOUS
 62
               7
100
AcDbLine
 10
35.370000000000005
 20
9.0
 30
0.0
 11
40.0
 21
9.0
 31
0.0
  0
LINE
  5
65
100
AcDbEntity
  8
0
  6
CONTINUOUS
 62
               7
100
AcDbLine
 10
17.299999999999955
 20
21.799999999999997
 30
0.0
 11
22.699999999999932
 21
21.799999999999997
 31
0.0
  0
LINE
  5
66
100
AcDbEntity
  8
0
  6
CONTINUOUS
 62
               7
100
AcDbLine
 10
17.299999999999955
 20
24.299999999999997
 30
0.0
 11
17.299999999999955
 21
21.799999999999997
 31
0.0
  0
LINE
  5
67
100
AcDbEntity
  8
0
  6
CONTINUOUS
 62
               7
100
AcDbLine
 10
22.699999999999932
 20
24.299999999999997
 30
0.0
 11
22.699999999999932
 21
21.799999999999997
 31
0.0
  0
LINE
  5
68
100
AcDbEntity
  8
0
  6
CONTINUOUS
 62
               7
100
AcDbLine
 10
39.5
 20
24.299999999999997
 30
0.0
 11
0.5
 21
24.299999999999997
 31
0.0
  0
LINE
  5
69
100
AcDbEntity
  8
0
  6
CONTINUOUS
 62
               7
100
AcDbLine
 10
38.0
 20
33.300000000000004
 30
0.0
 11
2.0
 21
33.300000000000004
 31
0.0
  0
LINE
  5
6A
100
AcDbEntity
  8
0
  6
CONTINUOUS
 62
               7
100
AcDbLine
 10
1.0
 20
26.299999999999997
 30
0.0
 11
1.0
 21
32.300000000000004
 31
0.0
  0
LINE
  5
6B
100
AcDbEntity
  8
0
  6
CONTINUOUS
 62
               7
100
AcDbLine
 10
39.0
 20
26.299999999999997
 30
0.0
 11
39.0
 21
32.300000000000004
 31
0.0
  0
LINE
  5
6C
100
AcDbEntity
  8
0
  6
CONTINUOUS
 62
               7
100
AcDbLine
 10
39.0
 20
28.299999999999997
 30
0.0
 11
38.990000000000009
 21
28.299999999999997
 31
0.0
  0
LINE
  5
6D
100
AcDbEntity
  8
0
  6
CONTINUOUS
 62
               7
100
AcDbLine
 10
39.0
 20
32.300000000000004
 30
0.0
 11
38.0
 21
33.300000000000004
 31
0.0
  0
LINE
  5
6E
100
AcDbEntity
  8
0
  6
CONTINUOUS
 62
               7
100
AcDbLine
 10
1.0
 20
32.300000000000004
 30
0.0
 11
2.0
 21
33.300000000000004
 31
0.0
  0
LINE
  5
6F
100
AcDbEntity
  8
0
  6
CONTINUOUS
 62
               7
100
AcDbLine
 10
38.100000000000023
 20
29.0
 30
0.0
 11
37.559999999999945
 21
29.0
 31
0.0
  0
LINE
  5
70
100
AcDbEntity
  8
0
  6
CONTINUOUS
 62
               7
100
AcDbLine
 10
22.5
 20
28.299999999999997
 30
0.0
 11
22.5
 21
32.300000000000004
 31
0.0
  0
LINE
  5
71
100
AcDbEntity
  8
0
  6
CONTINUOUS
 62
               7
100
AcDbLine
 10
22.5
 20
32.300000000000004
 30
0.0
 11
22.779999999999973
 21
33.300000000000004
 31
0.0
  0
LINE
  5
72
100
AcDbEntity
  8
0
  6
CONTINUOUS
 62
               7
100
AcDbLine
 10
27.25
 20
28.299999999999997
 30
0.0
 11
26.709999999999923
 21
29.0
 31
0.0
  0
LINE
  5
73
100
AcDbEntity
  8
0
  6
CONTINUOUS
 62
               7
100
AcDbLine
 10
27.25
 20
32.300000000000004
 30
0.0
 11
26.480000000000018
 21
33.300000000000004
 31
0.0
  0
LINE
  5
74
100
AcDbEntity
  8
0
  6
CONTINUOUS
 62
               7
100
AcDbLine
 10
26.709999999999923
 20
29.0
 30
0.0
 11
26.709999999999923
 21
32.999999999999993
 31
0.0
  0
LINE
  5
75
100
AcDbEntity
  8
0
  6
CONTINUOUS
 62
               7
100
AcDbLine
 10
27.25
 20
28.299999999999997
 30
0.0
 11
27.25
 21
32.300000000000004
 31
0.0
  0
LINE
  5
76
100
AcDbEntity
  8
0
  6
CONTINUOUS
 62
               7
100
AcDbLine
 10
31.579999999999927
 20
28.299999999999997
 30
0.0
 11
31.579999999999927
 21
32.300000000000004
 31
0.0
  0
LINE
  5
77
100
AcDbEntity
  8
0
  6
CONTINUOUS
 62
               7
100
AcDbLine
 10
31.579999999999927
 20
32.300000000000004
 30
0.0
 11
31.299999999999955
 21
33.300000000000004
 31
0.0
  0
LINE
  5
78
100
AcDbEntity
  8
0
  6
CONTINUOUS
 62
               7
100
AcDbLine
 10
35.059999999999945
 20
28.299999999999997
 30
0.0
 11
34.319999999999936
 21
29.0
 31
0.0
  0
LINE
  5
79
100
AcDbEntity
  8
0
  6
CONTINUOUS
 62
               7
100
AcDbLine
 10
35.059999999999945
 20
32.300000000000004
 30
0.0
 11
34.009999999999991
 21
33.300000000000004
 31
0.0
  0
LINE
  5
7A
100
AcDbEntity
  8
0
  6
CONTINUOUS
 62
               7
100
AcDbLine
 10
34.319999999999936
 20
32.999999999999993
 30
0.0
 11
34.319999999999936
 21
29.0
 31
0.0
  0
LINE
  5
7B
100
AcDbEntity
  8
0
  6
CONTINUOUS
 62
               7
100
AcDbLine
 10
35.059999999999945
 20
28.299999999999997
 30
0.0
 11
35.059999999999945
 21
32.300000000000004
 31
0.0
  0
LINE
  5
7C
100
AcDbEntity
  8
0
  6
CONTINUOUS
 62
               7
100
AcDbLine
 10
37.559999999999945
 20
28.299999999999997
 30
0.0
 11
37.559999999999945
 21
32.300000000000004
 31
0.0
  0
LINE
  5
7D
100
AcDbEntity
  8
0
  6
CONTINUOUS
 62
               7
100
AcDbLine
 10
37.559999999999945
 20
32.300000000000004
 30
0.0
 11
36.789999999999964
 21
33.300000000000004
 31
0.0
  0
LINE
  5
7E
100
AcDbEntity
  8
0
  6
CONTINUOUS
 62
               7
100
AcDbLine
 10
38.829999999999927
 20
28.299999999999997
 30
0.0
 11
38.100000000000023
 21
29.0
 31
0.0
  0
LINE
  5
7F
100
AcDbEntity
  8
0
  6
CONTINUOUS
 62
               7
100
AcDbLine
 10
26.709999999999923
 20
29.0
 30
0.0
 11
22.689999999999941
 21
29.0
 31
0.0
  0
LINE
  5
80
100
AcDbEntity
  8
0
  6
CONTINUOUS
 62
               7
100
AcDbLine
 10
27.25
 20
28.299999999999997
 30
0.0
 11
22.5
 21
28.299999999999997
 31
0.0
  0
LINE
  5
81
100
AcDbEntity
  8
0
  6
CONTINUOUS
 62
               7
100
AcDbLine
 10
35.059999999999945
 20
28.299999999999997
 30
0.0
 11
31.579999999999927
 21
28.299999999999997
 31
0.0
  0
LINE
  5
82
100
AcDbEntity
  8
0
  6
CONTINUOUS
 62
               7
100
AcDbLine
 10
34.319999999999936
 20
29.0
 30
0.0
 11
31.579999999999927
 21
29.0
 31
0.0
  0
LINE
  5
83
100
AcDbEntity
  8
0
  6
CONTINUOUS
 62
               7
100
AcDbLine
 10
31.579999999999927
 20
32.300000000000004
 30
0.0
 11
27.25
 21
32.300000000000004
 31
0.0
  0
LINE
  5
84
100
AcDbEntity
  8
0
  6
CONTINUOUS
 62
               7
100
AcDbLine
 10
37.559999999999945
 20
32.300000000000004
 30
0.0
 11
35.059999999999945
 21
32.300000000000004
 31
0.0
  0
LINE
  5
85
100
AcDbEntity
  8
0
  6
CONTINUOUS
 62
               7
100
AcDbLine
 10
38.100000000000023
 20
29.0
 30
0.0
 11
38.100000000000023
 21
33.300000000000004
 31
0.0
  0
LINE
  5
86
100
AcDbEntity
  8
0
  6
CONTINUOUS
 62
               7
100
AcDbLine
 10
38.829999999999927
 20
28.299999999999997
 30
0.0
 11
37.559999999999945
 21
28.299999999999997
 31
0.0
  0
LINE
  5
87
100
AcDbEntity
  8
0
  6
CONTINUOUS
 62
               7
100
AcDbLine
 10
22.5
 20
32.300000000000004
 30
0.0
 11
20.0
 21
32.300000000000004
 31
0.0
  0
LINE
  5
88
100
AcDbEntity
  8
0
  6
CONTINUOUS
 62
               4
100
AcDbLine
 10
-5.0
 20
24.299999999999997
 30
0.0
 11
0.5
 21
24.299999999999997
 31
0.0
  0
LINE
  5
89
100
AcDbEntity
  8
0
  6
CONTINUOUS
 62
               7
100
AcDbLine
 10
1.8999999999999773
 20
29.0
 30
0.0
 11
2.42999999999995
 21
29.0
 31
0.0
  0
LINE
  5
8A
100
AcDbEntity
  8
0
  6
CONTINUOUS
 62
               7
100
AcDbLine
 10
17.5
 20
28.299999999999997
 30
0.0
 11
17.5
 21
32.300000000000004
 31
0.0
  0
LINE
  5
8B
100
AcDbEntity
  8
0
  6
CONTINUOUS
 62
               7
100
AcDbLine
 10
17.5
 20
32.300000000000004
 30
0.0
 11
17.209999999999923
 21
33.300000000000004
 31
0.0
  0
LINE
  5
8C
100
AcDbEntity
  8
0
  6
CONTINUOUS
 62
               7
100
AcDbLine
 10
12.740000000000009
 20
28.299999999999997
 30
0.0
 11
13.279999999999973
 21
29.0
 31
0.0
  0
LINE
  5
8D
100
AcDbEntity
  8
0
  6
CONTINUOUS
 62
               7
100
AcDbLine
 10
12.740000000000009
 20
32.300000000000004
 30
0.0
 11
13.509999999999991
 21
33.300000000000004
 31
0.0
  0
LINE
  5
8E
100
AcDbEntity
  8
0
  6
CONTINUOUS
 62
               7
100
AcDbLine
 10
13.279999999999973
 20
29.0
 30
0.0
 11
13.279999999999973
 21
32.999999999999993
 31
0.0
  0
LINE
  5
8F
100
AcDbEntity
  8
0
  6
CONTINUOUS
 62
               7
100
AcDbLine
 10
12.740000000000009
 20
28.299999999999997
 30
0.0
 11
12.740000000000009
 21
32.300000000000004
 31
0.0
  0
LINE
  5
90
100
AcDbEntity
  8
0
  6
CONTINUOUS
 62
               7
100
AcDbLine
 10
8.4099999999999682
 20
28.299999999999997
 30
0.0
 11
8.4099999999999682
 21
32.300000000000004
 31
0.0
  0
LINE
  5
91
100
AcDbEntity
  8
0
  6
CONTINUOUS
 62
               7
100
AcDbLine
 10
8.4099999999999682
 20
32.300000000000004
 30
0.0
 11
8.6899999999999409
 21
33.300000000000004
 31
0.0
  0
LINE
  5
92
100
AcDbEntity
  8
0
  6
CONTINUOUS
 62
               7
100
AcDbLine
 10
4.92999999999995
 20
28.299999999999997
 30
0.0
 11
5.6699999999999591
 21
29.0
 31
0.0
  0
LINE
  5
93
100
AcDbEntity
  8
0
  6
CONTINUOUS
 62
               7
100
AcDbLine
 10
4.92999999999995
 20
32.300000000000004
 30
0.0
 11
5.6699999999999591
 21
32.999999999999993
 31
0.0
  0
LINE
  5
94
100
AcDbEntity
  8
0
  6
CONTINUOUS
 62
               7
100
AcDbLine
 10
5.6699999999999591
 20
33.300000000000004
 30
0.0
 11
5.6699999999999591
 21
29.0
 31
0.0
  0
LINE
  5
95
100
AcDbEntity
  8
0
  6
CONTINUOUS
 62
               7
100
AcDbLine
 10
4.92999999999995
 20
28.299999999999997
 30
0.0
 11
4.92999999999995
 21
32.300000000000004
 31
0.0
  0
LINE
  5
96
100
AcDbEntity
  8
0
  6
CONTINUOUS
 62
               7
100
AcDbLine
 10
2.42999999999995
 20
28.299999999999997
 30
0.0
 11
2.42999999999995
 21
32.300000000000004
 31
0.0
  0
LINE
  5
97
100
AcDbEntity
  8
0
  6
CONTINUOUS
 62
               7
100
AcDbLine
 10
2.42999999999995
 20
32.300000000000004
 30
0.0
 11
3.1999999999999886
 21
33.300000000000004
 31
0.0
  0
LINE
  5
98
100
AcDbEntity
  8
0
  6
CONTINUOUS
 62
               7
100
AcDbLine
 10
1.1599999999999682
 20
28.299999999999997
 30
0.0
 11
1.8999999999999773
 21
29.0
 31
0.0
  0
LINE
  5
99
100
AcDbEntity
  8
0
  6
CONTINUOUS
 62
               7
100
AcDbLine
 10
13.279999999999973
 20
29.0
 30
0.0
 11
17.299999999999955
 21
29.0
 31
0.0
  0
LINE
  5
9A
100
AcDbEntity
  8
0
  6
CONTINUOUS
 62
               7
100
AcDbLine
 10
12.740000000000009
 20
28.299999999999997
 30
0.0
 11
17.5
 21
28.299999999999997
 31
0.0
  0
LINE
  5
9B
100
AcDbEntity
  8
0
  6
CONTINUOUS
 62
               7
100
AcDbLine
 10
4.92999999999995
 20
28.299999999999997
 30
0.0
 11
8.4099999999999682
 21
28.299999999999997
 31
0.0
  0
LINE
  5
9C
100
AcDbEntity
  8
0
  6
CONTINUOUS
 62
               7
100
AcDbLine
 10
5.6699999999999591
 20
29.0
 30
0.0
 11
8.4099999999999682
 21
29.0
 31
0.0
  0
LINE
  5
9D
100
AcDbEntity
  8
0
  6
CONTINUOUS
 62
               7
100
AcDbLine
 10
8.4099999999999682
 20
32.300000000000004
 30
0.0
 11
12.740000000000009
 21
32.300000000000004
 31
0.0
  0
LINE
  5
9E
100
AcDbEntity
  8
0
  6
CONTINUOUS
 62
               7
100
AcDbLine
 10
2.42999999999995
 20
32.300000000000004
 30
0.0
 11
4.92999999999995
 21
32.300000000000004
 31
0.0
  0
LINE
  5
9F
100
AcDbEntity
  8
0
  6
CONTINUOUS
 62
               7
100
AcDbLine
 10
1.8999999999999773
 20
29.0
 30
0.0
 11
1.8999999999999773
 21
32.999999999999993
 31
0.0
  0
LINE
  5
A0
100
AcDbEntity
  8
0
  6
CONTINUOUS
 62
               7
100
AcDbLine
 10
1.1599999999999682
 20
28.299999999999997
 30
0.0
 11
2.42999999999995
 21
28.299999999999997
 31
0.0
  0
LINE
  5
A1
100
AcDbEntity
  8
0
  6
CONTINUOUS
 62
               7
100
AcDbLine
 10
17.5
 20
32.300000000000004
 30
0.0
 11
20.0
 21
32.300000000000004
 31
0.0
  0
LINE
  5
A2
100
AcDbEntity
  8
0
  6
CONTINUOUS
 62
               7
100
AcDbLine
 10
9.0
 20
33.300000000000004
 30
0.0
 11
9.0
 21
36.800000000000004
 31
0.0
  0
LINE
  5
A3
100
AcDbEntity
  8
0
  6
CONTINUOUS
 62
               7
100
AcDbLine
 10
31.0
 20
33.300000000000004
 30
0.0
 11
31.0
 21
36.800000000000004
 31
0.0
  0
LINE
  5
A4
100
AcDbEntity
  8
0
  6
CONTINUOUS
 62
               7
100
AcDbLine
 10
10.559999999999945
 20
33.300000000000004
 30
0.0
 11
10.559999999999945
 21
36.800000000000004
 31
0.0
  0
LINE
  5
A5
100
AcDbEntity
  8
0
  6
CONTINUOUS
 62
               7
100
AcDbLine
 10
18.42999999999995
 20
33.300000000000004
 30
0.0
 11
18.42999999999995
 21
36.800000000000004
 31
0.0
  0
LINE
  5
A6
100
AcDbEntity
  8
0
  6
CONTINUOUS
 62
               7
100
AcDbLine
 10
21.559999999999945
 20
33.300000000000004
 30
0.0
 11
21.559999999999945
 21
36.800000000000004
 31
0.0
  0
LINE
  5
A7
100
AcDbEntity
  8
0
  6
CONTINUOUS
 62
               7
100
AcDbLine
 10
29.42999999999995
 20
33.300000000000004
 30
0.0
 11
29.42999999999995
 21
36.800000000000004
 31
0.0
  0
LINE
  5
A8
100
AcDbEntity
  8
0
  6
CONTINUOUS
 62
               2
100
AcDbLine
 10
5.7999999999999545
 20
24.299999999999997
 30
0.0
 11
5.7999999999999545
 21
26.299999999999997
 31
0.0
  0
LINE
  5
A9
100
AcDbEntity
  8
0
  6
CONTINUOUS
 62
               2
100
AcDbLine
 10
34.199999999999932
 20
24.299999999999997
 30
0.0
 11
34.199999999999932
 21
26.299999999999997
 31
0.0
  0
LINE
  5
AA
100
AcDbEntity
  8
0
  6
CONTINUOUS
 62
               7
100
AcDbLine
 10
34.199999999999932
 20
36.800000000000004
 30
0.0
 11
5.7999999999999545
 21
36.800000000000004
 31
0.0
  0
LINE
  5
AB
100
AcDbEntity
  8
0
  6
CONTINUOUS
 62
               7
100
AcDbLine
 10
31.600000000000023
 20
61.800000000000004
 30
0.0
 11
8.3999999999999773
 21
61.800000000000004
 31
0.0
  0
LINE
  5
AC
100
AcDbEntity
  8
0
  6
CONTINUOUS
 62
               7
100
AcDbLine
 10
7.3999999999999773
 20
59.800000000000004
 30
0.0
 11
6.3999999999999773
 21
59.219999999999992
 31
0.0
  0
LINE
  5
AD
100
AcDbEntity
  8
0
  6
CONTINUOUS
 62
               7
100
AcDbLine
 10
33.600000000000023
 20
59.219999999999992
 30
0.0
 11
32.600000000000023
 21
59.800000000000004
 31
0.0
  0
LINE
  5
AE
100
AcDbEntity
  8
0
  6
CONTINUOUS
 62
               7
100
AcDbLine
 10
32.600000000000023
 20
59.800000000000004
 30
0.0
 11
32.600000000000023
 21
60.800000000000004
 31
0.0
  0
LINE
  5
AF
100
AcDbEntity
  8
0
  6
CONTINUOUS
 62
               7
100
AcDbLine
 10
7.3999999999999773
 20
59.800000000000004
 30
0.0
 11
7.3999999999999773
 21
60.800000000000004
 31
0.0
  0
LINE
  5
B0
100
AcDbEntity
  8
0
  6
CONTINUOUS
 62
               7
100
AcDbLine
 10
5.7999999999999545
 20
36.800000000000004
 30
0.0
 11
6.3999999999999773
 21
59.219999999999992
 31
0.0
  0
LINE
  5
B1
100
AcDbEntity
  8
0
  6
CONTINUOUS
 62
               7
100
AcDbLine
 10
34.199999999999932
 20
36.800000000000004
 30
0.0
 11
33.600000000000023
 21
59.219999999999992
 31
0.0
  0
LINE
  5
B2
100
AcDbEntity
  8
0
  6
CONTINUOUS
 62
               7
100
AcDbLine
 10
17.0
 20
39.300000000000004
 30
0.0
 11
17.539999999999964
 21
59.800000000000004
 31
0.0
  0
LINE
  5
B3
100
AcDbEntity
  8
0
  6
CONTINUOUS
 62
               7
100
AcDbLine
 10
23.0
 20
39.300000000000004
 30
0.0
 11
22.449999999999932
 21
59.800000000000004
 31
0.0
  0
LINE
  5
B4
100
AcDbEntity
  8
0
  6
CONTINUOUS
 62
               7
100
AcDbLine
 10
34.129999999999995
 20
39.300000000000004
 30
0.0
 11
31.879999999999995
 21
39.300000000000004
 31
0.0
  0
LINE
  5
B5
100
AcDbEntity
  8
0
  6
CONTINUOUS
 62
               7
100
AcDbLine
 10
32.600000000000023
 20
59.800000000000004
 30
0.0
 11
32.289999999999964
 21
59.800000000000004
 31
0.0
  0
LINE
  5
B6
100
AcDbEntity
  8
0
  6
CONTINUOUS
 62
               7
100
AcDbLine
 10
17.0
 20
39.300000000000004
 30
0.0
 11
12.350000000000023
 21
39.300000000000004
 31
0.0
  0
LINE
  5
B7
100
AcDbEntity
  8
0
  6
CONTINUOUS
 62
               7
100
AcDbLine
 10
26.730000000000018
 20
59.800000000000004
 30
0.0
 11
27.699999999999932
 21
59.219999999999992
 31
0.0
  0
LINE
  5
B8
100
AcDbEntity
  8
0
  6
CONTINUOUS
 62
               7
100
AcDbLine
 10
31.199999999999932
 20
59.219999999999992
 30
0.0
 11
30.639999999999986
 21
59.800000000000004
 31
0.0
  0
LINE
  5
B9
100
AcDbEntity
  8
0
  6
CONTINUOUS
 62
               7
100
AcDbLine
 10
26.870000000000005
 20
39.300000000000004
 30
0.0
 11
26.730000000000018
 21
59.800000000000004
 31
0.0
  0
LINE
  5
BA
100
AcDbEntity
  8
0
  6
CONTINUOUS
 62
               7
100
AcDbLine
 10
27.639999999999986
 20
39.300000000000004
 30
0.0
 11
27.699999999999932
 21
59.219999999999992
 31
0.0
  0
LINE
  5
BB
100
AcDbEntity
  8
0
  6
CONTINUOUS
 62
               7
100
AcDbLine
 10
31.199999999999932
 20
59.219999999999992
 30
0.0
 11
31.879999999999995
 21
39.300000000000004
 31
0.0
  0
LINE
  5
BC
100
AcDbEntity
  8
0
  6
CONTINUOUS
 62
               7
100
AcDbLine
 10
32.289999999999964
 20
59.800000000000004
 30
0.0
 11
32.959999999999923
 21
39.300000000000004
 31
0.0
  0
LINE
  5
BD
100
AcDbEntity
  8
0
  6
CONTINUOUS
 62
               7
100
AcDbLine
 10
13.120000000000005
 20
39.300000000000004
 30
0.0
 11
13.259999999999991
 21
59.800000000000004
 31
0.0
  0
LINE
  5
BE
100
AcDbEntity
  8
0
  6
CONTINUOUS
 62
               7
100
AcDbLine
 10
12.350000000000023
 20
39.300000000000004
 30
0.0
 11
12.289999999999964
 21
59.219999999999992
 31
0.0
  0
LINE
  5
BF
100
AcDbEntity
  8
0
  6
CONTINUOUS
 62
               7
100
AcDbLine
 10
8.7899999999999636
 20
59.219999999999992
 30
0.0
 11
8.1099999999999568
 21
39.300000000000004
 31
0.0
  0
LINE
  5
C0
100
AcDbEntity
  8
0
  6
CONTINUOUS
 62
               7
100
AcDbLine
 10
7.6999999999999886
 20
59.800000000000004
 30
0.0
 11
7.0299999999999727
 21
39.300000000000004
 31
0.0
  0
LINE
  5
C1
100
AcDbEntity
  8
0
  6
CONTINUOUS
 62
               7
100
AcDbLine
 10
13.259999999999991
 20
59.800000000000004
 30
0.0
 11
12.289999999999964
 21
59.219999999999992
 31
0.0
  0
LINE
  5
C2
100
AcDbEntity
  8
0
  6
CONTINUOUS
 62
               7
100
AcDbLine
 10
8.7899999999999636
 20
59.219999999999992
 30
0.0
 11
9.3500000000000227
 21
59.800000000000004
 31
0.0
  0
LINE
  5
C3
100
AcDbEntity
  8
0
  6
CONTINUOUS
 62
               7
100
AcDbLine
 10
22.470000000000027
 20
59.219999999999992
 30
0.0
 11
17.519999999999982
 21
59.219999999999992
 31
0.0
  0
LINE
  5
C4
100
AcDbEntity
  8
0
  6
CONTINUOUS
 62
               7
100
AcDbLine
 10
12.289999999999964
 20
59.219999999999992
 30
0.0
 11
8.7899999999999636
 21
59.219999999999992
 31
0.0
  0
LINE
  5
C5
100
AcDbEntity
  8
0
  6
CONTINUOUS
 62
               7
100
AcDbLine
 10
31.199999999999932
 20
59.219999999999992
 30
0.0
 11
27.699999999999932
 21
59.219999999999992
 31
0.0
  0
LINE
  5
C6
100
AcDbEntity
  8
0
  6
CONTINUOUS
 62
               7
100
AcDbLine
 10
27.639999999999986
 20
39.300000000000004
 30
0.0
 11
23.0
 21
39.300000000000004
 31
0.0
  0
LINE
  5
C7
100
AcDbEntity
  8
0
  6
CONTINUOUS
 62
               7
100
AcDbLine
 10
8.1099999999999568
 20
39.300000000000004
 30
0.0
 11
5.8599999999999568
 21
39.300000000000004
 31
0.0
  0
LINE
  5
C8
100
AcDbEntity
  8
0
  6
CONTINUOUS
 62
               7
100
AcDbLine
 10
22.449999999999932
 20
59.800000000000004
 30
0.0
 11
17.539999999999964
 21
59.800000000000004
 31
0.0
  0
LINE
  5
C9
100
AcDbEntity
  8
0
  6
CONTINUOUS
 62
               7
100
AcDbLine
 10
13.259999999999991
 20
59.800000000000004
 30
0.0
 11
9.3500000000000227
 21
59.800000000000004
 31
0.0
  0
LINE
  5
CA
100
AcDbEntity
  8
0
  6
CONTINUOUS
 62
               7
100
AcDbLine
 10
7.6999999999999886
 20
59.800000000000004
 30
0.0
 11
7.3999999999999773
 21
59.800000000000004
 31
0.0
  0
LINE
  5
CB
100
AcDbEntity
  8
0
  6
CONTINUOUS
 62
               7
100
AcDbLine
 10
30.639999999999986
 20
59.800000000000004
 30
0.0
 11
26.730000000000018
 21
59.800000000000004
 31
0.0
  0
LINE
  5
CC
100
AcDbEntity
  8
0
  6
CONTINUOUS
 62
               4
100
AcDbLine
 10
44.990000000000009
 20
26.299999999999997
 30
0.0
 11
39.0
 21
26.299999999999997
 31
0.0
  0
LINE
  5
CD
100
AcDbEntity
  8
0
  6
CONTINUOUS
 62
               7
100
AcDbLine
 10
5.0
 20
24.299999999999997
 30
0.0
 11
5.0
 21
26.299999999999997
 31
0.0
  0
LINE
  5
CE
100
AcDbEntity
  8
0
  6
CONTINUOUS
 62
               7
100
AcDbLine
 10
35.0
 20
24.299999999999997
 30
0.0
 11
35.0
 21
26.299999999999997
 31
0.0
  0
LINE
  5
CF
100
AcDbEntity
  8
0
  6
CONTINUOUS
 62
               4
100
AcDbLine
 10
44.990000000000009
 20
24.299999999999997
 30
0.0
 11
44.990000000000009
 21
42.300000000000004
 31
0.0
  0
LINE
  5
D0
100
AcDbEntity
  8
0
  6
CONTINUOUS
 62
               4
100
AcDbLine
 10
-5.0
 20
24.299999999999997
 30
0.0
 11
-5.0
 21
42.300000000000004
 31
0.0
  0
LINE
  5
D1
100
AcDbEntity
  8
0
  6
CONTINUOUS
 62
               4
100
AcDbLine
 10
-3.0
 20
44.300000000000004
 30
0.0
 11
6.0
 21
44.300000000000004
 31
0.0
  0
LINE
  5
D2
100
AcDbEntity
  8
0
  6
CONTINUOUS
 62
               4
100
AcDbLine
 10
-5.0
 20
42.300000000000004
 30
0.0
 11
-3.0
 21
44.300000000000004
 31
0.0
  0
LINE
  5
D3
100
AcDbEntity
  8
0
  6
CONTINUOUS
 62
               4
100
AcDbLine
 10
33.990000000000009
 20
44.300000000000004
 30
0.0
 11
43.0
 21
44.300000000000004
 31
0.0
  0
LINE
  5
D4
100
AcDbEntity
  8
0
  6
CONTINUOUS
 62
               4
100
AcDbLine
 10
44.990000000000009
 20
42.300000000000004
 30
0.0
 11
43.0
 21
44.300000000000004
 31
0.0
  0
LINE
  5
D5
100
AcDbEntity
  8
0
  6
CENTER
 62
             200
100
AcDbLine
 10
-2.2200000000000273
 20
38.300000000000004
 30
0.0
 11
8.7399999999999523
 21
38.300000000000004
 31
0.0
  0
LINE
  5
D6
100
AcDbEntity
  8
0
  6
CENTER
 62
             200
100
AcDbLine
 10
3.0
 20
34.189999999999991
 30
0.0
 11
3.0
 21
42.619999999999997
 31
0.0
  0
LINE
  5
D7
100
AcDbEntity
  8
0
  6
CENTER
 62
             200
100
AcDbLine
 10
4.0
 20
34.189999999999991
 30
0.0
 11
4.0
 21
42.619999999999997
 31
0.0
  0
LINE
  5
D8
100
AcDbEntity
  8
0
  6
CENTER
 62
             200
100
AcDbLine
 10
2.0
 20
34.189999999999991
 30
0.0
 11
2.0
 21
42.619999999999997
 31
0.0
  0
LINE
  5
D9
100
AcDbEntity
  8
0
  6
CENTER
 62
             200
100
AcDbLine
 10
36.0
 20
34.189999999999991
 30
0.0
 11
36.0
 21
42.619999999999997
 31
0.0
  0
LINE
  5
DA
100
AcDbEntity
  8
0
  6
CENTER
 62
             200
100
AcDbLine
 10
37.0
 20
34.189999999999991
 30
0.0
 11
37.0
 21
42.619999999999997
 31
0.0
  0
LINE
  5
DB
100
AcDbEntity
  8
0
  6
CENTER
 62
             200
100
AcDbLine
 10
38.0
 20
34.189999999999991
 30
0.0
 11
38.0
 21
42.619999999999997
 31
0.0
  0
LINE
  5
DC
100
AcDbEntity
  8
0
  6
CENTER
 62
             200
100
AcDbLine
 10
42.220000000000027
 20
38.300000000000004
 30
0.0
 11
31.25
 21
38.300000000000004
 31
0.0
  0
LINE
  5
DD
100
AcDbEntity
  8
0
  6
CONTINUOUS
 62
               4
100
AcDbLine
 10
38.0
 20
35.100000000000001
 30
0.0
 11
36.0
 21
35.100000000000001
 31
0.0
  0
LINE
  5
DE
100
AcDbEntity
  8
0
  6
CONTINUOUS
 62
               4
100
AcDbLine
 10
38.0
 20
41.499999999999993
 30
0.0
 11
36.0
 21
41.499999999999993
 31
0.0
  0
LINE
  5
DF
100
AcDbEntity
  8
0
  6
CONTINUOUS
 62
               4
100
AcDbLine
 10
2.0
 20
35.100000000000001
 30
0.0
 11
4.0
 21
35.100000000000001
 31
0.0
  0
LINE
  5
E0
100
AcDbEntity
  8
0
  6
CONTINUOUS
 62
               4
100
AcDbLine
 10
2.0
 20
41.499999999999993
 30
0.0
 11
4.0
 21
41.499999999999993
 31
0.0
  0
LINE
  5
E1
100
AcDbEntity
  8
0
  6
CONTINUOUS
 62
               4
100
AcDbLine
 10
39.5
 20
24.299999999999997
 30
0.0
 11
44.990000000000009
 21
24.299999999999997
 31
0.0
  0
LINE
  5
E2
100
AcDbEntity
  8
0
  6
CONTINUOUS
 62
               4
100
AcDbLine
 10
1.0
 20
26.299999999999997
 30
0.0
 11
-5.0
 21
26.299999999999997
 31
0.0
  0
LINE
  5
E3
100
AcDbEntity
  8
0
  6
CONTINUOUS
 62
               7
100
AcDbLine
 10
1.0
 20
26.299999999999997
 30
0.0
 11
39.0
 21
26.299999999999997
 31
0.0
  0
LINE
  5
E4
100
AcDbEntity
  8
0
  6
CONTINUOUS
 62
               7
100
AcDbLine
 10
17.5
 20
-34.290000000000006
 30
0.0
 11
22.5
 21
-34.290000000000006
 31
0.0
  0
LINE
  5
E5
100
AcDbEntity
  8
0
  6
CENTER
 62
               2
100
AcDbLine
 10
20.0
 20
65.554899118348203
 30
0.0
 11
20.0
 21
-110.2279989308029
 31
0.0
  0
LINE
  5
E6
100
AcDbEntity
  8
0
  6
CONTINUOUS
 62
               7
100
AcDbLine
 10
2.1499999999999773
 20
-24.290000000000003
 30
0.0
 11
2.1499999999999773
 21
-71.289999999999992
 31
0.0
  0
LINE
  5
E7
100
AcDbEntity
  8
0
  6
CONTINUOUS
 62
               7
100
AcDbLine
 10
7.8199999999999932
 20
-78.950000000000003
 30
0.0
 11
9.3999999999999773
 21
-79.430000000000007
 31
0.0
  0
LINE
  5
E8
100
AcDbEntity
  8
0
  6
CONTINUOUS
 62
               7
100
AcDbLine
 10
11.600000000000023
 20
-82.390000000000015
 30
0.0
 11
11.600000000000023
 21
-85.789999999999992
 31
0.0
  0
LINE
  5
E9
100
AcDbEntity
  8
0
  6
CONTINUOUS
 62
               7
100
AcDbLine
 10
11.600000000000023
 20
-85.789999999999992
 30
0.0
 11
28.399999999999977
 21
-85.789999999999992
 31
0.0
  0
LINE
  5
EA
100
AcDbEntity
  8
0
  6
CONTINUOUS
 62
               7
100
AcDbLine
 10
28.399999999999977
 20
-82.390000000000015
 30
0.0
 11
28.399999999999977
 21
-85.789999999999992
 31
0.0
  0
LINE
  5
EB
100
AcDbEntity
  8
0
  6
CONTINUOUS
 62
               7
100
AcDbLine
 10
32.169999999999959
 20
-78.950000000000003
 30
0.0
 11
30.589999999999918
 21
-79.430000000000007
 31
0.0
  0
LINE
  5
EC
100
AcDbEntity
  8
0
  6
CONTINUOUS
 62
               7
100
AcDbLine
 10
37.850000000000023
 20
-24.290000000000003
 30
0.0
 11
37.850000000000023
 21
-71.289999999999992
 31
0.0
  0
LINE
  5
ED
100
AcDbEntity
  8
0
  6
CONTINUOUS
 62
               7
100
AcDbLine
 10
13.779999999999973
 20
-79.289999999999992
 30
0.0
 11
26.110000000000014
 21
-79.289999999999992
 31
0.0
  0
LINE
  5
EE
100
AcDbEntity
  8
0
  6
CONTINUOUS
 62
               7
100
AcDbLine
 10
17.5
 20
-69.289999999999992
 30
0.0
 11
22.5
 21
-69.289999999999992
 31
0.0
  0
LINE
  5
EF
100
AcDbEntity
  8
0
  6
CONTINUOUS
 62
               7
100
AcDbLine
 10
24.0
 20
-35.790000000000006
 30
0.0
 11
24.0
 21
-67.789999999999992
 31
0.0
  0
LINE
  5
F0
100
AcDbEntity
  8
0
  6
CONTINUOUS
 62
               7
100
AcDbLine
 10
16.0
 20
-35.790000000000006
 30
0.0
 11
16.0
 21
-67.789999999999992
 31
0.0
  0
LINE
  5
F1
100
AcDbEntity
  8
0
  6
CONTINUOUS
 62
               7
100
AcDbLine
 10
18.480000000000018
 20
-108.28999999999999
 30
0.0
 11
21.519999999999982
 21
-108.28999999999999
 31
0.0
  0
LINE
  5
F2
100
AcDbEntity
  8
0
  6
CONTINUOUS
 62
               7
100
AcDbLine
 10
13.149999999999977
 20
-85.789999999999992
 30
0.0
 11
13.149999999999977
 21
-88.079999999999998
 31
0.0
  0
LINE
  5
F3
100
AcDbEntity
  8
0
  6
CONTINUOUS
 62
               7
100
AcDbLine
 10
26.860000000000014
 20
-85.789999999999992
 30
0.0
 11
26.860000000000014
 21
-88.079999999999998
 31
0.0
  0
LINE
  5
F4
100
AcDbEntity
  8
0
  6
CONTINUOUS
 62
               7
100
AcDbLine
 10
14.289999999999964
 20
-89.219999999999999
 30
0.0
 11
25.719999999999914
 21
-89.219999999999999
 31
0.0
  0
LINE
  5
F5
100
AcDbEntity
  8
0
  6
CONTINUOUS
 62
               7
100
AcDbLine
 10
13.149999999999977
 20
-88.079999999999998
 30
0.0
 11
26.860000000000014
 21
-88.079999999999998
 31
0.0
  0
LINE
  5
F6
100
AcDbEntity
  8
0
  6
CONTINUOUS
 62
               7
100
AcDbLine
 10
13.149999999999977
 20
-88.079999999999998
 30
0.0
 11
14.289999999999964
 21
-89.219999999999999
 31
0.0
  0
LINE
  5
F7
100
AcDbEntity
  8
0
  6
CONTINUOUS
 62
               7
100
AcDbLine
 10
25.719999999999914
 20
-89.219999999999999
 30
0.0
 11
26.860000000000014
 21
-88.079999999999998
 31
0.0
  0
LINE
  5
F8
100
AcDbEntity
  8
0
  6
CONTINUOUS
 62
               2
100
AcDbLine
 10
14.059999999999945
 20
-85.789999999999992
 30
0.0
 11
14.059999999999945
 21
-88.989999999999995
 31
0.0
  0
LINE
  5
F9
100
AcDbEntity
  8
0
  6
CONTINUOUS
 62
               2
100
AcDbLine
 10
25.949999999999932
 20
-85.789999999999992
 30
0.0
 11
25.949999999999932
 21
-88.989999999999995
 31
0.0
  0
LINE
  5
FA
100
AcDbEntity
  8
0
  6
CONTINUOUS
 62
               7
100
AcDbLine
 10
14.289999999999964
 20
-89.219999999999999
 30
0.0
 11
14.289999999999964
 21
-96.079999999999998
 31
0.0
  0
LINE
  5
FB
100
AcDbEntity
  8
0
  6
CONTINUOUS
 62
               7
100
AcDbLine
 10
25.719999999999914
 20
-89.219999999999999
 30
0.0
 11
25.719999999999914
 21
-96.079999999999998
 31
0.0
  0
LINE
  5
FC
100
AcDbEntity
  8
0
  6
CONTINUOUS
 62
               7
100
AcDbLine
 10
15.42999999999995
 20
-97.219999999999999
 30
0.0
 11
24.569999999999936
 21
-97.219999999999999
 31
0.0
  0
LINE
  5
FD
100
AcDbEntity
  8
0
  6
CONTINUOUS
 62
               7
100
AcDbLine
 10
14.289999999999964
 20
-96.079999999999998
 30
0.0
 11
15.42999999999995
 21
-97.219999999999999
 31
0.0
  0
LINE
  5
FE
100
AcDbEntity
  8
0
  6
CONTINUOUS
 62
               7
100
AcDbLine
 10
24.569999999999936
 20
-97.219999999999999
 30
0.0
 11
25.719999999999914
 21
-96.079999999999998
 31
0.0
  0
LINE
  5
FF
100
AcDbEntity
  8
0
  6
CONTINUOUS
 62
               7
100
AcDbLine
 10
14.289999999999964
 20
-96.079999999999998
 30
0.0
 11
25.719999999999914
 21
-96.079999999999998
 31
0.0
  0
LINE
  5
100
100
AcDbEntity
  8
0
  6
CONTINUOUS
 62
               7
100
AcDbLine
 10
17.149999999999977
 20
-97.219999999999999
 30
0.0
 11
17.149999999999977
 21
-101.22
 31
0.0
  0
LINE
  5
101
100
AcDbEntity
  8
0
  6
CONTINUOUS
 62
               7
100
AcDbLine
 10
22.860000000000014
 20
-97.219999999999999
 30
0.0
 11
22.860000000000014
 21
-101.22
 31
0.0
  0
LINE
  5
102
100
AcDbEntity
  8
0
  6
CONTINUOUS
 62
               7
100
AcDbLine
 10
17.149999999999977
 20
-101.22
 30
0.0
 11
22.860000000000014
 21
-101.22
 31
0.0
  0
LINE
  5
103
100
AcDbEntity
  8
0
  6
CONTINUOUS
 62
               7
100
AcDbLine
 10
17.649999999999977
 20
-106.00999999999999
 30
0.0
 11
22.350000000000023
 21
-106.00999999999999
 31
0.0
  0
LINE
  5
104
100
AcDbEntity
  8
0
  6
CONTINUOUS
 62
               7
100
AcDbLine
 10
17.649999999999977
 20
-103.72
 30
0.0
 11
22.350000000000023
 21
-103.72
 31
0.0
  0
LINE
  5
105
100
AcDbEntity
  8
0
  6
CONTINUOUS
 62
               7
100
AcDbLine
 10
21.519999999999982
 20
-106.00999999999999
 30
0.0
 11
22.350000000000023
 21
-103.72
 31
0.0
  0
LINE
  5
106
100
AcDbEntity
  8
0
  6
CONTINUOUS
 62
               7
100
AcDbLine
 10
21.519999999999982
 20
-108.28999999999999
 30
0.0
 11
22.350000000000023
 21
-106.00999999999999
 31
0.0
  0
LINE
  5
107
100
AcDbEntity
  8
0
  6
CONTINUOUS
 62
               7
100
AcDbLine
 10
21.719999999999914
 20
-101.22
 30
0.0
 11
21.719999999999914
 21
-103.72
 31
0.0
  0
LINE
  5
108
100
AcDbEntity
  8
0
  6
CONTINUOUS
 62
               7
100
AcDbLine
 10
18.289999999999964
 20
-101.22
 30
0.0
 11
18.289999999999964
 21
-103.72
 31
0.0
  0
LINE
  5
109
100
AcDbEntity
  8
0
  6
CONTINUOUS
 62
               7
100
AcDbLine
 10
18.480000000000018
 20
-106.00999999999999
 30
0.0
 11
17.649999999999977
 21
-103.72
 31
0.0
  0
LINE
  5
10A
100
AcDbEntity
  8
0
  6
CONTINUOUS
 62
               7
100
AcDbLine
 10
18.480000000000018
 20
-108.28999999999999
 30
0.0
 11
17.649999999999977
 21
-106.00999999999999
 31
0.0
  0
CIRCLE
  5
10B
100
AcDbEntity
  8
0
  6
CONTINUOUS
 62
               7
100
AcDbCircle
 10
23.99116638183591
 20
0.0012268066406236
 30
0.0
 40
10.0
  0
CIRCLE
  5
10C
100
AcDbEntity
  8
0
  6
CONTINUOUS
 62
               7
100
AcDbCircle
 10
23.99116638183591
 20
0.0012268066406236
 30
0.0
 40
9.0
  0
ARC
  5
10D
100
AcDbEntity
  8
0
  6
CONTINUOUS
 62
               7
100
AcDbCircle
 10
31.596165122424168
 20
60.796165122424192
 30
0.0
 40
1.0038422026014231
100
AcDbArc
 50
0.2188818460836171
 51
89.781118153915983
  0
ARC
  5
10E
100
AcDbEntity
  8
0
  6
CONTINUOUS
 62
               7
100
AcDbCircle
 10
8.3949877071879087
 20
60.805012292812059
 30
0.0
 40
0.9950003319267531
100
AcDbArc
 50
89.71137251997142
 51
180.28862748002757
  0
ARC
  5
10F
100
AcDbEntity
  8
0
  6
CONTINUOUS
 62
               4
100
AcDbCircle
 10
37.991146354037255
 20
38.300000000000004
 30
0.0
 40
3.2000122479526274
100
AcDbArc
 50
270.15852351642798
 51
89.841476483571228
  0
ARC
  5
110
100
AcDbEntity
  8
0
  6
CONTINUOUS
 62
               4
100
AcDbCircle
 10
35.99570133547445
 20
38.302714998799551
 30
0.0
 40
3.1972878909191209
100
AcDbArc
 50
89.922967396913208
 51
126.58658062219405
  0
ARC
  5
111
100
AcDbEntity
  8
0
  6
CONTINUOUS
 62
               4
100
AcDbCircle
 10
35.99573541235543
 20
38.298459539391807
 30
0.0
 40
3.1984623824322673
100
AcDbArc
 50
207.93656498035901
 51
270.07639387823673
  0
ARC
  5
112
100
AcDbEntity
  8
0
  6
CONTINUOUS
 62
               4
100
AcDbCircle
 10
1.9911358636030627
 20
38.300000000000004
 30
0.0
 40
3.2000122769942707
100
AcDbArc
 50
89.841288654508276
 51
270.15871134549087
  0
ARC
  5
113
100
AcDbEntity
  8
0
  6
CONTINUOUS
 62
               4
100
AcDbCircle
 10
3.992207782679543
 20
38.301867089907979
 30
0.0
 40
3.2018765716508422
100
AcDbArc
 50
270.1394374818077
 51
332.0268076515884
  0
ARC
  5
114
100
AcDbEntity
  8
0
  6
CONTINUOUS
 62
               4
100
AcDbCircle
 10
3.9935396031107757
 20
38.300436898270696
 30
0.0
 40
3.1995696239768816
100
AcDbArc
 50
53.42682012172871
 51
89.88431140098551
  0
CIRCLE
  5
116
100
AcDbEntity
  8
0
  6
PHANTOM
 62
               2
100
AcDbCircle
 10
23.99116638183591
 20
0.0012420654296861
 30
0.0
 40
21.25
  0
ARC
  5
117
100
AcDbEntity
  8
0
  6
CONTINUOUS
 62
               7
100
AcDbCircle
 10
22.491195067715694
 20
-35.798804932284312
 30
0.0
 40
1.5088306235353235
100
AcDbArc
 50
0.3343571599586598
 51
89.665642840041144
  0
ARC
  5
118
100
AcDbEntity
  8
0
  6
CONTINUOUS
 62
               7
100
AcDbCircle
 10
17.499981897406428
 20
-35.78998189740647
 30
0.0
 40
1.499981897515702
100
AcDbArc
 50
89.99930852351639
 51
180.00069147648301
  0
CIRCLE
  5
119
100
AcDbEntity
  8
0
  6
CONTINUOUS
 62
               7
100
AcDbCircle
 10
23.99116638183591
 20
0.0012268066406236
 30
0.0
 40
5.7224998474121094
  0
CIRCLE
  5
11A
100
AcDbEntity
  8
0
  6
CONTINUOUS
 62
               2
100
AcDbCircle
 10
23.991151123046848
 20
0.0012268066406236
 30
0.0
 40
6.5784997940063477
  0
ARC
  5
11B
100
AcDbEntity
  8
0
  6
CONTINUOUS
 62
               7
100
AcDbCircle
 10
22.499945470757666
 20
-67.789945470757701
 30
0.0
 40
1.5000545302334078
100
AcDbArc
 50
270.0020827879124
 51
359.99791721208618
  0
ARC
  5
11C
100
AcDbEntity
  8
0
  6
CONTINUOUS
 62
               7
100
AcDbCircle
 10
17.491202697901713
 20
-67.798797302098308
 30
0.0
 40
1.4912286473755481
100
AcDbArc
 50
179.66198932272499
 51
270.33801067727416
  0
ARC
  5
11D
100
AcDbEntity
  8
0
  6
CONTINUOUS
 62
               7
100
AcDbCircle
 10
10.143372029365764
 20
-71.301727231526883
 30
0.0
 40
7.9933806319858522
100
AcDbArc
 50
179.91594030813164
 51
253.10240664157362
  0
ARC
  5
11E
100
AcDbEntity
  8
0
  6
CONTINUOUS
 62
               7
100
AcDbCircle
 10
8.493216633271345
 20
-82.401528177974001
 30
0.0
 40
3.1068047551574813
100
AcDbArc
 50
0.2126034660017292
 51
73.030051521566946
  0
ARC
  5
11F
100
AcDbEntity
  8
0
  6
CONTINUOUS
 62
               7
100
AcDbCircle
 10
31.496851276600637
 20
-82.391099424241673
 30
0.0
 40
3.0968514717558886
100
AcDbArc
 50
107.02746522310304
 51
179.97965922136044
  0
ARC
  5
120
100
AcDbEntity
  8
0
  6
CONTINUOUS
 62
               7
100
AcDbCircle
 10
29.846668790499507
 20
-71.291315761101458
 30
0.0
 40
8.0033313176571674
100
AcDbArc
 50
286.87564907105093
 51
0.0094195223599169
  0
ENDBLK
  5
121
100
AcDbEntity
  8
0
100
AcDbBlockEnd
  0
BLOCK
  5
122
100
AcDbEntity
  8
0
100
AcDbBlockBegin
  2
MS_2
 70
               0
 10
0.0
 20
0.0
 30
0.0
  3
MS_2
  1

  0
LINE
  5
123
100
AcDbEntity
  8
0
  6
CONTINUOUS
 62
               7
100
AcDbLine
 10
-23.428203230275471
 20
19.799999999999997
 30
0.0
 11
-24.5
 21
20.418802153516999
 31
0.0
  0
LINE
  5
124
100
AcDbEntity
  8
0
  6
CONTINUOUS
 62
               7
100
AcDbLine
 10
-24.5
 20
11.181197846482995
 30
0.0
 11
-23.428203230275471
 21
11.799999999999997
 31
0.0
  0
LINE
  5
125
100
AcDbEntity
  8
0
  6
CONTINUOUS
 62
               7
100
AcDbLine
 10
-25.571796769724415
 20
11.799999999999997
 30
0.0
 11
-24.5
 21
11.181197846482995
 31
0.0
  0
LINE
  5
126
100
AcDbEntity
  8
0
  6
CONTINUOUS
 62
               7
100
AcDbLine
 10
-24.5
 20
20.418802153516999
 30
0.0
 11
-25.571796769724415
 21
19.799999999999997
 31
0.0
  0
LINE
  5
127
100
AcDbEntity
  8
0
  6
CENTER
 62
               2
100
AcDbLine
 10
-24.5
 20
21.68267354059261
 30
0.0
 11
-24.5
 21
9.8564947293802092
 31
0.0
  0
LINE
  5
128
100
AcDbEntity
  8
0
  6
CONTINUOUS
 62
               7
100
AcDbLine
 10
-19.5
 20
19.549999999999997
 30
0.0
 11
-20.5
 21
19.549999999999997
 31
0.0
  0
LINE
  5
129
100
AcDbEntity
  8
0
  6
CONTINUOUS
 62
               7
100
AcDbLine
 10
-19.5
 20
12.049999999999997
 30
0.0
 11
-20.5
 21
12.049999999999997
 31
0.0
  0
LINE
  5
12A
100
AcDbEntity
  8
0
  6
CONTINUOUS
 62
               7
100
AcDbLine
 10
-28.5
 20
19.799999999999997
 30
0.0
 11
-28.5
 21
11.799999999999997
 31
0.0
  0
LINE
  5
12B
100
AcDbEntity
  8
0
  6
CONTINUOUS
 62
               7
100
AcDbLine
 10
-20.5
 20
19.799999999999997
 30
0.0
 11
-20.5
 21
11.799999999999997
 31
0.0
  0
LINE
  5
12C
100
AcDbEntity
  8
0
  6
CONTINUOUS
 62
               7
100
AcDbLine
 10
-20.5
 20
11.799999999999997
 30
0.0
 11
-28.5
 21
11.799999999999997
 31
0.0
  0
LINE
  5
12D
100
AcDbEntity
  8
0
  6
CONTINUOUS
 62
               7
100
AcDbLine
 10
-20.5
 20
19.799999999999997
 30
0.0
 11
-28.5
 21
19.799999999999997
 31
0.0
  0
LINE
  5
12E
100
AcDbEntity
  8
0
  6
CENTER
 62
               2
100
AcDbLine
 10
-18.078008799300846
 20
15.799999999999997
 30
0.0
 11
-29.515736481677777
 21
15.799999999999997
 31
0.0
  0
LINE
  5
12F
100
AcDbEntity
  8
0
  6
CONTINUOUS
 62
               7
100
AcDbLine
 10
-1.5199999999999818
 20
-108.28999999999999
 30
0.0
 11
-2.3500000000000227
 21
-106.00999999999999
 31
0.0
  0
LINE
  5
130
100
AcDbEntity
  8
0
  6
CONTINUOUS
 62
               7
100
AcDbLine
 10
-1.5199999999999818
 20
-106.00999999999999
 30
0.0
 11
-2.3500000000000227
 21
-103.72
 31
0.0
  0
LINE
  5
131
100
AcDbEntity
  8
0
  6
CONTINUOUS
 62
               7
100
AcDbLine
 10
-1.7099999999999227
 20
-101.22
 30
0.0
 11
-1.7099999999999227
 21
-103.72
 31
0.0
  0
LINE
  5
132
100
AcDbEntity
  8
0
  6
CONTINUOUS
 62
               7
100
AcDbLine
 10
1.7200000000000273
 20
-101.22
 30
0.0
 11
1.7200000000000273
 21
-103.72
 31
0.0
  0
LINE
  5
133
100
AcDbEntity
  8
0
  6
CONTINUOUS
 62
               7
100
AcDbLine
 10
1.5200000000000955
 20
-108.28999999999999
 30
0.0
 11
2.3500000000000227
 21
-106.00999999999999
 31
0.0
  0
LINE
  5
134
100
AcDbEntity
  8
0
  6
CONTINUOUS
 62
               7
100
AcDbLine
 10
1.5200000000000955
 20
-106.00999999999999
 30
0.0
 11
2.3500000000000227
 21
-103.72
 31
0.0
  0
LINE
  5
135
100
AcDbEntity
  8
0
  6
CONTINUOUS
 62
               7
100
AcDbLine
 10
-2.3500000000000227
 20
-103.72
 30
0.0
 11
2.3500000000000227
 21
-103.72
 31
0.0
  0
LINE
  5
136
100
AcDbEntity
  8
0
  6
CONTINUOUS
 62
               7
100
AcDbLine
 10
-2.3500000000000227
 20
-106.00999999999999
 30
0.0
 11
2.3500000000000227
 21
-106.00999999999999
 31
0.0
  0
LINE
  5
137
100
AcDbEntity
  8
0
  6
CONTINUOUS
 62
               7
100
AcDbLine
 10
-2.8500000000000227
 20
-101.22
 30
0.0
 11
2.8600000000000136
 21
-101.22
 31
0.0
  0
LINE
  5
138
100
AcDbEntity
  8
0
  6
CONTINUOUS
 62
               7
100
AcDbLine
 10
2.8600000000000136
 20
-97.219999999999999
 30
0.0
 11
2.8600000000000136
 21
-101.22
 31
0.0
  0
LINE
  5
139
100
AcDbEntity
  8
0
  6
CONTINUOUS
 62
               7
100
AcDbLine
 10
-2.8500000000000227
 20
-97.219999999999999
 30
0.0
 11
-2.8500000000000227
 21
-101.22
 31
0.0
  0
LINE
  5
13A
100
AcDbEntity
  8
0
  6
CONTINUOUS
 62
               7
100
AcDbLine
 10
-5.7099999999999227
 20
-96.079999999999998
 30
0.0
 11
5.7200000000000273
 21
-96.079999999999998
 31
0.0
  0
LINE
  5
13B
100
AcDbEntity
  8
0
  6
CONTINUOUS
 62
               7
100
AcDbLine
 10
4.57000000000005
 20
-97.219999999999999
 30
0.0
 11
5.7200000000000273
 21
-96.079999999999998
 31
0.0
  0
LINE
  5
13C
100
AcDbEntity
  8
0
  6
CONTINUOUS
 62
               7
100
AcDbLine
 10
-5.7099999999999227
 20
-96.079999999999998
 30
0.0
 11
-4.5699999999999363
 21
-97.219999999999999
 31
0.0
  0
LINE
  5
13D
100
AcDbEntity
  8
0
  6
CONTINUOUS
 62
               7
100
AcDbLine
 10
-4.5699999999999363
 20
-97.219999999999999
 30
0.0
 11
4.57000000000005
 21
-97.219999999999999
 31
0.0
  0
LINE
  5
13E
100
AcDbEntity
  8
0
  6
CONTINUOUS
 62
               7
100
AcDbLine
 10
5.7200000000000273
 20
-89.219999999999999
 30
0.0
 11
5.7200000000000273
 21
-96.079999999999998
 31
0.0
  0
LINE
  5
13F
100
AcDbEntity
  8
0
  6
CONTINUOUS
 62
               7
100
AcDbLine
 10
-5.7099999999999227
 20
-89.219999999999999
 30
0.0
 11
-5.7099999999999227
 21
-96.079999999999998
 31
0.0
  0
LINE
  5
140
100
AcDbEntity
  8
0
  6
CONTINUOUS
 62
               7
100
AcDbLine
 10
5.7200000000000273
 20
-89.219999999999999
 30
0.0
 11
6.8600000000000136
 21
-88.079999999999998
 31
0.0
  0
LINE
  5
141
100
AcDbEntity
  8
0
  6
CONTINUOUS
 62
               7
100
AcDbLine
 10
-6.8500000000000227
 20
-88.079999999999998
 30
0.0
 11
-5.7099999999999227
 21
-89.219999999999999
 31
0.0
  0
LINE
  5
142
100
AcDbEntity
  8
0
  6
CONTINUOUS
 62
               7
100
AcDbLine
 10
-6.8500000000000227
 20
-88.079999999999998
 30
0.0
 11
6.8600000000000136
 21
-88.079999999999998
 31
0.0
  0
LINE
  5
143
100
AcDbEntity
  8
0
  6
CONTINUOUS
 62
               7
100
AcDbLine
 10
-5.7099999999999227
 20
-89.219999999999999
 30
0.0
 11
5.7200000000000273
 21
-89.219999999999999
 31
0.0
  0
LINE
  5
144
100
AcDbEntity
  8
0
  6
CONTINUOUS
 62
               7
100
AcDbLine
 10
-1.5199999999999818
 20
-108.28999999999999
 30
0.0
 11
1.5200000000000955
 21
-108.28999999999999
 31
0.0
  0
LINE
  5
145
100
AcDbEntity
  8
0
  6
CONTINUOUS
 62
               7
100
AcDbLine
 10
-6.8500000000000227
 20
-85.789999999999992
 30
0.0
 11
-6.8500000000000227
 21
-88.079999999999998
 31
0.0
  0
LINE
  5
146
100
AcDbEntity
  8
0
  6
CONTINUOUS
 62
               7
100
AcDbLine
 10
6.8600000000000136
 20
-85.789999999999992
 30
0.0
 11
6.8600000000000136
 21
-88.079999999999998
 31
0.0
  0
LINE
  5
147
100
AcDbEntity
  8
0
  6
CONTINUOUS
 62
               2
100
AcDbLine
 10
-5.9399999999999409
 20
-85.789999999999992
 30
0.0
 11
-5.9399999999999409
 21
-88.989999999999995
 31
0.0
  0
LINE
  5
148
100
AcDbEntity
  8
0
  6
CONTINUOUS
 62
               2
100
AcDbLine
 10
5.9500000000000455
 20
-85.789999999999992
 30
0.0
 11
5.9500000000000455
 21
-88.989999999999995
 31
0.0
  0
LINE
  5
149
100
AcDbEntity
  8
0
  6
CONTINUOUS
 62
               7
100
AcDbLine
 10
-18.699999999999932
 20
-24.290000000000003
 30
0.0
 11
18.700000000000045
 21
-24.290000000000003
 31
0.0
  0
LINE
  5
14A
100
AcDbEntity
  8
0
  6
CONTINUOUS
 62
               7
100
AcDbLine
 10
-19.5
 20
24.299999999999997
 30
0.0
 11
-2.6999999999999318
 21
24.299999999999997
 31
0.0
  0
LINE
  5
14B
100
AcDbEntity
  8
0
  6
CENTER
 62
               2
100
AcDbLine
 10
-64.70687861271665
 20
0.0
 30
0.0
 11
25.860000000000014
 21
0.0
 31
0.0
  0
LINE
  5
14C
100
AcDbEntity
  8
0
  6
CONTINUOUS
 62
               7
100
AcDbLine
 10
19.5
 20
24.299999999999997
 30
0.0
 11
19.5
 21
9.5
 31
0.0
  0
LINE
  5
14D
100
AcDbEntity
  8
0
  6
CONTINUOUS
 62
               7
100
AcDbLine
 10
-19.5
 20
24.299999999999997
 30
0.0
 11
-19.5
 21
9.5
 31
0.0
  0
LINE
  5
14E
100
AcDbEntity
  8
0
  6
CONTINUOUS
 62
               7
100
AcDbLine
 10
-18.699999999999932
 20
-24.290000000000003
 30
0.0
 11
-19.5
 21
-23.490000000000002
 31
0.0
  0
LINE
  5
14F
100
AcDbEntity
  8
0
  6
CONTINUOUS
 62
               7
100
AcDbLine
 10
18.700000000000045
 20
-24.290000000000003
 30
0.0
 11
19.5
 21
-23.490000000000002
 31
0.0
  0
LINE
  5
150
100
AcDbEntity
  8
0
  6
CONTINUOUS
 62
               7
100
AcDbLine
 10
-19.5
 20
-9.5
 30
0.0
 11
-19.5
 21
-23.490000000000002
 31
0.0
  0
LINE
  5
151
100
AcDbEntity
  8
0
  6
CONTINUOUS
 62
               7
100
AcDbLine
 10
19.5
 20
-9.5
 30
0.0
 11
19.5
 21
-23.490000000000002
 31
0.0
  0
LINE
  5
152
100
AcDbEntity
  8
0
  6
CONTINUOUS
 62
               7
100
AcDbLine
 10
2.7000000000000455
 20
24.299999999999997
 30
0.0
 11
19.5
 21
24.299999999999997
 31
0.0
  0
LINE
  5
153
100
AcDbEntity
  8
0
  6
CENTER
 62
               2
100
AcDbLine
 10
0.0
 20
68.030000000000001
 30
0.0
 11
0.0
 21
-110.92052491798157
 31
0.0
  0
LINE
  5
154
100
AcDbEntity
  8
0
  6
CONTINUOUS
 62
               7
100
AcDbLine
 10
18.0
 20
33.300000000000004
 30
0.0
 11
-18.0
 21
33.300000000000004
 31
0.0
  0
LINE
  5
155
100
AcDbEntity
  8
0
  6
CONTINUOUS
 62
               7
100
AcDbLine
 10
-19.0
 20
26.299999999999997
 30
0.0
 11
-19.0
 21
32.300000000000004
 31
0.0
  0
LINE
  5
156
100
AcDbEntity
  8
0
  6
CONTINUOUS
 62
               7
100
AcDbLine
 10
19.0
 20
26.299999999999997
 30
0.0
 11
19.0
 21
32.300000000000004
 31
0.0
  0
LINE
  5
157
100
AcDbEntity
  8
0
  6
CONTINUOUS
 62
               7
100
AcDbLine
 10
19.0
 20
28.299999999999997
 30
0.0
 11
18.990000000000009
 21
28.299999999999997
 31
0.0
  0
LINE
  5
158
100
AcDbEntity
  8
0
  6
CONTINUOUS
 62
               7
100
AcDbLine
 10
19.0
 20
32.300000000000004
 30
0.0
 11
18.0
 21
33.300000000000004
 31
0.0
  0
LINE
  5
159
100
AcDbEntity
  8
0
  6
CONTINUOUS
 62
               7
100
AcDbLine
 10
-19.0
 20
32.300000000000004
 30
0.0
 11
-18.0
 21
33.300000000000004
 31
0.0
  0
LINE
  5
15A
100
AcDbEntity
  8
0
  6
CONTINUOUS
 62
               7
100
AcDbLine
 10
18.100000000000023
 20
29.0
 30
0.0
 11
17.560000000000059
 21
29.0
 31
0.0
  0
LINE
  5
15B
100
AcDbEntity
  8
0
  6
CONTINUOUS
 62
               7
100
AcDbLine
 10
2.5
 20
28.299999999999997
 30
0.0
 11
2.5
 21
32.300000000000004
 31
0.0
  0
LINE
  5
15C
100
AcDbEntity
  8
0
  6
CONTINUOUS
 62
               7
100
AcDbLine
 10
2.5
 20
32.300000000000004
 30
0.0
 11
2.7800000000000864
 21
33.300000000000004
 31
0.0
  0
LINE
  5
15D
100
AcDbEntity
  8
0
  6
CONTINUOUS
 62
               7
100
AcDbLine
 10
7.25
 20
28.299999999999997
 30
0.0
 11
6.7100000000000364
 21
29.0
 31
0.0
  0
LINE
  5
15E
100
AcDbEntity
  8
0
  6
CONTINUOUS
 62
               7
100
AcDbLine
 10
7.25
 20
32.300000000000004
 30
0.0
 11
6.4800000000000182
 21
33.300000000000004
 31
0.0
  0
LINE
  5
15F
100
AcDbEntity
  8
0
  6
CONTINUOUS
 62
               7
100
AcDbLine
 10
6.7100000000000364
 20
29.0
 30
0.0
 11
6.7100000000000364
 21
32.999999999999993
 31
0.0
  0
LINE
  5
160
100
AcDbEntity
  8
0
  6
CONTINUOUS
 62
               7
100
AcDbLine
 10
7.25
 20
28.299999999999997
 30
0.0
 11
7.25
 21
32.300000000000004
 31
0.0
  0
LINE
  5
161
100
AcDbEntity
  8
0
  6
CONTINUOUS
 62
               7
100
AcDbLine
 10
11.580000000000041
 20
28.299999999999997
 30
0.0
 11
11.580000000000041
 21
32.300000000000004
 31
0.0
  0
LINE
  5
162
100
AcDbEntity
  8
0
  6
CONTINUOUS
 62
               7
100
AcDbLine
 10
11.580000000000041
 20
32.300000000000004
 30
0.0
 11
11.300000000000068
 21
33.300000000000004
 31
0.0
  0
LINE
  5
163
100
AcDbEntity
  8
0
  6
CONTINUOUS
 62
               7
100
AcDbLine
 10
15.060000000000059
 20
28.299999999999997
 30
0.0
 11
14.330000000000041
 21
29.0
 31
0.0
  0
LINE
  5
164
100
AcDbEntity
  8
0
  6
CONTINUOUS
 62
               7
100
AcDbLine
 10
15.060000000000059
 20
32.300000000000004
 30
0.0
 11
14.009999999999991
 21
33.300000000000004
 31
0.0
  0
LINE
  5
165
100
AcDbEntity
  8
0
  6
CONTINUOUS
 62
               7
100
AcDbLine
 10
14.330000000000041
 20
32.999999999999993
 30
0.0
 11
14.330000000000041
 21
29.0
 31
0.0
  0
LINE
  5
166
100
AcDbEntity
  8
0
  6
CONTINUOUS
 62
               7
100
AcDbLine
 10
15.060000000000059
 20
28.299999999999997
 30
0.0
 11
15.060000000000059
 21
32.300000000000004
 31
0.0
  0
LINE
  5
167
100
AcDbEntity
  8
0
  6
CONTINUOUS
 62
               7
100
AcDbLine
 10
17.560000000000059
 20
28.299999999999997
 30
0.0
 11
17.560000000000059
 21
32.300000000000004
 31
0.0
  0
LINE
  5
168
100
AcDbEntity
  8
0
  6
CONTINUOUS
 62
               7
100
AcDbLine
 10
17.560000000000059
 20
32.300000000000004
 30
0.0
 11
16.790000000000077
 21
33.300000000000004
 31
0.0
  0
LINE
  5
169
100
AcDbEntity
  8
0
  6
CONTINUOUS
 62
               7
100
AcDbLine
 10
18.830000000000041
 20
28.299999999999997
 30
0.0
 11
18.100000000000023
 21
29.0
 31
0.0
  0
LINE
  5
16A
100
AcDbEntity
  8
0
  6
CONTINUOUS
 62
               7
100
AcDbLine
 10
6.7100000000000364
 20
29.0
 30
0.0
 11
2.5
 21
29.0
 31
0.0
  0
LINE
  5
16B
100
AcDbEntity
  8
0
  6
CONTINUOUS
 62
               7
100
AcDbLine
 10
7.25
 20
28.299999999999997
 30
0.0
 11
2.5
 21
28.299999999999997
 31
0.0
  0
LINE
  5
16C
100
AcDbEntity
  8
0
  6
CONTINUOUS
 62
               7
100
AcDbLine
 10
15.060000000000059
 20
28.299999999999997
 30
0.0
 11
11.580000000000041
 21
28.299999999999997
 31
0.0
  0
LINE
  5
16D
100
AcDbEntity
  8
0
  6
CONTINUOUS
 62
               7
100
AcDbLine
 10
14.330000000000041
 20
29.0
 30
0.0
 11
11.580000000000041
 21
29.0
 31
0.0
  0
LINE
  5
16E
100
AcDbEntity
  8
0
  6
CONTINUOUS
 62
               7
100
AcDbLine
 10
11.580000000000041
 20
32.300000000000004
 30
0.0
 11
7.25
 21
32.300000000000004
 31
0.0
  0
LINE
  5
16F
100
AcDbEntity
  8
0
  6
CONTINUOUS
 62
               7
100
AcDbLine
 10
17.560000000000059
 20
32.300000000000004
 30
0.0
 11
15.060000000000059
 21
32.300000000000004
 31
0.0
  0
LINE
  5
170
100
AcDbEntity
  8
0
  6
CONTINUOUS
 62
               7
100
AcDbLine
 10
18.100000000000023
 20
29.0
 30
0.0
 11
18.100000000000023
 21
33.199999999999996
 31
0.0
  0
LINE
  5
171
100
AcDbEntity
  8
0
  6
CONTINUOUS
 62
               7
100
AcDbLine
 10
18.830000000000041
 20
28.299999999999997
 30
0.0
 11
17.560000000000059
 21
28.299999999999997
 31
0.0
  0
LINE
  5
172
100
AcDbEntity
  8
0
  6
CONTINUOUS
 62
               7
100
AcDbLine
 10
2.5
 20
32.300000000000004
 30
0.0
 11
0.0
 21
32.300000000000004
 31
0.0
  0
LINE
  5
173
100
AcDbEntity
  8
0
  6
CONTINUOUS
 62
               7
100
AcDbLine
 10
-19.0
 20
28.299999999999997
 30
0.0
 11
-18.990000000000009
 21
28.299999999999997
 31
0.0
  0
LINE
  5
174
100
AcDbEntity
  8
0
  6
CONTINUOUS
 62
               7
100
AcDbLine
 10
-18.100000000000023
 20
29.0
 30
0.0
 11
-17.559999999999945
 21
29.0
 31
0.0
  0
LINE
  5
175
100
AcDbEntity
  8
0
  6
CONTINUOUS
 62
               7
100
AcDbLine
 10
-2.5
 20
28.299999999999997
 30
0.0
 11
-2.5
 21
32.300000000000004
 31
0.0
  0
LINE
  5
176
100
AcDbEntity
  8
0
  6
CONTINUOUS
 62
               7
100
AcDbLine
 10
-2.5
 20
32.300000000000004
 30
0.0
 11
-2.7799999999999727
 21
33.300000000000004
 31
0.0
  0
LINE
  5
177
100
AcDbEntity
  8
0
  6
CONTINUOUS
 62
               7
100
AcDbLine
 10
-7.25
 20
28.299999999999997
 30
0.0
 11
-6.7199999999999136
 21
29.0
 31
0.0
  0
LINE
  5
178
100
AcDbEntity
  8
0
  6
CONTINUOUS
 62
               7
100
AcDbLine
 10
-7.25
 20
32.300000000000004
 30
0.0
 11
-6.4900000000000091
 21
33.300000000000004
 31
0.0
  0
LINE
  5
179
100
AcDbEntity
  8
0
  6
CONTINUOUS
 62
               7
100
AcDbLine
 10
-6.7199999999999136
 20
29.0
 30
0.0
 11
-6.7199999999999136
 21
32.999999999999993
 31
0.0
  0
LINE
  5
17A
100
AcDbEntity
  8
0
  6
CONTINUOUS
 62
               7
100
AcDbLine
 10
-7.25
 20
28.299999999999997
 30
0.0
 11
-7.25
 21
32.300000000000004
 31
0.0
  0
LINE
  5
17B
100
AcDbEntity
  8
0
  6
CONTINUOUS
 62
               7
100
AcDbLine
 10
-11.580000000000041
 20
28.299999999999997
 30
0.0
 11
-11.580000000000041
 21
32.300000000000004
 31
0.0
  0
LINE
  5
17C
100
AcDbEntity
  8
0
  6
CONTINUOUS
 62
               7
100
AcDbLine
 10
-11.580000000000041
 20
32.300000000000004
 30
0.0
 11
-11.299999999999955
 21
33.300000000000004
 31
0.0
  0
LINE
  5
17D
100
AcDbEntity
  8
0
  6
CONTINUOUS
 62
               7
100
AcDbLine
 10
-15.059999999999945
 20
28.299999999999997
 30
0.0
 11
-14.330000000000041
 21
29.0
 31
0.0
  0
LINE
  5
17E
100
AcDbEntity
  8
0
  6
CONTINUOUS
 62
               7
100
AcDbLine
 10
-15.059999999999945
 20
32.300000000000004
 30
0.0
 11
-14.009999999999991
 21
33.300000000000004
 31
0.0
  0
LINE
  5
17F
100
AcDbEntity
  8
0
  6
CONTINUOUS
 62
               7
100
AcDbLine
 10
-14.330000000000041
 20
32.999999999999993
 30
0.0
 11
-14.330000000000041
 21
29.0
 31
0.0
  0
LINE
  5
180
100
AcDbEntity
  8
0
  6
CONTINUOUS
 62
               7
100
AcDbLine
 10
-15.059999999999945
 20
28.299999999999997
 30
0.0
 11
-15.059999999999945
 21
32.300000000000004
 31
0.0
  0
LINE
  5
181
100
AcDbEntity
  8
0
  6
CONTINUOUS
 62
               7
100
AcDbLine
 10
-17.559999999999945
 20
28.299999999999997
 30
0.0
 11
-17.559999999999945
 21
32.300000000000004
 31
0.0
  0
LINE
  5
182
100
AcDbEntity
  8
0
  6
CONTINUOUS
 62
               7
100
AcDbLine
 10
-17.559999999999945
 20
32.300000000000004
 30
0.0
 11
-16.789999999999964
 21
33.300000000000004
 31
0.0
  0
LINE
  5
183
100
AcDbEntity
  8
0
  6
CONTINUOUS
 62
               7
100
AcDbLine
 10
-18.840000000000032
 20
28.299999999999997
 30
0.0
 11
-18.100000000000023
 21
29.0
 31
0.0
  0
LINE
  5
184
100
AcDbEntity
  8
0
  6
CONTINUOUS
 62
               7
100
AcDbLine
 10
-6.7199999999999136
 20
29.0
 30
0.0
 11
-2.5
 21
29.0
 31
0.0
  0
LINE
  5
185
100
AcDbEntity
  8
0
  6
CONTINUOUS
 62
               7
100
AcDbLine
 10
-7.25
 20
28.299999999999997
 30
0.0
 11
-2.5
 21
28.299999999999997
 31
0.0
  0
LINE
  5
186
100
AcDbEntity
  8
0
  6
CONTINUOUS
 62
               7
100
AcDbLine
 10
-15.059999999999945
 20
28.299999999999997
 30
0.0
 11
-11.580000000000041
 21
28.299999999999997
 31
0.0
  0
LINE
  5
187
100
AcDbEntity
  8
0
  6
CONTINUOUS
 62
               7
100
AcDbLine
 10
-14.330000000000041
 20
29.0
 30
0.0
 11
-11.580000000000041
 21
29.0
 31
0.0
  0
LINE
  5
188
100
AcDbEntity
  8
0
  6
CONTINUOUS
 62
               7
100
AcDbLine
 10
-11.580000000000041
 20
32.300000000000004
 30
0.0
 11
-7.25
 21
32.300000000000004
 31
0.0
  0
LINE
  5
189
100
AcDbEntity
  8
0
  6
CONTINUOUS
 62
               7
100
AcDbLine
 10
-17.559999999999945
 20
32.300000000000004
 30
0.0
 11
-15.059999999999945
 21
32.300000000000004
 31
0.0
  0
LINE
  5
18A
100
AcDbEntity
  8
0
  6
CONTINUOUS
 62
               7
100
AcDbLine
 10
-18.100000000000023
 20
29.0
 30
0.0
 11
-18.100000000000023
 21
33.199999999999982
 31
0.0
  0
LINE
  5
18B
100
AcDbEntity
  8
0
  6
CONTINUOUS
 62
               7
100
AcDbLine
 10
-18.840000000000032
 20
28.299999999999997
 30
0.0
 11
-17.559999999999945
 21
28.299999999999997
 31
0.0
  0
LINE
  5
18C
100
AcDbEntity
  8
0
  6
CONTINUOUS
 62
               7
100
AcDbLine
 10
-2.5
 20
32.300000000000004
 30
0.0
 11
0.0
 21
32.300000000000004
 31
0.0
  0
LINE
  5
18D
100
AcDbEntity
  8
0
  6
CONTINUOUS
 62
               7
100
AcDbLine
 10
-11.0
 20
33.300000000000004
 30
0.0
 11
-11.0
 21
36.800000000000004
 31
0.0
  0
LINE
  5
18E
100
AcDbEntity
  8
0
  6
CONTINUOUS
 62
               7
100
AcDbLine
 10
11.0
 20
33.300000000000004
 30
0.0
 11
11.0
 21
36.800000000000004
 31
0.0
  0
LINE
  5
18F
100
AcDbEntity
  8
0
  6
CONTINUOUS
 62
               7
100
AcDbLine
 10
-9.42999999999995
 20
33.300000000000004
 30
0.0
 11
-9.42999999999995
 21
36.800000000000004
 31
0.0
  0
LINE
  5
190
100
AcDbEntity
  8
0
  6
CONTINUOUS
 62
               7
100
AcDbLine
 10
-1.5699999999999363
 20
33.300000000000004
 30
0.0
 11
-1.5699999999999363
 21
36.800000000000004
 31
0.0
  0
LINE
  5
191
100
AcDbEntity
  8
0
  6
CONTINUOUS
 62
               7
100
AcDbLine
 10
1.57000000000005
 20
33.300000000000004
 30
0.0
 11
1.57000000000005
 21
36.800000000000004
 31
0.0
  0
LINE
  5
192
100
AcDbEntity
  8
0
  6
CONTINUOUS
 62
               7
100
AcDbLine
 10
9.4300000000000637
 20
33.300000000000004
 30
0.0
 11
9.4300000000000637
 21
36.800000000000004
 31
0.0
  0
LINE
  5
193
100
AcDbEntity
  8
0
  6
CONTINUOUS
 62
               2
100
AcDbLine
 10
-14.199999999999932
 20
24.299999999999997
 30
0.0
 11
-14.199999999999932
 21
26.299999999999997
 31
0.0
  0
LINE
  5
194
100
AcDbEntity
  8
0
  6
CONTINUOUS
 62
               2
100
AcDbLine
 10
14.200000000000045
 20
24.299999999999997
 30
0.0
 11
14.200000000000045
 21
26.299999999999997
 31
0.0
  0
LINE
  5
195
100
AcDbEntity
  8
0
  6
CONTINUOUS
 62
               7
100
AcDbLine
 10
14.200000000000045
 20
36.800000000000004
 30
0.0
 11
-14.199999999999932
 21
36.800000000000004
 31
0.0
  0
LINE
  5
196
100
AcDbEntity
  8
0
  6
CONTINUOUS
 62
               7
100
AcDbLine
 10
11.600000000000023
 20
61.800000000000004
 30
0.0
 11
-11.600000000000023
 21
61.800000000000004
 31
0.0
  0
LINE
  5
197
100
AcDbEntity
  8
0
  6
CONTINUOUS
 62
               7
100
AcDbLine
 10
-12.600000000000023
 20
59.800000000000004
 30
0.0
 11
-13.600000000000023
 21
59.219999999999992
 31
0.0
  0
LINE
  5
198
100
AcDbEntity
  8
0
  6
CONTINUOUS
 62
               7
100
AcDbLine
 10
13.600000000000023
 20
59.219999999999992
 30
0.0
 11
12.600000000000023
 21
59.800000000000004
 31
0.0
  0
LINE
  5
199
100
AcDbEntity
  8
0
  6
CONTINUOUS
 62
               7
100
AcDbLine
 10
12.600000000000023
 20
59.800000000000004
 30
0.0
 11
12.600000000000023
 21
60.800000000000004
 31
0.0
  0
LINE
  5
19A
100
AcDbEntity
  8
0
  6
CONTINUOUS
 62
               7
100
AcDbLine
 10
-12.600000000000023
 20
59.800000000000004
 30
0.0
 11
-12.600000000000023
 21
60.800000000000004
 31
0.0
  0
LINE
  5
19B
100
AcDbEntity
  8
0
  6
CONTINUOUS
 62
               7
100
AcDbLine
 10
-14.199999999999932
 20
36.800000000000004
 30
0.0
 11
-13.600000000000023
 21
59.219999999999992
 31
0.0
  0
LINE
  5
19C
100
AcDbEntity
  8
0
  6
CONTINUOUS
 62
               7
100
AcDbLine
 10
14.200000000000045
 20
36.800000000000004
 30
0.0
 11
13.600000000000023
 21
59.219999999999992
 31
0.0
  0
LINE
  5
19D
100
AcDbEntity
  8
0
  6
CONTINUOUS
 62
               7
100
AcDbLine
 10
-3.0
 20
39.300000000000004
 30
0.0
 11
-2.4699999999999136
 21
59.219999999999992
 31
0.0
  0
LINE
  5
19E
100
AcDbEntity
  8
0
  6
CONTINUOUS
 62
               7
100
AcDbLine
 10
3.0
 20
39.300000000000004
 30
0.0
 11
2.4700000000000273
 21
59.219999999999992
 31
0.0
  0
LINE
  5
19F
100
AcDbEntity
  8
0
  6
CONTINUOUS
 62
               7
100
AcDbLine
 10
14.129999999999995
 20
39.300000000000004
 30
0.0
 11
11.889999999999986
 21
39.300000000000004
 31
0.0
  0
LINE
  5
1A0
100
AcDbEntity
  8
0
  6
CONTINUOUS
 62
               7
100
AcDbLine
 10
12.600000000000023
 20
59.800000000000004
 30
0.0
 11
12.290000000000077
 21
59.800000000000004
 31
0.0
  0
LINE
  5
1A1
100
AcDbEntity
  8
0
  6
CONTINUOUS
 62
               7
100
AcDbLine
 10
-3.0
 20
39.300000000000004
 30
0.0
 11
-7.6499999999999773
 21
39.300000000000004
 31
0.0
  0
LINE
  5
1A2
100
AcDbEntity
  8
0
  6
CONTINUOUS
 62
               7
100
AcDbLine
 10
2.4700000000000273
 20
59.219999999999992
 30
0.0
 11
2.7599999999999909
 21
59.800000000000004
 31
0.0
  0
LINE
  5
1A3
100
AcDbEntity
  8
0
  6
CONTINUOUS
 62
               7
100
AcDbLine
 10
6.7400000000000091
 20
59.800000000000004
 30
0.0
 11
7.7000000000000455
 21
59.219999999999992
 31
0.0
  0
LINE
  5
1A4
100
AcDbEntity
  8
0
  6
CONTINUOUS
 62
               7
100
AcDbLine
 10
11.200000000000045
 20
59.219999999999992
 30
0.0
 11
10.649999999999977
 21
59.800000000000004
 31
0.0
  0
LINE
  5
1A5
100
AcDbEntity
  8
0
  6
CONTINUOUS
 62
               7
100
AcDbLine
 10
6.8799999999999955
 20
39.300000000000004
 30
0.0
 11
6.7400000000000091
 21
59.800000000000004
 31
0.0
  0
LINE
  5
1A6
100
AcDbEntity
  8
0
  6
CONTINUOUS
 62
               7
100
AcDbLine
 10
7.6399999999999864
 20
39.300000000000004
 30
0.0
 11
7.7000000000000455
 21
59.219999999999992
 31
0.0
  0
LINE
  5
1A7
100
AcDbEntity
  8
0
  6
CONTINUOUS
 62
               7
100
AcDbLine
 10
11.200000000000045
 20
59.219999999999992
 30
0.0
 11
11.889999999999986
 21
39.300000000000004
 31
0.0
  0
LINE
  5
1A8
100
AcDbEntity
  8
0
  6
CONTINUOUS
 62
               7
100
AcDbLine
 10
12.290000000000077
 20
59.800000000000004
 30
0.0
 11
12.970000000000027
 21
39.300000000000004
 31
0.0
  0
LINE
  5
1A9
100
AcDbEntity
  8
0
  6
CONTINUOUS
 62
               7
100
AcDbLine
 10
-2.4799999999999045
 20
59.219999999999992
 30
0.0
 11
-2.7699999999999818
 21
59.800000000000004
 31
0.0
  0
LINE
  5
1AA
100
AcDbEntity
  8
0
  6
CONTINUOUS
 62
               7
100
AcDbLine
 10
-6.8799999999999955
 20
39.300000000000004
 30
0.0
 11
-6.7400000000000091
 21
59.800000000000004
 31
0.0
  0
LINE
  5
1AB
100
AcDbEntity
  8
0
  6
CONTINUOUS
 62
               7
100
AcDbLine
 10
-7.6499999999999773
 20
39.300000000000004
 30
0.0
 11
-7.7099999999999227
 21
59.219999999999992
 31
0.0
  0
LINE
  5
1AC
100
AcDbEntity
  8
0
  6
CONTINUOUS
 62
               7
100
AcDbLine
 10
-11.209999999999923
 20
59.219999999999992
 30
0.0
 11
-11.889999999999986
 21
39.300000000000004
 31
0.0
  0
LINE
  5
1AD
100
AcDbEntity
  8
0
  6
CONTINUOUS
 62
               7
100
AcDbLine
 10
-12.289999999999964
 20
59.800000000000004
 30
0.0
 11
-12.969999999999914
 21
39.300000000000004
 31
0.0
  0
LINE
  5
1AE
100
AcDbEntity
  8
0
  6
CONTINUOUS
 62
               7
100
AcDbLine
 10
-6.7400000000000091
 20
59.800000000000004
 30
0.0
 11
-7.7099999999999227
 21
59.219999999999992
 31
0.0
  0
LINE
  5
1AF
100
AcDbEntity
  8
0
  6
CONTINUOUS
 62
               7
100
AcDbLine
 10
-11.209999999999923
 20
59.219999999999992
 30
0.0
 11
-10.649999999999977
 21
59.800000000000004
 31
0.0
  0
LINE
  5
1B0
100
AcDbEntity
  8
0
  6
CONTINUOUS
 62
               7
100
AcDbLine
 10
2.4700000000000273
 20
59.219999999999992
 30
0.0
 11
-2.4799999999999045
 21
59.219999999999992
 31
0.0
  0
LINE
  5
1B1
100
AcDbEntity
  8
0
  6
CONTINUOUS
 62
               7
100
AcDbLine
 10
-7.7099999999999227
 20
59.219999999999992
 30
0.0
 11
-11.209999999999923
 21
59.219999999999992
 31
0.0
  0
LINE
  5
1B2
100
AcDbEntity
  8
0
  6
CONTINUOUS
 62
               7
100
AcDbLine
 10
11.200000000000045
 20
59.219999999999992
 30
0.0
 11
7.7000000000000455
 21
59.219999999999992
 31
0.0
  0
LINE
  5
1B3
100
AcDbEntity
  8
0
  6
CONTINUOUS
 62
               7
100
AcDbLine
 10
7.6399999999999864
 20
39.300000000000004
 30
0.0
 11
3.0
 21
39.300000000000004
 31
0.0
  0
LINE
  5
1B4
100
AcDbEntity
  8
0
  6
CONTINUOUS
 62
               7
100
AcDbLine
 10
-11.889999999999986
 20
39.300000000000004
 30
0.0
 11
-14.129999999999995
 21
39.300000000000004
 31
0.0
  0
LINE
  5
1B5
100
AcDbEntity
  8
0
  6
CONTINUOUS
 62
               7
100
AcDbLine
 10
2.7599999999999909
 20
59.800000000000004
 30
0.0
 11
-2.7699999999999818
 21
59.800000000000004
 31
0.0
  0
LINE
  5
1B6
100
AcDbEntity
  8
0
  6
CONTINUOUS
 62
               7
100
AcDbLine
 10
-6.7400000000000091
 20
59.800000000000004
 30
0.0
 11
-10.649999999999977
 21
59.800000000000004
 31
0.0
  0
LINE
  5
1B7
100
AcDbEntity
  8
0
  6
CONTINUOUS
 62
               7
100
AcDbLine
 10
-12.289999999999964
 20
59.800000000000004
 30
0.0
 11
-12.600000000000023
 21
59.800000000000004
 31
0.0
  0
LINE
  5
1B8
100
AcDbEntity
  8
0
  6
CONTINUOUS
 62
               7
100
AcDbLine
 10
10.649999999999977
 20
59.800000000000004
 30
0.0
 11
6.7400000000000091
 21
59.800000000000004
 31
0.0
  0
LINE
  5
1B9
100
AcDbEntity
  8
0
  6
CONTINUOUS
 62
               4
100
AcDbLine
 10
28.5
 20
26.299999999999997
 30
0.0
 11
19.0
 21
26.299999999999997
 31
0.0
  0
LINE
  5
1BA
100
AcDbEntity
  8
0
  6
CONTINUOUS
 62
               7
100
AcDbLine
 10
-15.0
 20
24.299999999999997
 30
0.0
 11
-15.0
 21
26.299999999999997
 31
0.0
  0
LINE
  5
1BB
100
AcDbEntity
  8
0
  6
CONTINUOUS
 62
               7
100
AcDbLine
 10
15.0
 20
24.299999999999997
 30
0.0
 11
15.0
 21
26.299999999999997
 31
0.0
  0
LINE
  5
1BC
100
AcDbEntity
  8
0
  6
CONTINUOUS
 62
               4
100
AcDbLine
 10
19.5
 20
24.299999999999997
 30
0.0
 11
28.5
 21
24.299999999999997
 31
0.0
  0
LINE
  5
1BD
100
AcDbEntity
  8
0
  6
CONTINUOUS
 62
               7
100
AcDbLine
 10
-19.0
 20
26.299999999999997
 30
0.0
 11
19.0
 21
26.299999999999997
 31
0.0
  0
LINE
  5
1BE
100
AcDbEntity
  8
0
  6
CONTINUOUS
 62
               7
100
AcDbLine
 10
-11.0
 20
-10.0
 30
0.0
 11
11.0
 21
-10.0
 31
0.0
  0
LINE
  5
1BF
100
AcDbEntity
  8
0
  6
CONTINUOUS
 62
               7
100
AcDbLine
 10
-11.0
 20
10.0
 30
0.0
 11
11.0
 21
10.0
 31
0.0
  0
LINE
  5
1C0
100
AcDbEntity
  8
0
  6
CONTINUOUS
 62
               7
100
AcDbLine
 10
12.0
 20
9.0
 30
0.0
 11
12.0
 21
-9.0
 31
0.0
  0
LINE
  5
1C1
100
AcDbEntity
  8
0
  6
CONTINUOUS
 62
               7
100
AcDbLine
 10
-12.0
 20
9.0
 30
0.0
 11
-12.0
 21
-9.0
 31
0.0
  0
LINE
  5
1C2
100
AcDbEntity
  8
0
  6
CONTINUOUS
 62
               7
100
AcDbLine
 10
-12.0
 20
9.0
 30
0.0
 11
-11.0
 21
10.0
 31
0.0
  0
LINE
  5
1C3
100
AcDbEntity
  8
0
  6
CONTINUOUS
 62
               7
100
AcDbLine
 10
-12.0
 20
-9.0
 30
0.0
 11
-11.0
 21
-10.0
 31
0.0
  0
LINE
  5
1C4
100
AcDbEntity
  8
0
  6
CONTINUOUS
 62
               7
100
AcDbLine
 10
11.0
 20
-10.0
 30
0.0
 11
12.0
 21
-9.0
 31
0.0
  0
LINE
  5
1C5
100
AcDbEntity
  8
0
  6
CONTINUOUS
 62
               7
100
AcDbLine
 10
11.0
 20
10.0
 30
0.0
 11
12.0
 21
9.0
 31
0.0
  0
LINE
  5
1C6
100
AcDbEntity
  8
0
  6
CONTINUOUS
 62
               7
100
AcDbLine
 10
-12.0
 20
9.0
 30
0.0
 11
12.0
 21
9.0
 31
0.0
  0
LINE
  5
1C7
100
AcDbEntity
  8
0
  6
CONTINUOUS
 62
               7
100
AcDbLine
 10
-12.0
 20
-9.0
 30
0.0
 11
12.0
 21
-9.0
 31
0.0
  0
LINE
  5
1C8
100
AcDbEntity
  8
0
  6
CONTINUOUS
 62
               7
100
AcDbLine
 10
-11.0
 20
10.0
 30
0.0
 11
-11.0
 21
-10.0
 31
0.0
  0
LINE
  5
1C9
100
AcDbEntity
  8
0
  6
CONTINUOUS
 62
               7
100
AcDbLine
 10
11.0
 20
10.0
 30
0.0
 11
11.0
 21
-10.0
 31
0.0
  0
LINE
  5
1CA
100
AcDbEntity
  8
0
  6
CONTINUOUS
 62
               7
100
AcDbLine
 10
-20.0
 20
9.0
 30
0.0
 11
-20.0
 21
-9.0
 31
0.0
  0
LINE
  5
1CB
100
AcDbEntity
  8
0
  6
CONTINUOUS
 62
               7
100
AcDbLine
 10
20.0
 20
9.0
 30
0.0
 11
20.0
 21
-9.0
 31
0.0
  0
LINE
  5
1CC
100
AcDbEntity
  8
0
  6
CONTINUOUS
 62
               7
100
AcDbLine
 10
-20.0
 20
-9.0
 30
0.0
 11
-19.0
 21
-10.0
 31
0.0
  0
LINE
  5
1CD
100
AcDbEntity
  8
0
  6
CONTINUOUS
 62
               7
100
AcDbLine
 10
-20.0
 20
9.0
 30
0.0
 11
-19.0
 21
10.0
 31
0.0
  0
LINE
  5
1CE
100
AcDbEntity
  8
0
  6
CONTINUOUS
 62
               7
100
AcDbLine
 10
19.0
 20
10.0
 30
0.0
 11
20.0
 21
9.0
 31
0.0
  0
LINE
  5
1CF
100
AcDbEntity
  8
0
  6
CONTINUOUS
 62
               7
100
AcDbLine
 10
19.0
 20
-10.0
 30
0.0
 11
20.0
 21
-9.0
 31
0.0
  0
LINE
  5
1D0
100
AcDbEntity
  8
0
  6
CONTINUOUS
 62
               7
100
AcDbLine
 10
-19.0
 20
10.0
 30
0.0
 11
-19.0
 21
-10.0
 31
0.0
  0
LINE
  5
1D1
100
AcDbEntity
  8
0
  6
CONTINUOUS
 62
               7
100
AcDbLine
 10
19.0
 20
10.0
 30
0.0
 11
19.0
 21
-10.0
 31
0.0
  0
LINE
  5
1D2
100
AcDbEntity
  8
0
  6
CONTINUOUS
 62
               4
100
AcDbLine
 10
32.0
 20
44.300000000000004
 30
0.0
 11
32.0
 21
27.799999999999997
 31
0.0
  0
LINE
  5
1D3
100
AcDbEntity
  8
0
  6
CONTINUOUS
 62
               4
100
AcDbLine
 10
30.0
 20
44.300000000000004
 30
0.0
 11
32.0
 21
44.300000000000004
 31
0.0
  0
LINE
  5
1D4
100
AcDbEntity
  8
0
  6
CONTINUOUS
 62
               4
100
AcDbLine
 10
30.0
 20
44.300000000000004
 30
0.0
 11
30.0
 21
27.799999999999997
 31
0.0
  0
LINE
  5
1D5
100
AcDbEntity
  8
0
  6
CENTER
 62
             200
100
AcDbLine
 10
28.050000000000068
 20
38.300000000000004
 30
0.0
 11
33.950000000000045
 21
38.300000000000004
 31
0.0
  0
LINE
  5
1D6
100
AcDbEntity
  8
0
  6
CONTINUOUS
 62
               4
100
AcDbLine
 10
30.0
 20
42.300000000000004
 30
0.0
 11
32.0
 21
42.300000000000004
 31
0.0
  0
LINE
  5
1D7
100
AcDbEntity
  8
0
  6
CONTINUOUS
 62
               2
100
AcDbLine
 10
20.0
 20
-5.730000000000004
 30
0.0
 11
21.450000000000045
 21
-5.7700000000000031
 31
0.0
  0
LINE
  5
1D8
100
AcDbEntity
  8
0
  6
CONTINUOUS
 62
               7
100
AcDbLine
 10
20.0
 20
-6.5800000000000018
 30
0.0
 11
20.970000000000027
 21
-6.6099999999999994
 31
0.0
  0
LINE
  5
1D9
100
AcDbEntity
  8
0
  6
CONTINUOUS
 62
               7
100
AcDbLine
 10
20.970000000000027
 20
6.6099999999999994
 30
0.0
 11
20.970000000000027
 21
-6.6099999999999994
 31
0.0
  0
LINE
  5
1DA
100
AcDbEntity
  8
0
  6
CONTINUOUS
 62
               7
100
AcDbLine
 10
21.669999999999959
 20
5.3899999999999935
 30
0.0
 11
21.669999999999959
 21
-5.4000000000000021
 31
0.0
  0
LINE
  5
1DB
100
AcDbEntity
  8
0
  6
CONTINUOUS
 62
               7
100
AcDbLine
 10
20.970000000000027
 20
-6.6099999999999994
 30
0.0
 11
21.669999999999959
 21
-5.4000000000000021
 31
0.0
  0
LINE
  5
1DC
100
AcDbEntity
  8
0
  6
CONTINUOUS
 62
               7
100
AcDbLine
 10
20.970000000000027
 20
6.6099999999999994
 30
0.0
 11
21.669999999999959
 21
5.3899999999999935
 31
0.0
  0
LINE
  5
1DD
100
AcDbEntity
  8
0
  6
CONTINUOUS
 62
               2
100
AcDbLine
 10
20.0
 20
5.7199999999999989
 30
0.0
 11
21.450000000000045
 21
5.759999999999998
 31
0.0
  0
LINE
  5
1DE
100
AcDbEntity
  8
0
  6
CONTINUOUS
 62
               7
100
AcDbLine
 10
20.0
 20
6.5799999999999983
 30
0.0
 11
20.970000000000027
 21
6.6099999999999994
 31
0.0
  0
LINE
  5
1DF
100
AcDbEntity
  8
0
  6
CONTINUOUS
 62
               7
100
AcDbLine
 10
-2.6999999999999318
 20
21.799999999999997
 30
0.0
 11
2.7000000000000455
 21
21.799999999999997
 31
0.0
  0
LINE
  5
1E0
100
AcDbEntity
  8
0
  6
CONTINUOUS
 62
               7
100
AcDbLine
 10
-2.6999999999999318
 20
24.299999999999997
 30
0.0
 11
-2.6999999999999318
 21
21.799999999999997
 31
0.0
  0
LINE
  5
1E1
100
AcDbEntity
  8
0
  6
CONTINUOUS
 62
               7
100
AcDbLine
 10
2.7000000000000455
 20
24.299999999999997
 30
0.0
 11
2.7000000000000455
 21
21.799999999999997
 31
0.0
  0
LINE
  5
1E2
100
AcDbEntity
  8
0
  6
CONTINUOUS
 62
               7
100
AcDbLine
 10
-57.0
 20
-20.990000000000002
 30
0.0
 11
-36.5
 21
-20.990000000000002
 31
0.0
  0
LINE
  5
1E3
100
AcDbEntity
  8
0
  6
CONTINUOUS
 62
               2
100
AcDbLine
 10
-20.0
 20
5.7199999999999989
 30
0.0
 11
-26.0
 21
5.9100000000000037
 31
0.0
  0
LINE
  5
1E4
100
AcDbEntity
  8
0
  6
CONTINUOUS
 62
               7
100
AcDbLine
 10
-20.0
 20
-6.5800000000000018
 30
0.0
 11
-26.0
 21
-6.7700000000000031
 31
0.0
  0
LINE
  5
1E5
100
AcDbEntity
  8
0
  6
CONTINUOUS
 62
               7
100
AcDbLine
 10
-26.0
 20
7.0
 30
0.0
 11
-26.0
 21
-7.0
 31
0.0
  0
LINE
  5
1E6
100
AcDbEntity
  8
0
  6
CONTINUOUS
 62
               7
100
AcDbLine
 10
-20.0
 20
6.5799999999999983
 30
0.0
 11
-26.0
 21
6.759999999999998
 31
0.0
  0
LINE
  5
1E7
100
AcDbEntity
  8
0
  6
CONTINUOUS
 62
               2
100
AcDbLine
 10
-20.0
 20
-5.730000000000004
 30
0.0
 11
-26.0
 21
-5.9100000000000037
 31
0.0
  0
LINE
  5
1E8
100
AcDbEntity
  8
0
  6
CONTINUOUS
 62
               7
100
AcDbLine
 10
-57.0
 20
21.0
 30
0.0
 11
-36.5
 21
21.0
 31
0.0
  0
LINE
  5
1E9
100
AcDbEntity
  8
0
  6
CONTINUOUS
 62
               7
100
AcDbLine
 10
-60.0
 20
21.25
 30
0.0
 11
-60.0
 21
-21.240000000000002
 31
0.0
  0
LINE
  5
1EA
100
AcDbEntity
  8
0
  6
CONTINUOUS
 62
               7
100
AcDbLine
 10
-60.0
 20
-21.240000000000002
 30
0.0
 11
-57.0
 21
-21.240000000000002
 31
0.0
  0
LINE
  5
1EB
100
AcDbEntity
  8
0
  6
CONTINUOUS
 62
               7
100
AcDbLine
 10
-33.5
 20
18.0
 30
0.0
 11
-33.5
 21
-17.990000000000002
 31
0.0
  0
LINE
  5
1EC
100
AcDbEntity
  8
0
  6
CONTINUOUS
 62
               7
100
AcDbLine
 10
-57.0
 20
21.25
 30
0.0
 11
-57.0
 21
-21.240000000000002
 31
0.0
  0
LINE
  5
1ED
100
AcDbEntity
  8
0
  6
CONTINUOUS
 62
               7
100
AcDbLine
 10
-26.0
 20
-7.0
 30
0.0
 11
-33.5
 21
-7.0
 31
0.0
  0
LINE
  5
1EE
100
AcDbEntity
  8
0
  6
CONTINUOUS
 62
               7
100
AcDbLine
 10
-26.0
 20
7.0
 30
0.0
 11
-33.5
 21
7.0
 31
0.0
  0
LINE
  5
1EF
100
AcDbEntity
  8
0
  6
CONTINUOUS
 62
               2
100
AcDbLine
 10
-26.0
 20
-7.0
 30
0.0
 11
-33.5
 21
7.0
 31
0.0
  0
LINE
  5
1F0
100
AcDbEntity
  8
0
  6
CONTINUOUS
 62
               2
100
AcDbLine
 10
-33.5
 20
-7.0
 30
0.0
 11
-26.0
 21
7.0
 31
0.0
  0
LINE
  5
1F1
100
AcDbEntity
  8
0
  6
CONTINUOUS
 62
               7
100
AcDbLine
 10
-60.0
 20
21.25
 30
0.0
 11
-57.0
 21
21.25
 31
0.0
  0
LINE
  5
1F2
100
AcDbEntity
  8
0
  6
CONTINUOUS
 62
               7
100
AcDbLine
 10
-17.850000000000023
 20
-24.290000000000003
 30
0.0
 11
-17.850000000000023
 21
-71.289999999999992
 31
0.0
  0
LINE
  5
1F3
100
AcDbEntity
  8
0
  6
CONTINUOUS
 62
               7
100
AcDbLine
 10
-12.17999999999995
 20
-78.950000000000003
 30
0.0
 11
-10.600000000000023
 21
-79.430000000000007
 31
0.0
  0
LINE
  5
1F4
100
AcDbEntity
  8
0
  6
CONTINUOUS
 62
               7
100
AcDbLine
 10
-8.3999999999999773
 20
-82.390000000000015
 30
0.0
 11
-8.3999999999999773
 21
-85.789999999999992
 31
0.0
  0
LINE
  5
1F5
100
AcDbEntity
  8
0
  6
CONTINUOUS
 62
               7
100
AcDbLine
 10
-8.3999999999999773
 20
-85.789999999999992
 30
0.0
 11
8.3999999999999773
 21
-85.789999999999992
 31
0.0
  0
LINE
  5
1F6
100
AcDbEntity
  8
0
  6
CONTINUOUS
 62
               7
100
AcDbLine
 10
8.3999999999999773
 20
-82.390000000000015
 30
0.0
 11
8.3999999999999773
 21
-85.789999999999992
 31
0.0
  0
LINE
  5
1F7
100
AcDbEntity
  8
0
  6
CONTINUOUS
 62
               7
100
AcDbLine
 10
12.180000000000064
 20
-78.950000000000003
 30
0.0
 11
10.600000000000023
 21
-79.430000000000007
 31
0.0
  0
LINE
  5
1F8
100
AcDbEntity
  8
0
  6
CONTINUOUS
 62
               7
100
AcDbLine
 10
17.850000000000023
 20
-24.290000000000003
 30
0.0
 11
17.850000000000023
 21
-71.289999999999992
 31
0.0
  0
LINE
  5
1F9
100
AcDbEntity
  8
0
  6
CONTINUOUS
 62
               7
100
AcDbLine
 10
-6.2199999999999136
 20
-79.289999999999992
 30
0.0
 11
6.1100000000000136
 21
-79.289999999999992
 31
0.0
  0
LINE
  5
1FA
100
AcDbEntity
  8
0
  6
CONTINUOUS
 62
               7
100
AcDbLine
 10
-2.5
 20
-69.289999999999992
 30
0.0
 11
2.5
 21
-69.289999999999992
 31
0.0
  0
LINE
  5
1FB
100
AcDbEntity
  8
0
  6
CONTINUOUS
 62
               7
100
AcDbLine
 10
4.0
 20
-35.790000000000006
 30
0.0
 11
4.0
 21
-67.789999999999992
 31
0.0
  0
LINE
  5
1FC
100
AcDbEntity
  8
0
  6
CONTINUOUS
 62
               7
100
AcDbLine
 10
-2.5
 20
-34.290000000000006
 30
0.0
 11
2.5
 21
-34.290000000000006
 31
0.0
  0
LINE
  5
1FD
100
AcDbEntity
  8
0
  6
CONTINUOUS
 62
               7
100
AcDbLine
 10
-4.0
 20
-35.790000000000006
 30
0.0
 11
-4.0
 21
-67.789999999999992
 31
0.0
  0
ARC
  5
1FE
100
AcDbEntity
  8
0
  6
CONTINUOUS
 62
               7
100
AcDbCircle
 10
11.601891260622438
 20
60.801891260622476
 30
0.0
 40
0.9981105311980908
100
AcDbArc
 50
359.89143355060935
 51
90.108566449389656
  0
ARC
  5
1FF
100
AcDbEntity
  8
0
  6
CONTINUOUS
 62
               7
100
AcDbCircle
 10
-11.599327388306961
 20
60.799327388307056
 30
0.0
 40
1.0006728377441234
100
AcDbArc
 50
90.038511901897607
 51
179.9614880981018
  0
ARC
  5
200
100
AcDbEntity
  8
0
  6
CONTINUOUS
 62
               7
100
AcDbCircle
 10
25.504423864253226
 20
0.0
 30
0.0
 40
11.929271973002614
100
AcDbArc
 50
123.04168249538212
 51
236.95831750461707
  0
ARC
  5
201
100
AcDbEntity
  8
0
  6
CONTINUOUS
 62
               7
100
AcDbCircle
 10
-25.499299350790807
 20
0.0
 30
0.0
 40
11.926478610687681
100
AcDbArc
 50
303.02104537457609
 51
56.978954625423128
  0
CIRCLE
  5
202
100
AcDbEntity
  8
0
  6
CONTINUOUS
 62
               7
100
AcDbCircle
 10
0.0025622558594023
 20
0.0012420654296861
 30
0.0
 40
8.0
  0
ARC
  5
203
100
AcDbEntity
  8
0
  6
CONTINUOUS
 62
               4
100
AcDbCircle
 10
28.500657361327967
 20
27.79934263867203
 30
0.0
 40
1.4993427827764836
100
AcDbArc
 50
269.97487963970087
 51
0.0251203602984653
  0
ARC
  5
204
100
AcDbEntity
  8
0
  6
CONTINUOUS
 62
               4
100
AcDbCircle
 10
28.500658051618416
 20
27.799341948381581
 30
0.0
 40
3.4993420102549235
100
AcDbArc
 50
269.98922552281232
 51
0.0107744771870728
  0
ARC
  5
205
100
AcDbEntity
  8
0
  6
CONTINUOUS
 62
               4
100
AcDbCircle
 10
-15.998198598546082
 20
22.800753785702781
 30
0.0
 40
3.499246677975214
100
AcDbArc
 50
90.029495692808965
 51
154.63087577729078
  0
ARC
  5
206
100
AcDbEntity
  8
0
  6
CONTINUOUS
 62
               7
100
AcDbCircle
 10
-36.494357953860685
 20
-17.995642046139334
 30
0.0
 40
2.9943632693000484
100
AcDbArc
 50
269.89204194888464
 51
0.1079580511148317
  0
ARC
  5
207
100
AcDbEntity
  8
0
  6
CONTINUOUS
 62
               7
100
AcDbCircle
 10
-36.498082656583506
 20
18.00191734341648
 30
0.0
 40
2.9980832696762554
100
AcDbArc
 50
359.96335802469417
 51
90.036641975304804
  0
ARC
  5
208
100
AcDbEntity
  8
0
  6
CONTINUOUS
 62
               7
100
AcDbCircle
 10
-9.8492660278867561
 20
-71.296277856151136
 30
0.0
 40
8.0007364351042938
100
AcDbArc
 50
179.95504230120792
 51
253.06330464849719
  0
ARC
  5
209
100
AcDbEntity
  8
0
  6
CONTINUOUS
 62
               7
100
AcDbCircle
 10
-11.499432727953263
 20
-82.396064865370647
 30
0.0
 40
3.099438661709514
100
AcDbArc
 50
0.112114304792999
 51
73.130540682775134
  0
ARC
  5
20A
100
AcDbEntity
  8
0
  6
CONTINUOUS
 62
               7
100
AcDbCircle
 10
11.50275221758784
 20
-82.39853205361257
 30
0.0
 40
3.1027639484312948
100
AcDbArc
 50
106.91489849918753
 51
179.84244651324323
  0
ARC
  5
20B
100
AcDbEntity
  8
0
  6
CONTINUOUS
 62
               7
100
AcDbCircle
 10
9.8525868728613659
 20
-71.298735975081442
 30
0.0
 40
7.9974178985088908
100
AcDbArc
 50
286.91906602433164
 51
0.062587025961643
  0
ARC
  5
20C
100
AcDbEntity
  8
0
  6
CONTINUOUS
 62
               7
100
AcDbCircle
 10
2.5056736779466746
 20
-67.795673677946624
 30
0.0
 40
1.4943370929622968
100
AcDbArc
 50
269.78245967176645
 51
0.2175403282332219
  0
ARC
  5
20D
100
AcDbEntity
  8
0
  6
CONTINUOUS
 62
               7
100
AcDbCircle
 10
2.4968899501301394
 20
-35.793110049869824
 30
0.0
 40
1.5031132673321228
100
AcDbArc
 50
0.118549188960851
 51
89.881450811038547
  0
ARC
  5
20E
100
AcDbEntity
  8
0
  6
CONTINUOUS
 62
               7
100
AcDbCircle
 10
-2.4943351769684341
 20
-35.795664823031501
 30
0.0
 40
1.5056754794890108
100
AcDbArc
 50
90.215565187542694
 51
179.78443481245702
  0
ARC
  5
20F
100
AcDbEntity
  8
0
  6
CONTINUOUS
 62
               7
100
AcDbCircle
 10
-2.503088622926839
 20
-67.793088622926859
 30
0.0
 40
1.4969145634947207
100
AcDbArc
 50
179.88178003735223
 51
270.11821996264706
  0
CIRCLE
  5
210
100
AcDbEntity
  8
0
  6
CONTINUOUS
 62
               7
100
AcDbCircle
 10
0.0
 20
0.0
 30
0.0
 40
4.2779998779296875
  0
CIRCLE
  5
211
100
AcDbEntity
  8
0
  6
CONTINUOUS
 62
               2
100
AcDbCircle
 10
0.0
 20
0.0
 30
0.0
 40
4.8639993667602539
  0
ENDBLK
  5
212
100
AcDbEntity
  8
0
100
AcDbBlockEnd
  0
ENDSEC
  0
SECTION
  2
ENTITIES
  0
INSERT
  5
213
100
AcDbEntity
  8
0
100
AcDbBlockReference
  2
MS_2
 10
64.926338465370492
 20
9.882724267759599
 30
0.0
  0
INSERT
  5
214
100
AcDbEntity
  8
0
100
AcDbBlockReference
  2
MS_1
 10
-81.660728185020133
 20
9.8827395265486615
 30
0.0
  0
MTEXT
  5
215
100
AcDbEntity
  8
0
  6
CONTINUOUS
 62
               2
100
AcDbMText
 10
-26.958152024589225
 20
10.682693940916337
 30
0.0
 40
3.1999998092651367
 41
0.0
 71
               7
 72
               1
  1
\A1;OUT
  7
MX_NOTE_STANDARD
  0
MTEXT
  5
216
100
AcDbEntity
  8
0
  6
CONTINUOUS
 62
               2
100
AcDbMText
 10
-111.85147774251524
 20
10.682693940916337
 30
0.0
 40
3.1999998092651367
 41
0.0
 71
               7
 72
               1
  1
\W1.200;\A1;IN
  7
MX_NOTE_STANDARD
  0
MTEXT
  5
217
100
AcDbEntity
  8
0
  6
CONTINUOUS
 62
               7
100
AcDbMText
 10
-190.92189603209508
 20
125.10000610351562
 30
0.0
 40
4.1999998092651367
 41
0.0
 71
               4
 72
               1
  1
\W1.040;\A1;CS-FILTER REGULATOR
  7
MX_NOTE_STANDARD
  0
MTEXT
  5
218
100
AcDbEntity
  8
0
  6
CONTINUOUS
 62
               7
100
AcDbMText
 10
-185.58333327387061
 20
107.60000610351562
 30
0.0
 40
4.1999998092651367
 41
0.0
 71
               4
 72
               1
  1
\W1.095;\A1;MODEL:CS-FR150-01-BG-F1
  7
MX_NOTE_STANDARD
  0
MTEXT
  5
219
100
AcDbEntity
  8
0
  6
CONTINUOUS
 62
               7
100
AcDbMText
 10
115.5267259825148
 20
-126.0
 30
0.0
 40
6.3000001907348633
 41
0.0
 71
               4
 72
               1
  1
\W1.121;\A1;KOGANEI CORP.
  7
MX_NOTE_STANDARD
  0
MTEXT
  5
21A
100
AcDbEntity
  8
0
  6
CONTINUOUS
 62
               7
100
AcDbMText
 10
137.50455163152421
 20
125.10000610351562
 30
0.0
 40
4.5
 41
0.0
 71
               4
 72
               1
  1
\W1.273;\A1;Ver.1.0
  7
MX_NOTE_STANDARD
  0
LINE
  5
21B
100
AcDbEntity
  8
0
  6
CONTINUOUS
 62
               7
100
AcDbLine
 10
-194.25
 20
-133.5
 30
0.0
 11
194.80000000000001
 21
-133.5
 31
0.0
  0
LINE
  5
21C
100
AcDbEntity
  8
0
  6
CONTINUOUS
 62
               7
100
AcDbLine
 10
-109.25
 20
132.59999999999999
 30
0.0
 11
-109.25
 21
117.59999999999999
 31
0.0
  0
LINE
  5
21D
100
AcDbEntity
  8
0
  6
CONTINUOUS
 62
               7
100
AcDbLine
 10
-194.25
 20
117.59999999999999
 30
0.0
 11
-109.25
 21
117.59999999999999
 31
0.0
  0
LINE
  5
21E
100
AcDbEntity
  8
0
  6
CONTINUOUS
 62
               7
100
AcDbLine
 10
109.8
 20
117.59999999999999
 30
0.0
 11
194.80000000000001
 21
117.59999999999999
 31
0.0
  0
LINE
  5
21F
100
AcDbEntity
  8
0
  6
CONTINUOUS
 62
               7
100
AcDbLine
 10
109.8
 20
132.59999999999999
 30
0.0
 11
109.8
 21
117.59999999999999
 31
0.0
  0
LINE
  5
220
100
AcDbEntity
  8
0
  6
CONTINUOUS
 62
               7
100
AcDbLine
 10
109.8
 20
-118.5
 30
0.0
 11
194.80000000000001
 21
-118.5
 31
0.0
  0
LINE
  5
221
100
AcDbEntity
  8
0
  6
CONTINUOUS
 62
               7
100
AcDbLine
 10
109.8
 20
-118.5
 30
0.0
 11
109.8
 21
-133.5
 31
0.0
  0
LINE
  5
222
100
AcDbEntity
  8
0
  6
CONTINUOUS
 62
               7
100
AcDbLine
 10
-194.25
 20
132.59999999999999
 30
0.0
 11
-194.25
 21
-133.5
 31
0.0
  0
LINE
  5
223
100
AcDbEntity
  8
0
  6
CONTINUOUS
 62
               7
100
AcDbLine
 10
194.80000000000001
 20
132.59999999999999
 30
0.0
 11
194.80000000000001
 21
-133.5
 31
0.0
  0
LINE
  5
224
100
AcDbEntity
  8
0
  6
CONTINUOUS
 62
               7
100
AcDbLine
 10
-194.25
 20
132.59999999999999
 30
0.0
 11
194.80000000000001
 21
132.59999999999999
 31
0.0
  0
ENDSEC
  0
SECTION
  2
OBJECTS
  0
DICTIONARY
  5
19
100
AcDbDictionary
  3
ACAD_GROUP
350
1A
  3
ACAD_MLINESTYLE
350
1B
  0
DICTIONARY
  5
1A
102
{ACAD_REACTORS
330
19
102
}
100
AcDbDictionary
  0
DICTIONARY
  5
1B
102
{ACAD_REACTORS
330
19
102
}
100
AcDbDictionary
  3
STANDARD
350
1C
  0
MLINESTYLE
  5
1C
102
{ACAD_REACTORS
330
1B
102
}
100
AcDbMlineStyle
  2
Standard
 70
               0
  3

 62
               0
 51
90.0
 52
90.0
 71
               2
 49
0.5
 62
             256
  6
ByLayer
 49
-0.5
 62
             256
  6
ByLayer
  0
ENDSEC
  0
EOF
