  0
SECTION
  2
HEADER
  9
$ACADVER
  1
AC1012
  9
$DWGCODEPAGE
  3
dos932
  9
$INSBASE
 10
0.0
 20
0.0
 30
0.0
  9
$EXTMIN
 10
-281.25
 20
-195.0
 30
0.0
  9
$EXTMAX
 10
285.59998798370361
 20
195.5
 30
0.0
  9
$LIMMIN
 10
-281.25
 20
-195.0
  9
$LIMMAX
 10
285.59998798370361
 20
195.5
  9
$ORTHOMODE
 70
               0
  9
$REGENMODE
 70
               1
  9
$FILLMODE
 70
               1
  9
$QTEXTMODE
 70
               0
  9
$MIRRTEXT
 70
               1
  9
$DRAGMODE
 70
               2
  9
$LTSCALE
 40
1.0
  9
$OSMODE
 70
               0
  9
$ATTMODE
 70
               1
  9
$TEXTSIZE
 40
3.2000000476837158
  9
$TRACEWID
 40
0.05
  9
$TEXTSTYLE
  7
MX_NOTE_STANDARD
  9
$CLAYER
  8
0
  9
$CELTYPE
  6
CONTINUOUS
  9
$CECOLOR
 62
             256
  9
$CELTSCALE
 40
1.0
  9
$DELOBJ
 70
               1
  9
$DISPSILH
 70
               0
  9
$DIMSCALE
 40
1.0
  9
$DIMASZ
 40
2.5
  9
$DIMEXO
 40
1.5
  9
$DIMDLI
 40
3.75
  9
$DIMRND
 40
0.0
  9
$DIMDLE
 40
0.0
  9
$DIMEXE
 40
1.5
  9
$DIMTP
 40
0.0
  9
$DIMTM
 40
0.0
  9
$DIMTXT
 40
3.2000000476837158
  9
$DIMCEN
 40
2.5
  9
$DIMTSZ
 40
0.0
  9
$DIMTOL
 70
               0
  9
$DIMLIM
 70
               0
  9
$DIMTIH
 70
               0
  9
$DIMTOH
 70
               0
  9
$DIMSE1
 70
               0
  9
$DIMSE2
 70
               0
  9
$DIMTAD
 70
               1
  9
$DIMZIN
 70
               8
  9
$DIMBLK
  1

  9
$DIMASO
 70
               1
  9
$DIMSHO
 70
               1
  9
$DIMPOST
  1

  9
$DIMAPOST
  1

  9
$DIMALT
 70
               0
  9
$DIMALTD
 70
               4
  9
$DIMALTF
 40
0.0394
  9
$DIMLFAC
 40
1.0
  9
$DIMTOFL
 70
               1
  9
$DIMTVP
 40
0.0
  9
$DIMTIX
 70
               0
  9
$DIMSOXD
 70
               0
  9
$DIMSAH
 70
               0
  9
$DIMBLK1
  1

  9
$DIMBLK2
  1

  9
$DIMSTYLE
  2
MXDIMSTYLE
  9
$DIMCLRD
 70
               0
  9
$DIMCLRE
 70
               0
  9
$DIMCLRT
 70
               0
  9
$DIMTFAC
 40
1.0
  9
$DIMGAP
 40
1.0
  9
$DIMJUST
 70
               0
  9
$DIMSD1
 70
               0
  9
$DIMSD2
 70
               0
  9
$DIMTOLJ
 70
               1
  9
$DIMTZIN
 70
               0
  9
$DIMALTZ
 70
               0
  9
$DIMALTTZ
 70
               0
  9
$DIMFIT
 70
               3
  9
$DIMUPT
 70
               1
  9
$DIMUNIT
 70
               2
  9
$DIMDEC
 70
               4
  9
$DIMTDEC
 70
               4
  9
$DIMALTU
 70
               8
  9
$DIMALTTD
 70
               4
  9
$DIMTXSTY
  7
MX_NOTE_STANDARD
  9
$DIMAUNIT
 70
               0
  9
$LUNITS
 70
               2
  9
$LUPREC
 70
               4
  9
$SKETCHINC
 40
0.1
  9
$FILLETRAD
 40
0.0
  9
$AUNITS
 70
               0
  9
$AUPREC
 70
               0
  9
$MENU
  1
acad
  9
$ELEVATION
 40
0.0
  9
$PELEVATION
 40
0.0
  9
$THICKNESS
 40
0.0
  9
$LIMCHECK
 70
               0
  9
$BLIPMODE
 70
               1
  9
$CHAMFERA
 40
0.0
  9
$CHAMFERB
 40
0.0
  9
$CHAMFERC
 40
0.0
  9
$CHAMFERD
 40
0.0
  9
$SKPOLY
 70
               0
  9
$TDCREATE
 40
2452220.697175926
  9
$TDUPDATE
 40
2452220.697175926
  9
$TDINDWG
 40
0.0000000000
  9
$TDUSRTIMER
 40
0.0000000000
  9
$USRTIMER
 70
               1
  9
$ANGBASE
 50
0.0
  9
$ANGDIR
 70
               0
  9
$PDMODE
 70
               0
  9
$PDSIZE
 40
0.0
  9
$PLINEWID
 40
0.0
  9
$COORDS
 70
               1
  9
$SPLFRAME
 70
               0
  9
$SPLINETYPE
 70
               6
  9
$SPLINESEGS
 70
               8
  9
$ATTDIA
 70
               0
  9
$ATTREQ
 70
               1
  9
$HANDLING
 70
               1
  9
$HANDSEED
  5
2B9
  9
$SURFTAB1
 70
               6
  9
$SURFTAB2
 70
               6
  9
$SURFTYPE
 70
               6
  9
$SURFU
 70
               6
  9
$SURFV
 70
               6
  9
$UCSNAME
  2

  9
$UCSORG
 10
0.0
 20
0.0
 30
0.0
  9
$UCSXDIR
 10
1.0
 20
0.0
 30
0.0
  9
$UCSYDIR
 10
0.0
 20
1.0
 30
0.0
  9
$PUCSNAME
  2

  9
$PUCSORG
 10
0.0
 20
0.0
 30
0.0
  9
$PUCSXDIR
 10
1.0
 20
0.0
 30
0.0
  9
$PUCSYDIR
 10
0.0
 20
1.0
 30
0.0
  9
$USERI1
 70
               0
  9
$USERI2
 70
               0
  9
$USERI3
 70
               0
  9
$USERI4
 70
               0
  9
$USERI5
 70
               0
  9
$USERR1
 40
0.0
  9
$USERR2
 40
0.0
  9
$USERR3
 40
0.0
  9
$USERR4
 40
0.0
  9
$USERR5
 40
0.0
  9
$WORLDVIEW
 70
               1
  9
$SHADEDGE
 70
               3
  9
$SHADEDIF
 70
              70
  9
$TILEMODE
 70
               1
  9
$MAXACTVP
 70
              16
  9
$PINSBASE
 10
0.0
 20
0.0
 30
0.0
  9
$PLIMCHECK
 70
               0
  9
$PEXTMIN
 10
1.0000000000000000E+20
 20
1.0000000000000000E+20
 30
1.0000000000000000E+20
  9
$PEXTMAX
 10
-1.0000000000000000E+20
 20
-1.0000000000000000E+20
 30
-1.0000000000000000E+20
  9
$PLIMMIN
 10
0.0
 20
0.0
  9
$PLIMMAX
 10
12.0
 20
9.0
  9
$UNITMODE
 70
               0
  9
$VISRETAIN
 70
               0
  9
$PLINEGEN
 70
               1
  9
$PSLTSCALE
 70
               0
  9
$TREEDEPTH
 70
            3020
  9
$PICKSTYLE
 70
               1
  9
$CMLSTYLE
  2
Standard
  9
$CMLJUST
 70
               0
  9
$CMLSCALE
 40
1.0
  9
$SAVEIMAGES
 70
               0
  0
ENDSEC
  0
SECTION
  2
CLASSES
  0
CLASS
  1
LWPOLYLINE
  2
AcDbPolyline
  3
"AutoCAD"
 90
        0
280
               0
281
               1
  0
CLASS
  1
IMAGE
  2
AcDbRasterImage
  3
ISM
 90
      127
280
               0
281
               1
  0
CLASS
  1
OLE2FRAME
  2
AcDbOle2Frame
  3
""
 90
        0
280
               0
281
               1
  0
CLASS
  1
HATCH
  2
AcDbHatch
  3
"ACAD_SEDONA"
 90
        0
280
               0
281
               1
  0
CLASS
  1
DICTIONARYVAR
  2
AcDbDictionaryVar
  3
"AutoCAD"
 90
        0
280
               0
281
               0
  0
CLASS
  1
RASTERVARIABLES
  2
AcDbRasterVariables
  3
ISM
 90
        0
280
               0
281
               0
  0
CLASS
  1
IMAGEDEF
  2
AcDbRasterImageDef
  3
ISM
 90
        0
280
               0
281
               0
  0
CLASS
  1
IMAGEDEF_REACTOR
  2
AcDbRasterImageDefReactor
  3
ISM
 90
        1
280
               0
281
               0
  0
CLASS
  1
IDBUFFER
  2
AcDbIdBuffer
  3
"Acad"
 90
        0
280
               0
281
               0
  0
CLASS
  1
SPATIAL_FILTER
  2
AcDbSpatialFilter
  3
"Acad"
 90
        0
280
               0
281
               0
  0
CLASS
  1
XRECORD
  2
AcDbXrecord
  3
"<Built In>"
 90
        0
280
               0
281
               0
  0
CLASS
  1
SORTENTSTABLE
  2
AcDbSortentsTable
  3
"AutoCAD"
 90
        0
280
               0
281
               0
  0
CLASS
  1
LAYER_INDEX
  2
AcDbLayerIndex
  3
"Acad"
 90
        0
280
               0
281
               0
  0
CLASS
  1
SPATIAL_INDEX
  2
AcDbSpatialIndex
  3
"Acad"
 90
        0
280
               0
281
               0
  0
CLASS
  1
OBJECT_PTR
  2
CAseDLPNTableRecord
  3
"ASE-LPNTableRecord"
 90
        1
280
               0
281
               0
  0
CLASS
  1
LAYOUT
  2
AcDbLayout
  3
"AutoCAD 2000"
 90
        1
280
               0
281
               0
  0
CLASS
  1
PLOTSETTINGS
  2
AcDbPlotSettings
  3
"AutoCAD 2000"
 90
        1
280
               0
281
               0
  0
CLASS
  1
ACDBDICTIONARYWDFLT
  2
AcDbDictionaryWithDefault
  3
"AutoCAD 2000"
 90
        1
280
               0
281
               0
  0
CLASS
  1
ACDBPLACEHOLDER
  2
AcDbPlaceHolder
  3
"AutoCAD 2000"
 90
        1
280
               0
281
               0
  0
CLASS
  1
VBA_PROJECT
  2
AcDbVbaProject
  3
"acadvba"
 90
        1
280
               0
281
               0
  0
CLASS
  1
WIPEOUT
  2
AcDbWipeout
  3
WipeOut|AutoCAD Express Tool|expresstools@autodesk.com
 90
      127
280
               0
281
               1
  0
CLASS
  1
WIPEOUTVARIABLES
  2
AcDbWipeoutVariables
  3
WipeOut|AutoCAD Express Tool|expresstools@autodesk.com
 90
        0
280
               0
281
               0
  0
CLASS
  1
RTEXT
  2
RText
  3
RText|AutoCAD Express Tool|expresstools@autodesk.com
 90
        0
280
               0
281
               1
  0
CLASS
  1
ARCALIGNEDTEXT
  2
AcDbArcAlignedText
  3
ATEXT|AutoCAD Express Tool|expresstools@autodesk.com
 90
        0
280
               0
281
               1
  0
ENDSEC
  0
SECTION
  2
TABLES
  0
TABLE
  2
VPORT
  5
7
100
AcDbSymbolTable
 70
               1
  0
VPORT
  5
15
100
AcDbSymbolTableRecord
100
AcDbViewportTableRecord
  2
*ACTIVE
 70
               0
 10
0.0
 20
0.0
 11
1.0
 21
1.0
 12
2.1749939918518066
 22
0.25
 13
0.0
 23
0.0
 14
1.0
 24
1.0
 15
0.0
 25
0.0
 16
0.0
 26
0.0
 36
1.0
 17
0.0
 27
0.0
 37
0.0
 40
394.40500000000003
 41
1.7320508075688772
 42
50.0
 43
0.0
 44
0.0
 50
0.0
 51
0.0
 71
               0
 72
             100
 73
               1
 74
               1
 75
               0
 76
               0
 77
               0
 78
               0
  0
ENDTAB
  0
TABLE
  2
LTYPE
  5
4
100
AcDbSymbolTable
 70
               5
  0
LTYPE
  5
11
100
AcDbSymbolTableRecord
100
AcDbLinetypeTableRecord
  2
BYBLOCK
 70
              64
  3

 72
              65
 73
               0
 40
0.0
  0
LTYPE
  5
12
100
AcDbSymbolTableRecord
100
AcDbLinetypeTableRecord
  2
BYLAYER
 70
              64
  3

 72
              65
 73
               0
 40
0.0
  0
LTYPE
  5
13
100
AcDbSymbolTableRecord
100
AcDbLinetypeTableRecord
  2
CONTINUOUS
 70
              64
  3
Solid line
 72
              65
 73
               0
 40
0.0
  0
LTYPE
  5
21
100
AcDbSymbolTableRecord
100
AcDbLinetypeTableRecord
  2
CENTER
 70
              64
  3
Center ____ _ ____ _ ____ _ ____ _ ____ _ ____
 72
              65
 73
               4
 40
50.800000000000004
 49
31.75
 74
               0
 49
-6.3499999999999996
 74
               0
 49
6.3499999999999996
 74
               0
 49
-6.3499999999999996
 74
               0
  0
LTYPE
  5
68
100
AcDbSymbolTableRecord
100
AcDbLinetypeTableRecord
  2
PHANTOM
 70
              64
  3
Phantom ______  __  __  ______  __  __  ______
 72
              65
 73
               6
 40
63.500000000000007
 49
31.75
 74
               0
 49
-6.3499999999999996
 74
               0
 49
6.3499999999999996
 74
               0
 49
-6.3499999999999996
 74
               0
 49
6.3499999999999996
 74
               0
 49
-6.3499999999999996
 74
               0
  0
ENDTAB
  0
TABLE
  2
LAYER
  5
2
100
AcDbSymbolTable
 70
               2
  0
LAYER
  5
14
100
AcDbSymbolTableRecord
100
AcDbLayerTableRecord
  2
0
 70
               0
 62
               7
  6
CONTINUOUS
  0
LAYER
  5
1D
100
AcDbSymbolTableRecord
100
AcDbLayerTableRecord
  2
DEFPOINTS
 70
               0
 62
               7
  6
CONTINUOUS
  0
ENDTAB
  0
TABLE
  2
STYLE
  5
3
100
AcDbSymbolTable
 70
               1
  0
STYLE
  5
17
100
AcDbSymbolTableRecord
100
AcDbTextStyleTableRecord
  2
MX_NOTE_STANDARD
 70
               0
 40
3.2000000476837158
 41
1.0
 50
0.0
 71
               0
 42
3.2000000476837158
  3
txt.shx
  4
extfont.shx
  0
ENDTAB
  0
TABLE
  2
VIEW
  5
5
100
AcDbSymbolTable
 70
               0
  0
ENDTAB
  0
TABLE
  2
UCS
  5
6
100
AcDbSymbolTable
 70
               0
  0
ENDTAB
  0
TABLE
  2
APPID
  5
8
100
AcDbSymbolTable
 70
               1
  0
APPID
  5
16
100
AcDbSymbolTableRecord
100
AcDbRegAppTableRecord
  2
ACAD
 70
               0
  0
ENDTAB
  0
TABLE
  2
DIMSTYLE
  5
9
100
AcDbSymbolTable
 70
               1
  0
DIMSTYLE
105
18
100
AcDbSymbolTableRecord
100
AcDbDimStyleTableRecord
  2
MXDIMSTYLE
 70
               0
  3

  4

  5

  6

  7

 40
1.0
 41
2.5
 42
1.5
 43
3.75
 44
1.5
 45
0.0
 46
0.0
 47
0.0
 48
0.0
 71
               0
 72
               0
 73
               0
 74
               0
 75
               0
 76
               0
 77
               1
 78
               8
140
3.2000000476837158
141
2.5
142
0.0
143
0.0394
144
1.0
145
0.0
146
1.0
147
1.0
170
               0
171
               4
172
               1
173
               0
174
               0
175
               0
176
               0
177
               0
178
               0
270
               2
271
               4
272
               4
273
               8
274
               4
275
               0
280
               0
281
               0
282
               0
283
               1
284
               0
285
               0
286
               0
287
               3
288
               1
340
17
  0
ENDTAB
  0
TABLE
  2
BLOCK_RECORD
  5
1
100
AcDbSymbolTable
 70
               2
  0
BLOCK_RECORD
  5
A
100
AcDbSymbolTableRecord
100
AcDbBlockTableRecord
  2
*MODEL_SPACE
  0
BLOCK_RECORD
  5
B
100
AcDbSymbolTableRecord
100
AcDbBlockTableRecord
  2
*PAPER_SPACE
  0
BLOCK_RECORD
  5
1E
100
AcDbSymbolTableRecord
100
AcDbBlockTableRecord
  2
MS_1
  0
BLOCK_RECORD
  5
1F
100
AcDbSymbolTableRecord
100
AcDbBlockTableRecord
  2
MS_2
  0
ENDTAB
  0
ENDSEC
  0
SECTION
  2
BLOCKS
  0
BLOCK
  5
D
100
AcDbEntity
  8
0
100
AcDbBlockBegin
  2
*MODEL_SPACE
 70
               0
 10
0.0
 20
0.0
 30
0.0
  3
*MODEL_SPACE
  1

  0
ENDBLK
  5
E
100
AcDbEntity
  8
0
100
AcDbBlockEnd
  0
BLOCK
  5
F
100
AcDbEntity
 67
               1
  8
0
100
AcDbBlockBegin
  2
*PAPER_SPACE
 70
               0
 10
0.0
 20
0.0
 30
0.0
  3
*PAPER_SPACE
  1

  0
ENDBLK
  5
10
100
AcDbEntity
 67
               1
  8
0
100
AcDbBlockEnd
  0
BLOCK
  5
20
100
AcDbEntity
  8
0
100
AcDbBlockBegin
  2
MS_1
 70
               0
 10
0.0
 20
0.0
 30
0.0
  3
MS_1
  1

  0
LINE
  5
22
100
AcDbEntity
  8
0
  6
CENTER
 62
               2
100
AcDbLine
 10
31.5
 20
63.149568181818189
 30
0.0
 11
31.5
 21
-139.125
 31
0.0
  0
LINE
  5
23
100
AcDbEntity
  8
0
  6
CENTER
 62
               2
100
AcDbLine
 10
10.159752141281245
 20
13.500000000000007
 30
0.0
 11
38.892156986292463
 21
13.500000000000007
 31
0.0
  0
LINE
  5
24
100
AcDbEntity
  8
0
  6
CONTINUOUS
 62
               7
100
AcDbLine
 10
24.430000000000092
 20
10.350000000000009
 30
0.0
 11
24.430000000000092
 21
16.649999999999999
 31
0.0
  0
LINE
  5
25
100
AcDbEntity
  8
0
  6
CONTINUOUS
 62
               7
100
AcDbLine
 10
19.180000000000092
 20
10.350000000000009
 30
0.0
 11
19.180000000000092
 21
16.649999999999999
 31
0.0
  0
LINE
  5
26
100
AcDbEntity
  8
0
  6
CONTINUOUS
 62
               7
100
AcDbLine
 10
24.430000000000092
 20
10.350000000000009
 30
0.0
 11
19.180000000000092
 21
10.350000000000009
 31
0.0
  0
LINE
  5
27
100
AcDbEntity
  8
0
  6
CONTINUOUS
 62
               7
100
AcDbLine
 10
24.430000000000092
 20
16.649999999999999
 30
0.0
 11
19.180000000000092
 21
16.649999999999999
 31
0.0
  0
LINE
  5
28
100
AcDbEntity
  8
0
  6
CONTINUOUS
 62
               7
100
AcDbLine
 10
25.927999999999997
 20
13.500000000000007
 30
0.0
 11
24.674999999999983
 21
13.500000000000007
 31
0.0
  0
LINE
  5
29
100
AcDbEntity
  8
0
  6
CONTINUOUS
 62
               7
100
AcDbLine
 10
26.180000000000092
 20
10.70000000000001
 30
0.0
 11
26.180000000000092
 21
16.299999999999997
 31
0.0
  0
LINE
  5
2A
100
AcDbEntity
  8
0
  6
CONTINUOUS
 62
               7
100
AcDbLine
 10
26.880000000000024
 20
10.70000000000001
 30
0.0
 11
26.880000000000024
 21
16.299999999999997
 31
0.0
  0
LINE
  5
2B
100
AcDbEntity
  8
0
  6
CONTINUOUS
 62
               7
100
AcDbLine
 10
27.299999999999955
 20
16.299999999999997
 30
0.0
 11
24.430000000000092
 21
16.299999999999997
 31
0.0
  0
LINE
  5
2C
100
AcDbEntity
  8
0
  6
CONTINUOUS
 62
               7
100
AcDbLine
 10
27.299999999999955
 20
10.70000000000001
 30
0.0
 11
24.430000000000092
 21
10.70000000000001
 31
0.0
  0
LINE
  5
2D
100
AcDbEntity
  8
0
  6
CONTINUOUS
 62
               7
100
AcDbLine
 10
18.130000000000024
 20
12.114000000000019
 30
0.0
 11
18.130000000000024
 21
14.879000000000005
 31
0.0
  0
LINE
  5
2E
100
AcDbEntity
  8
0
  6
CONTINUOUS
 62
               7
100
AcDbLine
 10
19.180000000000092
 20
11.931999999999995
 30
0.0
 11
18.130000000000024
 21
12.114000000000019
 31
0.0
  0
LINE
  5
2F
100
AcDbEntity
  8
0
  6
CONTINUOUS
 62
               7
100
AcDbLine
 10
19.180000000000092
 20
15.061
 30
0.0
 11
18.130000000000024
 21
14.879000000000005
 31
0.0
  0
LINE
  5
30
100
AcDbEntity
  8
0
  6
CONTINUOUS
 62
               7
100
AcDbLine
 10
27.299999999999955
 20
10.70000000000001
 30
0.0
 11
27.299999999999955
 21
16.299999999999997
 31
0.0
  0
LINE
  5
31
100
AcDbEntity
  8
0
  6
CONTINUOUS
 62
               7
100
AcDbLine
 10
34.650000000000006
 20
10.70000000000001
 30
0.0
 11
27.299999999999955
 21
10.70000000000001
 31
0.0
  0
LINE
  5
32
100
AcDbEntity
  8
0
  6
CONTINUOUS
 62
               7
100
AcDbLine
 10
34.650000000000006
 20
16.299999999999997
 30
0.0
 11
27.299999999999955
 21
16.299999999999997
 31
0.0
  0
LINE
  5
33
100
AcDbEntity
  8
0
  6
CONTINUOUS
 62
               7
100
AcDbLine
 10
34.650000000000006
 20
10.70000000000001
 30
0.0
 11
34.650000000000006
 21
16.299999999999997
 31
0.0
  0
ARC
  5
34
100
AcDbEntity
  8
0
  6
CONTINUOUS
 62
               7
100
AcDbCircle
 10
22.136303710937455
 20
14.899999999999999
 30
0.0
 40
4.0419006356527776
100
AcDbArc
 50
339.73444797531539
 51
20.265552024683789
  0
ARC
  5
35
100
AcDbEntity
  8
0
  6
CONTINUOUS
 62
               7
100
AcDbCircle
 10
22.136303710937455
 20
12.100000000000009
 30
0.0
 40
4.0419006356527776
100
AcDbArc
 50
339.73444797531539
 51
20.265552024683789
  0
ARC
  5
36
100
AcDbEntity
  8
0
  6
CONTINUOUS
 62
               7
100
AcDbCircle
 10
28.473634338378957
 20
14.899999999999999
 30
0.0
 40
4.0484099146098522
100
AcDbArc
 50
159.76845886271593
 51
200.23154113728327
  0
ARC
  5
37
100
AcDbEntity
  8
0
  6
CONTINUOUS
 62
               7
100
AcDbCircle
 10
28.473634338378957
 20
12.100000000000009
 30
0.0
 40
4.0484099146098522
100
AcDbArc
 50
159.76845886271593
 51
200.23154113728327
  0
LINE
  5
38
100
AcDbEntity
  8
0
  6
CONTINUOUS
 62
               7
100
AcDbLine
 10
28.650000000000006
 20
-131.48750000000001
 30
0.0
 11
28.650000000000006
 21
-129.58750000000001
 31
0.0
  0
LINE
  5
39
100
AcDbEntity
  8
0
  6
CONTINUOUS
 62
               7
100
AcDbLine
 10
38.0
 20
-129.58750000000001
 30
0.0
 11
25.0
 21
-129.58750000000001
 31
0.0
  0
LINE
  5
3A
100
AcDbEntity
  8
0
  6
CONTINUOUS
 62
               7
100
AcDbLine
 10
34.325000000000017
 20
-136.6875
 30
0.0
 11
28.675000000000011
 21
-136.6875
 31
0.0
  0
LINE
  5
3B
100
AcDbEntity
  8
0
  6
CONTINUOUS
 62
               7
100
AcDbLine
 10
34.787499999999994
 20
-134.08750000000001
 30
0.0
 11
28.212500000000006
 21
-134.08750000000001
 31
0.0
  0
LINE
  5
3C
100
AcDbEntity
  8
0
  6
CONTINUOUS
 62
               7
100
AcDbLine
 10
34.787499999999994
 20
-131.48750000000001
 30
0.0
 11
28.212500000000006
 21
-131.48750000000001
 31
0.0
  0
LINE
  5
3D
100
AcDbEntity
  8
0
  6
CONTINUOUS
 62
               7
100
AcDbLine
 10
28.212500000000006
 20
-131.48750000000001
 30
0.0
 11
28.675000000000011
 21
-134.08750000000001
 31
0.0
  0
LINE
  5
3E
100
AcDbEntity
  8
0
  6
CONTINUOUS
 62
               7
100
AcDbLine
 10
28.212500000000006
 20
-134.08750000000001
 30
0.0
 11
28.675000000000011
 21
-136.6875
 31
0.0
  0
LINE
  5
3F
100
AcDbEntity
  8
0
  6
CONTINUOUS
 62
               7
100
AcDbLine
 10
34.787499999999994
 20
-134.08750000000001
 30
0.0
 11
34.325000000000017
 21
-136.6875
 31
0.0
  0
LINE
  5
40
100
AcDbEntity
  8
0
  6
CONTINUOUS
 62
               7
100
AcDbLine
 10
34.787499999999994
 20
-131.48750000000001
 30
0.0
 11
34.325000000000017
 21
-134.08750000000001
 31
0.0
  0
LINE
  5
41
100
AcDbEntity
  8
0
  6
CONTINUOUS
 62
               7
100
AcDbLine
 10
34.349999999999994
 20
-131.48750000000001
 30
0.0
 11
34.349999999999994
 21
-129.58750000000001
 31
0.0
  0
LINE
  5
42
100
AcDbEntity
  8
0
  6
CONTINUOUS
 62
               7
100
AcDbLine
 10
25.0
 20
-129.58750000000001
 30
0.0
 11
25.0
 21
-128.08750000000001
 31
0.0
  0
LINE
  5
43
100
AcDbEntity
  8
0
  6
CONTINUOUS
 62
               7
100
AcDbLine
 10
38.0
 20
-129.58750000000001
 30
0.0
 11
38.0
 21
-128.08750000000001
 31
0.0
  0
CIRCLE
  5
44
100
AcDbEntity
  8
0
  6
CONTINUOUS
 62
               7
100
AcDbCircle
 10
46.493554687499994
 20
0.0022956848144489
 30
0.0
 40
5.0049996376037598
  0
ARC
  5
45
100
AcDbEntity
  8
0
  6
CONTINUOUS
 62
               7
100
AcDbCircle
 10
52.865956016617787
 20
-94.290956016617827
 30
0.0
 40
0.9965499761005937
100
AcDbArc
 50
269.80129891345399
 51
0.198701086546115
  0
ARC
  5
46
100
AcDbEntity
  8
0
  6
CONTINUOUS
 62
               7
100
AcDbCircle
 10
52.02465529580499
 20
-93.287155295805007
 30
0.0
 40
1.0003447635850087
100
AcDbArc
 50
270.01974328917674
 51
359.98025671082195
  0
ARC
  5
47
100
AcDbEntity
  8
0
  6
CONTINUOUS
 62
               7
100
AcDbCircle
 10
50.204359308789577
 20
-92.791859308789583
 30
0.0
 40
0.9956502345538142
100
AcDbArc
 50
269.74913801595028
 51
0.2508619840485595
  0
ARC
  5
48
100
AcDbEntity
  8
0
  6
CONTINUOUS
 62
               7
100
AcDbCircle
 10
46.139738467037063
 20
-94.297761532962909
 30
0.0
 40
0.9897916610033151
100
AcDbArc
 50
179.40598301034615
 51
270.59401698965257
  0
ARC
  5
49
100
AcDbEntity
  8
0
  6
CONTINUOUS
 62
               7
100
AcDbCircle
 10
10.127602428713573
 20
-94.297397571286439
 30
0.0
 40
0.9901518980751911
100
AcDbArc
 50
179.42726110244385
 51
270.57273889755464
  0
ARC
  5
4A
100
AcDbEntity
  8
0
  6
CONTINUOUS
 62
               7
100
AcDbCircle
 10
10.968878382468347
 20
-93.29362161753167
 30
0.0
 40
0.993897234797996
100
AcDbArc
 50
179.64710127593258
 51
270.35289872406639
  0
ARC
  5
4B
100
AcDbEntity
  8
0
  6
CONTINUOUS
 62
               7
100
AcDbCircle
 10
12.789178664837465
 20
-92.798321335162541
 30
0.0
 40
0.989237854241489
100
AcDbArc
 50
179.3732253602704
 51
270.62677463972858
  0
ARC
  5
4C
100
AcDbEntity
  8
0
  6
CONTINUOUS
 62
               7
100
AcDbCircle
 10
16.853805519148892
 20
-94.291305519148921
 30
0.0
 40
0.99620174947357
100
AcDbArc
 50
269.78112795274353
 51
0.2188720472568889
  0
ARC
  5
4D
100
AcDbEntity
  8
0
  6
CONTINUOUS
 62
               7
100
AcDbCircle
 10
47.029282677945417
 20
-101.79143429048716
 30
0.0
 40
9.9960666269402569
100
AcDbArc
 50
269.97545240663595
 51
359.52100977142896
  0
ARC
  5
4E
100
AcDbEntity
  8
0
  6
CONTINUOUS
 62
               7
100
AcDbCircle
 10
15.964355041348654
 20
-101.79785273256124
 30
0.0
 40
9.9896529390660618
100
AcDbArc
 50
180.44248351674776
 51
270.06105430518488
  0
ARC
  5
4F
100
AcDbEntity
  8
0
  6
CONTINUOUS
 62
               7
100
AcDbCircle
 10
3.0550033018233194
 20
-55.630767960837183
 30
0.0
 40
0.2931348715317019
100
AcDbArc
 50
183.7617726067534
 51
218.31324944409255
  0
ARC
  5
50
100
AcDbEntity
  8
0
  6
CONTINUOUS
 62
               7
100
AcDbCircle
 10
52.024656239488621
 20
-61.28715623948861
 30
0.0
 40
1.0003438195767336
100
AcDbArc
 50
270.0196892573012
 51
359.9803107426975
  0
ARC
  5
51
100
AcDbEntity
  8
0
  6
CONTINUOUS
 62
               7
100
AcDbCircle
 10
50.204357294015182
 20
-60.791857294015195
 30
0.0
 40
0.9956522404895576
100
AcDbArc
 50
269.74925446463283
 51
0.250745535366285
  0
ARC
  5
52
100
AcDbEntity
  8
0
  6
CONTINUOUS
 62
               7
100
AcDbCircle
 10
52.862028547029439
 20
-35.300471452970548
 30
0.0
 40
1.0004715640521225
100
AcDbArc
 50
0.026999534440995
 51
89.97300046555867
  0
ARC
  5
53
100
AcDbEntity
  8
0
  6
CONTINUOUS
 62
               7
100
AcDbCircle
 10
52.020744461586872
 20
-36.304255538413116
 30
0.0
 40
1.0042645548064486
100
AcDbArc
 50
0.2427897302125587
 51
89.75721026978718
  0
ARC
  5
54
100
AcDbEntity
  8
0
  6
CONTINUOUS
 62
               7
100
AcDbCircle
 10
50.200427121627825
 20
-36.799572878372146
 30
0.0
 40
0.9995729696275595
100
AcDbArc
 50
359.97551727777363
 51
90.024482722225514
  0
ARC
  5
55
100
AcDbEntity
  8
0
  6
CONTINUOUS
 62
               7
100
AcDbCircle
 10
46.143692702842912
 20
-35.293692702842904
 30
0.0
 40
0.9937127198947693
100
AcDbArc
 50
89.636329568353361
 51
180.36367043164591
  0
ARC
  5
56
100
AcDbEntity
  8
0
  6
CONTINUOUS
 62
               7
100
AcDbCircle
 10
52.014527540571549
 20
-67.297972459428451
 30
0.0
 40
1.0105267258563131
100
AcDbArc
 50
0.5937878256679882
 51
89.406212174331429
  0
ARC
  5
57
100
AcDbEntity
  8
0
  6
CONTINUOUS
 62
               7
100
AcDbCircle
 10
50.194184115875231
 20
-67.793315884124752
 30
0.0
 40
1.0058326984473105
100
AcDbArc
 50
0.3312951267504322
 51
89.668704873249752
  0
ARC
  5
58
100
AcDbEntity
  8
0
  6
CONTINUOUS
 62
               7
100
AcDbCircle
 10
10.968877432660861
 20
-61.293622567339135
 30
0.0
 40
0.9938962908590548
100
AcDbArc
 50
179.64704618556559
 51
270.35295381443325
  0
ARC
  5
59
100
AcDbEntity
  8
0
  6
CONTINUOUS
 62
               7
100
AcDbCircle
 10
12.789180692672716
 20
-60.798319307327297
 30
0.0
 40
0.9892398597749184
100
AcDbArc
 50
179.37334408821991
 51
270.62665591177921
  0
ARC
  5
5A
100
AcDbEntity
  8
0
  6
CONTINUOUS
 62
               7
100
AcDbCircle
 10
10.131555228583949
 20
-35.29405522858395
 30
0.0
 40
0.9940730042518365
100
AcDbArc
 50
89.657356812736055
 51
180.34264318726306
  0
ARC
  5
5B
100
AcDbEntity
  8
0
  6
CONTINUOUS
 62
               7
100
AcDbCircle
 10
10.972814542174177
 20
-36.297814542174194
 30
0.0
 40
0.9978169355148236
100
AcDbArc
 50
89.874508433981276
 51
180.12549156601804
  0
ARC
  5
5C
100
AcDbEntity
  8
0
  6
CONTINUOUS
 62
               7
100
AcDbCircle
 10
12.793136292720959
 20
-36.793136292720973
 30
0.0
 40
0.9931600104701985
100
AcDbArc
 50
89.604026959109902
 51
180.39597304088969
  0
ARC
  5
5D
100
AcDbEntity
  8
0
  6
CONTINUOUS
 62
               7
100
AcDbCircle
 10
16.849876679181563
 20
-35.300123320818429
 30
0.0
 40
1.0001233284214959
100
AcDbArc
 50
0.0070648911376828
 51
89.992935108861744
  0
ARC
  5
5E
100
AcDbEntity
  8
0
  6
CONTINUOUS
 62
               7
100
AcDbCircle
 10
10.979071509868362
 20
-67.291571509868362
 30
0.0
 40
1.0040797648204622
100
AcDbArc
 50
90.232333106567523
 51
179.76766689343239
  0
ARC
  5
5F
100
AcDbEntity
  8
0
  6
CONTINUOUS
 62
               7
100
AcDbCircle
 10
12.799419491223006
 20
-67.786919491223017
 30
0.0
 40
0.999419659816094
100
AcDbArc
 50
89.966719981506401
 51
180.033280018493
  0
ARC
  5
60
100
AcDbEntity
  8
0
  6
CONTINUOUS
 62
               7
100
AcDbCircle
 10
19.895563766346555
 20
58.504436233653429
 30
0.0
 40
0.9955736502294549
100
AcDbArc
 50
89.744691609341771
 51
180.25530839065763
  0
ARC
  5
61
100
AcDbEntity
  8
0
  6
CONTINUOUS
 62
               7
100
AcDbCircle
 10
43.09789735820965
 20
58.497897358209634
 30
0.0
 40
1.0021048477009253
100
AcDbArc
 50
0.1202195449809898
 51
89.879780455019826
  0
ARC
  5
62
100
AcDbEntity
  8
0
  6
CONTINUOUS
 62
               4
100
AcDbCircle
 10
14.491835195495781
 20
38.003246286368274
 30
0.0
 40
3.496763245893252
100
AcDbArc
 50
32.60583185882335
 51
89.866216489126799
  0
ARC
  5
63
100
AcDbEntity
  8
0
  6
CONTINUOUS
 62
               4
100
AcDbCircle
 10
14.498273151131997
 20
38.004726247353766
 30
0.0
 40
3.5047266727802584
100
AcDbArc
 50
270.02823077667165
 51
324.10703491092494
  0
ARC
  5
64
100
AcDbEntity
  8
0
  6
CONTINUOUS
 62
               4
100
AcDbCircle
 10
11.5
 20
37.999999999999993
 30
0.0
 40
3.5000059345765755
100
AcDbArc
 50
89.999999999999801
 51
269.99999999999937
  0
ARC
  5
65
100
AcDbEntity
  8
0
  6
CONTINUOUS
 62
               4
100
AcDbCircle
 10
48.495566072596802
 20
38.003412068737624
 30
0.0
 40
3.4965907425322005
100
AcDbArc
 50
89.927344829960887
 51
147.39558476495645
  0
ARC
  5
66
100
AcDbEntity
  8
0
  6
CONTINUOUS
 62
               4
100
AcDbCircle
 10
48.499054311329786
 20
37.999496367860907
 30
0.0
 40
3.499496495640309
100
AcDbArc
 50
215.84925095064861
 51
270.01548336175227
  0
ARC
  5
67
100
AcDbEntity
  8
0
  6
CONTINUOUS
 62
               4
100
AcDbCircle
 10
51.499999999999972
 20
37.999999999999993
 30
0.0
 40
3.5000059521516294
100
AcDbArc
 50
269.99999999999937
 51
89.999999999999801
  0
CIRCLE
  5
69
100
AcDbEntity
  8
0
  6
PHANTOM
 62
               2
100
AcDbCircle
 10
46.493554687499994
 20
0.0022956848144489
 30
0.0
 40
21.25
  0
CIRCLE
  5
6A
100
AcDbEntity
  8
0
  6
CONTINUOUS
 62
               2
100
AcDbCircle
 10
46.493554687499994
 20
0.0022956848144489
 30
0.0
 40
6.5049993991851807
  0
ARC
  5
6B
100
AcDbEntity
  8
0
  6
CONTINUOUS
 62
               7
100
AcDbCircle
 10
52.492733998162663
 20
-9.218763790057551
 30
0.0
 40
0.9927535854493117
100
AcDbArc
 50
123.1406100280947
 51
180.35991898195618
  0
ARC
  5
6C
100
AcDbEntity
  8
0
  6
CONTINUOUS
 62
               7
100
AcDbCircle
 10
52.497928921087151
 20
-10.002071078912856
 30
0.0
 40
0.9979310702197897
100
AcDbArc
 50
179.88108981725173
 51
270.11891018274724
  0
ARC
  5
6D
100
AcDbEntity
  8
0
  6
CONTINUOUS
 62
               7
100
AcDbCircle
 10
40.497228696798089
 20
-9.2241569688846212
 30
0.0
 40
1.0027716575705239
100
AcDbArc
 50
359.95183137632995
 51
56.547639613617768
  0
ARC
  5
6E
100
AcDbEntity
  8
0
  6
CONTINUOUS
 62
               7
100
AcDbCircle
 10
40.495625437685874
 20
-9.9956254376858951
 30
0.0
 40
1.0043840889914046
100
AcDbArc
 50
270.24955069781134
 51
359.75044930218723
  0
ARC
  5
6F
100
AcDbEntity
  8
0
  6
CONTINUOUS
 62
               7
100
AcDbCircle
 10
15.797166298220077
 20
-9.9971662982200726
 30
0.0
 40
1.0028377053598532
100
AcDbArc
 50
270.16189994410814
 51
359.8381000558897
  0
CIRCLE
  5
70
100
AcDbEntity
  8
0
  6
CONTINUOUS
 62
               7
100
AcDbCircle
 10
46.493554687499994
 20
0.0022956848144489
 30
0.0
 40
8.9999997615814209
  0
CIRCLE
  5
71
100
AcDbEntity
  8
0
  6
CONTINUOUS
 62
               7
100
AcDbCircle
 10
46.493554687499994
 20
0.0022956848144489
 30
0.0
 40
10.0
  0
ARC
  5
72
100
AcDbEntity
  8
0
  6
CONTINUOUS
 62
               7
100
AcDbCircle
 10
53.497925208390342
 20
12.997925208390313
 30
0.0
 40
0.9979273652431211
100
AcDbArc
 50
179.88087621164732
 51
270.11912378835177
  0
ARC
  5
73
100
AcDbEntity
  8
0
  6
CONTINUOUS
 62
               7
100
AcDbCircle
 10
9.4956273331353884
 20
13.004372666864604
 30
0.0
 40
1.0043821853060904
100
AcDbArc
 50
270.24944304236021
 51
359.75055695763831
  0
LINE
  5
74
100
AcDbEntity
  8
0
  6
CONTINUOUS
 62
               7
100
AcDbLine
 10
25.237499999999983
 20
-127.08750000000001
 30
0.0
 11
23.75
 21
-127.08750000000001
 31
0.0
  0
LINE
  5
75
100
AcDbEntity
  8
0
  6
CONTINUOUS
 62
               7
100
AcDbLine
 10
39.25
 20
-127.08750000000001
 30
0.0
 11
37.762499999999989
 21
-127.08750000000001
 31
0.0
  0
LINE
  5
76
100
AcDbEntity
  8
0
  6
CONTINUOUS
 62
               7
100
AcDbLine
 10
29.662499999999994
 20
-127.08750000000001
 30
0.0
 11
27.837500000000006
 21
-127.08750000000001
 31
0.0
  0
LINE
  5
77
100
AcDbEntity
  8
0
  6
CONTINUOUS
 62
               7
100
AcDbLine
 10
25.0625
 20
-126.58750000000001
 30
0.0
 11
25.237499999999983
 21
-127.08750000000001
 31
0.0
  0
LINE
  5
78
100
AcDbEntity
  8
0
  6
CONTINUOUS
 62
               7
100
AcDbLine
 10
37.9375
 20
-126.58750000000001
 30
0.0
 11
37.762499999999989
 21
-127.08750000000001
 31
0.0
  0
LINE
  5
79
100
AcDbEntity
  8
0
  6
CONTINUOUS
 62
               7
100
AcDbLine
 10
27.837500000000006
 20
-127.08750000000001
 30
0.0
 11
27.1875
 21
-126.58750000000001
 31
0.0
  0
LINE
  5
7A
100
AcDbEntity
  8
0
  6
CONTINUOUS
 62
               7
100
AcDbLine
 10
30.0
 20
-126.58750000000001
 30
0.0
 11
29.662499999999994
 21
-127.08750000000001
 31
0.0
  0
LINE
  5
7B
100
AcDbEntity
  8
0
  6
CONTINUOUS
 62
               7
100
AcDbLine
 10
33.337500000000006
 20
-127.08750000000001
 30
0.0
 11
33.0
 21
-126.58750000000001
 31
0.0
  0
LINE
  5
7C
100
AcDbEntity
  8
0
  6
CONTINUOUS
 62
               7
100
AcDbLine
 10
35.150000000000006
 20
-127.08750000000001
 30
0.0
 11
35.8125
 21
-126.58750000000001
 31
0.0
  0
LINE
  5
7D
100
AcDbEntity
  8
0
  6
CONTINUOUS
 62
               7
100
AcDbLine
 10
35.150000000000006
 20
-127.08750000000001
 30
0.0
 11
33.337500000000006
 21
-127.08750000000001
 31
0.0
  0
LINE
  5
7E
100
AcDbEntity
  8
0
  6
CONTINUOUS
 62
               7
100
AcDbLine
 10
37.9375
 20
-126.58750000000001
 30
0.0
 11
35.8125
 21
-126.58750000000001
 31
0.0
  0
LINE
  5
7F
100
AcDbEntity
  8
0
  6
CONTINUOUS
 62
               7
100
AcDbLine
 10
27.1875
 20
-126.58750000000001
 30
0.0
 11
25.0625
 21
-126.58750000000001
 31
0.0
  0
LINE
  5
80
100
AcDbEntity
  8
0
  6
CONTINUOUS
 62
               7
100
AcDbLine
 10
33.0
 20
-126.58750000000001
 30
0.0
 11
30.0
 21
-126.58750000000001
 31
0.0
  0
LINE
  5
81
100
AcDbEntity
  8
0
  6
CONTINUOUS
 62
               7
100
AcDbLine
 10
25.0625
 20
-117.58750000000001
 30
0.0
 11
23.900000000000006
 21
-117.58750000000001
 31
0.0
  0
LINE
  5
82
100
AcDbEntity
  8
0
  6
CONTINUOUS
 62
               7
100
AcDbLine
 10
35.8125
 20
-117.58750000000001
 30
0.0
 11
33.0
 21
-117.58750000000001
 31
0.0
  0
LINE
  5
83
100
AcDbEntity
  8
0
  6
CONTINUOUS
 62
               7
100
AcDbLine
 10
30.0
 20
-117.58750000000001
 30
0.0
 11
27.1875
 21
-117.58750000000001
 31
0.0
  0
LINE
  5
84
100
AcDbEntity
  8
0
  6
CONTINUOUS
 62
               7
100
AcDbLine
 10
39.099999999999994
 20
-117.58750000000001
 30
0.0
 11
37.9375
 21
-117.58750000000001
 31
0.0
  0
LINE
  5
85
100
AcDbEntity
  8
0
  6
CONTINUOUS
 62
               7
100
AcDbLine
 10
37.9375
 20
-117.58750000000001
 30
0.0
 11
37.9375
 21
-126.58750000000001
 31
0.0
  0
LINE
  5
86
100
AcDbEntity
  8
0
  6
CONTINUOUS
 62
               7
100
AcDbLine
 10
35.8125
 20
-117.58750000000001
 30
0.0
 11
35.8125
 21
-126.58750000000001
 31
0.0
  0
LINE
  5
87
100
AcDbEntity
  8
0
  6
CONTINUOUS
 62
               7
100
AcDbLine
 10
25.0625
 20
-117.58750000000001
 30
0.0
 11
25.0625
 21
-126.58750000000001
 31
0.0
  0
LINE
  5
88
100
AcDbEntity
  8
0
  6
CONTINUOUS
 62
               7
100
AcDbLine
 10
27.1875
 20
-117.58750000000001
 30
0.0
 11
27.1875
 21
-126.58750000000001
 31
0.0
  0
LINE
  5
89
100
AcDbEntity
  8
0
  6
CONTINUOUS
 62
               7
100
AcDbLine
 10
33.0
 20
-117.58750000000001
 30
0.0
 11
33.0
 21
-126.58750000000001
 31
0.0
  0
LINE
  5
8A
100
AcDbEntity
  8
0
  6
CONTINUOUS
 62
               7
100
AcDbLine
 10
30.0
 20
-117.58750000000001
 30
0.0
 11
30.0
 21
-126.58750000000001
 31
0.0
  0
LINE
  5
8B
100
AcDbEntity
  8
0
  6
CONTINUOUS
 62
               2
100
AcDbLine
 10
36.75
 20
-113.28749999999999
 30
0.0
 11
36.75
 21
-114.58750000000001
 31
0.0
  0
LINE
  5
8C
100
AcDbEntity
  8
0
  6
CONTINUOUS
 62
               2
100
AcDbLine
 10
26.25
 20
-113.28749999999999
 30
0.0
 11
26.25
 21
-114.58750000000001
 31
0.0
  0
LINE
  5
8D
100
AcDbEntity
  8
0
  6
CONTINUOUS
 62
               7
100
AcDbLine
 10
25.5
 20
-113.28749999999999
 30
0.0
 11
25.5
 21
-114.58750000000001
 31
0.0
  0
LINE
  5
8E
100
AcDbEntity
  8
0
  6
CONTINUOUS
 62
               7
100
AcDbLine
 10
37.5
 20
-113.28749999999999
 30
0.0
 11
37.5
 21
-114.58750000000001
 31
0.0
  0
LINE
  5
8F
100
AcDbEntity
  8
0
  6
CONTINUOUS
 62
               7
100
AcDbLine
 10
39.25
 20
-114.58750000000001
 30
0.0
 11
23.75
 21
-114.58750000000001
 31
0.0
  0
LINE
  5
90
100
AcDbEntity
  8
0
  6
CONTINUOUS
 62
               7
100
AcDbLine
 10
24.75
 20
-128.08750000000001
 30
0.0
 11
23.75
 21
-127.08750000000001
 31
0.0
  0
LINE
  5
91
100
AcDbEntity
  8
0
  6
CONTINUOUS
 62
               7
100
AcDbLine
 10
39.25
 20
-127.08750000000001
 30
0.0
 11
38.25
 21
-128.08750000000001
 31
0.0
  0
LINE
  5
92
100
AcDbEntity
  8
0
  6
CONTINUOUS
 62
               7
100
AcDbLine
 10
23.75
 20
-114.58750000000001
 30
0.0
 11
23.75
 21
-127.08750000000001
 31
0.0
  0
LINE
  5
93
100
AcDbEntity
  8
0
  6
CONTINUOUS
 62
               7
100
AcDbLine
 10
39.25
 20
-114.58750000000001
 30
0.0
 11
39.25
 21
-127.08750000000001
 31
0.0
  0
LINE
  5
94
100
AcDbEntity
  8
0
  6
CONTINUOUS
 62
               7
100
AcDbLine
 10
38.25
 20
-128.08750000000001
 30
0.0
 11
24.75
 21
-128.08750000000001
 31
0.0
  0
LINE
  5
95
100
AcDbEntity
  8
0
  6
CONTINUOUS
 62
               7
100
AcDbLine
 10
39.574999999999989
 20
-113.28749999999999
 30
0.0
 11
39.574999999999989
 21
-111.78749999999999
 31
0.0
  0
LINE
  5
96
100
AcDbEntity
  8
0
  6
CONTINUOUS
 62
               7
100
AcDbLine
 10
23.424999999999983
 20
-113.28749999999999
 30
0.0
 11
23.424999999999983
 21
-111.78749999999999
 31
0.0
  0
LINE
  5
97
100
AcDbEntity
  8
0
  6
CONTINUOUS
 62
               7
100
AcDbLine
 10
23.424999999999983
 20
-113.28749999999999
 30
0.0
 11
39.574999999999989
 21
-113.28749999999999
 31
0.0
  0
LINE
  5
98
100
AcDbEntity
  8
0
  6
CONTINUOUS
 62
               7
100
AcDbLine
 10
52.862499999999983
 20
-95.287500000000023
 30
0.0
 11
46.150000000000006
 21
-95.287500000000023
 31
0.0
  0
LINE
  5
99
100
AcDbEntity
  8
0
  6
CONTINUOUS
 62
               7
100
AcDbLine
 10
53.862499999999983
 20
-35.300000000000004
 30
0.0
 11
53.862499999999983
 21
-94.287499999999994
 31
0.0
  0
LINE
  5
9A
100
AcDbEntity
  8
0
  6
CONTINUOUS
 62
               7
100
AcDbLine
 10
45.150000000000006
 20
-35.300000000000004
 30
0.0
 11
45.150000000000006
 21
-94.287499999999994
 31
0.0
  0
LINE
  5
9B
100
AcDbEntity
  8
0
  6
CONTINUOUS
 62
               7
100
AcDbLine
 10
53.025000000000006
 20
-67.287499999999994
 30
0.0
 11
53.025000000000006
 21
-93.287499999999994
 31
0.0
  0
LINE
  5
9C
100
AcDbEntity
  8
0
  6
CONTINUOUS
 62
               7
100
AcDbLine
 10
51.200000000000017
 20
-67.787499999999994
 30
0.0
 11
51.200000000000017
 21
-92.787500000000023
 31
0.0
  0
LINE
  5
9D
100
AcDbEntity
  8
0
  6
CONTINUOUS
 62
               7
100
AcDbLine
 10
52.025000000000006
 20
-94.287499999999994
 30
0.0
 11
45.150000000000006
 21
-94.287499999999994
 31
0.0
  0
LINE
  5
9E
100
AcDbEntity
  8
0
  6
CONTINUOUS
 62
               7
100
AcDbLine
 10
50.200000000000017
 20
-93.787499999999994
 30
0.0
 11
45.150000000000006
 21
-93.787499999999994
 31
0.0
  0
LINE
  5
9F
100
AcDbEntity
  8
0
  6
CONTINUOUS
 62
               7
100
AcDbLine
 10
10.137499999999989
 20
-95.287500000000023
 30
0.0
 11
16.849999999999994
 21
-95.287500000000023
 31
0.0
  0
LINE
  5
A0
100
AcDbEntity
  8
0
  6
CONTINUOUS
 62
               7
100
AcDbLine
 10
9.1374999999999886
 20
-35.300000000000004
 30
0.0
 11
9.1374999999999886
 21
-94.287499999999994
 31
0.0
  0
LINE
  5
A1
100
AcDbEntity
  8
0
  6
CONTINUOUS
 62
               7
100
AcDbLine
 10
17.849999999999994
 20
-35.300000000000004
 30
0.0
 11
17.849999999999994
 21
-94.287499999999994
 31
0.0
  0
LINE
  5
A2
100
AcDbEntity
  8
0
  6
CONTINUOUS
 62
               7
100
AcDbLine
 10
9.9749999999999943
 20
-67.287499999999994
 30
0.0
 11
9.9749999999999943
 21
-93.287499999999994
 31
0.0
  0
LINE
  5
A3
100
AcDbEntity
  8
0
  6
CONTINUOUS
 62
               7
100
AcDbLine
 10
11.799999999999983
 20
-67.787499999999994
 30
0.0
 11
11.799999999999983
 21
-92.787500000000023
 31
0.0
  0
LINE
  5
A4
100
AcDbEntity
  8
0
  6
CONTINUOUS
 62
               7
100
AcDbLine
 10
10.974999999999994
 20
-94.287499999999994
 30
0.0
 11
17.849999999999994
 21
-94.287499999999994
 31
0.0
  0
LINE
  5
A5
100
AcDbEntity
  8
0
  6
CONTINUOUS
 62
               7
100
AcDbLine
 10
57.025000000000006
 20
-101.875
 30
0.0
 11
57.650000000000006
 21
-30.000000000000004
 31
0.0
  0
LINE
  5
A6
100
AcDbEntity
  8
0
  6
CONTINUOUS
 62
               7
100
AcDbLine
 10
5.9749999999999943
 20
-101.875
 30
0.0
 11
5.5999999999999943
 21
-59.787500000000001
 31
0.0
  0
LINE
  5
A7
100
AcDbEntity
  8
0
  6
CONTINUOUS
 62
               7
100
AcDbLine
 10
12.799999999999983
 20
-93.787499999999994
 30
0.0
 11
17.849999999999994
 21
-93.787499999999994
 31
0.0
  0
LINE
  5
A8
100
AcDbEntity
  8
0
  6
CONTINUOUS
 62
               7
100
AcDbLine
 10
47.025000000000006
 20
-111.78749999999999
 30
0.0
 11
15.974999999999994
 21
-111.78749999999999
 31
0.0
  0
LINE
  5
A9
100
AcDbEntity
  8
0
  6
CONTINUOUS
 62
               7
100
AcDbLine
 10
3.0374999999999943
 20
-30.000000000000004
 30
0.0
 11
3.0749999999999886
 21
-31.900000000000006
 31
0.0
  0
LINE
  5
AA
100
AcDbEntity
  8
0
  6
CONTINUOUS
 62
               7
100
AcDbLine
 10
2.0875000000000057
 20
-32.425000000000004
 30
0.0
 11
2.5875000000000057
 21
-31.912500000000001
 31
0.0
  0
LINE
  5
AB
100
AcDbEntity
  8
0
  6
CONTINUOUS
 62
               7
100
AcDbLine
 10
2.6124999999999829
 20
-54.400000000000006
 30
0.0
 11
2.7624999999999886
 21
-54.550000000000004
 31
0.0
  0
LINE
  5
AC
100
AcDbEntity
  8
0
  6
CONTINUOUS
 62
               7
100
AcDbLine
 10
2.5875000000000057
 20
-31.912500000000001
 30
0.0
 11
3.0749999999999886
 21
-31.900000000000006
 31
0.0
  0
LINE
  5
AD
100
AcDbEntity
  8
0
  6
CONTINUOUS
 62
               7
100
AcDbLine
 10
2.0875000000000057
 20
-32.425000000000004
 30
0.0
 11
2.6124999999999829
 21
-54.400000000000006
 31
0.0
  0
LINE
  5
AE
100
AcDbEntity
  8
0
  6
CONTINUOUS
 62
               7
100
AcDbLine
 10
5.4499999999999886
 20
-41.975000000000001
 30
0.0
 11
5.3375000000000057
 21
-30.000000000000004
 31
0.0
  0
LINE
  5
AF
100
AcDbEntity
  8
0
  6
CONTINUOUS
 62
               7
100
AcDbLine
 10
2.6875
 20
-46.287500000000001
 30
0.0
 11
5.4499999999999886
 21
-41.975000000000001
 31
0.0
  0
LINE
  5
B0
100
AcDbEntity
  8
0
  6
CONTINUOUS
 62
               7
100
AcDbLine
 10
5.5999999999999943
 20
-59.787500000000001
 30
0.0
 11
2.8249999999999886
 21
-55.812500000000007
 31
0.0
  0
LINE
  5
B1
100
AcDbEntity
  8
0
  6
CONTINUOUS
 62
               7
100
AcDbLine
 10
2.7624999999999886
 20
-55.675000000000004
 30
0.0
 11
2.6875
 21
-46.287500000000001
 31
0.0
  0
LINE
  5
B2
100
AcDbEntity
  8
0
  6
CONTINUOUS
 62
               7
100
AcDbLine
 10
52.862499999999983
 20
-34.300000000000004
 30
0.0
 11
46.150000000000006
 21
-34.300000000000004
 31
0.0
  0
LINE
  5
B3
100
AcDbEntity
  8
0
  6
CONTINUOUS
 62
               7
100
AcDbLine
 10
53.025000000000006
 20
-36.300000000000004
 30
0.0
 11
53.025000000000006
 21
-61.287500000000001
 31
0.0
  0
LINE
  5
B4
100
AcDbEntity
  8
0
  6
CONTINUOUS
 62
               7
100
AcDbLine
 10
51.200000000000017
 20
-36.800000000000004
 30
0.0
 11
51.200000000000017
 21
-60.787500000000001
 31
0.0
  0
LINE
  5
B5
100
AcDbEntity
  8
0
  6
CONTINUOUS
 62
               7
100
AcDbLine
 10
52.025000000000006
 20
-66.287499999999994
 30
0.0
 11
45.150000000000006
 21
-66.287499999999994
 31
0.0
  0
LINE
  5
B6
100
AcDbEntity
  8
0
  6
CONTINUOUS
 62
               7
100
AcDbLine
 10
52.025000000000006
 20
-62.287500000000001
 30
0.0
 11
45.150000000000006
 21
-62.287500000000001
 31
0.0
  0
LINE
  5
B7
100
AcDbEntity
  8
0
  6
CONTINUOUS
 62
               7
100
AcDbLine
 10
52.025000000000006
 20
-35.300000000000004
 30
0.0
 11
45.150000000000006
 21
-35.300000000000004
 31
0.0
  0
LINE
  5
B8
100
AcDbEntity
  8
0
  6
CONTINUOUS
 62
               7
100
AcDbLine
 10
50.200000000000017
 20
-35.800000000000004
 30
0.0
 11
45.150000000000006
 21
-35.800000000000004
 31
0.0
  0
LINE
  5
B9
100
AcDbEntity
  8
0
  6
CONTINUOUS
 62
               7
100
AcDbLine
 10
50.200000000000017
 20
-61.787500000000001
 30
0.0
 11
45.150000000000006
 21
-61.787500000000001
 31
0.0
  0
LINE
  5
BA
100
AcDbEntity
  8
0
  6
CONTINUOUS
 62
               7
100
AcDbLine
 10
50.200000000000017
 20
-66.787499999999994
 30
0.0
 11
45.150000000000006
 21
-66.787499999999994
 31
0.0
  0
LINE
  5
BB
100
AcDbEntity
  8
0
  6
CONTINUOUS
 62
               7
100
AcDbLine
 10
10.137499999999989
 20
-34.300000000000004
 30
0.0
 11
16.849999999999994
 21
-34.300000000000004
 31
0.0
  0
LINE
  5
BC
100
AcDbEntity
  8
0
  6
CONTINUOUS
 62
               7
100
AcDbLine
 10
9.9749999999999943
 20
-36.300000000000004
 30
0.0
 11
9.9749999999999943
 21
-61.287500000000001
 31
0.0
  0
LINE
  5
BD
100
AcDbEntity
  8
0
  6
CONTINUOUS
 62
               7
100
AcDbLine
 10
11.799999999999983
 20
-36.800000000000004
 30
0.0
 11
11.799999999999983
 21
-60.787500000000001
 31
0.0
  0
LINE
  5
BE
100
AcDbEntity
  8
0
  6
CONTINUOUS
 62
               7
100
AcDbLine
 10
10.974999999999994
 20
-66.287499999999994
 30
0.0
 11
17.849999999999994
 21
-66.287499999999994
 31
0.0
  0
LINE
  5
BF
100
AcDbEntity
  8
0
  6
CONTINUOUS
 62
               7
100
AcDbLine
 10
10.974999999999994
 20
-62.287500000000001
 30
0.0
 11
17.849999999999994
 21
-62.287500000000001
 31
0.0
  0
LINE
  5
C0
100
AcDbEntity
  8
0
  6
CONTINUOUS
 62
               7
100
AcDbLine
 10
10.974999999999994
 20
-35.300000000000004
 30
0.0
 11
17.849999999999994
 21
-35.300000000000004
 31
0.0
  0
LINE
  5
C1
100
AcDbEntity
  8
0
  6
CONTINUOUS
 62
               7
100
AcDbLine
 10
12.799999999999983
 20
-35.800000000000004
 30
0.0
 11
17.849999999999994
 21
-35.800000000000004
 31
0.0
  0
LINE
  5
C2
100
AcDbEntity
  8
0
  6
CONTINUOUS
 62
               7
100
AcDbLine
 10
12.799999999999983
 20
-61.787500000000001
 30
0.0
 11
17.849999999999994
 21
-61.787500000000001
 31
0.0
  0
LINE
  5
C3
100
AcDbEntity
  8
0
  6
CONTINUOUS
 62
               7
100
AcDbLine
 10
12.799999999999983
 20
-66.787499999999994
 30
0.0
 11
17.849999999999994
 21
-66.787499999999994
 31
0.0
  0
LINE
  5
C4
100
AcDbEntity
  8
0
  6
CONTINUOUS
 62
               7
100
AcDbLine
 10
38.75
 20
30.29999999999999
 30
0.0
 11
37.987499999999983
 21
31.29999999999999
 31
0.0
  0
LINE
  5
C5
100
AcDbEntity
  8
0
  6
CONTINUOUS
 62
               7
100
AcDbLine
 10
37.987499999999983
 20
27.000000000000007
 30
0.0
 11
38.75
 21
26.29999999999999
 31
0.0
  0
LINE
  5
C6
100
AcDbEntity
  8
0
  6
CONTINUOUS
 62
               7
100
AcDbLine
 10
38.75
 20
26.29999999999999
 30
0.0
 11
38.75
 21
30.29999999999999
 31
0.0
  0
LINE
  5
C7
100
AcDbEntity
  8
0
  6
CONTINUOUS
 62
               7
100
AcDbLine
 10
37.987499999999983
 20
31.29999999999999
 30
0.0
 11
37.987499999999983
 21
27.000000000000007
 31
0.0
  0
LINE
  5
C8
100
AcDbEntity
  8
0
  6
CONTINUOUS
 62
               7
100
AcDbLine
 10
17.487499999999983
 20
27.000000000000007
 30
0.0
 11
16.4375
 21
26.29999999999999
 31
0.0
  0
LINE
  5
C9
100
AcDbEntity
  8
0
  6
CONTINUOUS
 62
               7
100
AcDbLine
 10
17.487499999999983
 20
31.29999999999999
 30
0.0
 11
17.487499999999983
 21
27.000000000000007
 31
0.0
  0
LINE
  5
CA
100
AcDbEntity
  8
0
  6
CONTINUOUS
 62
               7
100
AcDbLine
 10
25.012499999999989
 20
27.000000000000007
 30
0.0
 11
24.25
 21
26.29999999999999
 31
0.0
  0
LINE
  5
CB
100
AcDbEntity
  8
0
  6
CONTINUOUS
 62
               7
100
AcDbLine
 10
25.012499999999989
 20
31.29999999999999
 30
0.0
 11
25.012499999999989
 21
27.000000000000007
 31
0.0
  0
LINE
  5
CC
100
AcDbEntity
  8
0
  6
CONTINUOUS
 62
               7
100
AcDbLine
 10
45.512499999999989
 20
27.000000000000007
 30
0.0
 11
43.087500000000006
 21
27.000000000000007
 31
0.0
  0
LINE
  5
CD
100
AcDbEntity
  8
0
  6
CONTINUOUS
 62
               7
100
AcDbLine
 10
45.512499999999989
 20
27.000000000000007
 30
0.0
 11
46.562499999999972
 21
26.29999999999999
 31
0.0
  0
LINE
  5
CE
100
AcDbEntity
  8
0
  6
CONTINUOUS
 62
               7
100
AcDbLine
 10
45.512499999999989
 20
31.29999999999999
 30
0.0
 11
45.512499999999989
 21
27.000000000000007
 31
0.0
  0
LINE
  5
CF
100
AcDbEntity
  8
0
  6
CONTINUOUS
 62
               7
100
AcDbLine
 10
46.562499999999972
 20
30.29999999999999
 30
0.0
 11
45.512499999999989
 21
31.29999999999999
 31
0.0
  0
LINE
  5
D0
100
AcDbEntity
  8
0
  6
CONTINUOUS
 62
               7
100
AcDbLine
 10
43.087500000000006
 20
30.29999999999999
 30
0.0
 11
42.799999999999983
 21
31.29999999999999
 31
0.0
  0
LINE
  5
D1
100
AcDbEntity
  8
0
  6
CONTINUOUS
 62
               7
100
AcDbLine
 10
49.062499999999972
 20
30.29999999999999
 30
0.0
 11
48.287499999999994
 21
31.29999999999999
 31
0.0
  0
LINE
  5
D2
100
AcDbEntity
  8
0
  6
CONTINUOUS
 62
               7
100
AcDbLine
 10
29.0
 20
30.29999999999999
 30
0.0
 11
31.5
 21
30.29999999999999
 31
0.0
  0
LINE
  5
D3
100
AcDbEntity
  8
0
  6
CONTINUOUS
 62
               7
100
AcDbLine
 10
12.5
 20
26.29999999999999
 30
0.0
 11
13.9375
 21
26.29999999999999
 31
0.0
  0
LINE
  5
D4
100
AcDbEntity
  8
0
  6
CONTINUOUS
 62
               7
100
AcDbLine
 10
13.9375
 20
30.29999999999999
 30
0.0
 11
16.4375
 21
30.29999999999999
 31
0.0
  0
LINE
  5
D5
100
AcDbEntity
  8
0
  6
CONTINUOUS
 62
               7
100
AcDbLine
 10
19.912499999999994
 20
30.29999999999999
 30
0.0
 11
24.25
 21
30.29999999999999
 31
0.0
  0
LINE
  5
D6
100
AcDbEntity
  8
0
  6
CONTINUOUS
 62
               7
100
AcDbLine
 10
17.487499999999983
 20
27.000000000000007
 30
0.0
 11
19.912499999999994
 21
27.000000000000007
 31
0.0
  0
LINE
  5
D7
100
AcDbEntity
  8
0
  6
CONTINUOUS
 62
               7
100
AcDbLine
 10
16.4375
 20
26.29999999999999
 30
0.0
 11
19.912499999999994
 21
26.29999999999999
 31
0.0
  0
LINE
  5
D8
100
AcDbEntity
  8
0
  6
CONTINUOUS
 62
               7
100
AcDbLine
 10
24.25
 20
26.29999999999999
 30
0.0
 11
29.0
 21
26.29999999999999
 31
0.0
  0
LINE
  5
D9
100
AcDbEntity
  8
0
  6
CONTINUOUS
 62
               7
100
AcDbLine
 10
25.012499999999989
 20
27.000000000000007
 30
0.0
 11
29.0
 21
27.000000000000007
 31
0.0
  0
LINE
  5
DA
100
AcDbEntity
  8
0
  6
CONTINUOUS
 62
               7
100
AcDbLine
 10
13.9375
 20
30.29999999999999
 30
0.0
 11
14.699999999999989
 21
31.29999999999999
 31
0.0
  0
LINE
  5
DB
100
AcDbEntity
  8
0
  6
CONTINUOUS
 62
               7
100
AcDbLine
 10
13.9375
 20
26.29999999999999
 30
0.0
 11
13.9375
 21
30.29999999999999
 31
0.0
  0
LINE
  5
DC
100
AcDbEntity
  8
0
  6
CONTINUOUS
 62
               7
100
AcDbLine
 10
16.4375
 20
26.29999999999999
 30
0.0
 11
16.4375
 21
30.29999999999999
 31
0.0
  0
LINE
  5
DD
100
AcDbEntity
  8
0
  6
CONTINUOUS
 62
               7
100
AcDbLine
 10
16.4375
 20
30.29999999999999
 30
0.0
 11
17.487499999999983
 21
31.29999999999999
 31
0.0
  0
LINE
  5
DE
100
AcDbEntity
  8
0
  6
CONTINUOUS
 62
               7
100
AcDbLine
 10
19.912499999999994
 20
30.29999999999999
 30
0.0
 11
20.199999999999989
 21
31.29999999999999
 31
0.0
  0
LINE
  5
DF
100
AcDbEntity
  8
0
  6
CONTINUOUS
 62
               7
100
AcDbLine
 10
19.912499999999994
 20
26.29999999999999
 30
0.0
 11
19.912499999999994
 21
30.29999999999999
 31
0.0
  0
LINE
  5
E0
100
AcDbEntity
  8
0
  6
CONTINUOUS
 62
               7
100
AcDbLine
 10
24.25
 20
26.29999999999999
 30
0.0
 11
24.25
 21
30.29999999999999
 31
0.0
  0
LINE
  5
E1
100
AcDbEntity
  8
0
  6
CONTINUOUS
 62
               7
100
AcDbLine
 10
24.25
 20
30.29999999999999
 30
0.0
 11
25.012499999999989
 21
31.29999999999999
 31
0.0
  0
LINE
  5
E2
100
AcDbEntity
  8
0
  6
CONTINUOUS
 62
               7
100
AcDbLine
 10
29.0
 20
26.29999999999999
 30
0.0
 11
29.0
 21
31.29999999999999
 31
0.0
  0
LINE
  5
E3
100
AcDbEntity
  8
0
  6
CONTINUOUS
 62
               7
100
AcDbLine
 10
12.5
 20
27.000000000000007
 30
0.0
 11
13.9375
 21
27.000000000000007
 31
0.0
  0
LINE
  5
E4
100
AcDbEntity
  8
0
  6
CONTINUOUS
 62
               7
100
AcDbLine
 10
34.0
 20
30.29999999999999
 30
0.0
 11
31.5
 21
30.29999999999999
 31
0.0
  0
LINE
  5
E5
100
AcDbEntity
  8
0
  6
CONTINUOUS
 62
               7
100
AcDbLine
 10
50.499999999999972
 20
26.29999999999999
 30
0.0
 11
49.062499999999972
 21
26.29999999999999
 31
0.0
  0
LINE
  5
E6
100
AcDbEntity
  8
0
  6
CONTINUOUS
 62
               7
100
AcDbLine
 10
49.062499999999972
 20
30.29999999999999
 30
0.0
 11
46.562499999999972
 21
30.29999999999999
 31
0.0
  0
LINE
  5
E7
100
AcDbEntity
  8
0
  6
CONTINUOUS
 62
               7
100
AcDbLine
 10
43.087500000000006
 20
30.29999999999999
 30
0.0
 11
38.75
 21
30.29999999999999
 31
0.0
  0
LINE
  5
E8
100
AcDbEntity
  8
0
  6
CONTINUOUS
 62
               7
100
AcDbLine
 10
46.562499999999972
 20
26.29999999999999
 30
0.0
 11
43.087500000000006
 21
26.29999999999999
 31
0.0
  0
LINE
  5
E9
100
AcDbEntity
  8
0
  6
CONTINUOUS
 62
               7
100
AcDbLine
 10
38.75
 20
26.29999999999999
 30
0.0
 11
34.0
 21
26.29999999999999
 31
0.0
  0
LINE
  5
EA
100
AcDbEntity
  8
0
  6
CONTINUOUS
 62
               7
100
AcDbLine
 10
37.987499999999983
 20
27.000000000000007
 30
0.0
 11
34.0
 21
27.000000000000007
 31
0.0
  0
LINE
  5
EB
100
AcDbEntity
  8
0
  6
CONTINUOUS
 62
               7
100
AcDbLine
 10
49.062499999999972
 20
26.29999999999999
 30
0.0
 11
49.062499999999972
 21
30.29999999999999
 31
0.0
  0
LINE
  5
EC
100
AcDbEntity
  8
0
  6
CONTINUOUS
 62
               7
100
AcDbLine
 10
46.562499999999972
 20
26.29999999999999
 30
0.0
 11
46.562499999999972
 21
30.29999999999999
 31
0.0
  0
LINE
  5
ED
100
AcDbEntity
  8
0
  6
CONTINUOUS
 62
               7
100
AcDbLine
 10
43.087500000000006
 20
26.29999999999999
 30
0.0
 11
43.087500000000006
 21
30.29999999999999
 31
0.0
  0
LINE
  5
EE
100
AcDbEntity
  8
0
  6
CONTINUOUS
 62
               7
100
AcDbLine
 10
34.0
 20
26.29999999999999
 30
0.0
 11
34.0
 21
31.29999999999999
 31
0.0
  0
LINE
  5
EF
100
AcDbEntity
  8
0
  6
CONTINUOUS
 62
               7
100
AcDbLine
 10
50.499999999999972
 20
27.000000000000007
 30
0.0
 11
49.062499999999972
 21
27.000000000000007
 31
0.0
  0
LINE
  5
F0
100
AcDbEntity
  8
0
  6
CONTINUOUS
 62
               7
100
AcDbLine
 10
12.5
 20
30.29999999999999
 30
0.0
 11
13.5
 21
31.29999999999999
 31
0.0
  0
LINE
  5
F1
100
AcDbEntity
  8
0
  6
CONTINUOUS
 62
               7
100
AcDbLine
 10
50.499999999999972
 20
30.29999999999999
 30
0.0
 11
49.499999999999972
 21
31.29999999999999
 31
0.0
  0
LINE
  5
F2
100
AcDbEntity
  8
0
  6
CONTINUOUS
 62
               7
100
AcDbLine
 10
50.499999999999972
 20
24.29999999999999
 30
0.0
 11
50.499999999999972
 21
30.29999999999999
 31
0.0
  0
LINE
  5
F3
100
AcDbEntity
  8
0
  6
CONTINUOUS
 62
               7
100
AcDbLine
 10
12.5
 20
24.29999999999999
 30
0.0
 11
12.5
 21
30.29999999999999
 31
0.0
  0
LINE
  5
F4
100
AcDbEntity
  8
0
  6
CONTINUOUS
 62
               7
100
AcDbLine
 10
49.499999999999972
 20
31.29999999999999
 30
0.0
 11
13.5
 21
31.29999999999999
 31
0.0
  0
LINE
  5
F5
100
AcDbEntity
  8
0
  6
CONTINUOUS
 62
               7
100
AcDbLine
 10
43.387499999999989
 20
37.699999999999996
 30
0.0
 11
44.449999999999989
 21
37.699999999999996
 31
0.0
  0
LINE
  5
F6
100
AcDbEntity
  8
0
  6
CONTINUOUS
 62
               7
100
AcDbLine
 10
43.787499999999994
 20
57.499999999999993
 30
0.0
 11
44.449999999999989
 21
37.699999999999996
 31
0.0
  0
LINE
  5
F7
100
AcDbEntity
  8
0
  6
CONTINUOUS
 62
               7
100
AcDbLine
 10
42.150000000000006
 20
57.499999999999993
 30
0.0
 11
42.712500000000006
 21
56.800000000000004
 31
0.0
  0
LINE
  5
F8
100
AcDbEntity
  8
0
  6
CONTINUOUS
 62
               7
100
AcDbLine
 10
38.237499999999983
 20
57.499999999999993
 30
0.0
 11
42.150000000000006
 21
57.499999999999993
 31
0.0
  0
LINE
  5
F9
100
AcDbEntity
  8
0
  6
CONTINUOUS
 62
               7
100
AcDbLine
 10
38.237499999999983
 20
57.499999999999993
 30
0.0
 11
39.199999999999989
 21
56.800000000000004
 31
0.0
  0
LINE
  5
FA
100
AcDbEntity
  8
0
  6
CONTINUOUS
 62
               7
100
AcDbLine
 10
38.375
 20
37.699999999999996
 30
0.0
 11
39.150000000000006
 21
37.000000000000007
 31
0.0
  0
LINE
  5
FB
100
AcDbEntity
  8
0
  6
CONTINUOUS
 62
               7
100
AcDbLine
 10
34.5
 20
37.699999999999996
 30
0.0
 11
38.375
 21
37.699999999999996
 31
0.0
  0
LINE
  5
FC
100
AcDbEntity
  8
0
  6
CONTINUOUS
 62
               7
100
AcDbLine
 10
38.375
 20
37.699999999999996
 30
0.0
 11
38.237499999999983
 21
57.499999999999993
 31
0.0
  0
LINE
  5
FD
100
AcDbEntity
  8
0
  6
CONTINUOUS
 62
               7
100
AcDbLine
 10
20.849999999999994
 20
57.499999999999993
 30
0.0
 11
20.287499999999994
 21
56.800000000000004
 31
0.0
  0
LINE
  5
FE
100
AcDbEntity
  8
0
  6
CONTINUOUS
 62
               7
100
AcDbLine
 10
24.762499999999989
 20
57.499999999999993
 30
0.0
 11
23.787499999999994
 21
56.800000000000004
 31
0.0
  0
LINE
  5
FF
100
AcDbEntity
  8
0
  6
CONTINUOUS
 62
               7
100
AcDbLine
 10
33.974999999999994
 20
56.800000000000004
 30
0.0
 11
29.025000000000006
 21
56.800000000000004
 31
0.0
  0
LINE
  5
100
100
AcDbEntity
  8
0
  6
CONTINUOUS
 62
               7
100
AcDbLine
 10
23.787499999999994
 20
56.800000000000004
 30
0.0
 11
20.287499999999994
 21
56.800000000000004
 31
0.0
  0
LINE
  5
101
100
AcDbEntity
  8
0
  6
CONTINUOUS
 62
               7
100
AcDbLine
 10
18.549999999999983
 20
37.699999999999996
 30
0.0
 11
17.362499999999983
 21
37.000000000000007
 31
0.0
  0
LINE
  5
102
100
AcDbEntity
  8
0
  6
CONTINUOUS
 62
               7
100
AcDbLine
 10
19.612499999999983
 20
37.699999999999996
 30
0.0
 11
18.549999999999983
 21
37.699999999999996
 31
0.0
  0
LINE
  5
103
100
AcDbEntity
  8
0
  6
CONTINUOUS
 62
               7
100
AcDbLine
 10
24.625
 20
37.699999999999996
 30
0.0
 11
23.849999999999994
 21
37.000000000000007
 31
0.0
  0
LINE
  5
104
100
AcDbEntity
  8
0
  6
CONTINUOUS
 62
               7
100
AcDbLine
 10
28.5
 20
37.699999999999996
 30
0.0
 11
24.625
 21
37.699999999999996
 31
0.0
  0
LINE
  5
105
100
AcDbEntity
  8
0
  6
CONTINUOUS
 62
               7
100
AcDbLine
 10
19.199999999999989
 20
57.499999999999993
 30
0.0
 11
18.900000000000006
 21
57.499999999999993
 31
0.0
  0
LINE
  5
106
100
AcDbEntity
  8
0
  6
CONTINUOUS
 62
               7
100
AcDbLine
 10
24.762499999999989
 20
57.499999999999993
 30
0.0
 11
20.849999999999994
 21
57.499999999999993
 31
0.0
  0
LINE
  5
107
100
AcDbEntity
  8
0
  6
CONTINUOUS
 62
               7
100
AcDbLine
 10
33.949999999999989
 20
57.499999999999993
 30
0.0
 11
29.049999999999983
 21
57.499999999999993
 31
0.0
  0
LINE
  5
108
100
AcDbEntity
  8
0
  6
CONTINUOUS
 62
               7
100
AcDbLine
 10
19.612499999999983
 20
37.000000000000007
 30
0.0
 11
17.362499999999983
 21
37.000000000000007
 31
0.0
  0
LINE
  5
109
100
AcDbEntity
  8
0
  6
CONTINUOUS
 62
               7
100
AcDbLine
 10
39.137499999999989
 20
37.000000000000007
 30
0.0
 11
34.5
 21
37.000000000000007
 31
0.0
  0
LINE
  5
10A
100
AcDbEntity
  8
0
  6
CONTINUOUS
 62
               7
100
AcDbLine
 10
19.199999999999989
 20
57.499999999999993
 30
0.0
 11
18.549999999999983
 21
37.699999999999996
 31
0.0
  0
LINE
  5
10B
100
AcDbEntity
  8
0
  6
CONTINUOUS
 62
               7
100
AcDbLine
 10
20.287499999999994
 20
56.800000000000004
 30
0.0
 11
19.612499999999983
 21
37.000000000000007
 31
0.0
  0
LINE
  5
10C
100
AcDbEntity
  8
0
  6
CONTINUOUS
 62
               7
100
AcDbLine
 10
23.849999999999994
 20
37.000000000000007
 30
0.0
 11
23.787499999999994
 21
56.800000000000004
 31
0.0
  0
LINE
  5
10D
100
AcDbEntity
  8
0
  6
CONTINUOUS
 62
               7
100
AcDbLine
 10
24.625
 20
37.699999999999996
 30
0.0
 11
24.762499999999989
 21
57.499999999999993
 31
0.0
  0
LINE
  5
10E
100
AcDbEntity
  8
0
  6
CONTINUOUS
 62
               7
100
AcDbLine
 10
42.712500000000006
 20
56.800000000000004
 30
0.0
 11
43.387499999999989
 21
37.000000000000007
 31
0.0
  0
LINE
  5
10F
100
AcDbEntity
  8
0
  6
CONTINUOUS
 62
               7
100
AcDbLine
 10
39.137499999999989
 20
37.000000000000007
 30
0.0
 11
39.199999999999989
 21
56.800000000000004
 31
0.0
  0
LINE
  5
110
100
AcDbEntity
  8
0
  6
CONTINUOUS
 62
               7
100
AcDbLine
 10
28.5
 20
37.000000000000007
 30
0.0
 11
23.849999999999994
 21
37.000000000000007
 31
0.0
  0
LINE
  5
111
100
AcDbEntity
  8
0
  6
CONTINUOUS
 62
               7
100
AcDbLine
 10
44.099999999999994
 20
57.499999999999993
 30
0.0
 11
43.787499999999994
 21
57.499999999999993
 31
0.0
  0
LINE
  5
112
100
AcDbEntity
  8
0
  6
CONTINUOUS
 62
               7
100
AcDbLine
 10
45.637499999999989
 20
37.000000000000007
 30
0.0
 11
43.387499999999989
 21
37.000000000000007
 31
0.0
  0
LINE
  5
113
100
AcDbEntity
  8
0
  6
CONTINUOUS
 62
               7
100
AcDbLine
 10
34.5
 20
37.000000000000007
 30
0.0
 11
33.949999999999989
 21
57.499999999999993
 31
0.0
  0
LINE
  5
114
100
AcDbEntity
  8
0
  6
CONTINUOUS
 62
               7
100
AcDbLine
 10
28.5
 20
37.000000000000007
 30
0.0
 11
29.049999999999983
 21
57.499999999999993
 31
0.0
  0
LINE
  5
115
100
AcDbEntity
  8
0
  6
CONTINUOUS
 62
               7
100
AcDbLine
 10
45.700000000000017
 20
34.500000000000007
 30
0.0
 11
45.099999999999994
 21
56.92499999999999
 31
0.0
  0
LINE
  5
116
100
AcDbEntity
  8
0
  6
CONTINUOUS
 62
               7
100
AcDbLine
 10
17.299999999999983
 20
34.500000000000007
 30
0.0
 11
17.900000000000006
 21
56.92499999999999
 31
0.0
  0
LINE
  5
117
100
AcDbEntity
  8
0
  6
CONTINUOUS
 62
               7
100
AcDbLine
 10
18.900000000000006
 20
57.499999999999993
 30
0.0
 11
18.900000000000006
 21
58.500000000000007
 31
0.0
  0
LINE
  5
118
100
AcDbEntity
  8
0
  6
CONTINUOUS
 62
               7
100
AcDbLine
 10
44.099999999999994
 20
57.499999999999993
 30
0.0
 11
44.099999999999994
 21
58.500000000000007
 31
0.0
  0
LINE
  5
119
100
AcDbEntity
  8
0
  6
CONTINUOUS
 62
               7
100
AcDbLine
 10
45.099999999999994
 20
56.92499999999999
 30
0.0
 11
44.099999999999994
 21
57.499999999999993
 31
0.0
  0
LINE
  5
11A
100
AcDbEntity
  8
0
  6
CONTINUOUS
 62
               7
100
AcDbLine
 10
18.900000000000006
 20
57.499999999999993
 30
0.0
 11
17.900000000000006
 21
56.92499999999999
 31
0.0
  0
LINE
  5
11B
100
AcDbEntity
  8
0
  6
CONTINUOUS
 62
               7
100
AcDbLine
 10
43.099999999999994
 20
59.500000000000007
 30
0.0
 11
19.900000000000006
 21
59.500000000000007
 31
0.0
  0
LINE
  5
11C
100
AcDbEntity
  8
0
  6
CONTINUOUS
 62
               7
100
AcDbLine
 10
39.199999999999989
 20
56.800000000000004
 30
0.0
 11
42.712500000000006
 21
56.800000000000004
 31
0.0
  0
LINE
  5
11D
100
AcDbEntity
  8
0
  6
CONTINUOUS
 62
               7
100
AcDbLine
 10
44.449999999999989
 20
37.699999999999996
 30
0.0
 11
45.637499999999989
 21
37.000000000000007
 31
0.0
  0
LINE
  5
11E
100
AcDbEntity
  8
0
  6
CONTINUOUS
 62
               2
100
AcDbLine
 10
17.25
 20
22.000000000000007
 30
0.0
 11
17.25
 21
24.29999999999999
 31
0.0
  0
LINE
  5
11F
100
AcDbEntity
  8
0
  6
CONTINUOUS
 62
               2
100
AcDbLine
 10
45.749999999999972
 20
22.000000000000007
 30
0.0
 11
45.749999999999972
 21
24.29999999999999
 31
0.0
  0
LINE
  5
120
100
AcDbEntity
  8
0
  6
CONTINUOUS
 62
               7
100
AcDbLine
 10
46.499999999999972
 20
22.000000000000007
 30
0.0
 11
46.499999999999972
 21
24.29999999999999
 31
0.0
  0
LINE
  5
121
100
AcDbEntity
  8
0
  6
CONTINUOUS
 62
               7
100
AcDbLine
 10
16.5
 20
22.000000000000007
 30
0.0
 11
16.5
 21
24.29999999999999
 31
0.0
  0
LINE
  5
122
100
AcDbEntity
  8
0
  6
CONTINUOUS
 62
               4
100
AcDbLine
 10
11.5
 20
34.500000000000007
 30
0.0
 11
14.5
 21
34.500000000000007
 31
0.0
  0
LINE
  5
123
100
AcDbEntity
  8
0
  6
CONTINUOUS
 62
               4
100
AcDbLine
 10
11.5
 20
41.499999999999993
 30
0.0
 11
14.5
 21
41.499999999999993
 31
0.0
  0
LINE
  5
124
100
AcDbEntity
  8
0
  6
CENTER
 62
             200
100
AcDbLine
 10
14.5
 20
32.974999999999987
 30
0.0
 11
14.5
 21
42.737500000000004
 31
0.0
  0
LINE
  5
125
100
AcDbEntity
  8
0
  6
CENTER
 62
             200
100
AcDbLine
 10
11.5
 20
33.037500000000001
 30
0.0
 11
11.5
 21
42.737500000000004
 31
0.0
  0
LINE
  5
126
100
AcDbEntity
  8
0
  6
CENTER
 62
             200
100
AcDbLine
 10
13.0
 20
33.100000000000001
 30
0.0
 11
13.0
 21
42.67499999999999
 31
0.0
  0
LINE
  5
127
100
AcDbEntity
  8
0
  6
CENTER
 62
             200
100
AcDbLine
 10
17.574999999999989
 20
37.999999999999993
 30
0.0
 11
7.25
 21
37.999999999999993
 31
0.0
  0
LINE
  5
128
100
AcDbEntity
  8
0
  6
CONTINUOUS
 62
               4
100
AcDbLine
 10
51.499999999999972
 20
34.500000000000007
 30
0.0
 11
48.499999999999972
 21
34.500000000000007
 31
0.0
  0
LINE
  5
129
100
AcDbEntity
  8
0
  6
CONTINUOUS
 62
               4
100
AcDbLine
 10
51.499999999999972
 20
41.499999999999993
 30
0.0
 11
48.499999999999972
 21
41.499999999999993
 31
0.0
  0
LINE
  5
12A
100
AcDbEntity
  8
0
  6
CENTER
 62
             200
100
AcDbLine
 10
48.499999999999972
 20
32.974999999999987
 30
0.0
 11
48.499999999999972
 21
42.737500000000004
 31
0.0
  0
LINE
  5
12B
100
AcDbEntity
  8
0
  6
CENTER
 62
             200
100
AcDbLine
 10
51.499999999999972
 20
33.037500000000001
 30
0.0
 11
51.499999999999972
 21
42.737500000000004
 31
0.0
  0
LINE
  5
12C
100
AcDbEntity
  8
0
  6
CENTER
 62
             200
100
AcDbLine
 10
49.999999999999972
 20
33.100000000000001
 30
0.0
 11
49.999999999999972
 21
42.67499999999999
 31
0.0
  0
LINE
  5
12D
100
AcDbEntity
  8
0
  6
CENTER
 62
             200
100
AcDbLine
 10
45.424999999999983
 20
37.999999999999993
 30
0.0
 11
55.749999999999972
 21
37.999999999999993
 31
0.0
  0
LINE
  5
12E
100
AcDbEntity
  8
0
  6
CONTINUOUS
 62
               4
100
AcDbLine
 10
50.499999999999972
 20
24.29999999999999
 30
0.0
 11
58.499999999999972
 21
24.29999999999999
 31
0.0
  0
LINE
  5
12F
100
AcDbEntity
  8
0
  6
CONTINUOUS
 62
               7
100
AcDbLine
 10
12.5
 20
24.29999999999999
 30
0.0
 11
50.499999999999972
 21
24.29999999999999
 31
0.0
  0
LINE
  5
130
100
AcDbEntity
  8
0
  6
CONTINUOUS
 62
               7
100
AcDbLine
 10
52.499999999999972
 20
22.000000000000007
 30
0.0
 11
10.5
 21
22.000000000000007
 31
0.0
  0
LINE
  5
131
100
AcDbEntity
  8
0
  6
CONTINUOUS
 62
               4
100
AcDbLine
 10
10.5
 20
22.000000000000007
 30
0.0
 11
4.5
 21
22.000000000000007
 31
0.0
  0
LINE
  5
132
100
AcDbEntity
  8
0
  6
CONTINUOUS
 62
               4
100
AcDbLine
 10
17.574999999999989
 20
44.999999999999993
 30
0.0
 11
7.5
 21
44.999999999999993
 31
0.0
  0
LINE
  5
133
100
AcDbEntity
  8
0
  6
CONTINUOUS
 62
               4
100
AcDbLine
 10
55.499999999999972
 20
44.999999999999993
 30
0.0
 11
58.499999999999972
 21
42.000000000000007
 31
0.0
  0
LINE
  5
134
100
AcDbEntity
  8
0
  6
CONTINUOUS
 62
               4
100
AcDbLine
 10
4.5
 20
42.000000000000007
 30
0.0
 11
7.5
 21
44.999999999999993
 31
0.0
  0
LINE
  5
135
100
AcDbEntity
  8
0
  6
CONTINUOUS
 62
               4
100
AcDbLine
 10
58.499999999999972
 20
22.000000000000007
 30
0.0
 11
58.499999999999972
 21
42.000000000000007
 31
0.0
  0
LINE
  5
136
100
AcDbEntity
  8
0
  6
CONTINUOUS
 62
               4
100
AcDbLine
 10
4.5
 20
22.000000000000007
 30
0.0
 11
4.5
 21
42.000000000000007
 31
0.0
  0
LINE
  5
137
100
AcDbEntity
  8
0
  6
CONTINUOUS
 62
               4
100
AcDbLine
 10
55.499999999999972
 20
44.999999999999993
 30
0.0
 11
45.412499999999994
 21
44.999999999999993
 31
0.0
  0
LINE
  5
138
100
AcDbEntity
  8
0
  6
CONTINUOUS
 62
               4
100
AcDbLine
 10
4.5
 20
24.29999999999999
 30
0.0
 11
12.5
 21
24.29999999999999
 31
0.0
  0
LINE
  5
139
100
AcDbEntity
  8
0
  6
CONTINUOUS
 62
               7
100
AcDbLine
 10
28.799999999999983
 20
19.500000000000007
 30
0.0
 11
34.199999999999989
 21
19.500000000000007
 31
0.0
  0
LINE
  5
13A
100
AcDbEntity
  8
0
  6
CONTINUOUS
 62
               7
100
AcDbLine
 10
34.199999999999989
 20
19.500000000000007
 30
0.0
 11
34.199999999999989
 21
22.000000000000007
 31
0.0
  0
LINE
  5
13B
100
AcDbEntity
  8
0
  6
CONTINUOUS
 62
               7
100
AcDbLine
 10
28.799999999999983
 20
19.500000000000007
 30
0.0
 11
28.799999999999983
 21
22.000000000000007
 31
0.0
  0
LINE
  5
13C
100
AcDbEntity
  8
0
  6
CONTINUOUS
 62
               7
100
AcDbLine
 10
61.999999999999972
 20
-12.000000000000007
 30
0.0
 11
61.999999999999972
 21
12.0
 31
0.0
  0
LINE
  5
13D
100
AcDbEntity
  8
0
  6
CONTINUOUS
 62
               7
100
AcDbLine
 10
1.0
 20
-12.000000000000007
 30
0.0
 11
1.0
 21
12.0
 31
0.0
  0
LINE
  5
13E
100
AcDbEntity
  8
0
  6
CONTINUOUS
 62
               7
100
AcDbLine
 10
62.499999999999972
 20
-29.000000000000007
 30
0.0
 11
0.5
 21
-29.000000000000007
 31
0.0
  0
LINE
  5
13F
100
AcDbEntity
  8
0
  6
CONTINUOUS
 62
               7
100
AcDbLine
 10
61.499999999999972
 20
-30.000000000000004
 30
0.0
 11
62.499999999999972
 21
-29.000000000000007
 31
0.0
  0
LINE
  5
140
100
AcDbEntity
  8
0
  6
CONTINUOUS
 62
               7
100
AcDbLine
 10
1.5
 20
-30.000000000000004
 30
0.0
 11
0.5
 21
-29.000000000000007
 31
0.0
  0
LINE
  5
141
100
AcDbEntity
  8
0
  6
CONTINUOUS
 62
               7
100
AcDbLine
 10
62.499999999999972
 20
-12.000000000000007
 30
0.0
 11
62.499999999999972
 21
-29.000000000000007
 31
0.0
  0
LINE
  5
142
100
AcDbEntity
  8
0
  6
CONTINUOUS
 62
               7
100
AcDbLine
 10
0.5
 20
-12.000000000000007
 30
0.0
 11
0.5
 21
-29.000000000000007
 31
0.0
  0
LINE
  5
143
100
AcDbEntity
  8
0
  6
CONTINUOUS
 62
               7
100
AcDbLine
 10
46.200000000000017
 20
10.999999999999993
 30
0.0
 11
62.999999999999972
 21
10.999999999999993
 31
0.0
  0
LINE
  5
144
100
AcDbEntity
  8
0
  6
CONTINUOUS
 62
               7
100
AcDbLine
 10
15.799999999999983
 20
12.0
 30
0.0
 11
1.0
 21
12.0
 31
0.0
  0
LINE
  5
145
100
AcDbEntity
  8
0
  6
CONTINUOUS
 62
               7
100
AcDbLine
 10
46.200000000000017
 20
10.999999999999993
 30
0.0
 11
47.200000000000017
 21
12.0
 31
0.0
  0
LINE
  5
146
100
AcDbEntity
  8
0
  6
CONTINUOUS
 62
               7
100
AcDbLine
 10
46.200000000000017
 20
10.999999999999993
 30
0.0
 11
46.200000000000017
 21
9.9874999999999901
 31
0.0
  0
LINE
  5
147
100
AcDbEntity
  8
0
  6
CONTINUOUS
 62
               7
100
AcDbLine
 10
51.499999999999972
 20
-10.000000000000007
 30
0.0
 11
51.499999999999972
 21
-9.2250000000000014
 31
0.0
  0
LINE
  5
148
100
AcDbEntity
  8
0
  6
CONTINUOUS
 62
               7
100
AcDbLine
 10
41.5
 20
-10.000000000000007
 30
0.0
 11
41.5
 21
-9.2250000000000014
 31
0.0
  0
LINE
  5
149
100
AcDbEntity
  8
0
  6
CONTINUOUS
 62
               7
100
AcDbLine
 10
15.799999999999983
 20
12.0
 30
0.0
 11
16.799999999999983
 21
10.999999999999993
 31
0.0
  0
LINE
  5
14A
100
AcDbEntity
  8
0
  6
CONTINUOUS
 62
               7
100
AcDbLine
 10
58.624999999999972
 20
-12.000000000000007
 30
0.0
 11
57.624999999999972
 21
-11.0
 31
0.0
  0
LINE
  5
14B
100
AcDbEntity
  8
0
  6
CONTINUOUS
 62
               7
100
AcDbLine
 10
4.375
 20
-12.000000000000007
 30
0.0
 11
5.375
 21
-11.0
 31
0.0
  0
LINE
  5
14C
100
AcDbEntity
  8
0
  6
CONTINUOUS
 62
               7
100
AcDbLine
 10
57.624999999999972
 20
-11.0
 30
0.0
 11
5.375
 21
-11.0
 31
0.0
  0
LINE
  5
14D
100
AcDbEntity
  8
0
  6
CONTINUOUS
 62
               7
100
AcDbLine
 10
16.799999999999983
 20
10.999999999999993
 30
0.0
 11
16.799999999999983
 21
-10.000000000000007
 31
0.0
  0
LINE
  5
14E
100
AcDbEntity
  8
0
  6
CONTINUOUS
 62
               7
100
AcDbLine
 10
5.0
 20
-7.0000000000000071
 30
0.0
 11
1.9999999999999716
 21
-7.0000000000000071
 31
0.0
  0
LINE
  5
14F
100
AcDbEntity
  8
0
  6
CONTINUOUS
 62
               7
100
AcDbLine
 10
5.0
 20
7.0
 30
0.0
 11
1.9999999999999716
 21
7.0
 31
0.0
  0
LINE
  5
150
100
AcDbEntity
  8
0
  6
CONTINUOUS
 62
               7
100
AcDbLine
 10
60.999999999999972
 20
-7.0000000000000071
 30
0.0
 11
57.999999999999972
 21
-7.0000000000000071
 31
0.0
  0
LINE
  5
151
100
AcDbEntity
  8
0
  6
CONTINUOUS
 62
               7
100
AcDbLine
 10
60.999999999999972
 20
7.0
 30
0.0
 11
57.999999999999972
 21
7.0
 31
0.0
  0
LINE
  5
152
100
AcDbEntity
  8
0
  6
CONTINUOUS
 62
               7
100
AcDbLine
 10
57.999999999999972
 20
-7.0000000000000071
 30
0.0
 11
57.999999999999972
 21
7.0
 31
0.0
  0
LINE
  5
153
100
AcDbEntity
  8
0
  6
CONTINUOUS
 62
               7
100
AcDbLine
 10
60.999999999999972
 20
-7.0000000000000071
 30
0.0
 11
60.999999999999972
 21
7.0
 31
0.0
  0
LINE
  5
154
100
AcDbEntity
  8
0
  6
CONTINUOUS
 62
               7
100
AcDbLine
 10
5.0
 20
-7.0000000000000071
 30
0.0
 11
5.0
 21
7.0
 31
0.0
  0
LINE
  5
155
100
AcDbEntity
  8
0
  6
CONTINUOUS
 62
               7
100
AcDbLine
 10
1.9999999999999716
 20
-7.0000000000000071
 30
0.0
 11
1.9999999999999716
 21
7.0
 31
0.0
  0
LINE
  5
156
100
AcDbEntity
  8
0
  6
CENTER
 62
               2
100
AcDbLine
 10
69.112499999999983
 20
0.0
 30
0.0
 11
-6.3499999999999943
 21
0.0
 31
0.0
  0
LINE
  5
157
100
AcDbEntity
  8
0
  6
CENTER
 62
               2
100
AcDbLine
 10
46.499999999999972
 20
-23.700000000000003
 30
0.0
 11
46.499999999999972
 21
23.662500000000001
 31
0.0
  0
LINE
  5
158
100
AcDbEntity
  8
0
  6
CONTINUOUS
 62
               7
100
AcDbLine
 10
9.5
 20
12.5
 30
0.0
 11
2.5
 21
12.5
 31
0.0
  0
LINE
  5
159
100
AcDbEntity
  8
0
  6
CONTINUOUS
 62
               7
100
AcDbLine
 10
9.5
 20
12.0
 30
0.0
 11
9.5
 21
12.5
 31
0.0
  0
LINE
  5
15A
100
AcDbEntity
  8
0
  6
CONTINUOUS
 62
               7
100
AcDbLine
 10
2.5
 20
12.0
 30
0.0
 11
2.5
 21
12.5
 31
0.0
  0
LINE
  5
15B
100
AcDbEntity
  8
0
  6
CONTINUOUS
 62
               7
100
AcDbLine
 10
0.0
 20
10.999999999999993
 30
0.0
 11
16.799999999999983
 21
10.999999999999993
 31
0.0
  0
LINE
  5
15C
100
AcDbEntity
  8
0
  6
CONTINUOUS
 62
               7
100
AcDbLine
 10
61.999999999999972
 20
12.0
 30
0.0
 11
62.999999999999972
 21
10.999999999999993
 31
0.0
  0
LINE
  5
15D
100
AcDbEntity
  8
0
  6
CONTINUOUS
 62
               7
100
AcDbLine
 10
1.0
 20
12.0
 30
0.0
 11
0.0
 21
10.999999999999993
 31
0.0
  0
LINE
  5
15E
100
AcDbEntity
  8
0
  6
CONTINUOUS
 62
               7
100
AcDbLine
 10
62.999999999999972
 20
-12.000000000000007
 30
0.0
 11
0.0
 21
-12.000000000000007
 31
0.0
  0
LINE
  5
15F
100
AcDbEntity
  8
0
  6
CONTINUOUS
 62
               7
100
AcDbLine
 10
61.999999999999972
 20
12.0
 30
0.0
 11
47.200000000000017
 21
12.0
 31
0.0
  0
LINE
  5
160
100
AcDbEntity
  8
0
  6
CONTINUOUS
 62
               7
100
AcDbLine
 10
62.999999999999972
 20
-12.000000000000007
 30
0.0
 11
62.999999999999972
 21
10.999999999999993
 31
0.0
  0
LINE
  5
161
100
AcDbEntity
  8
0
  6
CONTINUOUS
 62
               7
100
AcDbLine
 10
0.0
 20
-12.000000000000007
 30
0.0
 11
0.0
 21
10.999999999999993
 31
0.0
  0
LINE
  5
162
100
AcDbEntity
  8
0
  6
CONTINUOUS
 62
               7
100
AcDbLine
 10
61.499999999999972
 20
-30.000000000000004
 30
0.0
 11
1.5
 21
-30.000000000000004
 31
0.0
  0
LINE
  5
163
100
AcDbEntity
  8
0
  6
CONTINUOUS
 62
               7
100
AcDbLine
 10
52.499999999999972
 20
12.999999999999993
 30
0.0
 11
52.499999999999972
 21
22.000000000000007
 31
0.0
  0
LINE
  5
164
100
AcDbEntity
  8
0
  6
CONTINUOUS
 62
               7
100
AcDbLine
 10
10.5
 20
12.999999999999993
 30
0.0
 11
10.5
 21
22.000000000000007
 31
0.0
  0
LINE
  5
165
100
AcDbEntity
  8
0
  6
CONTINUOUS
 62
               7
100
AcDbLine
 10
45.700000000000017
 20
34.500000000000007
 30
0.0
 11
17.299999999999983
 21
34.500000000000007
 31
0.0
  0
LINE
  5
166
100
AcDbEntity
  8
0
  6
CONTINUOUS
 62
               7
100
AcDbLine
 10
40.924999999999983
 20
31.29999999999999
 30
0.0
 11
40.924999999999983
 21
34.500000000000007
 31
0.0
  0
LINE
  5
167
100
AcDbEntity
  8
0
  6
CONTINUOUS
 62
               7
100
AcDbLine
 10
33.0625
 20
31.29999999999999
 30
0.0
 11
33.0625
 21
34.500000000000007
 31
0.0
  0
LINE
  5
168
100
AcDbEntity
  8
0
  6
CONTINUOUS
 62
               7
100
AcDbLine
 10
29.924999999999983
 20
31.29999999999999
 30
0.0
 11
29.924999999999983
 21
34.500000000000007
 31
0.0
  0
LINE
  5
169
100
AcDbEntity
  8
0
  6
CONTINUOUS
 62
               7
100
AcDbLine
 10
22.0625
 20
31.29999999999999
 30
0.0
 11
22.0625
 21
34.500000000000007
 31
0.0
  0
LINE
  5
16A
100
AcDbEntity
  8
0
  6
CONTINUOUS
 62
               7
100
AcDbLine
 10
42.5
 20
31.29999999999999
 30
0.0
 11
42.5
 21
34.500000000000007
 31
0.0
  0
LINE
  5
16B
100
AcDbEntity
  8
0
  6
CONTINUOUS
 62
               7
100
AcDbLine
 10
20.5
 20
31.29999999999999
 30
0.0
 11
20.5
 21
34.500000000000007
 31
0.0
  0
LINE
  5
16C
100
AcDbEntity
  8
0
  6
CONTINUOUS
 62
               4
100
AcDbLine
 10
58.499999999999972
 20
22.000000000000007
 30
0.0
 11
52.499999999999972
 21
22.000000000000007
 31
0.0
  0
SPLINE
  5
16D
100
AcDbEntity
  8
0
  6
CONTINUOUS
 62
               7
100
AcDbSpline
210
0.0
220
0.0
230
1.0
 70
               0
 71
               3
 72
               0
 73
               0
 74
               9
 44
0.000001
 12
0.3840036847022956
 22
-0.9233315602399065
 32
0.0
 13
-0.3618056469472535
 23
-0.9322535458967584
 33
0.0
 11
5.4499999999999886
 21
-41.975000000000001
 31
0.0
 11
6.1507510209658678
 21
-43.861162826503815
 31
0.0
 11
6.7002521469283698
 21
-45.800646530404485
 31
0.0
 11
7.0840021994266831
 21
-47.780431969102906
 31
0.0
 11
7.2874999999999943
 21
-49.787500000000001
 31
0.0
 11
7.2729476689453731
 21
-52.340087583782676
 31
0.0
 11
6.9709184431387623
 21
-54.879815677942631
 31
0.0
 11
6.4053049957627675
 21
-57.373385933131267
 31
0.0
 11
5.5999999999999943
 21
-59.787500000000001
 31
0.0
  0
ENDBLK
  5
16E
100
AcDbEntity
  8
0
100
AcDbBlockEnd
  0
BLOCK
  5
16F
100
AcDbEntity
  8
0
100
AcDbBlockBegin
  2
MS_2
 70
               0
 10
0.0
 20
0.0
 30
0.0
  3
MS_2
  1

  0
LINE
  5
170
100
AcDbEntity
  8
0
  6
CENTER
 62
               2
100
AcDbLine
 10
0.0
 20
-139.125
 30
0.0
 11
0.0
 21
62.524999999999999
 31
0.0
  0
LINE
  5
171
100
AcDbEntity
  8
0
  6
CONTINUOUS
 62
               7
100
AcDbLine
 10
-21.525042138213337
 20
16.371093750000007
 30
0.0
 11
-20.897229638213332
 21
16.371093750000007
 31
0.0
  0
LINE
  5
172
100
AcDbEntity
  8
0
  6
CONTINUOUS
 62
               7
100
AcDbLine
 10
-21.525042138213337
 20
10.628906250000007
 30
0.0
 11
-21.0962921382133
 21
10.628906250000007
 31
0.0
  0
LINE
  5
173
100
AcDbEntity
  8
0
  6
CONTINUOUS
 62
               7
100
AcDbLine
 10
-27.650042138213337
 20
16.562500000000007
 30
0.0
 11
-21.525042138213337
 21
16.562500000000007
 31
0.0
  0
LINE
  5
174
100
AcDbEntity
  8
0
  6
CONTINUOUS
 62
               7
100
AcDbLine
 10
-27.650042138213337
 20
16.562500000000007
 30
0.0
 11
-27.650042138213337
 21
10.4375
 31
0.0
  0
LINE
  5
175
100
AcDbEntity
  8
0
  6
CONTINUOUS
 62
               7
100
AcDbLine
 10
-27.650042138213337
 20
10.4375
 30
0.0
 11
-21.525042138213337
 21
10.4375
 31
0.0
  0
LINE
  5
176
100
AcDbEntity
  8
0
  6
CONTINUOUS
 62
               7
100
AcDbLine
 10
-21.525042138213337
 20
16.562500000000007
 30
0.0
 11
-21.525042138213337
 21
10.4375
 31
0.0
  0
ARC
  5
177
100
AcDbEntity
  8
0
  6
CONTINUOUS
 62
               7
100
AcDbCircle
 10
-24.583714013213353
 20
13.499988317487812
 30
0.0
 40
3.4465327812190787
100
AcDbArc
 50
62.695044154471567
 51
117.30495584552797
  0
ARC
  5
178
100
AcDbEntity
  8
0
  6
CONTINUOUS
 62
               7
100
AcDbCircle
 10
-24.587530455701142
 20
13.496171874999987
 30
0.0
 40
3.4465327812190774
100
AcDbArc
 50
152.69504415447139
 51
207.30495584552773
  0
ARC
  5
179
100
AcDbEntity
  8
0
  6
CONTINUOUS
 62
               7
100
AcDbCircle
 10
-24.583714013213353
 20
13.500000000001798
 30
0.0
 40
3.4465224004067037
100
AcDbArc
 50
242.69495506396004
 51
297.30504493603877
  0
LINE
  5
17A
100
AcDbEntity
  8
0
  6
CENTER
 62
               7
100
AcDbLine
 10
-29.165979638213287
 20
13.500000000000007
 30
0.0
 11
-20.001448388213362
 21
13.500000000000007
 31
0.0
  0
LINE
  5
17B
100
AcDbEntity
  8
0
  6
CENTER
 62
               7
100
AcDbLine
 10
-24.587542138213337
 20
18.223906249999992
 30
0.0
 11
-24.587542138213337
 21
8.967499999999994
 31
0.0
  0
LINE
  5
17C
100
AcDbEntity
  8
0
  6
CENTER
 62
               2
100
AcDbLine
 10
-34.10629186793966
 20
13.500000000000007
 30
0.0
 11
-15.256864636095429
 21
13.500000000000007
 31
0.0
  0
LINE
  5
17D
100
AcDbEntity
  8
0
  6
CONTINUOUS
 62
               7
100
AcDbLine
 10
-2.8499999999999659
 20
-131.48750000000001
 30
0.0
 11
-2.8499999999999659
 21
-129.58750000000001
 31
0.0
  0
LINE
  5
17E
100
AcDbEntity
  8
0
  6
CONTINUOUS
 62
               7
100
AcDbLine
 10
6.5000000000000568
 20
-129.58750000000001
 30
0.0
 11
-6.4999999999999432
 21
-129.58750000000001
 31
0.0
  0
LINE
  5
17F
100
AcDbEntity
  8
0
  6
CONTINUOUS
 62
               7
100
AcDbLine
 10
2.8250000000000455
 20
-136.6875
 30
0.0
 11
-2.8249999999999886
 21
-136.6875
 31
0.0
  0
LINE
  5
180
100
AcDbEntity
  8
0
  6
CONTINUOUS
 62
               7
100
AcDbLine
 10
3.2875000000000227
 20
-134.08750000000001
 30
0.0
 11
-3.2874999999999659
 21
-134.08750000000001
 31
0.0
  0
LINE
  5
181
100
AcDbEntity
  8
0
  6
CONTINUOUS
 62
               7
100
AcDbLine
 10
3.2875000000000227
 20
-131.48750000000001
 30
0.0
 11
-3.2874999999999659
 21
-131.48750000000001
 31
0.0
  0
LINE
  5
182
100
AcDbEntity
  8
0
  6
CONTINUOUS
 62
               7
100
AcDbLine
 10
-3.2874999999999659
 20
-131.48750000000001
 30
0.0
 11
-2.8249999999999886
 21
-134.08750000000001
 31
0.0
  0
LINE
  5
183
100
AcDbEntity
  8
0
  6
CONTINUOUS
 62
               7
100
AcDbLine
 10
-3.2874999999999659
 20
-134.08750000000001
 30
0.0
 11
-2.8249999999999886
 21
-136.6875
 31
0.0
  0
LINE
  5
184
100
AcDbEntity
  8
0
  6
CONTINUOUS
 62
               7
100
AcDbLine
 10
3.2875000000000227
 20
-134.08750000000001
 30
0.0
 11
2.8250000000000455
 21
-136.6875
 31
0.0
  0
LINE
  5
185
100
AcDbEntity
  8
0
  6
CONTINUOUS
 62
               7
100
AcDbLine
 10
3.2875000000000227
 20
-131.48750000000001
 30
0.0
 11
2.8250000000000455
 21
-134.08750000000001
 31
0.0
  0
LINE
  5
186
100
AcDbEntity
  8
0
  6
CONTINUOUS
 62
               7
100
AcDbLine
 10
2.8500000000000227
 20
-131.48750000000001
 30
0.0
 11
2.8500000000000227
 21
-129.58750000000001
 31
0.0
  0
LINE
  5
187
100
AcDbEntity
  8
0
  6
CONTINUOUS
 62
               7
100
AcDbLine
 10
-6.4999999999999432
 20
-129.58750000000001
 30
0.0
 11
-6.4999999999999432
 21
-128.08750000000001
 31
0.0
  0
LINE
  5
188
100
AcDbEntity
  8
0
  6
CONTINUOUS
 62
               7
100
AcDbLine
 10
6.5000000000000568
 20
-129.58750000000001
 30
0.0
 11
6.5000000000000568
 21
-128.08750000000001
 31
0.0
  0
CIRCLE
  5
189
100
AcDbEntity
  8
0
  6
CONTINUOUS
 62
               7
100
AcDbCircle
 10
0.0060127258300895
 20
0.0023338317871051
 30
0.0
 40
5.0049996376037598
  0
ARC
  5
18A
100
AcDbEntity
  8
0
  6
CONTINUOUS
 62
               7
100
AcDbCircle
 10
20.530934105458414
 20
-61.293434105458353
 30
0.0
 40
0.9940836062919889
100
AcDbArc
 50
269.65797522956194
 51
0.3420247704369475
  0
ARC
  5
18B
100
AcDbEntity
  8
0
  6
CONTINUOUS
 62
               7
100
AcDbCircle
 10
18.710622192539688
 20
-60.798122192539694
 30
0.0
 40
0.9894348269943396
100
AcDbArc
 50
269.3848826861846
 51
0.6151173138178656
  0
ARC
  5
18C
100
AcDbEntity
  8
0
  6
CONTINUOUS
 62
               7
100
AcDbCircle
 10
21.368257756704224
 20
-35.294242243295805
 30
0.0
 40
0.9942589150297494
100
AcDbArc
 50
359.66819809454654
 51
90.331801905452465
  0
ARC
  5
18D
100
AcDbEntity
  8
0
  6
CONTINUOUS
 62
               7
100
AcDbCircle
 10
20.526998332281323
 20
-36.298001667718708
 30
0.0
 40
0.9980036683806455
100
AcDbArc
 50
359.88527488833967
 51
90.114725111659936
  0
ARC
  5
18E
100
AcDbEntity
  8
0
  6
CONTINUOUS
 62
               7
100
AcDbCircle
 10
18.706667370495722
 20
-36.793332629504249
 30
0.0
 40
0.9933550053566713
100
AcDbArc
 50
359.61542947267986
 51
90.384570527316512
  0
ARC
  5
18F
100
AcDbEntity
  8
0
  6
CONTINUOUS
 62
               7
100
AcDbCircle
 10
14.649916085997404
 20
-35.29991608599736
 30
0.0
 40
0.9999160895184307
100
AcDbArc
 50
89.995191678334038
 51
180.00480832166753
  0
ARC
  5
190
100
AcDbEntity
  8
0
  6
CONTINUOUS
 62
               7
100
AcDbCircle
 10
21.372209816026327
 20
-94.29720981602631
 30
0.0
 40
0.9903377853045542
100
AcDbArc
 50
269.43823168207814
 51
0.561768317921257
  0
ARC
  5
191
100
AcDbEntity
  8
0
  6
CONTINUOUS
 62
               7
100
AcDbCircle
 10
20.530933155829871
 20
-93.29343315582986
 30
0.0
 40
0.9940845502352793
100
AcDbArc
 50
269.6580302887923
 51
0.3419697112070922
  0
ARC
  5
192
100
AcDbEntity
  8
0
  6
CONTINUOUS
 62
               7
100
AcDbCircle
 10
20.520741939580546
 20
-67.291758060419482
 30
0.0
 40
1.0042670874802353
100
AcDbArc
 50
0.2429330055520124
 51
89.757066994446774
  0
ARC
  5
193
100
AcDbEntity
  8
0
  6
CONTINUOUS
 62
               7
100
AcDbCircle
 10
18.71062421997533
 20
-92.798124219975364
 30
0.0
 40
0.9894328214433992
100
AcDbArc
 50
269.38476402840661
 51
0.6152359715953597
  0
ARC
  5
194
100
AcDbEntity
  8
0
  6
CONTINUOUS
 62
               7
100
AcDbCircle
 10
18.700385402042173
 20
-67.787114597957782
 30
0.0
 40
0.9996146722537685
100
AcDbArc
 50
359.9779095769639
 51
90.022090423033077
  0
ARC
  5
195
100
AcDbEntity
  8
0
  6
CONTINUOUS
 62
               7
100
AcDbCircle
 10
14.64598643006218
 20
-94.291513569937877
 30
0.0
 40
0.9959945168581847
100
AcDbArc
 50
179.76911394921822
 51
270.23088605077874
  0
ARC
  5
196
100
AcDbEntity
  8
0
  6
CONTINUOUS
 62
               7
100
AcDbCircle
 10
-20.524848882103015
 20
-61.287348882103025
 30
0.0
 40
1.0001511293135632
100
AcDbArc
 50
180.00865710939527
 51
269.99134289060316
  0
ARC
  5
197
100
AcDbEntity
  8
0
  6
CONTINUOUS
 62
               7
100
AcDbCircle
 10
-18.704565231339529
 20
-60.792065231339556
 30
0.0
 40
0.9954452370649293
100
AcDbArc
 50
179.73723375688243
 51
270.26276624311453
  0
ARC
  5
198
100
AcDbEntity
  8
0
  6
CONTINUOUS
 62
               7
100
AcDbCircle
 10
-21.362219121531268
 20
-35.300280878468712
 30
0.0
 40
1.0002809179039831
100
AcDbArc
 50
90.016088631439118
 51
179.98391136855992
  0
ARC
  5
199
100
AcDbEntity
  8
0
  6
CONTINUOUS
 62
               7
100
AcDbCircle
 10
-20.520936943980985
 20
-36.304063056019046
 30
0.0
 40
1.0040712767958784
100
AcDbArc
 50
90.23185266079507
 51
179.76814733920466
  0
ARC
  5
19A
100
AcDbEntity
  8
0
  6
CONTINUOUS
 62
               7
100
AcDbCircle
 10
-18.700634243178854
 20
-36.799365756821139
 30
0.0
 40
0.9993659580809642
100
AcDbArc
 50
89.963637484869579
 51
180.03636251513197
  0
ARC
  5
19B
100
AcDbEntity
  8
0
  6
CONTINUOUS
 62
               7
100
AcDbCircle
 10
-14.643879649269309
 20
-35.293879649269321
 30
0.0
 40
0.9938984937732696
100
AcDbArc
 50
359.64717475227036
 51
90.352825247728759
  0
ARC
  5
19C
100
AcDbEntity
  8
0
  6
CONTINUOUS
 62
               7
100
AcDbCircle
 10
-21.366147341236797
 20
-94.291147341236808
 30
0.0
 40
0.9963593346391773
100
AcDbArc
 50
179.79025867597827
 51
270.20974132402023
  0
ARC
  5
19D
100
AcDbEntity
  8
0
  6
CONTINUOUS
 62
               7
100
AcDbCircle
 10
-20.524847938237485
 20
-93.287347938237502
 30
0.0
 40
1.0001520733221358
100
AcDbArc
 50
180.00871117251313
 51
269.99128882748482
  0
ARC
  5
19E
100
AcDbEntity
  8
0
  6
CONTINUOUS
 62
               7
100
AcDbCircle
 10
-20.514718241351432
 20
-67.297781758648526
 30
0.0
 40
1.0103340766394355
100
AcDbArc
 50
90.583085890911292
 51
179.41691410908862
  0
ARC
  5
19F
100
AcDbEntity
  8
0
  6
CONTINUOUS
 62
               7
100
AcDbCircle
 10
-18.704567246532974
 20
-92.792067246533009
 30
0.0
 40
0.9954432311366485
100
AcDbArc
 50
179.73711723553316
 51
270.26288276446382
  0
ARC
  5
1A0
100
AcDbEntity
  8
0
  6
CONTINUOUS
 62
               7
100
AcDbCircle
 10
-18.694389948247306
 20
-67.793110051752649
 30
0.0
 40
1.0056257001820448
100
AcDbArc
 50
90.319635780477398
 51
179.68036421952354
  0
ARC
  5
1A1
100
AcDbEntity
  8
0
  6
CONTINUOUS
 62
               7
100
AcDbCircle
 10
-14.639926154007924
 20
-94.297573845992076
 30
0.0
 40
0.9899774102281544
100
AcDbArc
 50
269.41695758469052
 51
0.5830424153093815
  0
ARC
  5
1A2
100
AcDbEntity
  8
0
  6
CONTINUOUS
 62
               7
100
AcDbCircle
 10
-15.529468828229312
 20
-101.79162208396403
 30
0.0
 40
9.9958789149689657
100
AcDbArc
 50
180.47792276520656
 51
270.02561505672605
  0
ARC
  5
1A3
100
AcDbEntity
  8
0
  6
CONTINUOUS
 62
               7
100
AcDbCircle
 10
15.535458926294211
 20
-101.79766505805216
 30
0.0
 40
9.9898404169686899
100
AcDbArc
 50
269.94001381209654
 51
359.55644836596838
  0
ARC
  5
1A4
100
AcDbEntity
  8
0
  6
CONTINUOUS
 62
               7
100
AcDbCircle
 10
11.604144178309184
 20
58.50414417830914
 30
0.0
 40
0.995864444495047
100
AcDbArc
 50
359.76156934481321
 51
90.238430655187841
  0
ARC
  5
1A5
100
AcDbEntity
  8
0
  6
CONTINUOUS
 62
               7
100
AcDbCircle
 10
-11.598172131049694
 20
58.498172131049735
 30
0.0
 40
1.0018295364533254
100
AcDbArc
 50
90.104537978417355
 51
179.89546202158309
  0
ARC
  5
1A6
100
AcDbEntity
  8
0
  6
CONTINUOUS
 62
               4
100
AcDbCircle
 10
-17.498141466401648
 20
21.998141466401684
 30
0.0
 40
2.3018592838934642
100
AcDbArc
 50
90.046260926366287
 51
179.95373907363378
  0
ARC
  5
1A7
100
AcDbEntity
  8
0
  6
CONTINUOUS
 62
               4
100
AcDbCircle
 10
36.201847718772058
 20
25.798152281227949
 30
0.0
 40
1.498153420652627
100
AcDbArc
 50
269.92933533191859
 51
0.0706646680810833
  0
ARC
  5
1A8
100
AcDbEntity
  8
0
  6
CONTINUOUS
 62
               4
100
AcDbCircle
 10
36.201870349554611
 20
25.798129650445382
 30
0.0
 40
3.7981301109624721
100
AcDbArc
 50
269.97178528989394
 51
0.0282147101058128
  0
ARC
  5
1A9
100
AcDbEntity
  8
0
  6
CONTINUOUS
 62
               7
100
AcDbCircle
 10
-39.4958826040899
 20
18.004117395910129
 30
0.0
 40
2.9958854334632656
100
AcDbArc
 50
359.9212555060123
 51
90.078744493986164
  0
ARC
  5
1AA
100
AcDbEntity
  8
0
  6
CONTINUOUS
 62
               7
100
AcDbCircle
 10
-39.498142461602129
 20
-18.001857538397886
 30
0.0
 40
2.9981430370331728
100
AcDbArc
 50
269.96450165453155
 51
0.0354983454679896
  0
CIRCLE
  5
1AB
100
AcDbEntity
  8
0
  6
CONTINUOUS
 62
               2
100
AcDbCircle
 10
0.0060127258300895
 20
0.0023338317871051
 30
0.0
 40
6.5049993991851807
  0
ARC
  5
1AC
100
AcDbEntity
  8
0
  6
CONTINUOUS
 62
               7
100
AcDbCircle
 10
20.506005162272345
 20
-10.500000000000007
 30
0.0
 40
0.5000360606735427
100
AcDbArc
 50
90.688107822225518
 51
269.31189217777364
  0
ARC
  5
1AD
100
AcDbEntity
  8
0
  6
CONTINUOUS
 62
               7
100
AcDbCircle
 10
-20.493960506150358
 20
-10.500000000000007
 30
0.0
 40
0.5000364741555937
100
AcDbArc
 50
269.30795863946003
 51
90.692041360539136
  0
ARC
  5
1AE
100
AcDbEntity
  8
0
  6
CONTINUOUS
 62
               7
100
AcDbCircle
 10
16.004178750331107
 20
11.0041787503311
 30
0.0
 40
1.0041874449378789
100
AcDbArc
 50
180.2384270484838
 51
269.76157295151671
  0
ARC
  5
1AF
100
AcDbEntity
  8
0
  6
CONTINUOUS
 62
               7
100
AcDbCircle
 10
-15.998172996403639
 20
10.998172996403618
 30
0.0
 40
0.9981746684280879
100
AcDbArc
 50
269.89512892183495
 51
0.1048710781664744
  0
CIRCLE
  5
1B0
100
AcDbEntity
  8
0
  6
CONTINUOUS
 62
               7
100
AcDbCircle
 10
0.0060127258300895
 20
0.0023338317871051
 30
0.0
 40
10.249999761581421
  0
ARC
  5
1B1
100
AcDbEntity
  8
0
  6
CONTINUOUS
 62
               7
100
AcDbCircle
 10
16.004186400622757
 20
-9.9958135993772288
 30
0.0
 40
1.0041951270275593
100
AcDbArc
 50
180.2388617265525
 51
269.76113827344801
  0
ARC
  5
1B2
100
AcDbEntity
  8
0
  6
CONTINUOUS
 62
               7
100
AcDbCircle
 10
-15.99817116051463
 20
-10.00182883948537
 30
0.0
 40
0.9981728359041804
100
AcDbArc
 50
269.89502334788801
 51
0.1049766521134266
  0
LINE
  5
1B3
100
AcDbEntity
  8
0
  6
CONTINUOUS
 62
               7
100
AcDbLine
 10
21.362500000000011
 20
-34.300000000000004
 30
0.0
 11
14.650000000000034
 21
-34.300000000000004
 31
0.0
  0
LINE
  5
1B4
100
AcDbEntity
  8
0
  6
CONTINUOUS
 62
               7
100
AcDbLine
 10
21.362500000000011
 20
-95.287500000000023
 30
0.0
 11
14.650000000000034
 21
-95.287500000000023
 31
0.0
  0
LINE
  5
1B5
100
AcDbEntity
  8
0
  6
CONTINUOUS
 62
               7
100
AcDbLine
 10
22.362500000000011
 20
-35.300000000000004
 30
0.0
 11
22.362500000000011
 21
-94.287499999999994
 31
0.0
  0
LINE
  5
1B6
100
AcDbEntity
  8
0
  6
CONTINUOUS
 62
               7
100
AcDbLine
 10
21.524999999999977
 20
-36.300000000000004
 30
0.0
 11
21.524999999999977
 21
-61.287500000000001
 31
0.0
  0
LINE
  5
1B7
100
AcDbEntity
  8
0
  6
CONTINUOUS
 62
               7
100
AcDbLine
 10
19.699999999999989
 20
-36.800000000000004
 30
0.0
 11
19.699999999999989
 21
-60.787500000000001
 31
0.0
  0
LINE
  5
1B8
100
AcDbEntity
  8
0
  6
CONTINUOUS
 62
               7
100
AcDbLine
 10
13.650000000000034
 20
-35.300000000000004
 30
0.0
 11
13.650000000000034
 21
-94.287499999999994
 31
0.0
  0
LINE
  5
1B9
100
AcDbEntity
  8
0
  6
CONTINUOUS
 62
               7
100
AcDbLine
 10
21.524999999999977
 20
-67.287499999999994
 30
0.0
 11
21.524999999999977
 21
-93.287499999999994
 31
0.0
  0
LINE
  5
1BA
100
AcDbEntity
  8
0
  6
CONTINUOUS
 62
               7
100
AcDbLine
 10
19.699999999999989
 20
-67.787499999999994
 30
0.0
 11
19.699999999999989
 21
-92.787500000000023
 31
0.0
  0
LINE
  5
1BB
100
AcDbEntity
  8
0
  6
CONTINUOUS
 62
               7
100
AcDbLine
 10
20.525000000000034
 20
-94.287499999999994
 30
0.0
 11
13.650000000000034
 21
-94.287499999999994
 31
0.0
  0
LINE
  5
1BC
100
AcDbEntity
  8
0
  6
CONTINUOUS
 62
               7
100
AcDbLine
 10
20.525000000000034
 20
-66.287499999999994
 30
0.0
 11
13.650000000000034
 21
-66.287499999999994
 31
0.0
  0
LINE
  5
1BD
100
AcDbEntity
  8
0
  6
CONTINUOUS
 62
               7
100
AcDbLine
 10
20.525000000000034
 20
-62.287500000000001
 30
0.0
 11
13.650000000000034
 21
-62.287500000000001
 31
0.0
  0
LINE
  5
1BE
100
AcDbEntity
  8
0
  6
CONTINUOUS
 62
               7
100
AcDbLine
 10
20.525000000000034
 20
-35.300000000000004
 30
0.0
 11
13.650000000000034
 21
-35.300000000000004
 31
0.0
  0
LINE
  5
1BF
100
AcDbEntity
  8
0
  6
CONTINUOUS
 62
               7
100
AcDbLine
 10
18.699999999999989
 20
-93.787499999999994
 30
0.0
 11
13.650000000000034
 21
-93.787499999999994
 31
0.0
  0
LINE
  5
1C0
100
AcDbEntity
  8
0
  6
CONTINUOUS
 62
               7
100
AcDbLine
 10
18.699999999999989
 20
-35.800000000000004
 30
0.0
 11
13.650000000000034
 21
-35.800000000000004
 31
0.0
  0
LINE
  5
1C1
100
AcDbEntity
  8
0
  6
CONTINUOUS
 62
               7
100
AcDbLine
 10
18.699999999999989
 20
-61.787500000000001
 30
0.0
 11
13.650000000000034
 21
-61.787500000000001
 31
0.0
  0
LINE
  5
1C2
100
AcDbEntity
  8
0
  6
CONTINUOUS
 62
               7
100
AcDbLine
 10
18.699999999999989
 20
-66.787499999999994
 30
0.0
 11
13.650000000000034
 21
-66.787499999999994
 31
0.0
  0
LINE
  5
1C3
100
AcDbEntity
  8
0
  6
CONTINUOUS
 62
               7
100
AcDbLine
 10
-21.362500000000011
 20
-34.300000000000004
 30
0.0
 11
-14.649999999999977
 21
-34.300000000000004
 31
0.0
  0
LINE
  5
1C4
100
AcDbEntity
  8
0
  6
CONTINUOUS
 62
               7
100
AcDbLine
 10
-21.362500000000011
 20
-95.287500000000023
 30
0.0
 11
-14.649999999999977
 21
-95.287500000000023
 31
0.0
  0
LINE
  5
1C5
100
AcDbEntity
  8
0
  6
CONTINUOUS
 62
               7
100
AcDbLine
 10
-22.362500000000011
 20
-35.300000000000004
 30
0.0
 11
-22.362500000000011
 21
-94.287499999999994
 31
0.0
  0
LINE
  5
1C6
100
AcDbEntity
  8
0
  6
CONTINUOUS
 62
               7
100
AcDbLine
 10
-21.524999999999977
 20
-36.300000000000004
 30
0.0
 11
-21.524999999999977
 21
-61.287500000000001
 31
0.0
  0
LINE
  5
1C7
100
AcDbEntity
  8
0
  6
CONTINUOUS
 62
               7
100
AcDbLine
 10
-19.699999999999989
 20
-36.800000000000004
 30
0.0
 11
-19.699999999999989
 21
-60.787500000000001
 31
0.0
  0
LINE
  5
1C8
100
AcDbEntity
  8
0
  6
CONTINUOUS
 62
               7
100
AcDbLine
 10
-13.649999999999977
 20
-35.300000000000004
 30
0.0
 11
-13.649999999999977
 21
-94.287499999999994
 31
0.0
  0
LINE
  5
1C9
100
AcDbEntity
  8
0
  6
CONTINUOUS
 62
               7
100
AcDbLine
 10
-21.524999999999977
 20
-67.287499999999994
 30
0.0
 11
-21.524999999999977
 21
-93.287499999999994
 31
0.0
  0
LINE
  5
1CA
100
AcDbEntity
  8
0
  6
CONTINUOUS
 62
               7
100
AcDbLine
 10
-19.699999999999989
 20
-67.787499999999994
 30
0.0
 11
-19.699999999999989
 21
-92.787500000000023
 31
0.0
  0
LINE
  5
1CB
100
AcDbEntity
  8
0
  6
CONTINUOUS
 62
               7
100
AcDbLine
 10
-20.525000000000034
 20
-94.287499999999994
 30
0.0
 11
-13.649999999999977
 21
-94.287499999999994
 31
0.0
  0
LINE
  5
1CC
100
AcDbEntity
  8
0
  6
CONTINUOUS
 62
               7
100
AcDbLine
 10
-20.525000000000034
 20
-66.287499999999994
 30
0.0
 11
-13.649999999999977
 21
-66.287499999999994
 31
0.0
  0
LINE
  5
1CD
100
AcDbEntity
  8
0
  6
CONTINUOUS
 62
               7
100
AcDbLine
 10
-20.525000000000034
 20
-62.287500000000001
 30
0.0
 11
-13.649999999999977
 21
-62.287500000000001
 31
0.0
  0
LINE
  5
1CE
100
AcDbEntity
  8
0
  6
CONTINUOUS
 62
               7
100
AcDbLine
 10
-20.525000000000034
 20
-35.300000000000004
 30
0.0
 11
-13.649999999999977
 21
-35.300000000000004
 31
0.0
  0
LINE
  5
1CF
100
AcDbEntity
  8
0
  6
CONTINUOUS
 62
               7
100
AcDbLine
 10
-18.699999999999989
 20
-93.787499999999994
 30
0.0
 11
-13.649999999999977
 21
-93.787499999999994
 31
0.0
  0
LINE
  5
1D0
100
AcDbEntity
  8
0
  6
CONTINUOUS
 62
               7
100
AcDbLine
 10
-18.699999999999989
 20
-35.800000000000004
 30
0.0
 11
-13.649999999999977
 21
-35.800000000000004
 31
0.0
  0
LINE
  5
1D1
100
AcDbEntity
  8
0
  6
CONTINUOUS
 62
               7
100
AcDbLine
 10
-18.699999999999989
 20
-61.787500000000001
 30
0.0
 11
-13.649999999999977
 21
-61.787500000000001
 31
0.0
  0
LINE
  5
1D2
100
AcDbEntity
  8
0
  6
CONTINUOUS
 62
               7
100
AcDbLine
 10
-18.699999999999989
 20
-66.787499999999994
 30
0.0
 11
-13.649999999999977
 21
-66.787499999999994
 31
0.0
  0
LINE
  5
1D3
100
AcDbEntity
  8
0
  6
CONTINUOUS
 62
               7
100
AcDbLine
 10
-6.2624999999999886
 20
-127.08750000000001
 30
0.0
 11
-7.7499999999999432
 21
-127.08750000000001
 31
0.0
  0
LINE
  5
1D4
100
AcDbEntity
  8
0
  6
CONTINUOUS
 62
               7
100
AcDbLine
 10
7.7500000000000568
 20
-127.08750000000001
 30
0.0
 11
6.2624999999999886
 21
-127.08750000000001
 31
0.0
  0
LINE
  5
1D5
100
AcDbEntity
  8
0
  6
CONTINUOUS
 62
               7
100
AcDbLine
 10
-1.8374999999999773
 20
-127.08750000000001
 30
0.0
 11
-3.6499999999999773
 21
-127.08750000000001
 31
0.0
  0
LINE
  5
1D6
100
AcDbEntity
  8
0
  6
CONTINUOUS
 62
               7
100
AcDbLine
 10
-6.4375
 20
-126.58750000000001
 30
0.0
 11
-6.2624999999999886
 21
-127.08750000000001
 31
0.0
  0
LINE
  5
1D7
100
AcDbEntity
  8
0
  6
CONTINUOUS
 62
               7
100
AcDbLine
 10
6.4375
 20
-126.58750000000001
 30
0.0
 11
6.2624999999999886
 21
-127.08750000000001
 31
0.0
  0
LINE
  5
1D8
100
AcDbEntity
  8
0
  6
CONTINUOUS
 62
               7
100
AcDbLine
 10
-3.6499999999999773
 20
-127.08750000000001
 30
0.0
 11
-4.3124999999999432
 21
-126.58750000000001
 31
0.0
  0
LINE
  5
1D9
100
AcDbEntity
  8
0
  6
CONTINUOUS
 62
               7
100
AcDbLine
 10
-1.4999999999999432
 20
-126.58750000000001
 30
0.0
 11
-1.8374999999999773
 21
-127.08750000000001
 31
0.0
  0
LINE
  5
1DA
100
AcDbEntity
  8
0
  6
CONTINUOUS
 62
               7
100
AcDbLine
 10
1.8375000000000341
 20
-127.08750000000001
 30
0.0
 11
1.5000000000000568
 21
-126.58750000000001
 31
0.0
  0
LINE
  5
1DB
100
AcDbEntity
  8
0
  6
CONTINUOUS
 62
               7
100
AcDbLine
 10
3.6625000000000227
 20
-127.08750000000001
 30
0.0
 11
4.3125000000000568
 21
-126.58750000000001
 31
0.0
  0
LINE
  5
1DC
100
AcDbEntity
  8
0
  6
CONTINUOUS
 62
               7
100
AcDbLine
 10
3.6625000000000227
 20
-127.08750000000001
 30
0.0
 11
1.8375000000000341
 21
-127.08750000000001
 31
0.0
  0
LINE
  5
1DD
100
AcDbEntity
  8
0
  6
CONTINUOUS
 62
               7
100
AcDbLine
 10
6.4375
 20
-126.58750000000001
 30
0.0
 11
4.3125000000000568
 21
-126.58750000000001
 31
0.0
  0
LINE
  5
1DE
100
AcDbEntity
  8
0
  6
CONTINUOUS
 62
               7
100
AcDbLine
 10
-4.3124999999999432
 20
-126.58750000000001
 30
0.0
 11
-6.4375
 21
-126.58750000000001
 31
0.0
  0
LINE
  5
1DF
100
AcDbEntity
  8
0
  6
CONTINUOUS
 62
               7
100
AcDbLine
 10
1.5000000000000568
 20
-126.58750000000001
 30
0.0
 11
-1.4999999999999432
 21
-126.58750000000001
 31
0.0
  0
LINE
  5
1E0
100
AcDbEntity
  8
0
  6
CONTINUOUS
 62
               7
100
AcDbLine
 10
-6.4375
 20
-117.58750000000001
 30
0.0
 11
-7.5999999999999659
 21
-117.58750000000001
 31
0.0
  0
LINE
  5
1E1
100
AcDbEntity
  8
0
  6
CONTINUOUS
 62
               7
100
AcDbLine
 10
4.3125000000000568
 20
-117.58750000000001
 30
0.0
 11
1.5000000000000568
 21
-117.58750000000001
 31
0.0
  0
LINE
  5
1E2
100
AcDbEntity
  8
0
  6
CONTINUOUS
 62
               7
100
AcDbLine
 10
-1.4999999999999432
 20
-117.58750000000001
 30
0.0
 11
-4.3124999999999432
 21
-117.58750000000001
 31
0.0
  0
LINE
  5
1E3
100
AcDbEntity
  8
0
  6
CONTINUOUS
 62
               7
100
AcDbLine
 10
7.6000000000000227
 20
-117.58750000000001
 30
0.0
 11
6.4375
 21
-117.58750000000001
 31
0.0
  0
LINE
  5
1E4
100
AcDbEntity
  8
0
  6
CONTINUOUS
 62
               7
100
AcDbLine
 10
6.4375
 20
-117.58750000000001
 30
0.0
 11
6.4375
 21
-126.58750000000001
 31
0.0
  0
LINE
  5
1E5
100
AcDbEntity
  8
0
  6
CONTINUOUS
 62
               7
100
AcDbLine
 10
4.3125000000000568
 20
-117.58750000000001
 30
0.0
 11
4.3125000000000568
 21
-126.58750000000001
 31
0.0
  0
LINE
  5
1E6
100
AcDbEntity
  8
0
  6
CONTINUOUS
 62
               7
100
AcDbLine
 10
-6.4375
 20
-117.58750000000001
 30
0.0
 11
-6.4375
 21
-126.58750000000001
 31
0.0
  0
LINE
  5
1E7
100
AcDbEntity
  8
0
  6
CONTINUOUS
 62
               7
100
AcDbLine
 10
-4.3124999999999432
 20
-117.58750000000001
 30
0.0
 11
-4.3124999999999432
 21
-126.58750000000001
 31
0.0
  0
LINE
  5
1E8
100
AcDbEntity
  8
0
  6
CONTINUOUS
 62
               7
100
AcDbLine
 10
1.5000000000000568
 20
-117.58750000000001
 30
0.0
 11
1.5000000000000568
 21
-126.58750000000001
 31
0.0
  0
LINE
  5
1E9
100
AcDbEntity
  8
0
  6
CONTINUOUS
 62
               7
100
AcDbLine
 10
-1.4999999999999432
 20
-117.58750000000001
 30
0.0
 11
-1.4999999999999432
 21
-126.58750000000001
 31
0.0
  0
LINE
  5
1EA
100
AcDbEntity
  8
0
  6
CONTINUOUS
 62
               2
100
AcDbLine
 10
5.2500000000000568
 20
-113.28749999999999
 30
0.0
 11
5.2500000000000568
 21
-114.58750000000001
 31
0.0
  0
LINE
  5
1EB
100
AcDbEntity
  8
0
  6
CONTINUOUS
 62
               2
100
AcDbLine
 10
-5.2499999999999432
 20
-113.28749999999999
 30
0.0
 11
-5.2499999999999432
 21
-114.58750000000001
 31
0.0
  0
LINE
  5
1EC
100
AcDbEntity
  8
0
  6
CONTINUOUS
 62
               7
100
AcDbLine
 10
-5.9999999999999432
 20
-113.28749999999999
 30
0.0
 11
-5.9999999999999432
 21
-114.58750000000001
 31
0.0
  0
LINE
  5
1ED
100
AcDbEntity
  8
0
  6
CONTINUOUS
 62
               7
100
AcDbLine
 10
6.0000000000000568
 20
-113.28749999999999
 30
0.0
 11
6.0000000000000568
 21
-114.58750000000001
 31
0.0
  0
LINE
  5
1EE
100
AcDbEntity
  8
0
  6
CONTINUOUS
 62
               7
100
AcDbLine
 10
7.7500000000000568
 20
-114.58750000000001
 30
0.0
 11
-7.7499999999999432
 21
-114.58750000000001
 31
0.0
  0
LINE
  5
1EF
100
AcDbEntity
  8
0
  6
CONTINUOUS
 62
               7
100
AcDbLine
 10
-6.75
 20
-128.08750000000001
 30
0.0
 11
-7.7499999999999432
 21
-127.08750000000001
 31
0.0
  0
LINE
  5
1F0
100
AcDbEntity
  8
0
  6
CONTINUOUS
 62
               7
100
AcDbLine
 10
7.7500000000000568
 20
-127.08750000000001
 30
0.0
 11
6.75
 21
-128.08750000000001
 31
0.0
  0
LINE
  5
1F1
100
AcDbEntity
  8
0
  6
CONTINUOUS
 62
               7
100
AcDbLine
 10
-7.7499999999999432
 20
-114.58750000000001
 30
0.0
 11
-7.7499999999999432
 21
-127.08750000000001
 31
0.0
  0
LINE
  5
1F2
100
AcDbEntity
  8
0
  6
CONTINUOUS
 62
               7
100
AcDbLine
 10
7.7500000000000568
 20
-114.58750000000001
 30
0.0
 11
7.7500000000000568
 21
-127.08750000000001
 31
0.0
  0
LINE
  5
1F3
100
AcDbEntity
  8
0
  6
CONTINUOUS
 62
               7
100
AcDbLine
 10
6.75
 20
-128.08750000000001
 30
0.0
 11
-6.75
 21
-128.08750000000001
 31
0.0
  0
LINE
  5
1F4
100
AcDbEntity
  8
0
  6
CONTINUOUS
 62
               7
100
AcDbLine
 10
8.0749999999999886
 20
-113.28749999999999
 30
0.0
 11
8.0749999999999886
 21
-111.78749999999999
 31
0.0
  0
LINE
  5
1F5
100
AcDbEntity
  8
0
  6
CONTINUOUS
 62
               7
100
AcDbLine
 10
-8.0749999999999886
 20
-113.28749999999999
 30
0.0
 11
-8.0749999999999886
 21
-111.78749999999999
 31
0.0
  0
LINE
  5
1F6
100
AcDbEntity
  8
0
  6
CONTINUOUS
 62
               7
100
AcDbLine
 10
-8.0749999999999886
 20
-113.28749999999999
 30
0.0
 11
8.0749999999999886
 21
-113.28749999999999
 31
0.0
  0
LINE
  5
1F7
100
AcDbEntity
  8
0
  6
CONTINUOUS
 62
               7
100
AcDbLine
 10
-25.525000000000034
 20
-101.875
 30
0.0
 11
-26.150000000000034
 21
-30.000000000000004
 31
0.0
  0
LINE
  5
1F8
100
AcDbEntity
  8
0
  6
CONTINUOUS
 62
               7
100
AcDbLine
 10
25.525000000000034
 20
-101.875
 30
0.0
 11
26.162500000000023
 21
-30.000000000000004
 31
0.0
  0
LINE
  5
1F9
100
AcDbEntity
  8
0
  6
CONTINUOUS
 62
               7
100
AcDbLine
 10
-15.524999999999977
 20
-111.78749999999999
 30
0.0
 11
15.525000000000034
 21
-111.78749999999999
 31
0.0
  0
LINE
  5
1FA
100
AcDbEntity
  8
0
  6
CONTINUOUS
 62
               7
100
AcDbLine
 10
17.562500000000057
 20
30.29999999999999
 30
0.0
 11
16.800000000000011
 21
31.29999999999999
 31
0.0
  0
LINE
  5
1FB
100
AcDbEntity
  8
0
  6
CONTINUOUS
 62
               7
100
AcDbLine
 10
15.062500000000057
 20
30.29999999999999
 30
0.0
 11
14.012499999999989
 21
31.29999999999999
 31
0.0
  0
LINE
  5
1FC
100
AcDbEntity
  8
0
  6
CONTINUOUS
 62
               7
100
AcDbLine
 10
14.012499999999989
 20
31.29999999999999
 30
0.0
 11
14.012499999999989
 21
27.000000000000007
 31
0.0
  0
LINE
  5
1FD
100
AcDbEntity
  8
0
  6
CONTINUOUS
 62
               7
100
AcDbLine
 10
14.012499999999989
 20
27.000000000000007
 30
0.0
 11
15.062500000000057
 21
26.29999999999999
 31
0.0
  0
LINE
  5
1FE
100
AcDbEntity
  8
0
  6
CONTINUOUS
 62
               7
100
AcDbLine
 10
14.012499999999989
 20
27.000000000000007
 30
0.0
 11
11.587500000000034
 21
27.000000000000007
 31
0.0
  0
LINE
  5
1FF
100
AcDbEntity
  8
0
  6
CONTINUOUS
 62
               7
100
AcDbLine
 10
11.587500000000034
 20
30.29999999999999
 30
0.0
 11
11.300000000000011
 21
31.29999999999999
 31
0.0
  0
LINE
  5
200
100
AcDbEntity
  8
0
  6
CONTINUOUS
 62
               7
100
AcDbLine
 10
7.2500000000000568
 20
30.29999999999999
 30
0.0
 11
6.4875000000000114
 21
31.29999999999999
 31
0.0
  0
LINE
  5
201
100
AcDbEntity
  8
0
  6
CONTINUOUS
 62
               7
100
AcDbLine
 10
6.4875000000000114
 20
27.000000000000007
 30
0.0
 11
7.2500000000000568
 21
26.29999999999999
 31
0.0
  0
LINE
  5
202
100
AcDbEntity
  8
0
  6
CONTINUOUS
 62
               7
100
AcDbLine
 10
7.2500000000000568
 20
26.29999999999999
 30
0.0
 11
7.2500000000000568
 21
30.29999999999999
 31
0.0
  0
LINE
  5
203
100
AcDbEntity
  8
0
  6
CONTINUOUS
 62
               7
100
AcDbLine
 10
6.4875000000000114
 20
31.29999999999999
 30
0.0
 11
6.4875000000000114
 21
27.000000000000007
 31
0.0
  0
LINE
  5
204
100
AcDbEntity
  8
0
  6
CONTINUOUS
 62
               7
100
AcDbLine
 10
-14.012499999999989
 20
27.000000000000007
 30
0.0
 11
-15.062499999999943
 21
26.29999999999999
 31
0.0
  0
LINE
  5
205
100
AcDbEntity
  8
0
  6
CONTINUOUS
 62
               7
100
AcDbLine
 10
-14.012499999999989
 20
31.29999999999999
 30
0.0
 11
-14.012499999999989
 21
27.000000000000007
 31
0.0
  0
LINE
  5
206
100
AcDbEntity
  8
0
  6
CONTINUOUS
 62
               7
100
AcDbLine
 10
-6.4875000000000114
 20
27.000000000000007
 30
0.0
 11
-7.2499999999999432
 21
26.29999999999999
 31
0.0
  0
LINE
  5
207
100
AcDbEntity
  8
0
  6
CONTINUOUS
 62
               7
100
AcDbLine
 10
-6.4875000000000114
 20
31.29999999999999
 30
0.0
 11
-6.4875000000000114
 21
27.000000000000007
 31
0.0
  0
LINE
  5
208
100
AcDbEntity
  8
0
  6
CONTINUOUS
 62
               7
100
AcDbLine
 10
7.7125000000000341
 20
56.800000000000004
 30
0.0
 11
11.212500000000034
 21
56.800000000000004
 31
0.0
  0
LINE
  5
209
100
AcDbEntity
  8
0
  6
CONTINUOUS
 62
               7
100
AcDbLine
 10
12.949999999999989
 20
37.699999999999996
 30
0.0
 11
14.137499999999989
 21
37.000000000000007
 31
0.0
  0
LINE
  5
20A
100
AcDbEntity
  8
0
  6
CONTINUOUS
 62
               7
100
AcDbLine
 10
11.887499999999989
 20
37.699999999999996
 30
0.0
 11
12.949999999999989
 21
37.699999999999996
 31
0.0
  0
LINE
  5
20B
100
AcDbEntity
  8
0
  6
CONTINUOUS
 62
               7
100
AcDbLine
 10
12.300000000000011
 20
57.499999999999993
 30
0.0
 11
12.949999999999989
 21
37.699999999999996
 31
0.0
  0
LINE
  5
20C
100
AcDbEntity
  8
0
  6
CONTINUOUS
 62
               7
100
AcDbLine
 10
10.650000000000034
 20
57.499999999999993
 30
0.0
 11
11.212500000000034
 21
56.800000000000004
 31
0.0
  0
LINE
  5
20D
100
AcDbEntity
  8
0
  6
CONTINUOUS
 62
               7
100
AcDbLine
 10
6.7375000000000114
 20
57.499999999999993
 30
0.0
 11
10.650000000000034
 21
57.499999999999993
 31
0.0
  0
LINE
  5
20E
100
AcDbEntity
  8
0
  6
CONTINUOUS
 62
               7
100
AcDbLine
 10
6.7375000000000114
 20
57.499999999999993
 30
0.0
 11
7.7125000000000341
 21
56.800000000000004
 31
0.0
  0
LINE
  5
20F
100
AcDbEntity
  8
0
  6
CONTINUOUS
 62
               7
100
AcDbLine
 10
6.875
 20
37.699999999999996
 30
0.0
 11
7.6500000000000341
 21
37.000000000000007
 31
0.0
  0
LINE
  5
210
100
AcDbEntity
  8
0
  6
CONTINUOUS
 62
               7
100
AcDbLine
 10
3.0
 20
37.699999999999996
 30
0.0
 11
6.875
 21
37.699999999999996
 31
0.0
  0
LINE
  5
211
100
AcDbEntity
  8
0
  6
CONTINUOUS
 62
               7
100
AcDbLine
 10
6.875
 20
37.699999999999996
 30
0.0
 11
6.7375000000000114
 21
57.499999999999993
 31
0.0
  0
LINE
  5
212
100
AcDbEntity
  8
0
  6
CONTINUOUS
 62
               7
100
AcDbLine
 10
-10.650000000000034
 20
57.499999999999993
 30
0.0
 11
-11.212499999999977
 21
56.800000000000004
 31
0.0
  0
LINE
  5
213
100
AcDbEntity
  8
0
  6
CONTINUOUS
 62
               7
100
AcDbLine
 10
-6.7375000000000114
 20
57.499999999999993
 30
0.0
 11
-7.6999999999999886
 21
56.800000000000004
 31
0.0
  0
LINE
  5
214
100
AcDbEntity
  8
0
  6
CONTINUOUS
 62
               7
100
AcDbLine
 10
2.4749999999999659
 20
56.800000000000004
 30
0.0
 11
-2.4749999999999659
 21
56.800000000000004
 31
0.0
  0
LINE
  5
215
100
AcDbEntity
  8
0
  6
CONTINUOUS
 62
               7
100
AcDbLine
 10
-7.6999999999999886
 20
56.800000000000004
 30
0.0
 11
-11.212499999999977
 21
56.800000000000004
 31
0.0
  0
LINE
  5
216
100
AcDbEntity
  8
0
  6
CONTINUOUS
 62
               7
100
AcDbLine
 10
-12.949999999999989
 20
37.699999999999996
 30
0.0
 11
-14.137499999999989
 21
37.000000000000007
 31
0.0
  0
LINE
  5
217
100
AcDbEntity
  8
0
  6
CONTINUOUS
 62
               7
100
AcDbLine
 10
-11.887499999999989
 20
37.699999999999996
 30
0.0
 11
-12.949999999999989
 21
37.699999999999996
 31
0.0
  0
LINE
  5
218
100
AcDbEntity
  8
0
  6
CONTINUOUS
 62
               7
100
AcDbLine
 10
-6.875
 20
37.699999999999996
 30
0.0
 11
-7.6374999999999886
 21
37.000000000000007
 31
0.0
  0
LINE
  5
219
100
AcDbEntity
  8
0
  6
CONTINUOUS
 62
               7
100
AcDbLine
 10
-3.0
 20
37.699999999999996
 30
0.0
 11
-6.875
 21
37.699999999999996
 31
0.0
  0
LINE
  5
21A
100
AcDbEntity
  8
0
  6
CONTINUOUS
 62
               7
100
AcDbLine
 10
-12.287499999999966
 20
57.499999999999993
 30
0.0
 11
-12.599999999999966
 21
57.499999999999993
 31
0.0
  0
LINE
  5
21B
100
AcDbEntity
  8
0
  6
CONTINUOUS
 62
               7
100
AcDbLine
 10
-6.7375000000000114
 20
57.499999999999993
 30
0.0
 11
-10.650000000000034
 21
57.499999999999993
 31
0.0
  0
LINE
  5
21C
100
AcDbEntity
  8
0
  6
CONTINUOUS
 62
               7
100
AcDbLine
 10
2.4499999999999886
 20
57.499999999999993
 30
0.0
 11
-2.4499999999999886
 21
57.499999999999993
 31
0.0
  0
LINE
  5
21D
100
AcDbEntity
  8
0
  6
CONTINUOUS
 62
               7
100
AcDbLine
 10
-11.887499999999989
 20
37.000000000000007
 30
0.0
 11
-14.137499999999989
 21
37.000000000000007
 31
0.0
  0
LINE
  5
21E
100
AcDbEntity
  8
0
  6
CONTINUOUS
 62
               7
100
AcDbLine
 10
7.6500000000000341
 20
37.000000000000007
 30
0.0
 11
3.0
 21
37.000000000000007
 31
0.0
  0
LINE
  5
21F
100
AcDbEntity
  8
0
  6
CONTINUOUS
 62
               7
100
AcDbLine
 10
-12.287499999999966
 20
57.499999999999993
 30
0.0
 11
-12.949999999999989
 21
37.699999999999996
 31
0.0
  0
LINE
  5
220
100
AcDbEntity
  8
0
  6
CONTINUOUS
 62
               7
100
AcDbLine
 10
-11.212499999999977
 20
56.800000000000004
 30
0.0
 11
-11.887499999999989
 21
37.000000000000007
 31
0.0
  0
LINE
  5
221
100
AcDbEntity
  8
0
  6
CONTINUOUS
 62
               7
100
AcDbLine
 10
-7.6374999999999886
 20
37.000000000000007
 30
0.0
 11
-7.6999999999999886
 21
56.800000000000004
 31
0.0
  0
LINE
  5
222
100
AcDbEntity
  8
0
  6
CONTINUOUS
 62
               7
100
AcDbLine
 10
-6.875
 20
37.699999999999996
 30
0.0
 11
-6.7375000000000114
 21
57.499999999999993
 31
0.0
  0
LINE
  5
223
100
AcDbEntity
  8
0
  6
CONTINUOUS
 62
               7
100
AcDbLine
 10
11.212500000000034
 20
56.800000000000004
 30
0.0
 11
11.887499999999989
 21
37.000000000000007
 31
0.0
  0
LINE
  5
224
100
AcDbEntity
  8
0
  6
CONTINUOUS
 62
               7
100
AcDbLine
 10
7.6500000000000341
 20
37.000000000000007
 30
0.0
 11
7.7125000000000341
 21
56.800000000000004
 31
0.0
  0
LINE
  5
225
100
AcDbEntity
  8
0
  6
CONTINUOUS
 62
               7
100
AcDbLine
 10
-3.0
 20
37.000000000000007
 30
0.0
 11
-7.6374999999999886
 21
37.000000000000007
 31
0.0
  0
LINE
  5
226
100
AcDbEntity
  8
0
  6
CONTINUOUS
 62
               7
100
AcDbLine
 10
12.600000000000023
 20
57.499999999999993
 30
0.0
 11
12.300000000000011
 21
57.499999999999993
 31
0.0
  0
LINE
  5
227
100
AcDbEntity
  8
0
  6
CONTINUOUS
 62
               7
100
AcDbLine
 10
14.137499999999989
 20
37.000000000000007
 30
0.0
 11
11.887499999999989
 21
37.000000000000007
 31
0.0
  0
LINE
  5
228
100
AcDbEntity
  8
0
  6
CONTINUOUS
 62
               7
100
AcDbLine
 10
3.0
 20
37.000000000000007
 30
0.0
 11
2.4499999999999886
 21
57.499999999999993
 31
0.0
  0
LINE
  5
229
100
AcDbEntity
  8
0
  6
CONTINUOUS
 62
               7
100
AcDbLine
 10
-3.0
 20
37.000000000000007
 30
0.0
 11
-2.4499999999999886
 21
57.499999999999993
 31
0.0
  0
LINE
  5
22A
100
AcDbEntity
  8
0
  6
CONTINUOUS
 62
               7
100
AcDbLine
 10
14.199999999999989
 20
34.500000000000007
 30
0.0
 11
13.599999999999966
 21
56.92499999999999
 31
0.0
  0
LINE
  5
22B
100
AcDbEntity
  8
0
  6
CONTINUOUS
 62
               7
100
AcDbLine
 10
-14.199999999999989
 20
34.500000000000007
 30
0.0
 11
-13.599999999999966
 21
56.92499999999999
 31
0.0
  0
LINE
  5
22C
100
AcDbEntity
  8
0
  6
CONTINUOUS
 62
               7
100
AcDbLine
 10
-12.599999999999966
 20
57.499999999999993
 30
0.0
 11
-12.599999999999966
 21
58.500000000000007
 31
0.0
  0
LINE
  5
22D
100
AcDbEntity
  8
0
  6
CONTINUOUS
 62
               7
100
AcDbLine
 10
12.600000000000023
 20
57.499999999999993
 30
0.0
 11
12.600000000000023
 21
58.500000000000007
 31
0.0
  0
LINE
  5
22E
100
AcDbEntity
  8
0
  6
CONTINUOUS
 62
               7
100
AcDbLine
 10
13.599999999999966
 20
56.92499999999999
 30
0.0
 11
12.600000000000023
 21
57.499999999999993
 31
0.0
  0
LINE
  5
22F
100
AcDbEntity
  8
0
  6
CONTINUOUS
 62
               7
100
AcDbLine
 10
-12.599999999999966
 20
57.499999999999993
 30
0.0
 11
-13.599999999999966
 21
56.92499999999999
 31
0.0
  0
LINE
  5
230
100
AcDbEntity
  8
0
  6
CONTINUOUS
 62
               7
100
AcDbLine
 10
11.600000000000023
 20
59.500000000000007
 30
0.0
 11
-11.599999999999966
 21
59.500000000000007
 31
0.0
  0
LINE
  5
231
100
AcDbEntity
  8
0
  6
CONTINUOUS
 62
               4
100
AcDbLine
 10
20.5
 20
22.000000000000007
 30
0.0
 11
36.200000000000045
 21
22.000000000000007
 31
0.0
  0
LINE
  5
232
100
AcDbEntity
  8
0
  6
CONTINUOUS
 62
               4
100
AcDbLine
 10
19.0
 20
24.29999999999999
 30
0.0
 11
36.200000000000045
 21
24.29999999999999
 31
0.0
  0
LINE
  5
233
100
AcDbEntity
  8
0
  6
CONTINUOUS
 62
               4
100
AcDbLine
 10
37.699999999999989
 20
42.000000000000007
 30
0.0
 11
40.0
 21
42.000000000000007
 31
0.0
  0
LINE
  5
234
100
AcDbEntity
  8
0
  6
CONTINUOUS
 62
               4
100
AcDbLine
 10
37.699999999999989
 20
44.999999999999993
 30
0.0
 11
40.0
 21
44.999999999999993
 31
0.0
  0
LINE
  5
235
100
AcDbEntity
  8
0
  6
CONTINUOUS
 62
               4
100
AcDbLine
 10
37.699999999999989
 20
44.999999999999993
 30
0.0
 11
37.699999999999989
 21
25.800000000000004
 31
0.0
  0
LINE
  5
236
100
AcDbEntity
  8
0
  6
CONTINUOUS
 62
               4
100
AcDbLine
 10
40.0
 20
44.999999999999993
 30
0.0
 11
40.0
 21
25.800000000000004
 31
0.0
  0
LINE
  5
237
100
AcDbEntity
  8
0
  6
CONTINUOUS
 62
               2
100
AcDbLine
 10
-14.25
 20
24.29999999999999
 30
0.0
 11
-14.25
 21
22.000000000000007
 31
0.0
  0
LINE
  5
238
100
AcDbEntity
  8
0
  6
CONTINUOUS
 62
               2
100
AcDbLine
 10
14.25
 20
24.29999999999999
 30
0.0
 11
14.25
 21
22.000000000000007
 31
0.0
  0
LINE
  5
239
100
AcDbEntity
  8
0
  6
CONTINUOUS
 62
               7
100
AcDbLine
 10
-18.999999999999943
 20
24.29999999999999
 30
0.0
 11
19.0
 21
24.29999999999999
 31
0.0
  0
LINE
  5
23A
100
AcDbEntity
  8
0
  6
CONTINUOUS
 62
               7
100
AcDbLine
 10
23.0
 20
6.5749999999999957
 30
0.0
 11
23.975000000000023
 21
6.6000000000000014
 31
0.0
  0
LINE
  5
23B
100
AcDbEntity
  8
0
  6
CONTINUOUS
 62
               2
100
AcDbLine
 10
23.0
 20
5.7249999999999943
 30
0.0
 11
24.462499999999977
 21
5.7624999999999957
 31
0.0
  0
LINE
  5
23C
100
AcDbEntity
  8
0
  6
CONTINUOUS
 62
               7
100
AcDbLine
 10
23.975000000000023
 20
6.6000000000000014
 30
0.0
 11
24.675000000000011
 21
5.3874999999999957
 31
0.0
  0
LINE
  5
23D
100
AcDbEntity
  8
0
  6
CONTINUOUS
 62
               7
100
AcDbLine
 10
23.975000000000023
 20
-6.6125000000000043
 30
0.0
 11
24.675000000000011
 21
-5.3999999999999986
 31
0.0
  0
LINE
  5
23E
100
AcDbEntity
  8
0
  6
CONTINUOUS
 62
               7
100
AcDbLine
 10
24.675000000000011
 20
5.3874999999999957
 30
0.0
 11
24.675000000000011
 21
-5.3999999999999986
 31
0.0
  0
LINE
  5
23F
100
AcDbEntity
  8
0
  6
CONTINUOUS
 62
               7
100
AcDbLine
 10
23.975000000000023
 20
6.6000000000000014
 30
0.0
 11
23.975000000000023
 21
-6.6125000000000043
 31
0.0
  0
LINE
  5
240
100
AcDbEntity
  8
0
  6
CONTINUOUS
 62
               7
100
AcDbLine
 10
23.0
 20
-6.5875000000000057
 30
0.0
 11
23.975000000000023
 21
-6.6125000000000043
 31
0.0
  0
LINE
  5
241
100
AcDbEntity
  8
0
  6
CONTINUOUS
 62
               2
100
AcDbLine
 10
23.0
 20
-5.7250000000000085
 30
0.0
 11
24.462499999999977
 21
-5.7750000000000057
 31
0.0
  0
LINE
  5
242
100
AcDbEntity
  8
0
  6
CONTINUOUS
 62
               7
100
AcDbLine
 10
-63.0
 20
-21.250000000000007
 30
0.0
 11
-60.0
 21
-21.250000000000007
 31
0.0
  0
LINE
  5
243
100
AcDbEntity
  8
0
  6
CONTINUOUS
 62
               7
100
AcDbLine
 10
-36.5
 20
7.0
 30
0.0
 11
-29.0
 21
-7.0000000000000071
 31
0.0
  0
LINE
  5
244
100
AcDbEntity
  8
0
  6
CONTINUOUS
 62
               7
100
AcDbLine
 10
-29.0
 20
7.0
 30
0.0
 11
-36.5
 21
-7.0000000000000071
 31
0.0
  0
LINE
  5
245
100
AcDbEntity
  8
0
  6
CONTINUOUS
 62
               7
100
AcDbLine
 10
-29.0
 20
-7.0000000000000071
 30
0.0
 11
-36.5
 21
-7.0000000000000071
 31
0.0
  0
LINE
  5
246
100
AcDbEntity
  8
0
  6
CONTINUOUS
 62
               7
100
AcDbLine
 10
-29.0
 20
7.0
 30
0.0
 11
-36.5
 21
7.0
 31
0.0
  0
LINE
  5
247
100
AcDbEntity
  8
0
  6
CONTINUOUS
 62
               7
100
AcDbLine
 10
-60.0
 20
-21.250000000000007
 30
0.0
 11
-60.0
 21
21.249999999999993
 31
0.0
  0
LINE
  5
248
100
AcDbEntity
  8
0
  6
CONTINUOUS
 62
               7
100
AcDbLine
 10
-36.5
 20
-18.000000000000004
 30
0.0
 11
-36.5
 21
17.999999999999993
 31
0.0
  0
LINE
  5
249
100
AcDbEntity
  8
0
  6
CONTINUOUS
 62
               7
100
AcDbLine
 10
-63.0
 20
21.249999999999993
 30
0.0
 11
-60.0
 21
21.249999999999993
 31
0.0
  0
LINE
  5
24A
100
AcDbEntity
  8
0
  6
CONTINUOUS
 62
               7
100
AcDbLine
 10
-63.0
 20
-21.250000000000007
 30
0.0
 11
-63.0
 21
21.249999999999993
 31
0.0
  0
LINE
  5
24B
100
AcDbEntity
  8
0
  6
CONTINUOUS
 62
               7
100
AcDbLine
 10
-60.0
 20
-21.000000000000004
 30
0.0
 11
-39.5
 21
-21.000000000000004
 31
0.0
  0
LINE
  5
24C
100
AcDbEntity
  8
0
  6
CONTINUOUS
 62
               2
100
AcDbLine
 10
-22.999999999999943
 20
5.7249999999999943
 30
0.0
 11
-29.0
 21
5.9124999999999943
 31
0.0
  0
LINE
  5
24D
100
AcDbEntity
  8
0
  6
CONTINUOUS
 62
               7
100
AcDbLine
 10
-22.999999999999943
 20
-6.5875000000000057
 30
0.0
 11
-29.0
 21
-6.7750000000000057
 31
0.0
  0
LINE
  5
24E
100
AcDbEntity
  8
0
  6
CONTINUOUS
 62
               7
100
AcDbLine
 10
-29.0
 20
-7.0000000000000071
 30
0.0
 11
-29.0
 21
7.0
 31
0.0
  0
LINE
  5
24F
100
AcDbEntity
  8
0
  6
CONTINUOUS
 62
               7
100
AcDbLine
 10
-22.999999999999943
 20
6.5749999999999957
 30
0.0
 11
-29.0
 21
6.7624999999999957
 31
0.0
  0
LINE
  5
250
100
AcDbEntity
  8
0
  6
CONTINUOUS
 62
               2
100
AcDbLine
 10
-22.999999999999943
 20
-5.7250000000000085
 30
0.0
 11
-29.0
 21
-5.9125000000000085
 31
0.0
  0
LINE
  5
251
100
AcDbEntity
  8
0
  6
CONTINUOUS
 62
               7
100
AcDbLine
 10
-60.0
 20
20.999999999999993
 30
0.0
 11
-39.5
 21
20.999999999999993
 31
0.0
  0
LINE
  5
252
100
AcDbEntity
  8
0
  6
CONTINUOUS
 62
               7
100
AcDbLine
 10
22.0
 20
10.0
 30
0.0
 11
22.0
 21
-10.000000000000007
 31
0.0
  0
LINE
  5
253
100
AcDbEntity
  8
0
  6
CONTINUOUS
 62
               7
100
AcDbLine
 10
-22.0
 20
10.0
 30
0.0
 11
-22.0
 21
-10.000000000000007
 31
0.0
  0
LINE
  5
254
100
AcDbEntity
  8
0
  6
CONTINUOUS
 62
               7
100
AcDbLine
 10
-2.6999999999999886
 20
19.500000000000007
 30
0.0
 11
2.6999999999999886
 21
19.500000000000007
 31
0.0
  0
LINE
  5
255
100
AcDbEntity
  8
0
  6
CONTINUOUS
 62
               7
100
AcDbLine
 10
-2.6999999999999886
 20
22.000000000000007
 30
0.0
 11
-2.6999999999999886
 21
19.500000000000007
 31
0.0
  0
LINE
  5
256
100
AcDbEntity
  8
0
  6
CONTINUOUS
 62
               7
100
AcDbLine
 10
2.6999999999999886
 20
22.000000000000007
 30
0.0
 11
2.6999999999999886
 21
19.500000000000007
 31
0.0
  0
LINE
  5
257
100
AcDbEntity
  8
0
  6
CONTINUOUS
 62
               7
100
AcDbLine
 10
-31.0
 20
-29.000000000000007
 30
0.0
 11
31.0
 21
-29.000000000000007
 31
0.0
  0
LINE
  5
258
100
AcDbEntity
  8
0
  6
CONTINUOUS
 62
               7
100
AcDbLine
 10
30.0
 20
-30.000000000000004
 30
0.0
 11
31.0
 21
-29.000000000000007
 31
0.0
  0
LINE
  5
259
100
AcDbEntity
  8
0
  6
CONTINUOUS
 62
               7
100
AcDbLine
 10
31.0
 20
-12.000000000000007
 30
0.0
 11
31.0
 21
-29.000000000000007
 31
0.0
  0
LINE
  5
25A
100
AcDbEntity
  8
0
  6
CONTINUOUS
 62
               7
100
AcDbLine
 10
-30.0
 20
-30.000000000000004
 30
0.0
 11
-31.0
 21
-29.000000000000007
 31
0.0
  0
LINE
  5
25B
100
AcDbEntity
  8
0
  6
CONTINUOUS
 62
               7
100
AcDbLine
 10
-31.0
 20
-12.000000000000007
 30
0.0
 11
-31.0
 21
-29.000000000000007
 31
0.0
  0
LINE
  5
25C
100
AcDbEntity
  8
0
  6
CONTINUOUS
 62
               7
100
AcDbLine
 10
16.000000000000057
 20
10.0
 30
0.0
 11
22.0
 21
10.0
 31
0.0
  0
LINE
  5
25D
100
AcDbEntity
  8
0
  6
CONTINUOUS
 62
               7
100
AcDbLine
 10
20.5
 20
-10.000000000000007
 30
0.0
 11
22.0
 21
-10.000000000000007
 31
0.0
  0
LINE
  5
25E
100
AcDbEntity
  8
0
  6
CONTINUOUS
 62
               7
100
AcDbLine
 10
22.0
 20
10.0
 30
0.0
 11
23.0
 21
8.9999999999999929
 31
0.0
  0
LINE
  5
25F
100
AcDbEntity
  8
0
  6
CONTINUOUS
 62
               7
100
AcDbLine
 10
22.0
 20
-10.000000000000007
 30
0.0
 11
23.0
 21
-9.0000000000000071
 31
0.0
  0
LINE
  5
260
100
AcDbEntity
  8
0
  6
CONTINUOUS
 62
               7
100
AcDbLine
 10
-22.999999999999943
 20
-9.0000000000000071
 30
0.0
 11
-22.0
 21
-10.000000000000007
 31
0.0
  0
LINE
  5
261
100
AcDbEntity
  8
0
  6
CONTINUOUS
 62
               7
100
AcDbLine
 10
-22.999999999999943
 20
8.9999999999999929
 30
0.0
 11
-22.0
 21
10.0
 31
0.0
  0
LINE
  5
262
100
AcDbEntity
  8
0
  6
CONTINUOUS
 62
               7
100
AcDbLine
 10
-22.0
 20
-10.000000000000007
 30
0.0
 11
-20.499999999999943
 21
-10.000000000000007
 31
0.0
  0
LINE
  5
263
100
AcDbEntity
  8
0
  6
CONTINUOUS
 62
               7
100
AcDbLine
 10
-22.0
 20
10.0
 30
0.0
 11
-15.999999999999943
 21
10.0
 31
0.0
  0
LINE
  5
264
100
AcDbEntity
  8
0
  6
CENTER
 62
               2
100
AcDbLine
 10
-65.387499999999989
 20
0.0
 30
0.0
 11
25.975000000000023
 21
0.0
 31
0.0
  0
LINE
  5
265
100
AcDbEntity
  8
0
  6
CONTINUOUS
 62
               7
100
AcDbLine
 10
14.000000000000057
 20
12.0
 30
0.0
 11
14.000000000000057
 21
-11.0
 31
0.0
  0
LINE
  5
266
100
AcDbEntity
  8
0
  6
CONTINUOUS
 62
               7
100
AcDbLine
 10
-13.999999999999943
 20
12.0
 30
0.0
 11
-13.999999999999943
 21
-11.0
 31
0.0
  0
LINE
  5
267
100
AcDbEntity
  8
0
  6
CONTINUOUS
 62
               7
100
AcDbLine
 10
-15.0
 20
10.999999999999993
 30
0.0
 11
15.0
 21
10.999999999999993
 31
0.0
  0
LINE
  5
268
100
AcDbEntity
  8
0
  6
CONTINUOUS
 62
               7
100
AcDbLine
 10
14.000000000000057
 20
12.0
 30
0.0
 11
15.0
 21
10.999999999999993
 31
0.0
  0
LINE
  5
269
100
AcDbEntity
  8
0
  6
CONTINUOUS
 62
               7
100
AcDbLine
 10
-15.0
 20
10.999999999999993
 30
0.0
 11
-13.999999999999943
 21
12.0
 31
0.0
  0
LINE
  5
26A
100
AcDbEntity
  8
0
  6
CONTINUOUS
 62
               7
100
AcDbLine
 10
-13.999999999999943
 20
12.0
 30
0.0
 11
14.000000000000057
 21
12.0
 31
0.0
  0
LINE
  5
26B
100
AcDbEntity
  8
0
  6
CONTINUOUS
 62
               7
100
AcDbLine
 10
-15.0
 20
10.999999999999993
 30
0.0
 11
-15.0
 21
-10.000000000000007
 31
0.0
  0
LINE
  5
26C
100
AcDbEntity
  8
0
  6
CONTINUOUS
 62
               7
100
AcDbLine
 10
15.0
 20
10.999999999999993
 30
0.0
 11
15.0
 21
-10.000000000000007
 31
0.0
  0
LINE
  5
26D
100
AcDbEntity
  8
0
  6
CONTINUOUS
 62
               7
100
AcDbLine
 10
-31.0
 20
-12.000000000000007
 30
0.0
 11
31.0
 21
-12.000000000000007
 31
0.0
  0
LINE
  5
26E
100
AcDbEntity
  8
0
  6
CONTINUOUS
 62
               7
100
AcDbLine
 10
30.0
 20
-11.0
 30
0.0
 11
31.0
 21
-12.000000000000007
 31
0.0
  0
LINE
  5
26F
100
AcDbEntity
  8
0
  6
CONTINUOUS
 62
               7
100
AcDbLine
 10
-31.0
 20
-12.000000000000007
 30
0.0
 11
-30.0
 21
-11.0
 31
0.0
  0
LINE
  5
270
100
AcDbEntity
  8
0
  6
CONTINUOUS
 62
               7
100
AcDbLine
 10
-30.0
 20
-11.0
 30
0.0
 11
30.0
 21
-11.0
 31
0.0
  0
LINE
  5
271
100
AcDbEntity
  8
0
  6
CONTINUOUS
 62
               7
100
AcDbLine
 10
-30.0
 20
-30.000000000000004
 30
0.0
 11
30.0
 21
-30.000000000000004
 31
0.0
  0
LINE
  5
272
100
AcDbEntity
  8
0
  6
CONTINUOUS
 62
               7
100
AcDbLine
 10
-22.999999999999943
 20
8.9999999999999929
 30
0.0
 11
-22.999999999999943
 21
-9.0000000000000071
 31
0.0
  0
LINE
  5
273
100
AcDbEntity
  8
0
  6
CONTINUOUS
 62
               7
100
AcDbLine
 10
23.0
 20
8.9999999999999929
 30
0.0
 11
23.0
 21
-9.0000000000000071
 31
0.0
  0
LINE
  5
274
100
AcDbEntity
  8
0
  6
CONTINUOUS
 62
               7
100
AcDbLine
 10
-21.0
 20
21.499999999999993
 30
0.0
 11
-21.0
 21
10.0
 31
0.0
  0
LINE
  5
275
100
AcDbEntity
  8
0
  6
CONTINUOUS
 62
               7
100
AcDbLine
 10
21.0
 20
22.000000000000007
 30
0.0
 11
21.0
 21
10.0
 31
0.0
  0
LINE
  5
276
100
AcDbEntity
  8
0
  6
CONTINUOUS
 62
               7
100
AcDbLine
 10
14.199999999999989
 20
34.500000000000007
 30
0.0
 11
-14.199999999999989
 21
34.500000000000007
 31
0.0
  0
LINE
  5
277
100
AcDbEntity
  8
0
  6
CONTINUOUS
 62
               7
100
AcDbLine
 10
15.0
 20
22.000000000000007
 30
0.0
 11
15.0
 21
24.29999999999999
 31
0.0
  0
LINE
  5
278
100
AcDbEntity
  8
0
  6
CONTINUOUS
 62
               7
100
AcDbLine
 10
-15.0
 20
22.000000000000007
 30
0.0
 11
-15.0
 21
24.29999999999999
 31
0.0
  0
LINE
  5
279
100
AcDbEntity
  8
0
  6
CONTINUOUS
 62
               7
100
AcDbLine
 10
11.900000000000034
 20
31.29999999999999
 30
0.0
 11
11.900000000000034
 21
34.500000000000007
 31
0.0
  0
LINE
  5
27A
100
AcDbEntity
  8
0
  6
CONTINUOUS
 62
               7
100
AcDbLine
 10
-11.900000000000034
 20
31.29999999999999
 30
0.0
 11
-11.900000000000034
 21
34.500000000000007
 31
0.0
  0
LINE
  5
27B
100
AcDbEntity
  8
0
  6
CONTINUOUS
 62
               7
100
AcDbLine
 10
7.2624999999999886
 20
31.29999999999999
 30
0.0
 11
7.2624999999999886
 21
34.500000000000007
 31
0.0
  0
LINE
  5
27C
100
AcDbEntity
  8
0
  6
CONTINUOUS
 62
               7
100
AcDbLine
 10
4.5374999999999659
 20
31.29999999999999
 30
0.0
 11
4.5374999999999659
 21
34.500000000000007
 31
0.0
  0
LINE
  5
27D
100
AcDbEntity
  8
0
  6
CONTINUOUS
 62
               7
100
AcDbLine
 10
-4.5374999999999659
 20
31.29999999999999
 30
0.0
 11
-4.5374999999999659
 21
34.500000000000007
 31
0.0
  0
LINE
  5
27E
100
AcDbEntity
  8
0
  6
CONTINUOUS
 62
               7
100
AcDbLine
 10
-7.2499999999999432
 20
31.29999999999999
 30
0.0
 11
-7.2499999999999432
 21
34.500000000000007
 31
0.0
  0
LINE
  5
27F
100
AcDbEntity
  8
0
  6
CONTINUOUS
 62
               7
100
AcDbLine
 10
-21.0
 20
22.000000000000007
 30
0.0
 11
21.0
 21
22.000000000000007
 31
0.0
  0
LINE
  5
280
100
AcDbEntity
  8
0
  6
CONTINUOUS
 62
               7
100
AcDbLine
 10
-2.5
 20
30.29999999999999
 30
0.0
 11
0.0
 21
30.29999999999999
 31
0.0
  0
LINE
  5
281
100
AcDbEntity
  8
0
  6
CONTINUOUS
 62
               7
100
AcDbLine
 10
-18.999999999999943
 20
26.29999999999999
 30
0.0
 11
-17.562499999999943
 21
26.29999999999999
 31
0.0
  0
LINE
  5
282
100
AcDbEntity
  8
0
  6
CONTINUOUS
 62
               7
100
AcDbLine
 10
-17.562499999999943
 20
30.29999999999999
 30
0.0
 11
-15.062499999999943
 21
30.29999999999999
 31
0.0
  0
LINE
  5
283
100
AcDbEntity
  8
0
  6
CONTINUOUS
 62
               7
100
AcDbLine
 10
-11.587500000000034
 20
30.29999999999999
 30
0.0
 11
-7.2499999999999432
 21
30.29999999999999
 31
0.0
  0
LINE
  5
284
100
AcDbEntity
  8
0
  6
CONTINUOUS
 62
               7
100
AcDbLine
 10
-14.012499999999989
 20
27.000000000000007
 30
0.0
 11
-11.587500000000034
 21
27.000000000000007
 31
0.0
  0
LINE
  5
285
100
AcDbEntity
  8
0
  6
CONTINUOUS
 62
               7
100
AcDbLine
 10
-15.062499999999943
 20
26.29999999999999
 30
0.0
 11
-11.587500000000034
 21
26.29999999999999
 31
0.0
  0
LINE
  5
286
100
AcDbEntity
  8
0
  6
CONTINUOUS
 62
               7
100
AcDbLine
 10
-7.2499999999999432
 20
26.29999999999999
 30
0.0
 11
-2.5
 21
26.29999999999999
 31
0.0
  0
LINE
  5
287
100
AcDbEntity
  8
0
  6
CONTINUOUS
 62
               7
100
AcDbLine
 10
-6.4875000000000114
 20
27.000000000000007
 30
0.0
 11
-2.5
 21
27.000000000000007
 31
0.0
  0
LINE
  5
288
100
AcDbEntity
  8
0
  6
CONTINUOUS
 62
               7
100
AcDbLine
 10
-17.562499999999943
 20
30.29999999999999
 30
0.0
 11
-16.787499999999966
 21
31.29999999999999
 31
0.0
  0
LINE
  5
289
100
AcDbEntity
  8
0
  6
CONTINUOUS
 62
               7
100
AcDbLine
 10
-17.562499999999943
 20
26.29999999999999
 30
0.0
 11
-17.562499999999943
 21
30.29999999999999
 31
0.0
  0
LINE
  5
28A
100
AcDbEntity
  8
0
  6
CONTINUOUS
 62
               7
100
AcDbLine
 10
-15.062499999999943
 20
26.29999999999999
 30
0.0
 11
-15.062499999999943
 21
30.29999999999999
 31
0.0
  0
LINE
  5
28B
100
AcDbEntity
  8
0
  6
CONTINUOUS
 62
               7
100
AcDbLine
 10
-15.062499999999943
 20
30.29999999999999
 30
0.0
 11
-14.012499999999989
 21
31.29999999999999
 31
0.0
  0
LINE
  5
28C
100
AcDbEntity
  8
0
  6
CONTINUOUS
 62
               7
100
AcDbLine
 10
-11.574999999999989
 20
30.29999999999999
 30
0.0
 11
-11.300000000000011
 21
31.29999999999999
 31
0.0
  0
LINE
  5
28D
100
AcDbEntity
  8
0
  6
CONTINUOUS
 62
               7
100
AcDbLine
 10
-11.587500000000034
 20
26.29999999999999
 30
0.0
 11
-11.587500000000034
 21
30.29999999999999
 31
0.0
  0
LINE
  5
28E
100
AcDbEntity
  8
0
  6
CONTINUOUS
 62
               7
100
AcDbLine
 10
-7.2499999999999432
 20
26.29999999999999
 30
0.0
 11
-7.2499999999999432
 21
30.29999999999999
 31
0.0
  0
LINE
  5
28F
100
AcDbEntity
  8
0
  6
CONTINUOUS
 62
               7
100
AcDbLine
 10
-7.2499999999999432
 20
30.29999999999999
 30
0.0
 11
-6.4875000000000114
 21
31.29999999999999
 31
0.0
  0
LINE
  5
290
100
AcDbEntity
  8
0
  6
CONTINUOUS
 62
               7
100
AcDbLine
 10
-2.5
 20
26.29999999999999
 30
0.0
 11
-2.5
 21
31.29999999999999
 31
0.0
  0
LINE
  5
291
100
AcDbEntity
  8
0
  6
CONTINUOUS
 62
               7
100
AcDbLine
 10
-18.999999999999943
 20
27.000000000000007
 30
0.0
 11
-17.562499999999943
 21
27.000000000000007
 31
0.0
  0
LINE
  5
292
100
AcDbEntity
  8
0
  6
CONTINUOUS
 62
               7
100
AcDbLine
 10
2.5
 20
30.29999999999999
 30
0.0
 11
0.0
 21
30.29999999999999
 31
0.0
  0
LINE
  5
293
100
AcDbEntity
  8
0
  6
CONTINUOUS
 62
               7
100
AcDbLine
 10
19.0
 20
26.29999999999999
 30
0.0
 11
17.562500000000057
 21
26.29999999999999
 31
0.0
  0
LINE
  5
294
100
AcDbEntity
  8
0
  6
CONTINUOUS
 62
               7
100
AcDbLine
 10
17.562500000000057
 20
30.29999999999999
 30
0.0
 11
15.062500000000057
 21
30.29999999999999
 31
0.0
  0
LINE
  5
295
100
AcDbEntity
  8
0
  6
CONTINUOUS
 62
               7
100
AcDbLine
 10
11.587500000000034
 20
30.29999999999999
 30
0.0
 11
7.2500000000000568
 21
30.29999999999999
 31
0.0
  0
LINE
  5
296
100
AcDbEntity
  8
0
  6
CONTINUOUS
 62
               7
100
AcDbLine
 10
15.062500000000057
 20
26.29999999999999
 30
0.0
 11
11.587500000000034
 21
26.29999999999999
 31
0.0
  0
LINE
  5
297
100
AcDbEntity
  8
0
  6
CONTINUOUS
 62
               7
100
AcDbLine
 10
7.2500000000000568
 20
26.29999999999999
 30
0.0
 11
2.5
 21
26.29999999999999
 31
0.0
  0
LINE
  5
298
100
AcDbEntity
  8
0
  6
CONTINUOUS
 62
               7
100
AcDbLine
 10
6.4875000000000114
 20
27.000000000000007
 30
0.0
 11
2.5
 21
27.000000000000007
 31
0.0
  0
LINE
  5
299
100
AcDbEntity
  8
0
  6
CONTINUOUS
 62
               7
100
AcDbLine
 10
17.562500000000057
 20
26.29999999999999
 30
0.0
 11
17.562500000000057
 21
30.29999999999999
 31
0.0
  0
LINE
  5
29A
100
AcDbEntity
  8
0
  6
CONTINUOUS
 62
               7
100
AcDbLine
 10
15.062500000000057
 20
26.29999999999999
 30
0.0
 11
15.062500000000057
 21
30.29999999999999
 31
0.0
  0
LINE
  5
29B
100
AcDbEntity
  8
0
  6
CONTINUOUS
 62
               7
100
AcDbLine
 10
11.587500000000034
 20
26.29999999999999
 30
0.0
 11
11.587500000000034
 21
30.29999999999999
 31
0.0
  0
LINE
  5
29C
100
AcDbEntity
  8
0
  6
CONTINUOUS
 62
               7
100
AcDbLine
 10
2.5
 20
26.29999999999999
 30
0.0
 11
2.5
 21
31.29999999999999
 31
0.0
  0
LINE
  5
29D
100
AcDbEntity
  8
0
  6
CONTINUOUS
 62
               7
100
AcDbLine
 10
19.0
 20
27.000000000000007
 30
0.0
 11
17.562500000000057
 21
27.000000000000007
 31
0.0
  0
LINE
  5
29E
100
AcDbEntity
  8
0
  6
CONTINUOUS
 62
               7
100
AcDbLine
 10
-18.999999999999943
 20
30.29999999999999
 30
0.0
 11
-18.0
 21
31.29999999999999
 31
0.0
  0
LINE
  5
29F
100
AcDbEntity
  8
0
  6
CONTINUOUS
 62
               7
100
AcDbLine
 10
19.0
 20
30.29999999999999
 30
0.0
 11
18.0
 21
31.29999999999999
 31
0.0
  0
LINE
  5
2A0
100
AcDbEntity
  8
0
  6
CONTINUOUS
 62
               7
100
AcDbLine
 10
19.0
 20
24.29999999999999
 30
0.0
 11
19.0
 21
30.29999999999999
 31
0.0
  0
LINE
  5
2A1
100
AcDbEntity
  8
0
  6
CONTINUOUS
 62
               7
100
AcDbLine
 10
-18.999999999999943
 20
24.29999999999999
 30
0.0
 11
-18.999999999999943
 21
30.29999999999999
 31
0.0
  0
LINE
  5
2A2
100
AcDbEntity
  8
0
  6
CONTINUOUS
 62
               7
100
AcDbLine
 10
18.0
 20
31.29999999999999
 30
0.0
 11
-18.0
 21
31.29999999999999
 31
0.0
  0
LINE
  5
2A3
100
AcDbEntity
  8
0
  6
CENTER
 62
             200
100
AcDbLine
 10
31.757965875406057
 20
37.999999999999993
 30
0.0
 11
46.481151251161862
 21
37.999999999999993
 31
0.0
  0
ENDBLK
  5
2A4
100
AcDbEntity
  8
0
100
AcDbBlockEnd
  0
ENDSEC
  0
SECTION
  2
ENTITIES
  0
INSERT
  5
2A5
100
AcDbEntity
  8
0
100
AcDbBlockReference
  2
MS_2
 10
98.796217864325229
 20
28.288223244203351
 30
0.0
  0
INSERT
  5
2A6
100
AcDbEntity
  8
0
100
AcDbBlockReference
  2
MS_1
 10
-111.20378213567477
 20
28.288223244203351
 30
0.0
  0
MTEXT
  5
2A7
100
AcDbEntity
  8
0
  6
CONTINUOUS
 62
               2
100
AcDbMText
 10
-33.284501129815396
 20
29.413207985414289
 30
0.0
 40
4.5
 41
0.0
 71
               7
 72
               1
  1
\A1;OUT
  7
MX_NOTE_STANDARD
  0
MTEXT
  5
2A8
100
AcDbEntity
  8
0
  6
CONTINUOUS
 62
               2
100
AcDbMText
 10
-141.13453165812237
 20
29.413192726625226
 30
0.0
 40
4.5
 41
0.0
 71
               7
 72
               1
  1
\W1.200;\A1;IN
  7
MX_NOTE_STANDARD
  0
MTEXT
  5
2A9
100
AcDbEntity
  8
0
  6
CONTINUOUS
 62
               7
100
AcDbMText
 10
-268.264864924037
 20
160.5
 30
0.0
 40
6.3000001907348633
 41
0.0
 71
               4
 72
               1
  1
\W1.081;\A1;MODEL:CS-FR300-02-F1
  7
MX_NOTE_STANDARD
  0
MTEXT
  5
2AA
100
AcDbEntity
  8
0
  6
CONTINUOUS
 62
               7
100
AcDbMText
 10
-279.98339730180533
 20
185.5
 30
0.0
 40
6.3000001907348633
 41
0.0
 71
               4
 72
               1
  1
\W1.063;\A1;CS FILTER REGULATOR
  7
MX_NOTE_STANDARD
  0
MTEXT
  5
2AB
100
AcDbEntity
  8
0
  6
CONTINUOUS
 62
               7
100
AcDbMText
 10
170.2809980228688
 20
-185.0
 30
0.0
 40
9.0
 41
0.0
 71
               4
 72
               1
  1
\W1.121;\A1;KOGANEI CORP.
  7
MX_NOTE_STANDARD
  0
MTEXT
  5
2AC
100
AcDbEntity
  8
0
  6
CONTINUOUS
 62
               7
100
AcDbMText
 10
201.38633858070557
 20
185.5
 30
0.0
 40
6.3000001907348633
 41
0.0
 71
               4
 72
               1
  1
\W1.273;\A1;Ver.1.0
  7
MX_NOTE_STANDARD
  0
LINE
  5
2AD
100
AcDbEntity
  8
0
  6
CONTINUOUS
 62
               7
100
AcDbLine
 10
-161.25
 20
195.5
 30
0.0
 11
-161.25
 21
175.5
 31
0.0
  0
LINE
  5
2AE
100
AcDbEntity
  8
0
  6
CONTINUOUS
 62
               7
100
AcDbLine
 10
162.09999999999999
 20
195.5
 30
0.0
 11
162.09999999999999
 21
175.5
 31
0.0
  0
LINE
  5
2AF
100
AcDbEntity
  8
0
  6
CONTINUOUS
 62
               7
100
AcDbLine
 10
-281.25
 20
175.5
 30
0.0
 11
-161.25
 21
175.5
 31
0.0
  0
LINE
  5
2B0
100
AcDbEntity
  8
0
  6
CONTINUOUS
 62
               7
100
AcDbLine
 10
162.09999999999999
 20
175.5
 30
0.0
 11
282.10000000000002
 21
175.5
 31
0.0
  0
LINE
  5
2B1
100
AcDbEntity
  8
0
  6
CONTINUOUS
 62
               7
100
AcDbLine
 10
162.09999999999999
 20
-175.0
 30
0.0
 11
282.10000000000002
 21
-175.0
 31
0.0
  0
LINE
  5
2B2
100
AcDbEntity
  8
0
  6
CONTINUOUS
 62
               7
100
AcDbLine
 10
162.09999999999999
 20
-175.0
 30
0.0
 11
162.09999999999999
 21
-195.0
 31
0.0
  0
LINE
  5
2B3
100
AcDbEntity
  8
0
  6
CONTINUOUS
 62
               7
100
AcDbLine
 10
-281.25
 20
-195.0
 30
0.0
 11
282.10000000000002
 21
-195.0
 31
0.0
  0
LINE
  5
2B4
100
AcDbEntity
  8
0
  6
CONTINUOUS
 62
               7
100
AcDbLine
 10
282.10000000000002
 20
195.5
 30
0.0
 11
282.10000000000002
 21
-195.0
 31
0.0
  0
LINE
  5
2B5
100
AcDbEntity
  8
0
  6
CONTINUOUS
 62
               7
100
AcDbLine
 10
-281.25
 20
195.5
 30
0.0
 11
-281.25
 21
-195.0
 31
0.0
  0
LINE
  5
2B6
100
AcDbEntity
  8
0
  6
CONTINUOUS
 62
               7
100
AcDbLine
 10
-281.25
 20
195.5
 30
0.0
 11
282.10000000000002
 21
195.5
 31
0.0
  0
ENDSEC
  0
SECTION
  2
OBJECTS
  0
DICTIONARY
  5
19
100
AcDbDictionary
  3
ACAD_GROUP
350
1A
  3
ACAD_MLINESTYLE
350
1B
  0
DICTIONARY
  5
1A
102
{ACAD_REACTORS
330
19
102
}
100
AcDbDictionary
  0
DICTIONARY
  5
1B
102
{ACAD_REACTORS
330
19
102
}
100
AcDbDictionary
  3
STANDARD
350
1C
  0
MLINESTYLE
  5
1C
102
{ACAD_REACTORS
330
1B
102
}
100
AcDbMlineStyle
  2
Standard
 70
               0
  3

 62
               0
 51
90.0
 52
90.0
 71
               2
 49
0.5
 62
             256
  6
ByLayer
 49
-0.5
 62
             256
  6
ByLayer
  0
ENDSEC
  0
EOF
