  0
SECTION
  2
HEADER
  9
$ACADVER
  1
AC1012
  9
$DWGCODEPAGE
  3
dos932
  9
$INSBASE
 10
0.0
 20
0.0
 30
0.0
  9
$EXTMIN
 10
-281.25
 20
-195.0
 30
0.0
  9
$EXTMAX
 10
285.59998798370361
 20
195.5
 30
0.0
  9
$LIMMIN
 10
-281.25
 20
-195.0
  9
$LIMMAX
 10
285.59998798370361
 20
195.5
  9
$ORTHOMODE
 70
               0
  9
$REGENMODE
 70
               1
  9
$FILLMODE
 70
               1
  9
$QTEXTMODE
 70
               0
  9
$MIRRTEXT
 70
               1
  9
$DRAGMODE
 70
               2
  9
$LTSCALE
 40
1.0
  9
$OSMODE
 70
               0
  9
$ATTMODE
 70
               1
  9
$TEXTSIZE
 40
3.2000000476837158
  9
$TRACEWID
 40
0.05
  9
$TEXTSTYLE
  7
MX_NOTE_STANDARD
  9
$CLAYER
  8
0
  9
$CELTYPE
  6
CONTINUOUS
  9
$CECOLOR
 62
             256
  9
$CELTSCALE
 40
1.0
  9
$DELOBJ
 70
               1
  9
$DISPSILH
 70
               0
  9
$DIMSCALE
 40
1.0
  9
$DIMASZ
 40
2.5
  9
$DIMEXO
 40
1.5
  9
$DIMDLI
 40
3.75
  9
$DIMRND
 40
0.0
  9
$DIMDLE
 40
0.0
  9
$DIMEXE
 40
1.5
  9
$DIMTP
 40
0.0
  9
$DIMTM
 40
0.0
  9
$DIMTXT
 40
3.2000000476837158
  9
$DIMCEN
 40
2.5
  9
$DIMTSZ
 40
0.0
  9
$DIMTOL
 70
               0
  9
$DIMLIM
 70
               0
  9
$DIMTIH
 70
               0
  9
$DIMTOH
 70
               0
  9
$DIMSE1
 70
               0
  9
$DIMSE2
 70
               0
  9
$DIMTAD
 70
               1
  9
$DIMZIN
 70
               8
  9
$DIMBLK
  1

  9
$DIMASO
 70
               1
  9
$DIMSHO
 70
               1
  9
$DIMPOST
  1

  9
$DIMAPOST
  1

  9
$DIMALT
 70
               0
  9
$DIMALTD
 70
               4
  9
$DIMALTF
 40
0.0394
  9
$DIMLFAC
 40
1.0
  9
$DIMTOFL
 70
               1
  9
$DIMTVP
 40
0.0
  9
$DIMTIX
 70
               0
  9
$DIMSOXD
 70
               0
  9
$DIMSAH
 70
               0
  9
$DIMBLK1
  1

  9
$DIMBLK2
  1

  9
$DIMSTYLE
  2
MXDIMSTYLE
  9
$DIMCLRD
 70
               0
  9
$DIMCLRE
 70
               0
  9
$DIMCLRT
 70
               0
  9
$DIMTFAC
 40
1.0
  9
$DIMGAP
 40
1.0
  9
$DIMJUST
 70
               0
  9
$DIMSD1
 70
               0
  9
$DIMSD2
 70
               0
  9
$DIMTOLJ
 70
               1
  9
$DIMTZIN
 70
               0
  9
$DIMALTZ
 70
               0
  9
$DIMALTTZ
 70
               0
  9
$DIMFIT
 70
               3
  9
$DIMUPT
 70
               1
  9
$DIMUNIT
 70
               2
  9
$DIMDEC
 70
               4
  9
$DIMTDEC
 70
               4
  9
$DIMALTU
 70
               8
  9
$DIMALTTD
 70
               4
  9
$DIMTXSTY
  7
MX_NOTE_STANDARD
  9
$DIMAUNIT
 70
               0
  9
$LUNITS
 70
               2
  9
$LUPREC
 70
               4
  9
$SKETCHINC
 40
0.1
  9
$FILLETRAD
 40
0.0
  9
$AUNITS
 70
               0
  9
$AUPREC
 70
               0
  9
$MENU
  1
acad
  9
$ELEVATION
 40
0.0
  9
$PELEVATION
 40
0.0
  9
$THICKNESS
 40
0.0
  9
$LIMCHECK
 70
               0
  9
$BLIPMODE
 70
               1
  9
$CHAMFERA
 40
0.0
  9
$CHAMFERB
 40
0.0
  9
$CHAMFERC
 40
0.0
  9
$CHAMFERD
 40
0.0
  9
$SKPOLY
 70
               0
  9
$TDCREATE
 40
2452220.697187500
  9
$TDUPDATE
 40
2452220.697187500
  9
$TDINDWG
 40
0.0000000000
  9
$TDUSRTIMER
 40
0.0000000000
  9
$USRTIMER
 70
               1
  9
$ANGBASE
 50
0.0
  9
$ANGDIR
 70
               0
  9
$PDMODE
 70
               0
  9
$PDSIZE
 40
0.0
  9
$PLINEWID
 40
0.0
  9
$COORDS
 70
               1
  9
$SPLFRAME
 70
               0
  9
$SPLINETYPE
 70
               6
  9
$SPLINESEGS
 70
               8
  9
$ATTDIA
 70
               0
  9
$ATTREQ
 70
               1
  9
$HANDLING
 70
               1
  9
$HANDSEED
  5
29D
  9
$SURFTAB1
 70
               6
  9
$SURFTAB2
 70
               6
  9
$SURFTYPE
 70
               6
  9
$SURFU
 70
               6
  9
$SURFV
 70
               6
  9
$UCSNAME
  2

  9
$UCSORG
 10
0.0
 20
0.0
 30
0.0
  9
$UCSXDIR
 10
1.0
 20
0.0
 30
0.0
  9
$UCSYDIR
 10
0.0
 20
1.0
 30
0.0
  9
$PUCSNAME
  2

  9
$PUCSORG
 10
0.0
 20
0.0
 30
0.0
  9
$PUCSXDIR
 10
1.0
 20
0.0
 30
0.0
  9
$PUCSYDIR
 10
0.0
 20
1.0
 30
0.0
  9
$USERI1
 70
               0
  9
$USERI2
 70
               0
  9
$USERI3
 70
               0
  9
$USERI4
 70
               0
  9
$USERI5
 70
               0
  9
$USERR1
 40
0.0
  9
$USERR2
 40
0.0
  9
$USERR3
 40
0.0
  9
$USERR4
 40
0.0
  9
$USERR5
 40
0.0
  9
$WORLDVIEW
 70
               1
  9
$SHADEDGE
 70
               3
  9
$SHADEDIF
 70
              70
  9
$TILEMODE
 70
               1
  9
$MAXACTVP
 70
              16
  9
$PINSBASE
 10
0.0
 20
0.0
 30
0.0
  9
$PLIMCHECK
 70
               0
  9
$PEXTMIN
 10
1.0000000000000000E+20
 20
1.0000000000000000E+20
 30
1.0000000000000000E+20
  9
$PEXTMAX
 10
-1.0000000000000000E+20
 20
-1.0000000000000000E+20
 30
-1.0000000000000000E+20
  9
$PLIMMIN
 10
0.0
 20
0.0
  9
$PLIMMAX
 10
12.0
 20
9.0
  9
$UNITMODE
 70
               0
  9
$VISRETAIN
 70
               0
  9
$PLINEGEN
 70
               1
  9
$PSLTSCALE
 70
               0
  9
$TREEDEPTH
 70
            3020
  9
$PICKSTYLE
 70
               1
  9
$CMLSTYLE
  2
Standard
  9
$CMLJUST
 70
               0
  9
$CMLSCALE
 40
1.0
  9
$SAVEIMAGES
 70
               0
  0
ENDSEC
  0
SECTION
  2
CLASSES
  0
CLASS
  1
LWPOLYLINE
  2
AcDbPolyline
  3
"AutoCAD"
 90
        0
280
               0
281
               1
  0
CLASS
  1
IMAGE
  2
AcDbRasterImage
  3
ISM
 90
      127
280
               0
281
               1
  0
CLASS
  1
OLE2FRAME
  2
AcDbOle2Frame
  3
""
 90
        0
280
               0
281
               1
  0
CLASS
  1
HATCH
  2
AcDbHatch
  3
"ACAD_SEDONA"
 90
        0
280
               0
281
               1
  0
CLASS
  1
DICTIONARYVAR
  2
AcDbDictionaryVar
  3
"AutoCAD"
 90
        0
280
               0
281
               0
  0
CLASS
  1
RASTERVARIABLES
  2
AcDbRasterVariables
  3
ISM
 90
        0
280
               0
281
               0
  0
CLASS
  1
IMAGEDEF
  2
AcDbRasterImageDef
  3
ISM
 90
        0
280
               0
281
               0
  0
CLASS
  1
IMAGEDEF_REACTOR
  2
AcDbRasterImageDefReactor
  3
ISM
 90
        1
280
               0
281
               0
  0
CLASS
  1
IDBUFFER
  2
AcDbIdBuffer
  3
"Acad"
 90
        0
280
               0
281
               0
  0
CLASS
  1
SPATIAL_FILTER
  2
AcDbSpatialFilter
  3
"Acad"
 90
        0
280
               0
281
               0
  0
CLASS
  1
XRECORD
  2
AcDbXrecord
  3
"<Built In>"
 90
        0
280
               0
281
               0
  0
CLASS
  1
SORTENTSTABLE
  2
AcDbSortentsTable
  3
"AutoCAD"
 90
        0
280
               0
281
               0
  0
CLASS
  1
LAYER_INDEX
  2
AcDbLayerIndex
  3
"Acad"
 90
        0
280
               0
281
               0
  0
CLASS
  1
SPATIAL_INDEX
  2
AcDbSpatialIndex
  3
"Acad"
 90
        0
280
               0
281
               0
  0
CLASS
  1
OBJECT_PTR
  2
CAseDLPNTableRecord
  3
"ASE-LPNTableRecord"
 90
        1
280
               0
281
               0
  0
CLASS
  1
LAYOUT
  2
AcDbLayout
  3
"AutoCAD 2000"
 90
        1
280
               0
281
               0
  0
CLASS
  1
PLOTSETTINGS
  2
AcDbPlotSettings
  3
"AutoCAD 2000"
 90
        1
280
               0
281
               0
  0
CLASS
  1
ACDBDICTIONARYWDFLT
  2
AcDbDictionaryWithDefault
  3
"AutoCAD 2000"
 90
        1
280
               0
281
               0
  0
CLASS
  1
ACDBPLACEHOLDER
  2
AcDbPlaceHolder
  3
"AutoCAD 2000"
 90
        1
280
               0
281
               0
  0
CLASS
  1
VBA_PROJECT
  2
AcDbVbaProject
  3
"acadvba"
 90
        1
280
               0
281
               0
  0
CLASS
  1
WIPEOUT
  2
AcDbWipeout
  3
WipeOut|AutoCAD Express Tool|expresstools@autodesk.com
 90
      127
280
               0
281
               1
  0
CLASS
  1
WIPEOUTVARIABLES
  2
AcDbWipeoutVariables
  3
WipeOut|AutoCAD Express Tool|expresstools@autodesk.com
 90
        0
280
               0
281
               0
  0
CLASS
  1
RTEXT
  2
RText
  3
RText|AutoCAD Express Tool|expresstools@autodesk.com
 90
        0
280
               0
281
               1
  0
CLASS
  1
ARCALIGNEDTEXT
  2
AcDbArcAlignedText
  3
ATEXT|AutoCAD Express Tool|expresstools@autodesk.com
 90
        0
280
               0
281
               1
  0
ENDSEC
  0
SECTION
  2
TABLES
  0
TABLE
  2
VPORT
  5
7
100
AcDbSymbolTable
 70
               1
  0
VPORT
  5
15
100
AcDbSymbolTableRecord
100
AcDbViewportTableRecord
  2
*ACTIVE
 70
               0
 10
0.0
 20
0.0
 11
1.0
 21
1.0
 12
2.1749939918518066
 22
0.25
 13
0.0
 23
0.0
 14
1.0
 24
1.0
 15
0.0
 25
0.0
 16
0.0
 26
0.0
 36
1.0
 17
0.0
 27
0.0
 37
0.0
 40
394.40500000000003
 41
1.7320508075688772
 42
50.0
 43
0.0
 44
0.0
 50
0.0
 51
0.0
 71
               0
 72
             100
 73
               1
 74
               1
 75
               0
 76
               0
 77
               0
 78
               0
  0
ENDTAB
  0
TABLE
  2
LTYPE
  5
4
100
AcDbSymbolTable
 70
               5
  0
LTYPE
  5
11
100
AcDbSymbolTableRecord
100
AcDbLinetypeTableRecord
  2
BYBLOCK
 70
              64
  3

 72
              65
 73
               0
 40
0.0
  0
LTYPE
  5
12
100
AcDbSymbolTableRecord
100
AcDbLinetypeTableRecord
  2
BYLAYER
 70
              64
  3

 72
              65
 73
               0
 40
0.0
  0
LTYPE
  5
13
100
AcDbSymbolTableRecord
100
AcDbLinetypeTableRecord
  2
CONTINUOUS
 70
              64
  3
Solid line
 72
              65
 73
               0
 40
0.0
  0
LTYPE
  5
35
100
AcDbSymbolTableRecord
100
AcDbLinetypeTableRecord
  2
CENTER
 70
              64
  3
Center ____ _ ____ _ ____ _ ____ _ ____ _ ____
 72
              65
 73
               4
 40
50.800000000000004
 49
31.75
 74
               0
 49
-6.3499999999999996
 74
               0
 49
6.3499999999999996
 74
               0
 49
-6.3499999999999996
 74
               0
  0
LTYPE
  5
37
100
AcDbSymbolTableRecord
100
AcDbLinetypeTableRecord
  2
PHANTOM
 70
              64
  3
Phantom ______  __  __  ______  __  __  ______
 72
              65
 73
               6
 40
63.500000000000007
 49
31.75
 74
               0
 49
-6.3499999999999996
 74
               0
 49
6.3499999999999996
 74
               0
 49
-6.3499999999999996
 74
               0
 49
6.3499999999999996
 74
               0
 49
-6.3499999999999996
 74
               0
  0
ENDTAB
  0
TABLE
  2
LAYER
  5
2
100
AcDbSymbolTable
 70
               2
  0
LAYER
  5
14
100
AcDbSymbolTableRecord
100
AcDbLayerTableRecord
  2
0
 70
               0
 62
               7
  6
CONTINUOUS
  0
LAYER
  5
1D
100
AcDbSymbolTableRecord
100
AcDbLayerTableRecord
  2
DEFPOINTS
 70
               0
 62
               7
  6
CONTINUOUS
  0
ENDTAB
  0
TABLE
  2
STYLE
  5
3
100
AcDbSymbolTable
 70
               1
  0
STYLE
  5
17
100
AcDbSymbolTableRecord
100
AcDbTextStyleTableRecord
  2
MX_NOTE_STANDARD
 70
               0
 40
3.2000000476837158
 41
1.0
 50
0.0
 71
               0
 42
3.2000000476837158
  3
txt.shx
  4
extfont.shx
  0
ENDTAB
  0
TABLE
  2
VIEW
  5
5
100
AcDbSymbolTable
 70
               0
  0
ENDTAB
  0
TABLE
  2
UCS
  5
6
100
AcDbSymbolTable
 70
               0
  0
ENDTAB
  0
TABLE
  2
APPID
  5
8
100
AcDbSymbolTable
 70
               1
  0
APPID
  5
16
100
AcDbSymbolTableRecord
100
AcDbRegAppTableRecord
  2
ACAD
 70
               0
  0
ENDTAB
  0
TABLE
  2
DIMSTYLE
  5
9
100
AcDbSymbolTable
 70
               1
  0
DIMSTYLE
105
18
100
AcDbSymbolTableRecord
100
AcDbDimStyleTableRecord
  2
MXDIMSTYLE
 70
               0
  3

  4

  5

  6

  7

 40
1.0
 41
2.5
 42
1.5
 43
3.75
 44
1.5
 45
0.0
 46
0.0
 47
0.0
 48
0.0
 71
               0
 72
               0
 73
               0
 74
               0
 75
               0
 76
               0
 77
               1
 78
               8
140
3.2000000476837158
141
2.5
142
0.0
143
0.0394
144
1.0
145
0.0
146
1.0
147
1.0
170
               0
171
               4
172
               1
173
               0
174
               0
175
               0
176
               0
177
               0
178
               0
270
               2
271
               4
272
               4
273
               8
274
               4
275
               0
280
               0
281
               0
282
               0
283
               1
284
               0
285
               0
286
               0
287
               3
288
               1
340
17
  0
ENDTAB
  0
TABLE
  2
BLOCK_RECORD
  5
1
100
AcDbSymbolTable
 70
               2
  0
BLOCK_RECORD
  5
A
100
AcDbSymbolTableRecord
100
AcDbBlockTableRecord
  2
*MODEL_SPACE
  0
BLOCK_RECORD
  5
B
100
AcDbSymbolTableRecord
100
AcDbBlockTableRecord
  2
*PAPER_SPACE
  0
BLOCK_RECORD
  5
1E
100
AcDbSymbolTableRecord
100
AcDbBlockTableRecord
  2
MS_1
  0
BLOCK_RECORD
  5
1F
100
AcDbSymbolTableRecord
100
AcDbBlockTableRecord
  2
MS_2
  0
ENDTAB
  0
ENDSEC
  0
SECTION
  2
BLOCKS
  0
BLOCK
  5
D
100
AcDbEntity
  8
0
100
AcDbBlockBegin
  2
*MODEL_SPACE
 70
               0
 10
0.0
 20
0.0
 30
0.0
  3
*MODEL_SPACE
  1

  0
ENDBLK
  5
E
100
AcDbEntity
  8
0
100
AcDbBlockEnd
  0
BLOCK
  5
F
100
AcDbEntity
 67
               1
  8
0
100
AcDbBlockBegin
  2
*PAPER_SPACE
 70
               0
 10
0.0
 20
0.0
 30
0.0
  3
*PAPER_SPACE
  1

  0
ENDBLK
  5
10
100
AcDbEntity
 67
               1
  8
0
100
AcDbBlockEnd
  0
BLOCK
  5
20
100
AcDbEntity
  8
0
100
AcDbBlockBegin
  2
MS_1
 70
               0
 10
0.0
 20
0.0
 30
0.0
  3
MS_1
  1

  0
ARC
  5
21
100
AcDbEntity
  8
0
  6
CONTINUOUS
 62
               7
100
AcDbCircle
 10
36.541296386718784
 20
16.900000000000006
 30
0.0
 40
4.6267541881255454
100
AcDbArc
 50
159.76845886271593
 51
200.23154113728327
  0
ARC
  5
22
100
AcDbEntity
  8
0
  6
CONTINUOUS
 62
               7
100
AcDbCircle
 10
36.541296386718784
 20
20.099999999999994
 30
0.0
 40
4.6267541881255454
100
AcDbArc
 50
159.76845886271593
 51
200.23154113728327
  0
ARC
  5
23
100
AcDbEntity
  8
0
  6
CONTINUOUS
 62
               7
100
AcDbCircle
 10
29.298632812499989
 20
16.900000000000006
 30
0.0
 40
4.6193150121746029
100
AcDbArc
 50
339.73444797531539
 51
20.265552024683789
  0
ARC
  5
24
100
AcDbEntity
  8
0
  6
CONTINUOUS
 62
               7
100
AcDbCircle
 10
29.298632812499989
 20
20.099999999999994
 30
0.0
 40
4.6193150121746029
100
AcDbArc
 50
339.73444797531539
 51
20.265552024683789
  0
LINE
  5
25
100
AcDbEntity
  8
0
  6
CONTINUOUS
 62
               7
100
AcDbLine
 10
43.600000000000023
 20
15.300000000000011
 30
0.0
 11
43.600000000000023
 21
21.700000000000003
 31
0.0
  0
LINE
  5
26
100
AcDbEntity
  8
0
  6
CONTINUOUS
 62
               7
100
AcDbLine
 10
43.600000000000023
 20
21.700000000000003
 30
0.0
 11
35.199999999999989
 21
21.700000000000003
 31
0.0
  0
LINE
  5
27
100
AcDbEntity
  8
0
  6
CONTINUOUS
 62
               7
100
AcDbLine
 10
43.600000000000023
 20
15.300000000000011
 30
0.0
 11
35.199999999999989
 21
15.300000000000011
 31
0.0
  0
LINE
  5
28
100
AcDbEntity
  8
0
  6
CONTINUOUS
 62
               7
100
AcDbLine
 10
35.199999999999989
 20
15.300000000000011
 30
0.0
 11
35.199999999999989
 21
21.700000000000003
 31
0.0
  0
LINE
  5
29
100
AcDbEntity
  8
0
  6
CONTINUOUS
 62
               7
100
AcDbLine
 10
25.92000000000013
 20
20.283999999999992
 30
0.0
 11
24.720000000000027
 21
20.076000000000008
 31
0.0
  0
LINE
  5
2A
100
AcDbEntity
  8
0
  6
CONTINUOUS
 62
               7
100
AcDbLine
 10
25.92000000000013
 20
16.707999999999998
 30
0.0
 11
24.720000000000027
 21
16.916000000000025
 31
0.0
  0
LINE
  5
2B
100
AcDbEntity
  8
0
  6
CONTINUOUS
 62
               7
100
AcDbLine
 10
24.720000000000027
 20
16.916000000000025
 30
0.0
 11
24.720000000000027
 21
20.076000000000008
 31
0.0
  0
LINE
  5
2C
100
AcDbEntity
  8
0
  6
CONTINUOUS
 62
               7
100
AcDbLine
 10
35.199999999999989
 20
15.300000000000011
 30
0.0
 11
31.92000000000013
 21
15.300000000000011
 31
0.0
  0
LINE
  5
2D
100
AcDbEntity
  8
0
  6
CONTINUOUS
 62
               7
100
AcDbLine
 10
35.199999999999989
 20
21.700000000000003
 30
0.0
 11
31.92000000000013
 21
21.700000000000003
 31
0.0
  0
LINE
  5
2E
100
AcDbEntity
  8
0
  6
CONTINUOUS
 62
               7
100
AcDbLine
 10
34.720000000000027
 20
15.300000000000011
 30
0.0
 11
34.720000000000027
 21
21.700000000000003
 31
0.0
  0
LINE
  5
2F
100
AcDbEntity
  8
0
  6
CONTINUOUS
 62
               7
100
AcDbLine
 10
33.92000000000013
 20
15.300000000000011
 30
0.0
 11
33.92000000000013
 21
21.700000000000003
 31
0.0
  0
LINE
  5
30
100
AcDbEntity
  8
0
  6
CONTINUOUS
 62
               7
100
AcDbLine
 10
33.632000000000005
 20
18.5
 30
0.0
 11
32.199999999999989
 21
18.5
 31
0.0
  0
LINE
  5
31
100
AcDbEntity
  8
0
  6
CONTINUOUS
 62
               7
100
AcDbLine
 10
31.92000000000013
 20
22.099999999999994
 30
0.0
 11
25.92000000000013
 21
22.099999999999994
 31
0.0
  0
LINE
  5
32
100
AcDbEntity
  8
0
  6
CONTINUOUS
 62
               7
100
AcDbLine
 10
31.92000000000013
 20
14.900000000000006
 30
0.0
 11
25.92000000000013
 21
14.900000000000006
 31
0.0
  0
LINE
  5
33
100
AcDbEntity
  8
0
  6
CONTINUOUS
 62
               7
100
AcDbLine
 10
25.92000000000013
 20
14.900000000000006
 30
0.0
 11
25.92000000000013
 21
22.099999999999994
 31
0.0
  0
LINE
  5
34
100
AcDbEntity
  8
0
  6
CONTINUOUS
 62
               7
100
AcDbLine
 10
31.92000000000013
 20
14.900000000000006
 30
0.0
 11
31.92000000000013
 21
22.099999999999994
 31
0.0
  0
LINE
  5
36
100
AcDbEntity
  8
0
  6
CENTER
 62
               2
100
AcDbLine
 10
15.61114530432144
 20
18.5
 30
0.0
 11
44.153030011661087
 21
18.5
 31
0.0
  0
CIRCLE
  5
38
100
AcDbEntity
  8
0
  6
PHANTOM
 62
               2
100
AcDbCircle
 10
57.000000000000057
 20
0.0
 30
0.0
 40
21.25
  0
LINE
  5
39
100
AcDbEntity
  8
0
  6
CONTINUOUS
 62
               7
100
AcDbLine
 10
42.842857142857156
 20
-154.8857142857143
 30
0.0
 11
42.842857142857156
 21
-152.98571428571429
 31
0.0
  0
LINE
  5
3A
100
AcDbEntity
  8
0
  6
CONTINUOUS
 62
               7
100
AcDbLine
 10
37.142857142857167
 20
-154.8857142857143
 30
0.0
 11
37.142857142857167
 21
-152.98571428571429
 31
0.0
  0
LINE
  5
3B
100
AcDbEntity
  8
0
  6
CONTINUOUS
 62
               7
100
AcDbLine
 10
46.500000000000057
 20
-152.98571428571429
 30
0.0
 11
33.5
 21
-152.98571428571429
 31
0.0
  0
LINE
  5
3C
100
AcDbEntity
  8
0
  6
CONTINUOUS
 62
               7
100
AcDbLine
 10
42.828571428571479
 20
-160.08571428571429
 30
0.0
 11
37.171428571428578
 21
-160.08571428571429
 31
0.0
  0
LINE
  5
3D
100
AcDbEntity
  8
0
  6
CONTINUOUS
 62
               7
100
AcDbLine
 10
43.285714285714334
 20
-157.48571428571432
 30
0.0
 11
36.714285714285722
 21
-157.48571428571432
 31
0.0
  0
LINE
  5
3E
100
AcDbEntity
  8
0
  6
CONTINUOUS
 62
               7
100
AcDbLine
 10
43.285714285714334
 20
-154.8857142857143
 30
0.0
 11
36.714285714285722
 21
-154.8857142857143
 31
0.0
  0
LINE
  5
3F
100
AcDbEntity
  8
0
  6
CONTINUOUS
 62
               7
100
AcDbLine
 10
36.714285714285722
 20
-154.8857142857143
 30
0.0
 11
37.171428571428578
 21
-157.48571428571432
 31
0.0
  0
LINE
  5
40
100
AcDbEntity
  8
0
  6
CONTINUOUS
 62
               7
100
AcDbLine
 10
36.714285714285722
 20
-157.48571428571432
 30
0.0
 11
37.171428571428578
 21
-160.08571428571429
 31
0.0
  0
LINE
  5
41
100
AcDbEntity
  8
0
  6
CONTINUOUS
 62
               7
100
AcDbLine
 10
43.285714285714334
 20
-157.48571428571432
 30
0.0
 11
42.828571428571479
 21
-160.08571428571429
 31
0.0
  0
LINE
  5
42
100
AcDbEntity
  8
0
  6
CONTINUOUS
 62
               7
100
AcDbLine
 10
43.285714285714334
 20
-154.8857142857143
 30
0.0
 11
42.828571428571479
 21
-157.48571428571432
 31
0.0
  0
LINE
  5
43
100
AcDbEntity
  8
0
  6
CONTINUOUS
 62
               7
100
AcDbLine
 10
33.5
 20
-152.98571428571429
 30
0.0
 11
33.5
 21
-151.48571428571429
 31
0.0
  0
LINE
  5
44
100
AcDbEntity
  8
0
  6
CONTINUOUS
 62
               7
100
AcDbLine
 10
46.500000000000057
 20
-152.98571428571429
 30
0.0
 11
46.500000000000057
 21
-151.48571428571429
 31
0.0
  0
LINE
  5
45
100
AcDbEntity
  8
0
  6
CONTINUOUS
 62
               2
100
AcDbLine
 10
40.0
 20
-109.37142857142858
 30
0.0
 11
40.0
 21
-162.94285714285715
 31
0.0
  0
ARC
  5
46
100
AcDbEntity
  8
0
  6
CONTINUOUS
 62
               7
100
AcDbCircle
 10
67.714135560804664
 20
-117.68556413223325
 30
0.0
 40
1.0001501647523763
100
AcDbArc
 50
270.0086018690767
 51
359.99139813092194
  0
ARC
  5
47
100
AcDbEntity
  8
0
  6
CONTINUOUS
 62
               7
100
AcDbCircle
 10
66.858362372877707
 20
-116.68693380144916
 30
0.0
 40
0.9987812287821181
100
AcDbArc
 50
269.9300416147135
 51
0.0699583852861678
  0
ARC
  5
48
100
AcDbEntity
  8
0
  6
CONTINUOUS
 62
               7
100
AcDbCircle
 10
65.026907122174805
 20
-116.18404997931771
 30
0.0
 40
1.0016656890523603
100
AcDbArc
 50
270.09519920394467
 51
359.90480079605379
  0
ARC
  5
49
100
AcDbEntity
  8
0
  6
CONTINUOUS
 62
               7
100
AcDbCircle
 10
59.563568387166413
 20
-117.69357446997645
 30
0.0
 40
0.9921709512321697
100
AcDbArc
 50
179.54608619128413
 51
270.45391380871473
  0
ARC
  5
4A
100
AcDbEntity
  8
0
  6
CONTINUOUS
 62
               7
100
AcDbCircle
 10
12.27543930169162
 20
-117.69598926973696
 30
0.0
 40
0.989778350211814
100
AcDbArc
 50
179.4051963316422
 51
270.5948036683568
  0
ARC
  5
4B
100
AcDbEntity
  8
0
  6
CONTINUOUS
 62
               7
100
AcDbCircle
 10
13.124079937975978
 20
-116.69020577630977
 30
0.0
 40
0.9955186416057607
100
AcDbArc
 50
179.7414972285228
 51
270.25850277147498
  0
ARC
  5
4C
100
AcDbEntity
  8
0
  6
CONTINUOUS
 62
               7
100
AcDbCircle
 10
14.962649448493551
 20
-116.19449340864935
 30
0.0
 40
0.9912597541153991
100
AcDbArc
 50
179.4925515073445
 51
270.50744849265448
  0
ARC
  5
4D
100
AcDbEntity
  8
0
  6
CONTINUOUS
 62
               7
100
AcDbCircle
 10
20.425978571178291
 20
-117.68312142832114
 30
0.0
 40
1.0025962101490489
100
AcDbArc
 50
270.1481752569988
 51
359.8518247429999
  0
ARC
  5
4E
100
AcDbEntity
  8
0
  6
CONTINUOUS
 62
               7
100
AcDbCircle
 10
58.413877810827387
 20
-120.18474707143969
 30
0.0
 40
15.000967219820426
100
AcDbArc
 50
270.00155797598018
 51
359.50522458613909
  0
ARC
  5
4F
100
AcDbEntity
  8
0
  6
CONTINUOUS
 62
               7
100
AcDbCircle
 10
21.575793571950328
 20
-120.19516498506455
 30
0.0
 40
14.990552583403058
100
AcDbArc
 50
180.45529921793585
 51
270.03791821994247
  0
ARC
  5
50
100
AcDbEntity
  8
0
  6
CONTINUOUS
 62
               7
100
AcDbCircle
 10
66.858366705069955
 20
-74.686938133641405
 30
0.0
 40
0.998776901892151
100
AcDbArc
 50
269.92979279115849
 51
0.0702072088412505
  0
ARC
  5
51
100
AcDbEntity
  8
0
  6
CONTINUOUS
 62
               7
100
AcDbCircle
 10
67.713736596143519
 20
-41.70054911814222
 30
0.0
 40
1.0005492688248263
100
AcDbArc
 50
0.031444881889001
 51
89.9685551181108
  0
ARC
  5
52
100
AcDbEntity
  8
0
  6
CONTINUOUS
 62
               7
100
AcDbCircle
 10
66.85796015436739
 20
-42.699182702775488
 30
0.0
 40
0.9991830370359904
100
AcDbArc
 50
359.95313402543906
 51
90.046865974559864
  0
ARC
  5
53
100
AcDbEntity
  8
0
  6
CONTINUOUS
 62
               7
100
AcDbCircle
 10
65.026510110005859
 20
-43.202061318565612
 30
0.0
 40
1.0020634387101837
100
AcDbArc
 50
0.1178617368657465
 51
89.882138263133982
  0
ARC
  5
54
100
AcDbEntity
  8
0
  6
CONTINUOUS
 62
               7
100
AcDbCircle
 10
59.563970560073415
 20
-41.692541988644834
 30
0.0
 40
0.9925700081890458
100
AcDbArc
 50
89.569484679526923
 51
180.43051532047249
  0
ARC
  5
55
100
AcDbEntity
  8
0
  6
CONTINUOUS
 62
               7
100
AcDbCircle
 10
66.850836601779235
 20
-82.692020541077923
 30
0.0
 40
1.0063260149875308
100
AcDbArc
 50
0.3590528083399804
 51
89.640947191659606
  0
ARC
  5
56
100
AcDbEntity
  8
0
  6
CONTINUOUS
 62
               7
100
AcDbCircle
 10
3.562403410274726
 20
-61.741103625146543
 30
0.0
 40
0.2909801224583685
100
AcDbArc
 50
180.34528053456205
 51
216.52461711127916
  0
ARC
  5
57
100
AcDbEntity
  8
0
  6
CONTINUOUS
 62
               7
100
AcDbCircle
 10
13.12407559158396
 20
-74.690210122701785
 30
0.0
 40
0.9955143148772219
100
AcDbArc
 50
179.7412459504344
 51
270.258754049564
  0
ARC
  5
58
100
AcDbEntity
  8
0
  6
CONTINUOUS
 62
               7
100
AcDbCircle
 10
12.27584244660784
 20
-41.690128160893529
 30
0.0
 40
0.9901773720913502
100
AcDbArc
 50
89.428764882741788
 51
180.57123511725729
  0
ARC
  5
59
100
AcDbEntity
  8
0
  6
CONTINUOUS
 62
               7
100
AcDbCircle
 10
13.124483474570127
 20
-42.695912045998696
 30
0.0
 40
0.9959204359451676
100
AcDbArc
 50
89.764817388630817
 51
180.23518261136954
  0
ARC
  5
5A
100
AcDbEntity
  8
0
  6
CONTINUOUS
 62
               7
100
AcDbCircle
 10
14.963050628130702
 20
-43.191622056702144
 30
0.0
 40
0.991657447545311
100
AcDbArc
 50
89.515935161222302
 51
180.48406483877716
  0
ARC
  5
5B
100
AcDbEntity
  8
0
  6
CONTINUOUS
 62
               7
100
AcDbCircle
 10
20.425580580118492
 20
-41.702990848452956
 30
0.0
 40
1.0029953076933267
100
AcDbArc
 50
0.1708514946767527
 51
89.829148505323332
  0
ARC
  5
5C
100
AcDbEntity
  8
0
  6
CONTINUOUS
 62
               7
100
AcDbCircle
 10
13.131630281288665
 20
-82.688773138431486
 30
0.0
 40
1.0030635167297657
100
AcDbArc
 50
90.174724351512879
 51
179.82527564848712
  0
ARC
  5
5D
100
AcDbEntity
  8
0
  6
CONTINUOUS
 62
               7
100
AcDbCircle
 10
21.95268889261223
 20
89.204164795420198
 30
0.0
 40
0.9958451649129515
100
AcDbArc
 50
89.743741065872541
 51
178.59562796161092
  0
ARC
  5
5E
100
AcDbEntity
  8
0
  6
CONTINUOUS
 62
               7
100
AcDbCircle
 10
58.029870065109719
 20
89.200916663663307
 30
0.0
 40
0.9990841803384373
100
AcDbArc
 50
1.5861563534809919
 51
90.074474619034291
  0
CIRCLE
  5
5F
100
AcDbEntity
  8
0
  6
CONTINUOUS
 62
               7
100
AcDbCircle
 10
56.989605276925261
 20
0.0067313058035694
 30
0.0
 40
5.3784997122628351
  0
ARC
  5
60
100
AcDbEntity
  8
0
  6
CONTINUOUS
 62
               4
100
AcDbCircle
 10
19.954434134651137
 20
49.0122488571687
 30
0.0
 40
4.2451385512255744
100
AcDbArc
 50
72.331724664435612
 51
89.384994888514271
  0
ARC
  5
61
100
AcDbEntity
  8
0
  6
CONTINUOUS
 62
               4
100
AcDbCircle
 10
20.039235915735048
 20
49.012211337148571
 30
0.0
 40
4.2552493730240739
100
AcDbArc
 50
269.47169154243591
 51
282.4572826600679
  0
ARC
  5
62
100
AcDbEntity
  8
0
  6
CONTINUOUS
 62
               4
100
AcDbCircle
 10
15.0
 20
49.007142857142853
 30
0.0
 40
4.2500126638396178
100
AcDbArc
 50
89.999999999999801
 51
269.99999999999937
  0
ARC
  5
63
100
AcDbEntity
  8
0
  6
CONTINUOUS
 62
               4
100
AcDbCircle
 10
59.947067543058722
 20
49.011309193794958
 30
0.0
 40
4.2544956299074634
100
AcDbArc
 50
257.53234893996517
 51
270.71286584674846
  0
ARC
  5
64
100
AcDbEntity
  8
0
  6
CONTINUOUS
 62
               4
100
AcDbCircle
 10
60.030716375777899
 20
49.013048086947222
 30
0.0
 40
4.24420592268363
100
AcDbArc
 50
90.414667452491699
 51
107.66429815421816
  0
ARC
  5
65
100
AcDbEntity
  8
0
  6
CONTINUOUS
 62
               4
100
AcDbCircle
 10
65.000000000000057
 20
49.007142857142853
 30
0.0
 40
4.2500127037814268
100
AcDbArc
 50
269.99999999999937
 51
89.999999999999801
  0
ARC
  5
66
100
AcDbEntity
  8
0
  6
CONTINUOUS
 62
               7
100
AcDbCircle
 10
56.989604232979502
 20
0.0
 30
0.0
 40
12.00316147621723
100
AcDbArc
 50
303.58005343732731
 51
56.419946562671896
  0
CIRCLE
  5
67
100
AcDbEntity
  8
0
  6
CONTINUOUS
 62
               2
100
AcDbCircle
 10
56.989605276925261
 20
0.0067313058035694
 30
0.0
 40
6.5784999302455356
  0
CIRCLE
  5
68
100
AcDbEntity
  8
0
  6
CONTINUOUS
 62
               7
100
AcDbCircle
 10
56.989605276925261
 20
0.0067313058035694
 30
0.0
 40
8.9999989100864966
  0
CIRCLE
  5
69
100
AcDbEntity
  8
0
  6
CONTINUOUS
 62
               7
100
AcDbCircle
 10
56.989605276925261
 20
0.0067313058035694
 30
0.0
 40
10.0
  0
LINE
  5
6A
100
AcDbEntity
  8
0
  6
CONTINUOUS
 62
               7
100
AcDbLine
 10
68.714285714285722
 20
-41.700000000000003
 30
0.0
 11
68.714285714285722
 21
-117.6857142857143
 31
0.0
  0
LINE
  5
6B
100
AcDbEntity
  8
0
  6
CONTINUOUS
 62
               7
100
AcDbLine
 10
58.571428571428612
 20
-41.700000000000003
 30
0.0
 11
58.571428571428612
 21
-117.6857142857143
 31
0.0
  0
LINE
  5
6C
100
AcDbEntity
  8
0
  6
CONTINUOUS
 62
               7
100
AcDbLine
 10
59.571428571428612
 20
-118.6857142857143
 30
0.0
 11
67.714285714285722
 21
-118.6857142857143
 31
0.0
  0
LINE
  5
6D
100
AcDbEntity
  8
0
  6
CONTINUOUS
 62
               7
100
AcDbLine
 10
66.028571428571411
 20
-81.685714285714297
 30
0.0
 11
66.028571428571411
 21
-116.1857142857143
 31
0.0
  0
LINE
  5
6E
100
AcDbEntity
  8
0
  6
CONTINUOUS
 62
               7
100
AcDbLine
 10
67.857142857142833
 20
-82.685714285714283
 30
0.0
 11
67.857142857142833
 21
-116.68571428571428
 31
0.0
  0
LINE
  5
6F
100
AcDbEntity
  8
0
  6
CONTINUOUS
 62
               7
100
AcDbLine
 10
58.571428571428612
 20
-117.1857142857143
 30
0.0
 11
65.028571428571411
 21
-117.1857142857143
 31
0.0
  0
LINE
  5
70
100
AcDbEntity
  8
0
  6
CONTINUOUS
 62
               7
100
AcDbLine
 10
58.571428571428612
 20
-117.6857142857143
 30
0.0
 11
66.857142857142833
 21
-117.6857142857143
 31
0.0
  0
LINE
  5
71
100
AcDbEntity
  8
0
  6
CONTINUOUS
 62
               7
100
AcDbLine
 10
33.728571428571456
 20
-150.48571428571429
 30
0.0
 11
32.24285714285719
 21
-150.48571428571429
 31
0.0
  0
LINE
  5
72
100
AcDbEntity
  8
0
  6
CONTINUOUS
 62
               7
100
AcDbLine
 10
47.74285714285719
 20
-150.48571428571429
 30
0.0
 11
46.257142857142867
 21
-150.48571428571429
 31
0.0
  0
LINE
  5
73
100
AcDbEntity
  8
0
  6
CONTINUOUS
 62
               7
100
AcDbLine
 10
38.157142857142901
 20
-150.48571428571429
 30
0.0
 11
36.342857142857156
 21
-150.48571428571429
 31
0.0
  0
LINE
  5
74
100
AcDbEntity
  8
0
  6
CONTINUOUS
 62
               7
100
AcDbLine
 10
33.557142857142878
 20
-149.98571428571432
 30
0.0
 11
33.728571428571456
 21
-150.48571428571429
 31
0.0
  0
LINE
  5
75
100
AcDbEntity
  8
0
  6
CONTINUOUS
 62
               7
100
AcDbLine
 10
46.428571428571445
 20
-149.98571428571432
 30
0.0
 11
46.257142857142867
 21
-150.48571428571429
 31
0.0
  0
LINE
  5
76
100
AcDbEntity
  8
0
  6
CONTINUOUS
 62
               7
100
AcDbLine
 10
36.342857142857156
 20
-150.48571428571429
 30
0.0
 11
35.685714285714312
 21
-149.98571428571432
 31
0.0
  0
LINE
  5
77
100
AcDbEntity
  8
0
  6
CONTINUOUS
 62
               7
100
AcDbLine
 10
38.5
 20
-149.98571428571432
 30
0.0
 11
38.157142857142901
 21
-150.48571428571429
 31
0.0
  0
LINE
  5
78
100
AcDbEntity
  8
0
  6
CONTINUOUS
 62
               7
100
AcDbLine
 10
41.842857142857156
 20
-150.48571428571429
 30
0.0
 11
41.5
 21
-149.98571428571432
 31
0.0
  0
LINE
  5
79
100
AcDbEntity
  8
0
  6
CONTINUOUS
 62
               7
100
AcDbLine
 10
43.657142857142901
 20
-150.48571428571429
 30
0.0
 11
44.314285714285745
 21
-149.98571428571432
 31
0.0
  0
LINE
  5
7A
100
AcDbEntity
  8
0
  6
CONTINUOUS
 62
               7
100
AcDbLine
 10
43.657142857142901
 20
-150.48571428571429
 30
0.0
 11
41.842857142857156
 21
-150.48571428571429
 31
0.0
  0
LINE
  5
7B
100
AcDbEntity
  8
0
  6
CONTINUOUS
 62
               7
100
AcDbLine
 10
46.428571428571445
 20
-149.98571428571432
 30
0.0
 11
44.314285714285745
 21
-149.98571428571432
 31
0.0
  0
LINE
  5
7C
100
AcDbEntity
  8
0
  6
CONTINUOUS
 62
               7
100
AcDbLine
 10
35.685714285714312
 20
-149.98571428571432
 30
0.0
 11
33.557142857142878
 21
-149.98571428571432
 31
0.0
  0
LINE
  5
7D
100
AcDbEntity
  8
0
  6
CONTINUOUS
 62
               7
100
AcDbLine
 10
41.5
 20
-149.98571428571432
 30
0.0
 11
38.5
 21
-149.98571428571432
 31
0.0
  0
LINE
  5
7E
100
AcDbEntity
  8
0
  6
CONTINUOUS
 62
               7
100
AcDbLine
 10
33.557142857142878
 20
-140.98571428571429
 30
0.0
 11
32.3857142857143
 21
-140.98571428571429
 31
0.0
  0
LINE
  5
7F
100
AcDbEntity
  8
0
  6
CONTINUOUS
 62
               7
100
AcDbLine
 10
44.314285714285745
 20
-140.98571428571429
 30
0.0
 11
41.5
 21
-140.98571428571429
 31
0.0
  0
LINE
  5
80
100
AcDbEntity
  8
0
  6
CONTINUOUS
 62
               7
100
AcDbLine
 10
38.5
 20
-140.98571428571429
 30
0.0
 11
35.685714285714312
 21
-140.98571428571429
 31
0.0
  0
LINE
  5
81
100
AcDbEntity
  8
0
  6
CONTINUOUS
 62
               7
100
AcDbLine
 10
47.600000000000023
 20
-140.98571428571429
 30
0.0
 11
46.428571428571445
 21
-140.98571428571429
 31
0.0
  0
LINE
  5
82
100
AcDbEntity
  8
0
  6
CONTINUOUS
 62
               7
100
AcDbLine
 10
46.428571428571445
 20
-140.98571428571429
 30
0.0
 11
46.428571428571445
 21
-149.98571428571432
 31
0.0
  0
LINE
  5
83
100
AcDbEntity
  8
0
  6
CONTINUOUS
 62
               7
100
AcDbLine
 10
44.314285714285745
 20
-140.98571428571429
 30
0.0
 11
44.314285714285745
 21
-149.98571428571432
 31
0.0
  0
LINE
  5
84
100
AcDbEntity
  8
0
  6
CONTINUOUS
 62
               7
100
AcDbLine
 10
33.557142857142878
 20
-140.98571428571429
 30
0.0
 11
33.557142857142878
 21
-149.98571428571432
 31
0.0
  0
LINE
  5
85
100
AcDbEntity
  8
0
  6
CONTINUOUS
 62
               7
100
AcDbLine
 10
35.685714285714312
 20
-140.98571428571429
 30
0.0
 11
35.685714285714312
 21
-149.98571428571432
 31
0.0
  0
LINE
  5
86
100
AcDbEntity
  8
0
  6
CONTINUOUS
 62
               7
100
AcDbLine
 10
41.5
 20
-140.98571428571429
 30
0.0
 11
41.5
 21
-149.98571428571432
 31
0.0
  0
LINE
  5
87
100
AcDbEntity
  8
0
  6
CONTINUOUS
 62
               7
100
AcDbLine
 10
38.5
 20
-140.98571428571429
 30
0.0
 11
38.5
 21
-149.98571428571432
 31
0.0
  0
LINE
  5
88
100
AcDbEntity
  8
0
  6
CONTINUOUS
 62
               2
100
AcDbLine
 10
45.24285714285719
 20
-136.68571428571428
 30
0.0
 11
45.24285714285719
 21
-137.98571428571429
 31
0.0
  0
LINE
  5
89
100
AcDbEntity
  8
0
  6
CONTINUOUS
 62
               2
100
AcDbLine
 10
34.74285714285719
 20
-136.68571428571428
 30
0.0
 11
34.74285714285719
 21
-137.98571428571429
 31
0.0
  0
LINE
  5
8A
100
AcDbEntity
  8
0
  6
CONTINUOUS
 62
               7
100
AcDbLine
 10
34.0
 20
-136.68571428571428
 30
0.0
 11
34.0
 21
-137.98571428571429
 31
0.0
  0
LINE
  5
8B
100
AcDbEntity
  8
0
  6
CONTINUOUS
 62
               7
100
AcDbLine
 10
46.0
 20
-136.68571428571428
 30
0.0
 11
46.0
 21
-137.98571428571429
 31
0.0
  0
LINE
  5
8C
100
AcDbEntity
  8
0
  6
CONTINUOUS
 62
               7
100
AcDbLine
 10
47.74285714285719
 20
-137.98571428571429
 30
0.0
 11
32.24285714285719
 21
-137.98571428571429
 31
0.0
  0
LINE
  5
8D
100
AcDbEntity
  8
0
  6
CONTINUOUS
 62
               7
100
AcDbLine
 10
33.242857142857133
 20
-151.48571428571429
 30
0.0
 11
32.24285714285719
 21
-150.48571428571429
 31
0.0
  0
LINE
  5
8E
100
AcDbEntity
  8
0
  6
CONTINUOUS
 62
               7
100
AcDbLine
 10
47.74285714285719
 20
-150.48571428571429
 30
0.0
 11
46.742857142857133
 21
-151.48571428571429
 31
0.0
  0
LINE
  5
8F
100
AcDbEntity
  8
0
  6
CONTINUOUS
 62
               7
100
AcDbLine
 10
32.24285714285719
 20
-137.98571428571429
 30
0.0
 11
32.24285714285719
 21
-150.48571428571429
 31
0.0
  0
LINE
  5
90
100
AcDbEntity
  8
0
  6
CONTINUOUS
 62
               7
100
AcDbLine
 10
47.74285714285719
 20
-137.98571428571429
 30
0.0
 11
47.74285714285719
 21
-150.48571428571429
 31
0.0
  0
LINE
  5
91
100
AcDbEntity
  8
0
  6
CONTINUOUS
 62
               7
100
AcDbLine
 10
46.742857142857133
 20
-151.48571428571429
 30
0.0
 11
33.242857142857133
 21
-151.48571428571429
 31
0.0
  0
LINE
  5
92
100
AcDbEntity
  8
0
  6
CONTINUOUS
 62
               7
100
AcDbLine
 10
48.071428571428612
 20
-136.68571428571428
 30
0.0
 11
48.071428571428612
 21
-135.18571428571431
 31
0.0
  0
LINE
  5
93
100
AcDbEntity
  8
0
  6
CONTINUOUS
 62
               7
100
AcDbLine
 10
31.914285714285711
 20
-136.68571428571428
 30
0.0
 11
31.914285714285711
 21
-135.18571428571431
 31
0.0
  0
LINE
  5
94
100
AcDbEntity
  8
0
  6
CONTINUOUS
 62
               7
100
AcDbLine
 10
31.914285714285711
 20
-136.68571428571428
 30
0.0
 11
48.071428571428612
 21
-136.68571428571428
 31
0.0
  0
LINE
  5
95
100
AcDbEntity
  8
0
  6
CONTINUOUS
 62
               7
100
AcDbLine
 10
11.285714285714278
 20
-41.700000000000003
 30
0.0
 11
11.285714285714278
 21
-117.6857142857143
 31
0.0
  0
LINE
  5
96
100
AcDbEntity
  8
0
  6
CONTINUOUS
 62
               7
100
AcDbLine
 10
21.428571428571445
 20
-41.700000000000003
 30
0.0
 11
21.428571428571445
 21
-117.6857142857143
 31
0.0
  0
LINE
  5
97
100
AcDbEntity
  8
0
  6
CONTINUOUS
 62
               7
100
AcDbLine
 10
20.428571428571445
 20
-118.6857142857143
 30
0.0
 11
12.285714285714278
 21
-118.6857142857143
 31
0.0
  0
LINE
  5
98
100
AcDbEntity
  8
0
  6
CONTINUOUS
 62
               7
100
AcDbLine
 10
13.971428571428589
 20
-81.685714285714297
 30
0.0
 11
13.971428571428589
 21
-116.1857142857143
 31
0.0
  0
LINE
  5
99
100
AcDbEntity
  8
0
  6
CONTINUOUS
 62
               7
100
AcDbLine
 10
12.128571428571433
 20
-82.685714285714283
 30
0.0
 11
12.128571428571433
 21
-116.68571428571428
 31
0.0
  0
LINE
  5
9A
100
AcDbEntity
  8
0
  6
CONTINUOUS
 62
               7
100
AcDbLine
 10
21.428571428571445
 20
-117.1857142857143
 30
0.0
 11
14.971428571428589
 21
-117.1857142857143
 31
0.0
  0
LINE
  5
9B
100
AcDbEntity
  8
0
  6
CONTINUOUS
 62
               7
100
AcDbLine
 10
6.585714285714289
 20
-120.31428571428573
 30
0.0
 11
6.1000000000000227
 21
-65.8857142857143
 31
0.0
  0
LINE
  5
9C
100
AcDbEntity
  8
0
  6
CONTINUOUS
 62
               7
100
AcDbLine
 10
73.414285714285768
 20
-120.31428571428573
 30
0.0
 11
74.142857142857167
 21
-36.0
 31
0.0
  0
LINE
  5
9D
100
AcDbEntity
  8
0
  6
CONTINUOUS
 62
               7
100
AcDbLine
 10
21.428571428571445
 20
-117.6857142857143
 30
0.0
 11
13.128571428571433
 21
-117.6857142857143
 31
0.0
  0
LINE
  5
9E
100
AcDbEntity
  8
0
  6
CONTINUOUS
 62
               7
100
AcDbLine
 10
21.585714285714289
 20
-135.18571428571431
 30
0.0
 11
58.414285714285768
 21
-135.18571428571431
 31
0.0
  0
LINE
  5
9F
100
AcDbEntity
  8
0
  6
CENTER
 62
               2
100
AcDbLine
 10
40.0
 20
95.028571428571425
 30
0.0
 11
40.0
 21
-154.61428571428573
 31
0.0
  0
LINE
  5
A0
100
AcDbEntity
  8
0
  6
CENTER
 62
               2
100
AcDbLine
 10
20.0
 20
43.228571428571414
 30
0.0
 11
20.0
 21
55.271428571428586
 31
0.0
  0
LINE
  5
A1
100
AcDbEntity
  8
0
  6
CENTER
 62
               2
100
AcDbLine
 10
15.0
 20
43.228571428571414
 30
0.0
 11
15.0
 21
55.271428571428586
 31
0.0
  0
LINE
  5
A2
100
AcDbEntity
  8
0
  6
CONTINUOUS
 62
               7
100
AcDbLine
 10
67.857142857142833
 20
-42.700000000000003
 30
0.0
 11
67.857142857142833
 21
-74.685714285714283
 31
0.0
  0
LINE
  5
A3
100
AcDbEntity
  8
0
  6
CONTINUOUS
 62
               7
100
AcDbLine
 10
66.028571428571411
 20
-43.200000000000003
 30
0.0
 11
66.028571428571411
 21
-75.685714285714297
 31
0.0
  0
LINE
  5
A4
100
AcDbEntity
  8
0
  6
CONTINUOUS
 62
               7
100
AcDbLine
 10
67.714285714285722
 20
-40.700000000000003
 30
0.0
 11
59.571428571428612
 21
-40.700000000000003
 31
0.0
  0
LINE
  5
A5
100
AcDbEntity
  8
0
  6
CONTINUOUS
 62
               7
100
AcDbLine
 10
65.028571428571411
 20
-42.200000000000003
 30
0.0
 11
58.571428571428612
 21
-42.200000000000003
 31
0.0
  0
LINE
  5
A6
100
AcDbEntity
  8
0
  6
CONTINUOUS
 62
               7
100
AcDbLine
 10
66.857142857142833
 20
-41.700000000000003
 30
0.0
 11
58.571428571428612
 21
-41.700000000000003
 31
0.0
  0
LINE
  5
A7
100
AcDbEntity
  8
0
  6
CONTINUOUS
 62
               7
100
AcDbLine
 10
58.571428571428612
 20
-75.685714285714297
 30
0.0
 11
66.857142857142833
 21
-75.685714285714297
 31
0.0
  0
LINE
  5
A8
100
AcDbEntity
  8
0
  6
CONTINUOUS
 62
               7
100
AcDbLine
 10
58.571428571428612
 20
-81.685714285714297
 30
0.0
 11
66.857142857142833
 21
-81.685714285714297
 31
0.0
  0
LINE
  5
A9
100
AcDbEntity
  8
0
  6
CONTINUOUS
 62
               7
100
AcDbLine
 10
3.5285714285714107
 20
-36.0
 30
0.0
 11
3.585714285714289
 21
-38.000000000000007
 31
0.0
  0
LINE
  5
AA
100
AcDbEntity
  8
0
  6
CONTINUOUS
 62
               7
100
AcDbLine
 10
2.585714285714289
 20
-38.51428571428572
 30
0.0
 11
3.085714285714289
 21
-38.01428571428572
 31
0.0
  0
LINE
  5
AB
100
AcDbEntity
  8
0
  6
CONTINUOUS
 62
               7
100
AcDbLine
 10
3.085714285714289
 20
-38.01428571428572
 30
0.0
 11
3.585714285714289
 21
-38.000000000000007
 31
0.0
  0
LINE
  5
AC
100
AcDbEntity
  8
0
  6
CONTINUOUS
 62
               7
100
AcDbLine
 10
2.585714285714289
 20
-38.51428571428572
 30
0.0
 11
3.157142857142901
 21
-61.671428571428578
 31
0.0
  0
LINE
  5
AD
100
AcDbEntity
  8
0
  6
CONTINUOUS
 62
               7
100
AcDbLine
 10
5.9571428571428555
 20
-48.071428571428577
 30
0.0
 11
5.8428571428571558
 21
-36.0
 31
0.0
  0
LINE
  5
AE
100
AcDbEntity
  8
0
  6
CONTINUOUS
 62
               7
100
AcDbLine
 10
5.9571428571428555
 20
-48.071428571428577
 30
0.0
 11
2.9428571428571786
 21
-52.771428571428579
 31
0.0
  0
LINE
  5
AF
100
AcDbEntity
  8
0
  6
CONTINUOUS
 62
               7
100
AcDbLine
 10
6.1000000000000227
 20
-65.8857142857143
 30
0.0
 11
3.157142857142901
 21
-61.671428571428578
 31
0.0
  0
LINE
  5
B0
100
AcDbEntity
  8
0
  6
CONTINUOUS
 62
               7
100
AcDbLine
 10
12.128571428571433
 20
-42.700000000000003
 30
0.0
 11
12.128571428571433
 21
-74.685714285714283
 31
0.0
  0
LINE
  5
B1
100
AcDbEntity
  8
0
  6
CONTINUOUS
 62
               7
100
AcDbLine
 10
13.971428571428589
 20
-43.200000000000003
 30
0.0
 11
13.971428571428589
 21
-75.685714285714297
 31
0.0
  0
LINE
  5
B2
100
AcDbEntity
  8
0
  6
CONTINUOUS
 62
               7
100
AcDbLine
 10
12.285714285714278
 20
-40.700000000000003
 30
0.0
 11
20.428571428571445
 21
-40.700000000000003
 31
0.0
  0
LINE
  5
B3
100
AcDbEntity
  8
0
  6
CONTINUOUS
 62
               7
100
AcDbLine
 10
14.971428571428589
 20
-42.200000000000003
 30
0.0
 11
21.428571428571445
 21
-42.200000000000003
 31
0.0
  0
LINE
  5
B4
100
AcDbEntity
  8
0
  6
CONTINUOUS
 62
               7
100
AcDbLine
 10
13.128571428571433
 20
-41.700000000000003
 30
0.0
 11
21.428571428571445
 21
-41.700000000000003
 31
0.0
  0
LINE
  5
B5
100
AcDbEntity
  8
0
  6
CONTINUOUS
 62
               7
100
AcDbLine
 10
21.428571428571445
 20
-75.685714285714297
 30
0.0
 11
13.128571428571433
 21
-75.685714285714297
 31
0.0
  0
LINE
  5
B6
100
AcDbEntity
  8
0
  6
CONTINUOUS
 62
               7
100
AcDbLine
 10
21.428571428571445
 20
-81.685714285714297
 30
0.0
 11
13.128571428571433
 21
-81.685714285714297
 31
0.0
  0
LINE
  5
B7
100
AcDbEntity
  8
0
  6
CONTINUOUS
 62
               7
100
AcDbLine
 10
61.271428571428544
 20
58.199999999999974
 30
0.0
 11
60.24285714285719
 21
87.514285714285691
 31
0.0
  0
LINE
  5
B8
100
AcDbEntity
  8
0
  6
CONTINUOUS
 62
               7
100
AcDbLine
 10
59.285714285714278
 20
63.199999999999974
 30
0.0
 11
61.128571428571433
 21
62.199999999999974
 31
0.0
  0
LINE
  5
B9
100
AcDbEntity
  8
0
  6
CONTINUOUS
 62
               7
100
AcDbLine
 10
59.285714285714278
 20
63.199999999999974
 30
0.0
 11
58.071428571428612
 21
63.199999999999974
 31
0.0
  0
LINE
  5
BA
100
AcDbEntity
  8
0
  6
CONTINUOUS
 62
               7
100
AcDbLine
 10
55.842857142857213
 20
88.200000000000003
 30
0.0
 11
56.871428571428567
 21
87.200000000000003
 31
0.0
  0
LINE
  5
BB
100
AcDbEntity
  8
0
  6
CONTINUOUS
 62
               7
100
AcDbLine
 10
56.871428571428567
 20
87.200000000000003
 30
0.0
 11
51.199999999999989
 21
87.200000000000003
 31
0.0
  0
LINE
  5
BC
100
AcDbEntity
  8
0
  6
CONTINUOUS
 62
               7
100
AcDbLine
 10
49.985714285714323
 20
88.200000000000003
 30
0.0
 11
51.199999999999989
 21
87.200000000000003
 31
0.0
  0
LINE
  5
BD
100
AcDbEntity
  8
0
  6
CONTINUOUS
 62
               7
100
AcDbLine
 10
49.928571428571502
 20
63.199999999999974
 30
0.0
 11
51.171428571428635
 21
62.199999999999974
 31
0.0
  0
LINE
  5
BE
100
AcDbEntity
  8
0
  6
CONTINUOUS
 62
               7
100
AcDbLine
 10
49.928571428571502
 20
63.199999999999974
 30
0.0
 11
44.8857142857143
 21
63.199999999999974
 31
0.0
  0
LINE
  5
BF
100
AcDbEntity
  8
0
  6
CONTINUOUS
 62
               7
100
AcDbLine
 10
30.057142857142878
 20
63.199999999999974
 30
0.0
 11
28.828571428571422
 21
62.199999999999974
 31
0.0
  0
LINE
  5
C0
100
AcDbEntity
  8
0
  6
CONTINUOUS
 62
               7
100
AcDbLine
 10
44.014285714285734
 20
87.200000000000003
 30
0.0
 11
35.985714285714323
 21
87.200000000000003
 31
0.0
  0
LINE
  5
C1
100
AcDbEntity
  8
0
  6
CONTINUOUS
 62
               7
100
AcDbLine
 10
30.057142857142878
 20
63.199999999999974
 30
0.0
 11
35.114285714285757
 21
63.199999999999974
 31
0.0
  0
LINE
  5
C2
100
AcDbEntity
  8
0
  6
CONTINUOUS
 62
               7
100
AcDbLine
 10
24.142857142857167
 20
88.200000000000003
 30
0.0
 11
23.1142857142857
 21
87.200000000000003
 31
0.0
  0
LINE
  5
C3
100
AcDbEntity
  8
0
  6
CONTINUOUS
 62
               7
100
AcDbLine
 10
30.0
 20
88.200000000000003
 30
0.0
 11
28.785714285714278
 21
87.200000000000003
 31
0.0
  0
LINE
  5
C4
100
AcDbEntity
  8
0
  6
CONTINUOUS
 62
               7
100
AcDbLine
 10
23.1142857142857
 20
87.200000000000003
 30
0.0
 11
28.785714285714278
 21
87.200000000000003
 31
0.0
  0
LINE
  5
C5
100
AcDbEntity
  8
0
  6
CONTINUOUS
 62
               7
100
AcDbLine
 10
20.714285714285722
 20
63.199999999999974
 30
0.0
 11
18.85714285714289
 21
62.199999999999974
 31
0.0
  0
LINE
  5
C6
100
AcDbEntity
  8
0
  6
CONTINUOUS
 62
               7
100
AcDbLine
 10
20.714285714285722
 20
63.199999999999974
 30
0.0
 11
21.914285714285711
 21
63.199999999999974
 31
0.0
  0
LINE
  5
C7
100
AcDbEntity
  8
0
  6
CONTINUOUS
 62
               7
100
AcDbLine
 10
61.271428571428544
 20
58.199999999999974
 30
0.0
 11
18.728571428571456
 21
58.199999999999974
 31
0.0
  0
LINE
  5
C8
100
AcDbEntity
  8
0
  6
CONTINUOUS
 62
               7
100
AcDbLine
 10
21.5
 20
88.200000000000003
 30
0.0
 11
20.714285714285722
 21
63.199999999999974
 31
0.0
  0
LINE
  5
C9
100
AcDbEntity
  8
0
  6
CONTINUOUS
 62
               7
100
AcDbLine
 10
21.5
 20
88.200000000000003
 30
0.0
 11
20.928571428571445
 21
88.200000000000003
 31
0.0
  0
LINE
  5
CA
100
AcDbEntity
  8
0
  6
CONTINUOUS
 62
               7
100
AcDbLine
 10
23.1142857142857
 20
87.200000000000003
 30
0.0
 11
21.914285714285711
 21
62.199999999999974
 31
0.0
  0
LINE
  5
CB
100
AcDbEntity
  8
0
  6
CONTINUOUS
 62
               7
100
AcDbLine
 10
24.142857142857167
 20
88.200000000000003
 30
0.0
 11
30.0
 21
88.200000000000003
 31
0.0
  0
LINE
  5
CC
100
AcDbEntity
  8
0
  6
CONTINUOUS
 62
               7
100
AcDbLine
 10
28.828571428571422
 20
62.199999999999974
 30
0.0
 11
35.114285714285757
 21
62.199999999999974
 31
0.0
  0
LINE
  5
CD
100
AcDbEntity
  8
0
  6
CONTINUOUS
 62
               7
100
AcDbLine
 10
28.785714285714278
 20
87.200000000000003
 30
0.0
 11
28.828571428571422
 21
62.199999999999974
 31
0.0
  0
LINE
  5
CE
100
AcDbEntity
  8
0
  6
CONTINUOUS
 62
               7
100
AcDbLine
 10
30.0
 20
88.200000000000003
 30
0.0
 11
30.057142857142878
 21
63.199999999999974
 31
0.0
  0
LINE
  5
CF
100
AcDbEntity
  8
0
  6
CONTINUOUS
 62
               7
100
AcDbLine
 10
18.728571428571456
 20
58.199999999999974
 30
0.0
 11
19.74285714285719
 21
87.514285714285691
 31
0.0
  0
LINE
  5
D0
100
AcDbEntity
  8
0
  6
CONTINUOUS
 62
               7
100
AcDbLine
 10
19.74285714285719
 20
87.514285714285691
 30
0.0
 11
20.928571428571445
 21
88.200000000000003
 31
0.0
  0
LINE
  5
D1
100
AcDbEntity
  8
0
  6
CONTINUOUS
 62
               7
100
AcDbLine
 10
18.85714285714289
 20
62.199999999999974
 30
0.0
 11
21.914285714285711
 21
62.199999999999974
 31
0.0
  0
LINE
  5
D2
100
AcDbEntity
  8
0
  6
CONTINUOUS
 62
               7
100
AcDbLine
 10
20.928571428571445
 20
88.200000000000003
 30
0.0
 11
20.957142857142856
 21
89.228571428571414
 31
0.0
  0
LINE
  5
D3
100
AcDbEntity
  8
0
  6
CONTINUOUS
 62
               7
100
AcDbLine
 10
58.485714285714323
 20
88.200000000000003
 30
0.0
 11
59.285714285714278
 21
63.199999999999974
 31
0.0
  0
LINE
  5
D4
100
AcDbEntity
  8
0
  6
CONTINUOUS
 62
               7
100
AcDbLine
 10
58.485714285714323
 20
88.200000000000003
 30
0.0
 11
59.071428571428612
 21
88.200000000000003
 31
0.0
  0
LINE
  5
D5
100
AcDbEntity
  8
0
  6
CONTINUOUS
 62
               7
100
AcDbLine
 10
56.871428571428567
 20
87.200000000000003
 30
0.0
 11
58.071428571428612
 21
62.199999999999974
 31
0.0
  0
LINE
  5
D6
100
AcDbEntity
  8
0
  6
CONTINUOUS
 62
               7
100
AcDbLine
 10
55.842857142857213
 20
88.200000000000003
 30
0.0
 11
49.985714285714323
 21
88.200000000000003
 31
0.0
  0
LINE
  5
D7
100
AcDbEntity
  8
0
  6
CONTINUOUS
 62
               7
100
AcDbLine
 10
51.171428571428635
 20
62.199999999999974
 30
0.0
 11
44.8857142857143
 21
62.199999999999974
 31
0.0
  0
LINE
  5
D8
100
AcDbEntity
  8
0
  6
CONTINUOUS
 62
               7
100
AcDbLine
 10
51.199999999999989
 20
87.200000000000003
 30
0.0
 11
51.171428571428635
 21
62.199999999999974
 31
0.0
  0
LINE
  5
D9
100
AcDbEntity
  8
0
  6
CONTINUOUS
 62
               7
100
AcDbLine
 10
49.985714285714323
 20
88.200000000000003
 30
0.0
 11
49.928571428571502
 21
63.199999999999974
 31
0.0
  0
LINE
  5
DA
100
AcDbEntity
  8
0
  6
CONTINUOUS
 62
               7
100
AcDbLine
 10
36.014285714285734
 20
88.200000000000003
 30
0.0
 11
35.114285714285757
 21
62.199999999999974
 31
0.0
  0
LINE
  5
DB
100
AcDbEntity
  8
0
  6
CONTINUOUS
 62
               7
100
AcDbLine
 10
44.8857142857143
 20
62.199999999999974
 30
0.0
 11
43.971428571428589
 21
88.200000000000003
 31
0.0
  0
LINE
  5
DC
100
AcDbEntity
  8
0
  6
CONTINUOUS
 62
               7
100
AcDbLine
 10
60.24285714285719
 20
87.514285714285691
 30
0.0
 11
59.071428571428612
 21
88.200000000000003
 31
0.0
  0
LINE
  5
DD
100
AcDbEntity
  8
0
  6
CONTINUOUS
 62
               7
100
AcDbLine
 10
61.128571428571433
 20
62.199999999999974
 30
0.0
 11
58.071428571428612
 21
62.199999999999974
 31
0.0
  0
LINE
  5
DE
100
AcDbEntity
  8
0
  6
CONTINUOUS
 62
               7
100
AcDbLine
 10
43.971428571428589
 20
88.200000000000003
 30
0.0
 11
36.014285714285734
 21
88.200000000000003
 31
0.0
  0
LINE
  5
DF
100
AcDbEntity
  8
0
  6
CONTINUOUS
 62
               7
100
AcDbLine
 10
59.071428571428612
 20
88.200000000000003
 30
0.0
 11
59.028571428571411
 21
89.228571428571414
 31
0.0
  0
LINE
  5
E0
100
AcDbEntity
  8
0
  6
CONTINUOUS
 62
               7
100
AcDbLine
 10
58.028571428571411
 20
90.200000000000003
 30
0.0
 11
21.957142857142856
 21
90.200000000000003
 31
0.0
  0
LINE
  5
E1
100
AcDbEntity
  8
0
  6
CONTINUOUS
 62
               7
100
AcDbLine
 10
15.0
 20
10.0
 30
0.0
 11
15.0
 21
-10.000000000000014
 31
0.0
  0
LINE
  5
E2
100
AcDbEntity
  8
0
  6
CONTINUOUS
 62
               2
100
AcDbLine
 10
29.514285714285734
 20
32.200000000000003
 30
0.0
 11
50.485714285714323
 21
41.200000000000003
 31
0.0
  0
LINE
  5
E3
100
AcDbEntity
  8
0
  6
CONTINUOUS
 62
               2
100
AcDbLine
 10
50.485714285714323
 20
32.200000000000003
 30
0.0
 11
29.514285714285734
 21
41.200000000000003
 31
0.0
  0
LINE
  5
E4
100
AcDbEntity
  8
0
  6
CONTINUOUS
 62
               7
100
AcDbLine
 10
29.514285714285734
 20
41.200000000000003
 30
0.0
 11
32.642857142857167
 21
42.199999999999974
 31
0.0
  0
LINE
  5
E5
100
AcDbEntity
  8
0
  6
CONTINUOUS
 62
               7
100
AcDbLine
 10
50.485714285714323
 20
41.200000000000003
 30
0.0
 11
47.342857142857156
 21
42.199999999999974
 31
0.0
  0
LINE
  5
E6
100
AcDbEntity
  8
0
  6
CONTINUOUS
 62
               2
100
AcDbLine
 10
18.5
 20
28.999999999999986
 30
0.0
 11
18.5
 21
32.200000000000003
 31
0.0
  0
LINE
  5
E7
100
AcDbEntity
  8
0
  6
CONTINUOUS
 62
               7
100
AcDbLine
 10
17.5
 20
28.999999999999986
 30
0.0
 11
17.5
 21
32.200000000000003
 31
0.0
  0
LINE
  5
E8
100
AcDbEntity
  8
0
  6
CONTINUOUS
 62
               2
100
AcDbLine
 10
61.500000000000057
 20
28.999999999999986
 30
0.0
 11
61.500000000000057
 21
32.200000000000003
 31
0.0
  0
LINE
  5
E9
100
AcDbEntity
  8
0
  6
CONTINUOUS
 62
               7
100
AcDbLine
 10
62.500000000000057
 20
28.999999999999986
 30
0.0
 11
62.500000000000057
 21
32.200000000000003
 31
0.0
  0
LINE
  5
EA
100
AcDbEntity
  8
0
  6
CONTINUOUS
 62
               4
100
AcDbLine
 10
15.0
 20
53.257142857142853
 30
0.0
 11
20.0
 21
53.257142857142853
 31
0.0
  0
LINE
  5
EB
100
AcDbEntity
  8
0
  6
CENTER
 62
               2
100
AcDbLine
 10
17.5
 20
43.228571428571414
 30
0.0
 11
17.5
 21
55.271428571428586
 31
0.0
  0
LINE
  5
EC
100
AcDbEntity
  8
0
  6
CONTINUOUS
 62
               4
100
AcDbLine
 10
15.0
 20
44.757142857142853
 30
0.0
 11
20.0
 21
44.757142857142853
 31
0.0
  0
LINE
  5
ED
100
AcDbEntity
  8
0
  6
CENTER
 62
               2
100
AcDbLine
 10
8.2571428571428669
 20
48.999999999999986
 30
0.0
 11
22.100000000000023
 21
48.999999999999986
 31
0.0
  0
LINE
  5
EE
100
AcDbEntity
  8
0
  6
CONTINUOUS
 62
               4
100
AcDbLine
 10
65.000000000000057
 20
53.257142857142853
 30
0.0
 11
60.000000000000057
 21
53.257142857142853
 31
0.0
  0
LINE
  5
EF
100
AcDbEntity
  8
0
  6
CONTINUOUS
 62
               4
100
AcDbLine
 10
65.000000000000057
 20
44.757142857142853
 30
0.0
 11
60.000000000000057
 21
44.757142857142853
 31
0.0
  0
LINE
  5
F0
100
AcDbEntity
  8
0
  6
CENTER
 62
               2
100
AcDbLine
 10
62.500000000000057
 20
43.228571428571414
 30
0.0
 11
62.500000000000057
 21
55.271428571428586
 31
0.0
  0
LINE
  5
F1
100
AcDbEntity
  8
0
  6
CENTER
 62
               2
100
AcDbLine
 10
71.74285714285719
 20
48.999999999999986
 30
0.0
 11
57.8857142857143
 21
48.999999999999986
 31
0.0
  0
LINE
  5
F2
100
AcDbEntity
  8
0
  6
CONTINUOUS
 62
               4
100
AcDbLine
 10
8.0
 20
58.999999999999986
 30
0.0
 11
5.0
 21
55.999999999999986
 31
0.0
  0
LINE
  5
F3
100
AcDbEntity
  8
0
  6
CONTINUOUS
 62
               4
100
AcDbLine
 10
75.000000000000057
 20
55.999999999999986
 30
0.0
 11
72.000000000000057
 21
58.999999999999986
 31
0.0
  0
LINE
  5
F4
100
AcDbEntity
  8
0
  6
CONTINUOUS
 62
               4
100
AcDbLine
 10
18.757142857142867
 20
58.999999999999986
 30
0.0
 11
8.0
 21
58.999999999999986
 31
0.0
  0
LINE
  5
F5
100
AcDbEntity
  8
0
  6
CONTINUOUS
 62
               4
100
AcDbLine
 10
72.000000000000057
 20
58.999999999999986
 30
0.0
 11
61.24285714285719
 21
58.999999999999986
 31
0.0
  0
LINE
  5
F6
100
AcDbEntity
  8
0
  6
CONTINUOUS
 62
               4
100
AcDbLine
 10
11.5
 20
32.200000000000003
 30
0.0
 11
5.0
 21
32.200000000000003
 31
0.0
  0
LINE
  5
F7
100
AcDbEntity
  8
0
  6
CONTINUOUS
 62
               4
100
AcDbLine
 10
13.0
 20
28.999999999999986
 30
0.0
 11
5.0
 21
28.999999999999986
 31
0.0
  0
LINE
  5
F8
100
AcDbEntity
  8
0
  6
CONTINUOUS
 62
               7
100
AcDbLine
 10
68.500000000000057
 20
32.200000000000003
 30
0.0
 11
11.5
 21
32.200000000000003
 31
0.0
  0
LINE
  5
F9
100
AcDbEntity
  8
0
  6
CONTINUOUS
 62
               7
100
AcDbLine
 10
24.928571428571445
 20
58.199999999999974
 30
0.0
 11
24.371428571428567
 21
42.199999999999974
 31
0.0
  0
LINE
  5
FA
100
AcDbEntity
  8
0
  6
CONTINUOUS
 62
               7
100
AcDbLine
 10
35.3857142857143
 20
58.199999999999974
 30
0.0
 11
34.828571428571422
 21
42.199999999999974
 31
0.0
  0
LINE
  5
FB
100
AcDbEntity
  8
0
  6
CONTINUOUS
 62
               7
100
AcDbLine
 10
45.171428571428578
 20
42.199999999999974
 30
0.0
 11
44.6142857142857
 21
58.199999999999974
 31
0.0
  0
LINE
  5
FC
100
AcDbEntity
  8
0
  6
CONTINUOUS
 62
               7
100
AcDbLine
 10
55.6142857142857
 20
42.199999999999974
 30
0.0
 11
55.057142857142878
 21
58.199999999999974
 31
0.0
  0
LINE
  5
FD
100
AcDbEntity
  8
0
  6
CONTINUOUS
 62
               7
100
AcDbLine
 10
21.428571428571445
 20
58.199999999999974
 30
0.0
 11
20.871428571428567
 21
42.199999999999974
 31
0.0
  0
LINE
  5
FE
100
AcDbEntity
  8
0
  6
CONTINUOUS
 62
               7
100
AcDbLine
 10
59.128571428571433
 20
42.199999999999974
 30
0.0
 11
58.571428571428612
 21
58.199999999999974
 31
0.0
  0
LINE
  5
FF
100
AcDbEntity
  8
0
  6
CONTINUOUS
 62
               7
100
AcDbLine
 10
11.714285714285722
 20
34.200000000000003
 30
0.0
 11
12.757142857142867
 21
35.200000000000003
 31
0.0
  0
LINE
  5
100
100
AcDbEntity
  8
0
  6
CONTINUOUS
 62
               7
100
AcDbLine
 10
12.757142857142867
 20
35.200000000000003
 30
0.0
 11
13.757142857142867
 21
35.200000000000003
 31
0.0
  0
LINE
  5
101
100
AcDbEntity
  8
0
  6
CONTINUOUS
 62
               7
100
AcDbLine
 10
12.757142857142867
 20
35.200000000000003
 30
0.0
 11
12.757142857142867
 21
42.199999999999974
 31
0.0
  0
LINE
  5
102
100
AcDbEntity
  8
0
  6
CONTINUOUS
 62
               7
100
AcDbLine
 10
17.257142857142867
 20
34.200000000000003
 30
0.0
 11
22.828571428571479
 21
34.200000000000003
 31
0.0
  0
LINE
  5
103
100
AcDbEntity
  8
0
  6
CONTINUOUS
 62
               7
100
AcDbLine
 10
14.514285714285734
 20
42.199999999999974
 30
0.0
 11
13.757142857142867
 21
41.200000000000003
 31
0.0
  0
LINE
  5
104
100
AcDbEntity
  8
0
  6
CONTINUOUS
 62
               7
100
AcDbLine
 10
13.757142857142867
 20
34.200000000000003
 30
0.0
 11
13.757142857142867
 21
41.200000000000003
 31
0.0
  0
LINE
  5
105
100
AcDbEntity
  8
0
  6
CONTINUOUS
 62
               7
100
AcDbLine
 10
17.257142857142867
 20
34.200000000000003
 30
0.0
 11
18.300000000000011
 21
35.200000000000003
 31
0.0
  0
LINE
  5
106
100
AcDbEntity
  8
0
  6
CONTINUOUS
 62
               7
100
AcDbLine
 10
22.828571428571479
 20
41.200000000000003
 30
0.0
 11
29.514285714285734
 21
41.200000000000003
 31
0.0
  0
LINE
  5
107
100
AcDbEntity
  8
0
  6
CONTINUOUS
 62
               7
100
AcDbLine
 10
17.257142857142867
 20
41.200000000000003
 30
0.0
 11
18.300000000000011
 21
42.199999999999974
 31
0.0
  0
LINE
  5
108
100
AcDbEntity
  8
0
  6
CONTINUOUS
 62
               7
100
AcDbLine
 10
17.257142857142867
 20
34.200000000000003
 30
0.0
 11
17.257142857142867
 21
41.200000000000003
 31
0.0
  0
LINE
  5
109
100
AcDbEntity
  8
0
  6
CONTINUOUS
 62
               7
100
AcDbLine
 10
18.300000000000011
 20
35.200000000000003
 30
0.0
 11
18.300000000000011
 21
42.199999999999974
 31
0.0
  0
LINE
  5
10A
100
AcDbEntity
  8
0
  6
CONTINUOUS
 62
               7
100
AcDbLine
 10
22.828571428571479
 20
41.200000000000003
 30
0.0
 11
23.100000000000023
 21
42.199999999999974
 31
0.0
  0
LINE
  5
10B
100
AcDbEntity
  8
0
  6
CONTINUOUS
 62
               7
100
AcDbLine
 10
22.828571428571479
 20
34.200000000000003
 30
0.0
 11
22.828571428571479
 21
41.200000000000003
 31
0.0
  0
LINE
  5
10C
100
AcDbEntity
  8
0
  6
CONTINUOUS
 62
               7
100
AcDbLine
 10
11.5
 20
34.200000000000003
 30
0.0
 11
13.757142857142867
 21
34.200000000000003
 31
0.0
  0
LINE
  5
10D
100
AcDbEntity
  8
0
  6
CONTINUOUS
 62
               7
100
AcDbLine
 10
18.300000000000011
 20
35.200000000000003
 30
0.0
 11
22.828571428571479
 21
35.200000000000003
 31
0.0
  0
LINE
  5
10E
100
AcDbEntity
  8
0
  6
CONTINUOUS
 62
               7
100
AcDbLine
 10
13.757142857142867
 20
41.200000000000003
 30
0.0
 11
17.257142857142867
 21
41.200000000000003
 31
0.0
  0
LINE
  5
10F
100
AcDbEntity
  8
0
  6
CONTINUOUS
 62
               7
100
AcDbLine
 10
29.514285714285734
 20
32.200000000000003
 30
0.0
 11
29.514285714285734
 21
41.200000000000003
 31
0.0
  0
LINE
  5
110
100
AcDbEntity
  8
0
  6
CONTINUOUS
 62
               7
100
AcDbLine
 10
11.5
 20
41.200000000000003
 30
0.0
 11
12.5
 21
42.199999999999974
 31
0.0
  0
LINE
  5
111
100
AcDbEntity
  8
0
  6
CONTINUOUS
 62
               7
100
AcDbLine
 10
11.5
 20
32.200000000000003
 30
0.0
 11
11.5
 21
41.200000000000003
 31
0.0
  0
LINE
  5
112
100
AcDbEntity
  8
0
  6
CONTINUOUS
 62
               7
100
AcDbLine
 10
68.285714285714278
 20
34.200000000000003
 30
0.0
 11
67.228571428571456
 21
35.200000000000003
 31
0.0
  0
LINE
  5
113
100
AcDbEntity
  8
0
  6
CONTINUOUS
 62
               7
100
AcDbLine
 10
67.228571428571456
 20
35.200000000000003
 30
0.0
 11
66.24285714285719
 21
35.200000000000003
 31
0.0
  0
LINE
  5
114
100
AcDbEntity
  8
0
  6
CONTINUOUS
 62
               7
100
AcDbLine
 10
67.228571428571456
 20
35.200000000000003
 30
0.0
 11
67.228571428571456
 21
42.199999999999974
 31
0.0
  0
LINE
  5
115
100
AcDbEntity
  8
0
  6
CONTINUOUS
 62
               7
100
AcDbLine
 10
62.74285714285719
 20
34.200000000000003
 30
0.0
 11
57.171428571428635
 21
34.200000000000003
 31
0.0
  0
LINE
  5
116
100
AcDbEntity
  8
0
  6
CONTINUOUS
 62
               7
100
AcDbLine
 10
65.471428571428589
 20
42.199999999999974
 30
0.0
 11
66.24285714285719
 21
41.200000000000003
 31
0.0
  0
LINE
  5
117
100
AcDbEntity
  8
0
  6
CONTINUOUS
 62
               7
100
AcDbLine
 10
66.24285714285719
 20
34.200000000000003
 30
0.0
 11
66.24285714285719
 21
41.200000000000003
 31
0.0
  0
LINE
  5
118
100
AcDbEntity
  8
0
  6
CONTINUOUS
 62
               7
100
AcDbLine
 10
62.74285714285719
 20
34.200000000000003
 30
0.0
 11
61.699999999999989
 21
35.200000000000003
 31
0.0
  0
LINE
  5
119
100
AcDbEntity
  8
0
  6
CONTINUOUS
 62
               7
100
AcDbLine
 10
57.171428571428635
 20
41.200000000000003
 30
0.0
 11
50.485714285714323
 21
41.200000000000003
 31
0.0
  0
LINE
  5
11A
100
AcDbEntity
  8
0
  6
CONTINUOUS
 62
               7
100
AcDbLine
 10
62.74285714285719
 20
41.200000000000003
 30
0.0
 11
61.699999999999989
 21
42.199999999999974
 31
0.0
  0
LINE
  5
11B
100
AcDbEntity
  8
0
  6
CONTINUOUS
 62
               7
100
AcDbLine
 10
62.74285714285719
 20
34.200000000000003
 30
0.0
 11
62.74285714285719
 21
41.200000000000003
 31
0.0
  0
LINE
  5
11C
100
AcDbEntity
  8
0
  6
CONTINUOUS
 62
               7
100
AcDbLine
 10
61.699999999999989
 20
35.200000000000003
 30
0.0
 11
61.699999999999989
 21
42.199999999999974
 31
0.0
  0
LINE
  5
11D
100
AcDbEntity
  8
0
  6
CONTINUOUS
 62
               7
100
AcDbLine
 10
57.171428571428635
 20
41.200000000000003
 30
0.0
 11
56.8857142857143
 21
42.199999999999974
 31
0.0
  0
LINE
  5
11E
100
AcDbEntity
  8
0
  6
CONTINUOUS
 62
               7
100
AcDbLine
 10
57.171428571428635
 20
34.200000000000003
 30
0.0
 11
57.171428571428635
 21
41.200000000000003
 31
0.0
  0
LINE
  5
11F
100
AcDbEntity
  8
0
  6
CONTINUOUS
 62
               7
100
AcDbLine
 10
68.500000000000057
 20
34.200000000000003
 30
0.0
 11
66.24285714285719
 21
34.200000000000003
 31
0.0
  0
LINE
  5
120
100
AcDbEntity
  8
0
  6
CONTINUOUS
 62
               7
100
AcDbLine
 10
61.699999999999989
 20
35.200000000000003
 30
0.0
 11
57.171428571428635
 21
35.200000000000003
 31
0.0
  0
LINE
  5
121
100
AcDbEntity
  8
0
  6
CONTINUOUS
 62
               7
100
AcDbLine
 10
66.24285714285719
 20
41.200000000000003
 30
0.0
 11
62.74285714285719
 21
41.200000000000003
 31
0.0
  0
LINE
  5
122
100
AcDbEntity
  8
0
  6
CONTINUOUS
 62
               7
100
AcDbLine
 10
50.485714285714323
 20
32.200000000000003
 30
0.0
 11
50.485714285714323
 21
41.200000000000003
 31
0.0
  0
LINE
  5
123
100
AcDbEntity
  8
0
  6
CONTINUOUS
 62
               7
100
AcDbLine
 10
68.500000000000057
 20
41.200000000000003
 30
0.0
 11
67.500000000000057
 21
42.199999999999974
 31
0.0
  0
LINE
  5
124
100
AcDbEntity
  8
0
  6
CONTINUOUS
 62
               7
100
AcDbLine
 10
68.500000000000057
 20
32.200000000000003
 30
0.0
 11
68.500000000000057
 21
41.200000000000003
 31
0.0
  0
LINE
  5
125
100
AcDbEntity
  8
0
  6
CONTINUOUS
 62
               7
100
AcDbLine
 10
67.500000000000057
 20
42.199999999999974
 30
0.0
 11
12.5
 21
42.199999999999974
 31
0.0
  0
LINE
  5
126
100
AcDbEntity
  8
0
  6
CONTINUOUS
 62
               4
100
AcDbLine
 10
5.0
 20
28.999999999999986
 30
0.0
 11
5.0
 21
55.999999999999986
 31
0.0
  0
LINE
  5
127
100
AcDbEntity
  8
0
  6
CONTINUOUS
 62
               4
100
AcDbLine
 10
75.000000000000057
 20
28.999999999999986
 30
0.0
 11
75.000000000000057
 21
55.999999999999986
 31
0.0
  0
LINE
  5
128
100
AcDbEntity
  8
0
  6
CONTINUOUS
 62
               4
100
AcDbLine
 10
75.000000000000057
 20
32.200000000000003
 30
0.0
 11
68.500000000000057
 21
32.200000000000003
 31
0.0
  0
LINE
  5
129
100
AcDbEntity
  8
0
  6
CONTINUOUS
 62
               4
100
AcDbLine
 10
75.000000000000057
 20
28.999999999999986
 30
0.0
 11
67.000000000000057
 21
28.999999999999986
 31
0.0
  0
LINE
  5
12A
100
AcDbEntity
  8
0
  6
CENTER
 62
               2
100
AcDbLine
 10
57.000000000000057
 20
31.214285714285708
 30
0.0
 11
57.000000000000057
 21
-29.385714285714286
 31
0.0
  0
LINE
  5
12B
100
AcDbEntity
  8
0
  6
CONTINUOUS
 62
               7
100
AcDbLine
 10
3.0
 20
16.700000000000003
 30
0.0
 11
11.1142857142857
 21
16.700000000000003
 31
0.0
  0
LINE
  5
12C
100
AcDbEntity
  8
0
  6
CONTINUOUS
 62
               7
100
AcDbLine
 10
3.0
 20
16.700000000000003
 30
0.0
 11
3.0
 21
16.0
 31
0.0
  0
LINE
  5
12D
100
AcDbEntity
  8
0
  6
CONTINUOUS
 62
               7
100
AcDbLine
 10
61.914285714285768
 20
-8.7142857142857082
 30
0.0
 11
62.328571428571479
 21
-15.000000000000014
 31
0.0
  0
LINE
  5
12E
100
AcDbEntity
  8
0
  6
CONTINUOUS
 62
               7
100
AcDbLine
 10
60.300000000000011
 20
15.0
 30
0.0
 11
60.685714285714255
 21
9.2999999999999972
 31
0.0
  0
LINE
  5
12F
100
AcDbEntity
  8
0
  6
CONTINUOUS
 62
               7
100
AcDbLine
 10
61.300000000000011
 20
16.0
 30
0.0
 11
60.300000000000011
 21
15.0
 31
0.0
  0
LINE
  5
130
100
AcDbEntity
  8
0
  6
CONTINUOUS
 62
               7
100
AcDbLine
 10
60.300000000000011
 20
15.0
 30
0.0
 11
79.985714285714323
 21
15.0
 31
0.0
  0
LINE
  5
131
100
AcDbEntity
  8
0
  6
CONTINUOUS
 62
               7
100
AcDbLine
 10
61.300000000000011
 20
16.0
 30
0.0
 11
78.985714285714323
 21
16.0
 31
0.0
  0
LINE
  5
132
100
AcDbEntity
  8
0
  6
CONTINUOUS
 62
               7
100
AcDbLine
 10
17.657142857142901
 20
-15.000000000000014
 30
0.0
 11
19.685714285714312
 21
15.0
 31
0.0
  0
LINE
  5
133
100
AcDbEntity
  8
0
  6
CONTINUOUS
 62
               7
100
AcDbLine
 10
18.685714285714312
 20
16.0
 30
0.0
 11
19.685714285714312
 21
15.0
 31
0.0
  0
LINE
  5
134
100
AcDbEntity
  8
0
  6
CONTINUOUS
 62
               7
100
AcDbLine
 10
67.000000000000057
 20
28.999999999999986
 30
0.0
 11
68.500000000000057
 21
27.5
 31
0.0
  0
LINE
  5
135
100
AcDbEntity
  8
0
  6
CONTINUOUS
 62
               7
100
AcDbLine
 10
11.5
 20
27.5
 30
0.0
 11
13.0
 21
28.999999999999986
 31
0.0
  0
LINE
  5
136
100
AcDbEntity
  8
0
  6
CONTINUOUS
 62
               7
100
AcDbLine
 10
68.500000000000057
 20
27.5
 30
0.0
 11
68.900000000000034
 21
16.0
 31
0.0
  0
LINE
  5
137
100
AcDbEntity
  8
0
  6
CONTINUOUS
 62
               7
100
AcDbLine
 10
11.100000000000023
 20
16.0
 30
0.0
 11
11.5
 21
27.5
 31
0.0
  0
LINE
  5
138
100
AcDbEntity
  8
0
  6
CONTINUOUS
 62
               7
100
AcDbLine
 10
11.5
 20
27.5
 30
0.0
 11
68.500000000000057
 21
27.5
 31
0.0
  0
LINE
  5
139
100
AcDbEntity
  8
0
  6
CONTINUOUS
 62
               7
100
AcDbLine
 10
13.0
 20
28.999999999999986
 30
0.0
 11
67.000000000000057
 21
28.999999999999986
 31
0.0
  0
LINE
  5
13A
100
AcDbEntity
  8
0
  6
CENTER
 62
               2
100
AcDbLine
 10
-5.0
 20
0.0
 30
0.0
 11
88.357142857142833
 21
0.0
 31
0.0
  0
LINE
  5
13B
100
AcDbEntity
  8
0
  6
CONTINUOUS
 62
               7
100
AcDbLine
 10
15.0
 20
-10.000000000000014
 30
0.0
 11
5.0
 21
-10.000000000000014
 31
0.0
  0
LINE
  5
13C
100
AcDbEntity
  8
0
  6
CONTINUOUS
 62
               7
100
AcDbLine
 10
15.0
 20
10.0
 30
0.0
 11
5.0
 21
10.0
 31
0.0
  0
LINE
  5
13D
100
AcDbEntity
  8
0
  6
CONTINUOUS
 62
               7
100
AcDbLine
 10
5.0
 20
10.0
 30
0.0
 11
5.0
 21
-10.000000000000014
 31
0.0
  0
LINE
  5
13E
100
AcDbEntity
  8
0
  6
CONTINUOUS
 62
               7
100
AcDbLine
 10
63.628571428571433
 20
-10.000000000000014
 30
0.0
 11
75.000000000000057
 21
-10.000000000000014
 31
0.0
  0
LINE
  5
13F
100
AcDbEntity
  8
0
  6
CONTINUOUS
 62
               7
100
AcDbLine
 10
63.628571428571433
 20
10.0
 30
0.0
 11
75.000000000000057
 21
10.0
 31
0.0
  0
LINE
  5
140
100
AcDbEntity
  8
0
  6
CONTINUOUS
 62
               7
100
AcDbLine
 10
75.000000000000057
 20
10.0
 30
0.0
 11
75.000000000000057
 21
-10.000000000000014
 31
0.0
  0
LINE
  5
141
100
AcDbEntity
  8
0
  6
CONTINUOUS
 62
               7
100
AcDbLine
 10
78.985714285714323
 20
16.0
 30
0.0
 11
79.985714285714323
 21
15.0
 31
0.0
  0
LINE
  5
142
100
AcDbEntity
  8
0
  6
CONTINUOUS
 62
               7
100
AcDbLine
 10
1.0
 20
16.0
 30
0.0
 11
0.0
 21
15.0
 31
0.0
  0
LINE
  5
143
100
AcDbEntity
  8
0
  6
CONTINUOUS
 62
               7
100
AcDbLine
 10
0.0
 20
15.0
 30
0.0
 11
19.685714285714312
 21
15.0
 31
0.0
  0
LINE
  5
144
100
AcDbEntity
  8
0
  6
CONTINUOUS
 62
               7
100
AcDbLine
 10
78.985714285714323
 20
16.0
 30
0.0
 11
78.985714285714323
 21
-16.000000000000014
 31
0.0
  0
LINE
  5
145
100
AcDbEntity
  8
0
  6
CONTINUOUS
 62
               7
100
AcDbLine
 10
1.0
 20
16.0
 30
0.0
 11
1.0
 21
-16.000000000000014
 31
0.0
  0
LINE
  5
146
100
AcDbEntity
  8
0
  6
CONTINUOUS
 62
               7
100
AcDbLine
 10
79.985714285714323
 20
15.0
 30
0.0
 11
79.985714285714323
 21
-16.000000000000014
 31
0.0
  0
LINE
  5
147
100
AcDbEntity
  8
0
  6
CONTINUOUS
 62
               7
100
AcDbLine
 10
0.0
 20
15.0
 30
0.0
 11
0.0
 21
-16.000000000000014
 31
0.0
  0
LINE
  5
148
100
AcDbEntity
  8
0
  6
CONTINUOUS
 62
               7
100
AcDbLine
 10
1.0
 20
16.0
 30
0.0
 11
18.685714285714312
 21
16.0
 31
0.0
  0
LINE
  5
149
100
AcDbEntity
  8
0
  6
CONTINUOUS
 62
               7
100
AcDbLine
 10
0.0
 20
-16.000000000000014
 30
0.0
 11
79.985714285714323
 21
-16.000000000000014
 31
0.0
  0
LINE
  5
14A
100
AcDbEntity
  8
0
  6
CONTINUOUS
 62
               7
100
AcDbLine
 10
74.057142857142878
 20
-16.000000000000014
 30
0.0
 11
73.057142857142878
 21
-15.000000000000014
 31
0.0
  0
LINE
  5
14B
100
AcDbEntity
  8
0
  6
CONTINUOUS
 62
               7
100
AcDbLine
 10
5.9285714285714448
 20
-16.000000000000014
 30
0.0
 11
6.9285714285714448
 21
-15.000000000000014
 31
0.0
  0
LINE
  5
14C
100
AcDbEntity
  8
0
  6
CONTINUOUS
 62
               7
100
AcDbLine
 10
6.9285714285714448
 20
-15.000000000000014
 30
0.0
 11
73.057142857142878
 21
-15.000000000000014
 31
0.0
  0
LINE
  5
14D
100
AcDbEntity
  8
0
  6
CONTINUOUS
 62
               7
100
AcDbLine
 10
0.5
 20
-35.000000000000014
 30
0.0
 11
79.485714285714323
 21
-35.000000000000014
 31
0.0
  0
LINE
  5
14E
100
AcDbEntity
  8
0
  6
CONTINUOUS
 62
               7
100
AcDbLine
 10
79.485714285714323
 20
-35.000000000000014
 30
0.0
 11
78.485714285714323
 21
-36.0
 31
0.0
  0
LINE
  5
14F
100
AcDbEntity
  8
0
  6
CONTINUOUS
 62
               7
100
AcDbLine
 10
0.5
 20
-35.000000000000014
 30
0.0
 11
1.5
 21
-36.0
 31
0.0
  0
LINE
  5
150
100
AcDbEntity
  8
0
  6
CONTINUOUS
 62
               7
100
AcDbLine
 10
79.485714285714323
 20
-16.000000000000014
 30
0.0
 11
79.485714285714323
 21
-35.000000000000014
 31
0.0
  0
LINE
  5
151
100
AcDbEntity
  8
0
  6
CONTINUOUS
 62
               7
100
AcDbLine
 10
0.5
 20
-16.000000000000014
 30
0.0
 11
0.5
 21
-35.000000000000014
 31
0.0
  0
LINE
  5
152
100
AcDbEntity
  8
0
  6
CONTINUOUS
 62
               7
100
AcDbLine
 10
1.5
 20
-36.0
 30
0.0
 11
78.485714285714323
 21
-36.0
 31
0.0
  0
SPLINE
  5
153
100
AcDbEntity
  8
0
  6
CONTINUOUS
 62
               7
100
AcDbSpline
210
0.0
220
0.0
230
1.0
 70
               0
 71
               3
 72
               0
 73
               0
 74
               7
 44
0.000001
 12
0.2877408474091828
 22
-0.9577083087935728
 32
0.0
 13
-0.2684302468369752
 23
-0.9632991241473443
 33
0.0
 11
5.9571428571428555
 21
-48.071428571428577
 31
0.0
 11
6.8648055639613048
 21
-51.9348701202711
 31
0.0
 11
7.2857142857142776
 21
-55.885714285714293
 31
0.0
 11
7.287393193771492
 21
-58.414232001722318
 31
0.0
 11
7.0842879309729732
 21
-60.936034751259037
 31
0.0
 11
6.6854672741165428
 21
-63.432677268023383
 31
0.0
 11
6.1000000000000227
 21
-65.8857142857143
 31
0.0
  0
ENDBLK
  5
154
100
AcDbEntity
  8
0
100
AcDbBlockEnd
  0
BLOCK
  5
155
100
AcDbEntity
  8
0
100
AcDbBlockBegin
  2
MS_2
 70
               0
 10
0.0
 20
0.0
 30
0.0
  3
MS_2
  1

  0
LINE
  5
156
100
AcDbEntity
  8
0
  6
CENTER
 62
               7
100
AcDbLine
 10
-38.148337631642335
 20
18.5
 30
0.0
 11
-27.674587631642339
 21
18.5
 31
0.0
  0
ARC
  5
157
100
AcDbEntity
  8
0
  6
CONTINUOUS
 62
               7
100
AcDbCircle
 10
-32.911462631642394
 20
18.500000000002061
 30
0.0
 40
3.9388827433219471
100
AcDbArc
 50
242.69495506396004
 51
297.30504493603877
  0
ARC
  5
158
100
AcDbEntity
  8
0
  6
CONTINUOUS
 62
               7
100
AcDbCircle
 10
-32.915824280199786
 20
18.49562499999999
 30
0.0
 40
3.9388946071075166
100
AcDbArc
 50
152.69504415447139
 51
207.30495584552773
  0
ARC
  5
159
100
AcDbEntity
  8
0
  6
CONTINUOUS
 62
               7
100
AcDbCircle
 10
-32.911462631642394
 20
18.499986648557496
 30
0.0
 40
3.9388946071075188
100
AcDbArc
 50
62.695044154471567
 51
117.30495584552797
  0
LINE
  5
15A
100
AcDbEntity
  8
0
  6
CENTER
 62
               7
100
AcDbLine
 10
-32.915837631642376
 20
23.898749999999978
 30
0.0
 11
-32.915837631642376
 21
13.319999999999993
 31
0.0
  0
LINE
  5
15B
100
AcDbEntity
  8
0
  6
CONTINUOUS
 62
               7
100
AcDbLine
 10
-29.415837631642262
 20
22.000000000000014
 30
0.0
 11
-29.415837631642262
 21
15.0
 31
0.0
  0
LINE
  5
15C
100
AcDbEntity
  8
0
  6
CONTINUOUS
 62
               7
100
AcDbLine
 10
-36.415837631642376
 20
15.0
 30
0.0
 11
-29.415837631642262
 21
15.0
 31
0.0
  0
LINE
  5
15D
100
AcDbEntity
  8
0
  6
CONTINUOUS
 62
               7
100
AcDbLine
 10
-36.415837631642376
 20
22.000000000000014
 30
0.0
 11
-36.415837631642376
 21
15.0
 31
0.0
  0
LINE
  5
15E
100
AcDbEntity
  8
0
  6
CONTINUOUS
 62
               7
100
AcDbLine
 10
-36.415837631642376
 20
22.000000000000014
 30
0.0
 11
-29.415837631642262
 21
22.000000000000014
 31
0.0
  0
LINE
  5
15F
100
AcDbEntity
  8
0
  6
CONTINUOUS
 62
               7
100
AcDbLine
 10
-29.415837631642262
 20
15.21875
 30
0.0
 11
-28.925837631642253
 21
15.21875
 31
0.0
  0
LINE
  5
160
100
AcDbEntity
  8
0
  6
CONTINUOUS
 62
               7
100
AcDbLine
 10
-29.415837631642262
 20
21.78125
 30
0.0
 11
-28.698337631642289
 21
21.78125
 31
0.0
  0
LINE
  5
161
100
AcDbEntity
  8
0
  6
CENTER
 62
               2
100
AcDbLine
 10
-43.79440875132957
 20
18.5
 30
0.0
 11
-22.252206200650448
 21
18.5
 31
0.0
  0
ARC
  5
162
100
AcDbEntity
  8
0
  6
CONTINUOUS
 62
               7
100
AcDbCircle
 10
-49.495882604089957
 20
18.004117395910129
 30
0.0
 40
2.9958854334632656
100
AcDbArc
 50
359.9212555060123
 51
90.078744493986164
  0
ARC
  5
163
100
AcDbEntity
  8
0
  6
CONTINUOUS
 62
               7
100
AcDbCircle
 10
-49.498142461602129
 20
-18.001857538397886
 30
0.0
 40
2.9981430370331732
100
AcDbArc
 50
269.96450165453155
 51
0.0354983454679896
  0
LINE
  5
164
100
AcDbEntity
  8
0
  6
CONTINUOUS
 62
               7
100
AcDbLine
 10
-73.0
 20
-21.250000000000014
 30
0.0
 11
-70.0
 21
-21.250000000000014
 31
0.0
  0
LINE
  5
165
100
AcDbEntity
  8
0
  6
CONTINUOUS
 62
               7
100
AcDbLine
 10
-46.5
 20
7.0
 30
0.0
 11
-39.0
 21
-7.0000000000000142
 31
0.0
  0
LINE
  5
166
100
AcDbEntity
  8
0
  6
CONTINUOUS
 62
               7
100
AcDbLine
 10
-39.0
 20
7.0
 30
0.0
 11
-46.5
 21
-7.0000000000000142
 31
0.0
  0
LINE
  5
167
100
AcDbEntity
  8
0
  6
CONTINUOUS
 62
               7
100
AcDbLine
 10
-39.0
 20
-7.0000000000000142
 30
0.0
 11
-46.5
 21
-7.0000000000000142
 31
0.0
  0
LINE
  5
168
100
AcDbEntity
  8
0
  6
CONTINUOUS
 62
               7
100
AcDbLine
 10
-39.0
 20
7.0
 30
0.0
 11
-46.5
 21
7.0
 31
0.0
  0
LINE
  5
169
100
AcDbEntity
  8
0
  6
CONTINUOUS
 62
               7
100
AcDbLine
 10
-70.0
 20
-21.250000000000014
 30
0.0
 11
-70.0
 21
21.25
 31
0.0
  0
LINE
  5
16A
100
AcDbEntity
  8
0
  6
CONTINUOUS
 62
               7
100
AcDbLine
 10
-46.5
 20
-18.0
 30
0.0
 11
-46.5
 21
18.0
 31
0.0
  0
LINE
  5
16B
100
AcDbEntity
  8
0
  6
CONTINUOUS
 62
               7
100
AcDbLine
 10
-73.0
 20
21.25
 30
0.0
 11
-70.0
 21
21.25
 31
0.0
  0
LINE
  5
16C
100
AcDbEntity
  8
0
  6
CONTINUOUS
 62
               7
100
AcDbLine
 10
-73.0
 20
-21.250000000000014
 30
0.0
 11
-73.0
 21
21.25
 31
0.0
  0
LINE
  5
16D
100
AcDbEntity
  8
0
  6
CONTINUOUS
 62
               7
100
AcDbLine
 10
-70.0
 20
-21.000000000000014
 30
0.0
 11
-49.5
 21
-21.000000000000014
 31
0.0
  0
LINE
  5
16E
100
AcDbEntity
  8
0
  6
CONTINUOUS
 62
               7
100
AcDbLine
 10
-39.0
 20
-7.0000000000000142
 30
0.0
 11
-39.0
 21
7.0
 31
0.0
  0
LINE
  5
16F
100
AcDbEntity
  8
0
  6
CONTINUOUS
 62
               7
100
AcDbLine
 10
-70.0
 20
21.0
 30
0.0
 11
-49.5
 21
21.0
 31
0.0
  0
LINE
  5
170
100
AcDbEntity
  8
0
  6
CONTINUOUS
 62
               2
100
AcDbLine
 10
-33.0
 20
-5.7250000000000085
 30
0.0
 11
-39.0
 21
-5.9125000000000085
 31
0.0
  0
LINE
  5
171
100
AcDbEntity
  8
0
  6
CONTINUOUS
 62
               7
100
AcDbLine
 10
-33.0
 20
6.5750000000000028
 30
0.0
 11
-39.0
 21
6.7624999999999886
 31
0.0
  0
LINE
  5
172
100
AcDbEntity
  8
0
  6
CONTINUOUS
 62
               7
100
AcDbLine
 10
-33.0
 20
-6.5875000000000057
 30
0.0
 11
-39.0
 21
-6.7749999999999915
 31
0.0
  0
LINE
  5
173
100
AcDbEntity
  8
0
  6
CONTINUOUS
 62
               2
100
AcDbLine
 10
-33.0
 20
5.7250000000000085
 30
0.0
 11
-39.0
 21
5.9124999999999943
 31
0.0
  0
LINE
  5
174
100
AcDbEntity
  8
0
  6
CONTINUOUS
 62
               7
100
AcDbLine
 10
2.8428571428571558
 20
-154.8857142857143
 30
0.0
 11
2.8428571428571558
 21
-152.98571428571429
 31
0.0
  0
LINE
  5
175
100
AcDbEntity
  8
0
  6
CONTINUOUS
 62
               7
100
AcDbLine
 10
-2.8571428571428896
 20
-154.8857142857143
 30
0.0
 11
-2.8571428571428896
 21
-152.98571428571429
 31
0.0
  0
LINE
  5
176
100
AcDbEntity
  8
0
  6
CONTINUOUS
 62
               7
100
AcDbLine
 10
6.5
 20
-152.98571428571429
 30
0.0
 11
-6.5
 21
-152.98571428571429
 31
0.0
  0
LINE
  5
177
100
AcDbEntity
  8
0
  6
CONTINUOUS
 62
               7
100
AcDbLine
 10
2.8285714285714221
 20
-160.08571428571429
 30
0.0
 11
-2.8285714285714221
 21
-160.08571428571429
 31
0.0
  0
LINE
  5
178
100
AcDbEntity
  8
0
  6
CONTINUOUS
 62
               7
100
AcDbLine
 10
3.2857142857143344
 20
-157.48571428571432
 30
0.0
 11
-3.2857142857143344
 21
-157.48571428571432
 31
0.0
  0
LINE
  5
179
100
AcDbEntity
  8
0
  6
CONTINUOUS
 62
               7
100
AcDbLine
 10
3.2857142857143344
 20
-154.8857142857143
 30
0.0
 11
-3.2857142857143344
 21
-154.8857142857143
 31
0.0
  0
LINE
  5
17A
100
AcDbEntity
  8
0
  6
CONTINUOUS
 62
               7
100
AcDbLine
 10
-3.2857142857143344
 20
-154.8857142857143
 30
0.0
 11
-2.8285714285714221
 21
-157.48571428571432
 31
0.0
  0
LINE
  5
17B
100
AcDbEntity
  8
0
  6
CONTINUOUS
 62
               7
100
AcDbLine
 10
-3.2857142857143344
 20
-157.48571428571432
 30
0.0
 11
-2.8285714285714221
 21
-160.08571428571429
 31
0.0
  0
LINE
  5
17C
100
AcDbEntity
  8
0
  6
CONTINUOUS
 62
               7
100
AcDbLine
 10
3.2857142857143344
 20
-157.48571428571432
 30
0.0
 11
2.8285714285714221
 21
-160.08571428571429
 31
0.0
  0
LINE
  5
17D
100
AcDbEntity
  8
0
  6
CONTINUOUS
 62
               7
100
AcDbLine
 10
3.2857142857143344
 20
-154.8857142857143
 30
0.0
 11
2.8285714285714221
 21
-157.48571428571432
 31
0.0
  0
LINE
  5
17E
100
AcDbEntity
  8
0
  6
CONTINUOUS
 62
               7
100
AcDbLine
 10
-6.5
 20
-152.98571428571429
 30
0.0
 11
-6.5
 21
-151.48571428571429
 31
0.0
  0
LINE
  5
17F
100
AcDbEntity
  8
0
  6
CONTINUOUS
 62
               7
100
AcDbLine
 10
6.5
 20
-152.98571428571429
 30
0.0
 11
6.5
 21
-151.48571428571429
 31
0.0
  0
LINE
  5
180
100
AcDbEntity
  8
0
  6
CONTINUOUS
 62
               2
100
AcDbLine
 10
0.0
 20
-109.37142857142858
 30
0.0
 11
0.0
 21
-162.94285714285715
 31
0.0
  0
CIRCLE
  5
181
100
AcDbEntity
  8
0
  6
CONTINUOUS
 62
               7
100
AcDbCircle
 10
0.0038888113839448
 20
0.0069492885044582
 30
0.0
 40
7.1310002463204523
  0
ARC
  5
182
100
AcDbEntity
  8
0
  6
CONTINUOUS
 62
               7
100
AcDbCircle
 10
-26.868723505494472
 20
-74.683009219780203
 30
0.0
 40
1.0027087147480016
100
AcDbArc
 50
180.15457036230677
 51
269.84542963769161
  0
ARC
  5
183
100
AcDbEntity
  8
0
  6
CONTINUOUS
 62
               7
100
AcDbCircle
 10
-27.717029405251992
 20
-41.697256309033747
 30
0.0
 40
0.9972600833021073
100
AcDbArc
 50
89.842365984958519
 51
180.15763401504188
  0
ARC
  5
184
100
AcDbEntity
  8
0
  6
CONTINUOUS
 62
               7
100
AcDbCircle
 10
-26.868337427411461
 20
-42.703091144017094
 30
0.0
 40
1.0030959068687546
100
AcDbArc
 50
90.176563163252908
 51
179.8234368367483
  0
ARC
  5
185
100
AcDbEntity
  8
0
  6
CONTINUOUS
 62
               7
100
AcDbCircle
 10
-25.029800941633994
 20
-43.198770486937484
 30
0.0
 40
0.9987712437188497
100
AcDbArc
 50
89.929467405499736
 51
180.07053259449944
  0
ARC
  5
186
100
AcDbEntity
  8
0
  6
CONTINUOUS
 62
               7
100
AcDbCircle
 10
-19.567226191841087
 20
-41.695797620412556
 30
0.0
 40
0.9958064876337629
100
AcDbArc
 50
359.75820670788715
 51
90.24179329211097
  0
ARC
  5
187
100
AcDbEntity
  8
0
  6
CONTINUOUS
 62
               7
100
AcDbCircle
 10
-27.717412047400103
 20
-117.68884061882864
 30
0.0
 40
0.9968785691792215
100
AcDbArc
 50
179.82031313344658
 51
270.1796868665524
  0
ARC
  5
188
100
AcDbEntity
  8
0
  6
CONTINUOUS
 62
               7
100
AcDbCircle
 10
-26.868719190202455
 20
-116.6830049044882
 30
0.0
 40
1.0027130416751608
100
AcDbArc
 50
180.15481627523894
 51
269.8451837247589
  0
ARC
  5
189
100
AcDbEntity
  8
0
  6
CONTINUOUS
 62
               7
100
AcDbCircle
 10
-26.861244399663178
 20
-82.695898457479643
 30
0.0
 40
1.0102355063250421
100
AcDbArc
 50
90.577607835124482
 51
179.42239216487667
  0
ARC
  5
18A
100
AcDbEntity
  8
0
  6
CONTINUOUS
 62
               7
100
AcDbCircle
 10
-25.030191130459343
 20
-116.1873339876022
 30
0.0
 40
0.9983816119563678
100
AcDbArc
 50
179.90704744373903
 51
270.09295255626
  0
ARC
  5
18B
100
AcDbEntity
  8
0
  6
CONTINUOUS
 62
               7
100
AcDbCircle
 10
-19.566842990997088
 20
-117.69029986614582
 30
0.0
 40
0.9954249817202401
100
AcDbArc
 50
269.7360571218947
 51
0.2639428781052437
  0
ARC
  5
18C
100
AcDbEntity
  8
0
  6
CONTINUOUS
 62
               7
100
AcDbCircle
 10
26.86550998458938
 20
-74.694081413160859
 30
0.0
 40
0.9916681716936836
100
AcDbArc
 50
269.51656532768709
 51
0.4834346723129364
  0
ARC
  5
18D
100
AcDbEntity
  8
0
  6
CONTINUOUS
 62
               7
100
AcDbCircle
 10
27.720915270405726
 20
-41.693370443880035
 30
0.0
 40
0.9933925658010304
100
AcDbArc
 50
359.61762507751331
 51
90.382374922485283
  0
ARC
  5
18E
100
AcDbEntity
  8
0
  6
CONTINUOUS
 62
               7
100
AcDbCircle
 10
26.865119608229179
 20
-42.692023248913657
 30
0.0
 40
0.9920553184893948
100
AcDbArc
 50
359.53930079525128
 51
90.460699204746774
  0
ARC
  5
18F
100
AcDbEntity
  8
0
  6
CONTINUOUS
 62
               7
100
AcDbCircle
 10
25.033692655425966
 20
-43.194878773145454
 30
0.0
 40
0.9948919540431955
100
AcDbArc
 50
359.70506749066618
 51
90.294932509332043
  0
ARC
  5
190
100
AcDbEntity
  8
0
  6
CONTINUOUS
 62
               7
100
AcDbCircle
 10
19.571121457508411
 20
-41.699692886079823
 30
0.0
 40
0.9996929332537854
100
AcDbArc
 50
89.982398263356416
 51
180.01760173664044
  0
ARC
  5
191
100
AcDbEntity
  8
0
  6
CONTINUOUS
 62
               7
100
AcDbCircle
 10
27.721299402610043
 20
-117.69272797403869
 30
0.0
 40
0.9930110810051621
100
AcDbArc
 50
269.59531359843771
 51
0.4046864015628697
  0
ARC
  5
192
100
AcDbEntity
  8
0
  6
CONTINUOUS
 62
               7
100
AcDbCircle
 10
26.865505621244779
 20
-116.69407704981623
 30
0.0
 40
0.9916724980773547
100
AcDbArc
 50
269.51681954639446
 51
0.4831804536061019
  0
ARC
  5
193
100
AcDbEntity
  8
0
  6
CONTINUOUS
 62
               7
100
AcDbCircle
 10
26.857947917404658
 20
-82.684909225452401
 30
0.0
 40
0.9991952640601716
100
AcDbArc
 50
359.95383629015225
 51
90.046163709845018
  0
ARC
  5
194
100
AcDbEntity
  8
0
  6
CONTINUOUS
 62
               7
100
AcDbCircle
 10
25.034084366114598
 20
-116.19122722325751
 30
0.0
 40
0.9945023428198934
100
AcDbArc
 50
269.68238418542734
 51
0.3176158145726627
  0
ARC
  5
195
100
AcDbEntity
  8
0
  6
CONTINUOUS
 62
               7
100
AcDbCircle
 10
19.570739746899903
 20
-117.68640311024285
 30
0.0
 40
0.999311412874569
100
AcDbArc
 50
179.96050606354709
 51
270.03949393645541
  0
ARC
  5
196
100
AcDbEntity
  8
0
  6
CONTINUOUS
 62
               7
100
AcDbCircle
 10
-18.417102560188368
 20
-120.18799970047819
 30
0.0
 40
14.997714849763771
100
AcDbArc
 50
180.48245623963464
 51
270.01076119824364
  0
ARC
  5
197
100
AcDbEntity
  8
0
  6
CONTINUOUS
 62
               7
100
AcDbCircle
 10
18.420958753506625
 20
-120.19188923264353
 30
0.0
 40
14.993826537997061
100
AcDbArc
 50
269.97450037216703
 51
359.5322821899523
  0
ARC
  5
198
100
AcDbEntity
  8
0
  6
CONTINUOUS
 62
               4
100
AcDbCircle
 10
40.298452273105568
 20
33.701547726894418
 30
0.0
 40
4.701547981646538
100
AcDbArc
 50
270.0188614943068
 51
359.98113850569206
  0
ARC
  5
199
100
AcDbEntity
  8
0
  6
CONTINUOUS
 62
               4
100
AcDbCircle
 10
40.298445656585955
 20
33.701554343414031
 30
0.0
 40
1.5015551479080105
100
AcDbArc
 50
270.05931006501197
 51
359.94068993498541
  0
ARC
  5
19A
100
AcDbEntity
  8
0
  6
CONTINUOUS
 62
               7
100
AcDbCircle
 10
30.951387430336695
 20
-13.990798653644944
 30
0.0
 40
1.0092373968939903
100
AcDbArc
 50
182.14491275960847
 51
269.51571821290463
  0
ARC
  5
19B
100
AcDbEntity
  8
0
  6
CONTINUOUS
 62
               7
100
AcDbCircle
 10
-30.955008647693148
 20
-14.001776812248679
 30
0.0
 40
0.998225469227461
100
AcDbArc
 50
269.87750133512407
 51
358.4618676923597
  0
CIRCLE
  5
19C
100
AcDbEntity
  8
0
  6
CONTINUOUS
 62
               7
100
AcDbCircle
 10
0.0038888113839448
 20
0.0069492885044582
 30
0.0
 40
13.499999727521624
  0
CIRCLE
  5
19D
100
AcDbEntity
  8
0
  6
CONTINUOUS
 62
               2
100
AcDbCircle
 10
0.0038888113839448
 20
0.0069492885044582
 30
0.0
 40
8.3310004643031537
  0
ARC
  5
19E
100
AcDbEntity
  8
0
  6
CONTINUOUS
 62
               7
100
AcDbCircle
 10
-22.001528801851578
 20
-12.998471198148394
 30
0.0
 40
2.0015293857140022
100
AcDbArc
 50
270.0437634855378
 51
359.95623651446084
  0
ARC
  5
19F
100
AcDbEntity
  8
0
  6
CONTINUOUS
 62
               7
100
AcDbCircle
 10
22.005400008590982
 20
-12.994599991409018
 30
0.0
 40
2.0054072789709139
100
AcDbArc
 50
180.15428191506905
 51
269.8457180849295
  0
ARC
  5
1A0
100
AcDbEntity
  8
0
  6
CONTINUOUS
 62
               7
100
AcDbCircle
 10
-18.033106614464373
 20
89.204286753752754
 30
0.0
 40
0.9957609861589112
100
AcDbArc
 50
90.56105135760599
 51
178.60252875939989
  0
ARC
  5
1A1
100
AcDbEntity
  8
0
  6
CONTINUOUS
 62
               7
100
AcDbCircle
 10
18.036923315671856
 20
89.208177362771451
 30
0.0
 40
0.9918578011676492
100
AcDbArc
 50
1.1781691353842545
 51
90.482461837131169
  0
LINE
  5
1A2
100
AcDbEntity
  8
0
  6
CONTINUOUS
 62
               7
100
AcDbLine
 10
-28.714285714285666
 20
-41.700000000000003
 30
0.0
 11
-28.714285714285666
 21
-117.6857142857143
 31
0.0
  0
LINE
  5
1A3
100
AcDbEntity
  8
0
  6
CONTINUOUS
 62
               7
100
AcDbLine
 10
-27.871428571428623
 20
-42.700000000000003
 30
0.0
 11
-27.871428571428623
 21
-74.685714285714283
 31
0.0
  0
LINE
  5
1A4
100
AcDbEntity
  8
0
  6
CONTINUOUS
 62
               7
100
AcDbLine
 10
-26.028571428571468
 20
-43.200000000000003
 30
0.0
 11
-26.028571428571468
 21
-75.685714285714297
 31
0.0
  0
LINE
  5
1A5
100
AcDbEntity
  8
0
  6
CONTINUOUS
 62
               7
100
AcDbLine
 10
-18.571428571428555
 20
-41.700000000000003
 30
0.0
 11
-18.571428571428555
 21
-117.6857142857143
 31
0.0
  0
LINE
  5
1A6
100
AcDbEntity
  8
0
  6
CONTINUOUS
 62
               7
100
AcDbLine
 10
-27.714285714285779
 20
-40.700000000000003
 30
0.0
 11
-19.571428571428555
 21
-40.700000000000003
 31
0.0
  0
LINE
  5
1A7
100
AcDbEntity
  8
0
  6
CONTINUOUS
 62
               7
100
AcDbLine
 10
-19.571428571428555
 20
-118.6857142857143
 30
0.0
 11
-27.714285714285779
 21
-118.6857142857143
 31
0.0
  0
LINE
  5
1A8
100
AcDbEntity
  8
0
  6
CONTINUOUS
 62
               7
100
AcDbLine
 10
-26.028571428571468
 20
-81.685714285714297
 30
0.0
 11
-26.028571428571468
 21
-116.1857142857143
 31
0.0
  0
LINE
  5
1A9
100
AcDbEntity
  8
0
  6
CONTINUOUS
 62
               7
100
AcDbLine
 10
-27.871428571428623
 20
-82.685714285714283
 30
0.0
 11
-27.871428571428623
 21
-116.68571428571428
 31
0.0
  0
LINE
  5
1AA
100
AcDbEntity
  8
0
  6
CONTINUOUS
 62
               7
100
AcDbLine
 10
-18.571428571428555
 20
-117.1857142857143
 30
0.0
 11
-25.028571428571468
 21
-117.1857142857143
 31
0.0
  0
LINE
  5
1AB
100
AcDbEntity
  8
0
  6
CONTINUOUS
 62
               7
100
AcDbLine
 10
-25.028571428571468
 20
-42.200000000000003
 30
0.0
 11
-18.571428571428555
 21
-42.200000000000003
 31
0.0
  0
LINE
  5
1AC
100
AcDbEntity
  8
0
  6
CONTINUOUS
 62
               7
100
AcDbLine
 10
-26.871428571428623
 20
-41.700000000000003
 30
0.0
 11
-18.571428571428555
 21
-41.700000000000003
 31
0.0
  0
LINE
  5
1AD
100
AcDbEntity
  8
0
  6
CONTINUOUS
 62
               7
100
AcDbLine
 10
-18.571428571428555
 20
-75.685714285714297
 30
0.0
 11
-26.871428571428623
 21
-75.685714285714297
 31
0.0
  0
LINE
  5
1AE
100
AcDbEntity
  8
0
  6
CONTINUOUS
 62
               7
100
AcDbLine
 10
-18.571428571428555
 20
-81.685714285714297
 30
0.0
 11
-26.871428571428623
 21
-81.685714285714297
 31
0.0
  0
LINE
  5
1AF
100
AcDbEntity
  8
0
  6
CONTINUOUS
 62
               7
100
AcDbLine
 10
-18.571428571428555
 20
-117.6857142857143
 30
0.0
 11
-26.871428571428623
 21
-117.6857142857143
 31
0.0
  0
LINE
  5
1B0
100
AcDbEntity
  8
0
  6
CONTINUOUS
 62
               7
100
AcDbLine
 10
28.714285714285666
 20
-41.700000000000003
 30
0.0
 11
28.714285714285666
 21
-117.6857142857143
 31
0.0
  0
LINE
  5
1B1
100
AcDbEntity
  8
0
  6
CONTINUOUS
 62
               7
100
AcDbLine
 10
27.857142857142776
 20
-42.700000000000003
 30
0.0
 11
27.857142857142776
 21
-74.685714285714283
 31
0.0
  0
LINE
  5
1B2
100
AcDbEntity
  8
0
  6
CONTINUOUS
 62
               7
100
AcDbLine
 10
26.028571428571354
 20
-43.200000000000003
 30
0.0
 11
26.028571428571354
 21
-75.685714285714297
 31
0.0
  0
LINE
  5
1B3
100
AcDbEntity
  8
0
  6
CONTINUOUS
 62
               7
100
AcDbLine
 10
18.571428571428555
 20
-41.700000000000003
 30
0.0
 11
18.571428571428555
 21
-117.6857142857143
 31
0.0
  0
LINE
  5
1B4
100
AcDbEntity
  8
0
  6
CONTINUOUS
 62
               7
100
AcDbLine
 10
27.714285714285666
 20
-40.700000000000003
 30
0.0
 11
19.571428571428555
 21
-40.700000000000003
 31
0.0
  0
LINE
  5
1B5
100
AcDbEntity
  8
0
  6
CONTINUOUS
 62
               7
100
AcDbLine
 10
19.571428571428555
 20
-118.6857142857143
 30
0.0
 11
27.714285714285666
 21
-118.6857142857143
 31
0.0
  0
LINE
  5
1B6
100
AcDbEntity
  8
0
  6
CONTINUOUS
 62
               7
100
AcDbLine
 10
26.028571428571354
 20
-81.685714285714297
 30
0.0
 11
26.028571428571354
 21
-116.1857142857143
 31
0.0
  0
LINE
  5
1B7
100
AcDbEntity
  8
0
  6
CONTINUOUS
 62
               7
100
AcDbLine
 10
27.857142857142776
 20
-82.685714285714283
 30
0.0
 11
27.857142857142776
 21
-116.68571428571428
 31
0.0
  0
LINE
  5
1B8
100
AcDbEntity
  8
0
  6
CONTINUOUS
 62
               7
100
AcDbLine
 10
18.571428571428555
 20
-117.1857142857143
 30
0.0
 11
25.028571428571354
 21
-117.1857142857143
 31
0.0
  0
LINE
  5
1B9
100
AcDbEntity
  8
0
  6
CONTINUOUS
 62
               7
100
AcDbLine
 10
25.028571428571354
 20
-42.200000000000003
 30
0.0
 11
18.571428571428555
 21
-42.200000000000003
 31
0.0
  0
LINE
  5
1BA
100
AcDbEntity
  8
0
  6
CONTINUOUS
 62
               7
100
AcDbLine
 10
26.85714285714289
 20
-41.700000000000003
 30
0.0
 11
18.571428571428555
 21
-41.700000000000003
 31
0.0
  0
LINE
  5
1BB
100
AcDbEntity
  8
0
  6
CONTINUOUS
 62
               7
100
AcDbLine
 10
18.571428571428555
 20
-75.685714285714297
 30
0.0
 11
26.85714285714289
 21
-75.685714285714297
 31
0.0
  0
LINE
  5
1BC
100
AcDbEntity
  8
0
  6
CONTINUOUS
 62
               7
100
AcDbLine
 10
18.571428571428555
 20
-81.685714285714297
 30
0.0
 11
26.85714285714289
 21
-81.685714285714297
 31
0.0
  0
LINE
  5
1BD
100
AcDbEntity
  8
0
  6
CONTINUOUS
 62
               7
100
AcDbLine
 10
18.571428571428555
 20
-117.6857142857143
 30
0.0
 11
26.85714285714289
 21
-117.6857142857143
 31
0.0
  0
LINE
  5
1BE
100
AcDbEntity
  8
0
  6
CENTER
 62
               2
100
AcDbLine
 10
0.0
 20
94.671428571428564
 30
0.0
 11
0.0
 21
-153.44285714285712
 31
0.0
  0
LINE
  5
1BF
100
AcDbEntity
  8
0
  6
CONTINUOUS
 62
               7
100
AcDbLine
 10
-6.2571428571428669
 20
-150.48571428571429
 30
0.0
 11
-7.7571428571428669
 21
-150.48571428571429
 31
0.0
  0
LINE
  5
1C0
100
AcDbEntity
  8
0
  6
CONTINUOUS
 62
               7
100
AcDbLine
 10
7.7428571428571331
 20
-150.48571428571429
 30
0.0
 11
6.2571428571428669
 21
-150.48571428571429
 31
0.0
  0
LINE
  5
1C1
100
AcDbEntity
  8
0
  6
CONTINUOUS
 62
               7
100
AcDbLine
 10
-1.8428571428571558
 20
-150.48571428571429
 30
0.0
 11
-3.6571428571428442
 21
-150.48571428571429
 31
0.0
  0
LINE
  5
1C2
100
AcDbEntity
  8
0
  6
CONTINUOUS
 62
               7
100
AcDbLine
 10
-6.4428571428571786
 20
-149.98571428571432
 30
0.0
 11
-6.2571428571428669
 21
-150.48571428571429
 31
0.0
  0
LINE
  5
1C3
100
AcDbEntity
  8
0
  6
CONTINUOUS
 62
               7
100
AcDbLine
 10
6.4285714285714448
 20
-149.98571428571432
 30
0.0
 11
6.2571428571428669
 21
-150.48571428571429
 31
0.0
  0
LINE
  5
1C4
100
AcDbEntity
  8
0
  6
CONTINUOUS
 62
               7
100
AcDbLine
 10
-3.6571428571428442
 20
-150.48571428571429
 30
0.0
 11
-4.3142857142856883
 21
-149.98571428571432
 31
0.0
  0
LINE
  5
1C5
100
AcDbEntity
  8
0
  6
CONTINUOUS
 62
               7
100
AcDbLine
 10
-1.5
 20
-149.98571428571432
 30
0.0
 11
-1.8428571428571558
 21
-150.48571428571429
 31
0.0
  0
LINE
  5
1C6
100
AcDbEntity
  8
0
  6
CONTINUOUS
 62
               7
100
AcDbLine
 10
1.8428571428570422
 20
-150.48571428571429
 30
0.0
 11
1.5
 21
-149.98571428571432
 31
0.0
  0
LINE
  5
1C7
100
AcDbEntity
  8
0
  6
CONTINUOUS
 62
               7
100
AcDbLine
 10
3.6571428571428442
 20
-150.48571428571429
 30
0.0
 11
4.3142857142856883
 21
-149.98571428571432
 31
0.0
  0
LINE
  5
1C8
100
AcDbEntity
  8
0
  6
CONTINUOUS
 62
               7
100
AcDbLine
 10
3.6571428571428442
 20
-150.48571428571429
 30
0.0
 11
1.8428571428570422
 21
-150.48571428571429
 31
0.0
  0
LINE
  5
1C9
100
AcDbEntity
  8
0
  6
CONTINUOUS
 62
               7
100
AcDbLine
 10
6.4285714285714448
 20
-149.98571428571432
 30
0.0
 11
4.3142857142856883
 21
-149.98571428571432
 31
0.0
  0
LINE
  5
1CA
100
AcDbEntity
  8
0
  6
CONTINUOUS
 62
               7
100
AcDbLine
 10
-4.3142857142856883
 20
-149.98571428571432
 30
0.0
 11
-6.4428571428571786
 21
-149.98571428571432
 31
0.0
  0
LINE
  5
1CB
100
AcDbEntity
  8
0
  6
CONTINUOUS
 62
               7
100
AcDbLine
 10
1.5
 20
-149.98571428571432
 30
0.0
 11
-1.5
 21
-149.98571428571432
 31
0.0
  0
LINE
  5
1CC
100
AcDbEntity
  8
0
  6
CONTINUOUS
 62
               7
100
AcDbLine
 10
-6.4428571428571786
 20
-140.98571428571429
 30
0.0
 11
-7.6000000000000227
 21
-140.98571428571429
 31
0.0
  0
LINE
  5
1CD
100
AcDbEntity
  8
0
  6
CONTINUOUS
 62
               7
100
AcDbLine
 10
4.3142857142856883
 20
-140.98571428571429
 30
0.0
 11
1.5
 21
-140.98571428571429
 31
0.0
  0
LINE
  5
1CE
100
AcDbEntity
  8
0
  6
CONTINUOUS
 62
               7
100
AcDbLine
 10
-1.5
 20
-140.98571428571429
 30
0.0
 11
-4.3142857142856883
 21
-140.98571428571429
 31
0.0
  0
LINE
  5
1CF
100
AcDbEntity
  8
0
  6
CONTINUOUS
 62
               7
100
AcDbLine
 10
7.6000000000000227
 20
-140.98571428571429
 30
0.0
 11
6.4285714285714448
 21
-140.98571428571429
 31
0.0
  0
LINE
  5
1D0
100
AcDbEntity
  8
0
  6
CONTINUOUS
 62
               7
100
AcDbLine
 10
6.4285714285714448
 20
-140.98571428571429
 30
0.0
 11
6.4285714285714448
 21
-149.98571428571432
 31
0.0
  0
LINE
  5
1D1
100
AcDbEntity
  8
0
  6
CONTINUOUS
 62
               7
100
AcDbLine
 10
4.3142857142856883
 20
-140.98571428571429
 30
0.0
 11
4.3142857142856883
 21
-149.98571428571432
 31
0.0
  0
LINE
  5
1D2
100
AcDbEntity
  8
0
  6
CONTINUOUS
 62
               7
100
AcDbLine
 10
-6.4428571428571786
 20
-140.98571428571429
 30
0.0
 11
-6.4428571428571786
 21
-149.98571428571432
 31
0.0
  0
LINE
  5
1D3
100
AcDbEntity
  8
0
  6
CONTINUOUS
 62
               7
100
AcDbLine
 10
-4.3142857142856883
 20
-140.98571428571429
 30
0.0
 11
-4.3142857142856883
 21
-149.98571428571432
 31
0.0
  0
LINE
  5
1D4
100
AcDbEntity
  8
0
  6
CONTINUOUS
 62
               7
100
AcDbLine
 10
1.5
 20
-140.98571428571429
 30
0.0
 11
1.5
 21
-149.98571428571432
 31
0.0
  0
LINE
  5
1D5
100
AcDbEntity
  8
0
  6
CONTINUOUS
 62
               7
100
AcDbLine
 10
-1.5
 20
-140.98571428571429
 30
0.0
 11
-1.5
 21
-149.98571428571432
 31
0.0
  0
LINE
  5
1D6
100
AcDbEntity
  8
0
  6
CONTINUOUS
 62
               2
100
AcDbLine
 10
5.2428571428571331
 20
-136.68571428571428
 30
0.0
 11
5.2428571428571331
 21
-137.98571428571429
 31
0.0
  0
LINE
  5
1D7
100
AcDbEntity
  8
0
  6
CONTINUOUS
 62
               2
100
AcDbLine
 10
-5.2571428571428669
 20
-136.68571428571428
 30
0.0
 11
-5.2571428571428669
 21
-137.98571428571429
 31
0.0
  0
LINE
  5
1D8
100
AcDbEntity
  8
0
  6
CONTINUOUS
 62
               7
100
AcDbLine
 10
-6.0
 20
-136.68571428571428
 30
0.0
 11
-6.0
 21
-137.98571428571429
 31
0.0
  0
LINE
  5
1D9
100
AcDbEntity
  8
0
  6
CONTINUOUS
 62
               7
100
AcDbLine
 10
6.0
 20
-136.68571428571428
 30
0.0
 11
6.0
 21
-137.98571428571429
 31
0.0
  0
LINE
  5
1DA
100
AcDbEntity
  8
0
  6
CONTINUOUS
 62
               7
100
AcDbLine
 10
7.7428571428571331
 20
-137.98571428571429
 30
0.0
 11
-7.7571428571428669
 21
-137.98571428571429
 31
0.0
  0
LINE
  5
1DB
100
AcDbEntity
  8
0
  6
CONTINUOUS
 62
               7
100
AcDbLine
 10
-6.7571428571428669
 20
-151.48571428571429
 30
0.0
 11
-7.7571428571428669
 21
-150.48571428571429
 31
0.0
  0
LINE
  5
1DC
100
AcDbEntity
  8
0
  6
CONTINUOUS
 62
               7
100
AcDbLine
 10
7.7428571428571331
 20
-150.48571428571429
 30
0.0
 11
6.7428571428571331
 21
-151.48571428571429
 31
0.0
  0
LINE
  5
1DD
100
AcDbEntity
  8
0
  6
CONTINUOUS
 62
               7
100
AcDbLine
 10
-7.7571428571428669
 20
-137.98571428571429
 30
0.0
 11
-7.7571428571428669
 21
-150.48571428571429
 31
0.0
  0
LINE
  5
1DE
100
AcDbEntity
  8
0
  6
CONTINUOUS
 62
               7
100
AcDbLine
 10
7.7428571428571331
 20
-137.98571428571429
 30
0.0
 11
7.7428571428571331
 21
-150.48571428571429
 31
0.0
  0
LINE
  5
1DF
100
AcDbEntity
  8
0
  6
CONTINUOUS
 62
               7
100
AcDbLine
 10
6.7428571428571331
 20
-151.48571428571429
 30
0.0
 11
-6.7571428571428669
 21
-151.48571428571429
 31
0.0
  0
LINE
  5
1E0
100
AcDbEntity
  8
0
  6
CONTINUOUS
 62
               7
100
AcDbLine
 10
8.0714285714285552
 20
-136.68571428571428
 30
0.0
 11
8.0714285714285552
 21
-135.18571428571431
 31
0.0
  0
LINE
  5
1E1
100
AcDbEntity
  8
0
  6
CONTINUOUS
 62
               7
100
AcDbLine
 10
-8.0714285714285552
 20
-136.68571428571428
 30
0.0
 11
-8.0714285714285552
 21
-135.18571428571431
 31
0.0
  0
LINE
  5
1E2
100
AcDbEntity
  8
0
  6
CONTINUOUS
 62
               7
100
AcDbLine
 10
-8.0714285714285552
 20
-136.68571428571428
 30
0.0
 11
8.0714285714285552
 21
-136.68571428571428
 31
0.0
  0
LINE
  5
1E3
100
AcDbEntity
  8
0
  6
CONTINUOUS
 62
               7
100
AcDbLine
 10
33.414285714285711
 20
-120.31428571428573
 30
0.0
 11
34.14285714285711
 21
-36.0
 31
0.0
  0
LINE
  5
1E4
100
AcDbEntity
  8
0
  6
CONTINUOUS
 62
               7
100
AcDbLine
 10
-33.414285714285711
 20
-120.31428571428573
 30
0.0
 11
-34.157142857142844
 21
-36.0
 31
0.0
  0
LINE
  5
1E5
100
AcDbEntity
  8
0
  6
CONTINUOUS
 62
               7
100
AcDbLine
 10
18.414285714285711
 20
-135.18571428571431
 30
0.0
 11
-18.414285714285711
 21
-135.18571428571431
 31
0.0
  0
LINE
  5
1E6
100
AcDbEntity
  8
0
  6
CONTINUOUS
 62
               7
100
AcDbLine
 10
16.885714285714243
 20
41.200000000000003
 30
0.0
 11
16.714285714285666
 21
42.199999999999974
 31
0.0
  0
LINE
  5
1E7
100
AcDbEntity
  8
0
  6
CONTINUOUS
 62
               7
100
AcDbLine
 10
-16.899999999999977
 20
41.200000000000003
 30
0.0
 11
-16.714285714285666
 21
42.199999999999974
 31
0.0
  0
LINE
  5
1E8
100
AcDbEntity
  8
0
  6
CONTINUOUS
 62
               7
100
AcDbLine
 10
19.285714285714221
 20
63.199999999999974
 30
0.0
 11
21.128571428571377
 21
62.199999999999974
 31
0.0
  0
LINE
  5
1E9
100
AcDbEntity
  8
0
  6
CONTINUOUS
 62
               7
100
AcDbLine
 10
19.285714285714221
 20
63.199999999999974
 30
0.0
 11
18.071428571428555
 21
63.199999999999974
 31
0.0
  0
LINE
  5
1EA
100
AcDbEntity
  8
0
  6
CONTINUOUS
 62
               7
100
AcDbLine
 10
15.842857142857156
 20
88.200000000000003
 30
0.0
 11
16.885714285714243
 21
87.200000000000003
 31
0.0
  0
LINE
  5
1EB
100
AcDbEntity
  8
0
  6
CONTINUOUS
 62
               7
100
AcDbLine
 10
16.885714285714243
 20
87.200000000000003
 30
0.0
 11
11.199999999999932
 21
87.200000000000003
 31
0.0
  0
LINE
  5
1EC
100
AcDbEntity
  8
0
  6
CONTINUOUS
 62
               7
100
AcDbLine
 10
9.9857142857142662
 20
88.200000000000003
 30
0.0
 11
11.199999999999932
 21
87.200000000000003
 31
0.0
  0
LINE
  5
1ED
100
AcDbEntity
  8
0
  6
CONTINUOUS
 62
               7
100
AcDbLine
 10
9.9285714285714448
 20
63.199999999999974
 30
0.0
 11
11.171428571428578
 21
62.199999999999974
 31
0.0
  0
LINE
  5
1EE
100
AcDbEntity
  8
0
  6
CONTINUOUS
 62
               7
100
AcDbLine
 10
9.9285714285714448
 20
63.199999999999974
 30
0.0
 11
4.8857142857142435
 21
63.199999999999974
 31
0.0
  0
LINE
  5
1EF
100
AcDbEntity
  8
0
  6
CONTINUOUS
 62
               7
100
AcDbLine
 10
-9.9428571428571786
 20
63.199999999999974
 30
0.0
 11
-11.171428571428578
 21
62.199999999999974
 31
0.0
  0
LINE
  5
1F0
100
AcDbEntity
  8
0
  6
CONTINUOUS
 62
               7
100
AcDbLine
 10
4.0142857142857338
 20
87.200000000000003
 30
0.0
 11
-4.0142857142857338
 21
87.200000000000003
 31
0.0
  0
LINE
  5
1F1
100
AcDbEntity
  8
0
  6
CONTINUOUS
 62
               7
100
AcDbLine
 10
-9.9428571428571786
 20
63.199999999999974
 30
0.0
 11
-4.8857142857142435
 21
63.199999999999974
 31
0.0
  0
LINE
  5
1F2
100
AcDbEntity
  8
0
  6
CONTINUOUS
 62
               7
100
AcDbLine
 10
-15.842857142857156
 20
88.200000000000003
 30
0.0
 11
-16.885714285714243
 21
87.200000000000003
 31
0.0
  0
LINE
  5
1F3
100
AcDbEntity
  8
0
  6
CONTINUOUS
 62
               7
100
AcDbLine
 10
-9.9857142857142662
 20
88.200000000000003
 30
0.0
 11
-11.214285714285666
 21
87.200000000000003
 31
0.0
  0
LINE
  5
1F4
100
AcDbEntity
  8
0
  6
CONTINUOUS
 62
               7
100
AcDbLine
 10
-16.885714285714243
 20
87.200000000000003
 30
0.0
 11
-11.214285714285666
 21
87.200000000000003
 31
0.0
  0
LINE
  5
1F5
100
AcDbEntity
  8
0
  6
CONTINUOUS
 62
               7
100
AcDbLine
 10
-19.285714285714334
 20
63.199999999999974
 30
0.0
 11
-21.14285714285711
 21
62.199999999999974
 31
0.0
  0
LINE
  5
1F6
100
AcDbEntity
  8
0
  6
CONTINUOUS
 62
               7
100
AcDbLine
 10
-19.285714285714334
 20
63.199999999999974
 30
0.0
 11
-18.085714285714289
 21
63.199999999999974
 31
0.0
  0
LINE
  5
1F7
100
AcDbEntity
  8
0
  6
CONTINUOUS
 62
               7
100
AcDbLine
 10
33.0
 20
6.5428571428571303
 30
0.0
 11
34.971428571428532
 21
6.6142857142857139
 31
0.0
  0
LINE
  5
1F8
100
AcDbEntity
  8
0
  6
CONTINUOUS
 62
               2
100
AcDbLine
 10
33.0
 20
5.6857142857142833
 30
0.0
 11
35.457142857142799
 21
5.7714285714285722
 31
0.0
  0
LINE
  5
1F9
100
AcDbEntity
  8
0
  6
CONTINUOUS
 62
               7
100
AcDbLine
 10
34.971428571428532
 20
6.6142857142857139
 30
0.0
 11
35.671428571428578
 21
5.3999999999999915
 31
0.0
  0
LINE
  5
1FA
100
AcDbEntity
  8
0
  6
CONTINUOUS
 62
               7
100
AcDbLine
 10
34.971428571428532
 20
-6.6142857142857139
 30
0.0
 11
35.671428571428578
 21
-5.4000000000000057
 31
0.0
  0
LINE
  5
1FB
100
AcDbEntity
  8
0
  6
CONTINUOUS
 62
               7
100
AcDbLine
 10
35.671428571428578
 20
5.3999999999999915
 30
0.0
 11
35.671428571428578
 21
-5.4000000000000057
 31
0.0
  0
LINE
  5
1FC
100
AcDbEntity
  8
0
  6
CONTINUOUS
 62
               7
100
AcDbLine
 10
33.0
 20
-6.5428571428571445
 30
0.0
 11
34.971428571428532
 21
-6.6142857142857139
 31
0.0
  0
LINE
  5
1FD
100
AcDbEntity
  8
0
  6
CONTINUOUS
 62
               2
100
AcDbLine
 10
33.0
 20
-5.6857142857142975
 30
0.0
 11
35.457142857142799
 21
-5.7714285714285865
 31
0.0
  0
LINE
  5
1FE
100
AcDbEntity
  8
0
  6
CONTINUOUS
 62
               7
100
AcDbLine
 10
32.0
 20
10.0
 30
0.0
 11
32.0
 21
-10.000000000000014
 31
0.0
  0
LINE
  5
1FF
100
AcDbEntity
  8
0
  6
CONTINUOUS
 62
               7
100
AcDbLine
 10
-32.0
 20
10.0
 30
0.0
 11
-32.0
 21
-10.000000000000014
 31
0.0
  0
LINE
  5
200
100
AcDbEntity
  8
0
  6
CONTINUOUS
 62
               7
100
AcDbLine
 10
29.114285714285643
 20
10.0
 30
0.0
 11
32.0
 21
10.0
 31
0.0
  0
LINE
  5
201
100
AcDbEntity
  8
0
  6
CONTINUOUS
 62
               7
100
AcDbLine
 10
29.814285714285688
 20
-10.000000000000014
 30
0.0
 11
32.0
 21
-10.000000000000014
 31
0.0
  0
LINE
  5
202
100
AcDbEntity
  8
0
  6
CONTINUOUS
 62
               7
100
AcDbLine
 10
32.0
 20
-10.000000000000014
 30
0.0
 11
33.0
 21
-9.0000000000000142
 31
0.0
  0
LINE
  5
203
100
AcDbEntity
  8
0
  6
CONTINUOUS
 62
               7
100
AcDbLine
 10
32.0
 20
10.0
 30
0.0
 11
33.0
 21
8.9999999999999858
 31
0.0
  0
LINE
  5
204
100
AcDbEntity
  8
0
  6
CONTINUOUS
 62
               7
100
AcDbLine
 10
-33.0
 20
8.9999999999999858
 30
0.0
 11
-32.0
 21
10.0
 31
0.0
  0
LINE
  5
205
100
AcDbEntity
  8
0
  6
CONTINUOUS
 62
               7
100
AcDbLine
 10
-32.0
 20
-10.000000000000014
 30
0.0
 11
-33.0
 21
-9.0000000000000142
 31
0.0
  0
LINE
  5
206
100
AcDbEntity
  8
0
  6
CONTINUOUS
 62
               7
100
AcDbLine
 10
33.0
 20
8.9999999999999858
 30
0.0
 11
33.0
 21
-9.0000000000000142
 31
0.0
  0
LINE
  5
207
100
AcDbEntity
  8
0
  6
CONTINUOUS
 62
               7
100
AcDbLine
 10
-33.0
 20
8.9999999999999858
 30
0.0
 11
-33.0
 21
-9.0000000000000142
 31
0.0
  0
LINE
  5
208
100
AcDbEntity
  8
0
  6
CONTINUOUS
 62
               7
100
AcDbLine
 10
-32.0
 20
10.0
 30
0.0
 11
-29.114285714285757
 21
10.0
 31
0.0
  0
LINE
  5
209
100
AcDbEntity
  8
0
  6
CONTINUOUS
 62
               7
100
AcDbLine
 10
-32.0
 20
-10.000000000000014
 30
0.0
 11
-29.814285714285802
 21
-10.000000000000014
 31
0.0
  0
LINE
  5
20A
100
AcDbEntity
  8
0
  6
CONTINUOUS
 62
               4
100
AcDbLine
 10
41.799999999999955
 20
38.328571428571408
 30
0.0
 11
35.671428571428578
 21
32.200000000000003
 31
0.0
  0
LINE
  5
20B
100
AcDbEntity
  8
0
  6
CONTINUOUS
 62
               2
100
AcDbLine
 10
-21.5
 20
28.999999999999986
 30
0.0
 11
-21.5
 21
32.200000000000003
 31
0.0
  0
LINE
  5
20C
100
AcDbEntity
  8
0
  6
CONTINUOUS
 62
               2
100
AcDbLine
 10
21.5
 20
28.999999999999986
 30
0.0
 11
21.5
 21
32.200000000000003
 31
0.0
  0
LINE
  5
20D
100
AcDbEntity
  8
0
  6
CONTINUOUS
 62
               7
100
AcDbLine
 10
-22.5
 20
28.999999999999986
 30
0.0
 11
-22.5
 21
32.200000000000003
 31
0.0
  0
LINE
  5
20E
100
AcDbEntity
  8
0
  6
CONTINUOUS
 62
               7
100
AcDbLine
 10
22.5
 20
28.999999999999986
 30
0.0
 11
22.5
 21
32.200000000000003
 31
0.0
  0
LINE
  5
20F
100
AcDbEntity
  8
0
  6
CONTINUOUS
 62
               4
100
AcDbLine
 10
-27.5
 20
28.999999999999986
 30
0.0
 11
-27.5
 21
32.200000000000003
 31
0.0
  0
LINE
  5
210
100
AcDbEntity
  8
0
  6
CONTINUOUS
 62
               4
100
AcDbLine
 10
41.799999999999955
 20
55.999999999999986
 30
0.0
 11
45.0
 21
55.999999999999986
 31
0.0
  0
LINE
  5
211
100
AcDbEntity
  8
0
  6
CONTINUOUS
 62
               4
100
AcDbLine
 10
41.799999999999955
 20
33.699999999999974
 30
0.0
 11
41.799999999999955
 21
58.999999999999986
 31
0.0
  0
LINE
  5
212
100
AcDbEntity
  8
0
  6
CONTINUOUS
 62
               4
100
AcDbLine
 10
45.0
 20
33.699999999999974
 30
0.0
 11
45.0
 21
58.999999999999986
 31
0.0
  0
LINE
  5
213
100
AcDbEntity
  8
0
  6
CONTINUOUS
 62
               7
100
AcDbLine
 10
-21.700000000000045
 20
35.200000000000003
 30
0.0
 11
-22.742857142857133
 21
34.200000000000003
 31
0.0
  0
LINE
  5
214
100
AcDbEntity
  8
0
  6
CONTINUOUS
 62
               7
100
AcDbLine
 10
-11.114285714285757
 20
34.200000000000003
 30
0.0
 11
-10.342857142857156
 21
35.200000000000003
 31
0.0
  0
LINE
  5
215
100
AcDbEntity
  8
0
  6
CONTINUOUS
 62
               7
100
AcDbLine
 10
-11.114285714285757
 20
41.200000000000003
 30
0.0
 11
-10.342857142857156
 21
42.199999999999974
 31
0.0
  0
LINE
  5
216
100
AcDbEntity
  8
0
  6
CONTINUOUS
 62
               7
100
AcDbLine
 10
11.114285714285757
 20
34.200000000000003
 30
0.0
 11
10.342857142857156
 21
35.200000000000003
 31
0.0
  0
LINE
  5
217
100
AcDbEntity
  8
0
  6
CONTINUOUS
 62
               7
100
AcDbLine
 10
11.114285714285757
 20
41.200000000000003
 30
0.0
 11
10.342857142857156
 21
42.199999999999974
 31
0.0
  0
LINE
  5
218
100
AcDbEntity
  8
0
  6
CONTINUOUS
 62
               7
100
AcDbLine
 10
21.699999999999932
 20
35.200000000000003
 30
0.0
 11
22.742857142857133
 21
34.200000000000003
 31
0.0
  0
LINE
  5
219
100
AcDbEntity
  8
0
  6
CONTINUOUS
 62
               7
100
AcDbLine
 10
22.742857142857133
 20
41.200000000000003
 30
0.0
 11
21.699999999999932
 21
42.199999999999974
 31
0.0
  0
LINE
  5
21A
100
AcDbEntity
  8
0
  6
CONTINUOUS
 62
               7
100
AcDbLine
 10
-27.242857142857133
 20
35.200000000000003
 30
0.0
 11
-28.285714285714334
 21
34.200000000000003
 31
0.0
  0
LINE
  5
21B
100
AcDbEntity
  8
0
  6
CONTINUOUS
 62
               7
100
AcDbLine
 10
28.285714285714334
 20
34.200000000000003
 30
0.0
 11
27.242857142857133
 21
35.200000000000003
 31
0.0
  0
LINE
  5
21C
100
AcDbEntity
  8
0
  6
CONTINUOUS
 62
               7
100
AcDbLine
 10
27.242857142857133
 20
35.200000000000003
 30
0.0
 11
27.242857142857133
 21
42.199999999999974
 31
0.0
  0
LINE
  5
21D
100
AcDbEntity
  8
0
  6
CONTINUOUS
 62
               7
100
AcDbLine
 10
-27.242857142857133
 20
35.200000000000003
 30
0.0
 11
-27.242857142857133
 21
42.199999999999974
 31
0.0
  0
LINE
  5
21E
100
AcDbEntity
  8
0
  6
CONTINUOUS
 62
               7
100
AcDbLine
 10
-26.242857142857133
 20
41.200000000000003
 30
0.0
 11
-25.48571428571438
 21
42.199999999999974
 31
0.0
  0
LINE
  5
21F
100
AcDbEntity
  8
0
  6
CONTINUOUS
 62
               7
100
AcDbLine
 10
26.242857142857133
 20
41.200000000000003
 30
0.0
 11
25.471428571428532
 21
42.199999999999974
 31
0.0
  0
LINE
  5
220
100
AcDbEntity
  8
0
  6
CONTINUOUS
 62
               7
100
AcDbLine
 10
26.242857142857133
 20
41.200000000000003
 30
0.0
 11
22.742857142857133
 21
41.200000000000003
 31
0.0
  0
LINE
  5
221
100
AcDbEntity
  8
0
  6
CONTINUOUS
 62
               7
100
AcDbLine
 10
27.242857142857133
 20
35.200000000000003
 30
0.0
 11
26.242857142857133
 21
35.200000000000003
 31
0.0
  0
LINE
  5
222
100
AcDbEntity
  8
0
  6
CONTINUOUS
 62
               7
100
AcDbLine
 10
28.5
 20
34.200000000000003
 30
0.0
 11
26.242857142857133
 21
34.200000000000003
 31
0.0
  0
LINE
  5
223
100
AcDbEntity
  8
0
  6
CONTINUOUS
 62
               7
100
AcDbLine
 10
26.242857142857133
 20
34.200000000000003
 30
0.0
 11
26.242857142857133
 21
41.200000000000003
 31
0.0
  0
LINE
  5
224
100
AcDbEntity
  8
0
  6
CONTINUOUS
 62
               7
100
AcDbLine
 10
-26.242857142857133
 20
34.200000000000003
 30
0.0
 11
-26.242857142857133
 21
41.200000000000003
 31
0.0
  0
LINE
  5
225
100
AcDbEntity
  8
0
  6
CONTINUOUS
 62
               7
100
AcDbLine
 10
-26.242857142857133
 20
35.200000000000003
 30
0.0
 11
-27.242857142857133
 21
35.200000000000003
 31
0.0
  0
LINE
  5
226
100
AcDbEntity
  8
0
  6
CONTINUOUS
 62
               7
100
AcDbLine
 10
-26.242857142857133
 20
34.200000000000003
 30
0.0
 11
-28.285714285714334
 21
34.200000000000003
 31
0.0
  0
LINE
  5
227
100
AcDbEntity
  8
0
  6
CONTINUOUS
 62
               7
100
AcDbLine
 10
21.699999999999932
 20
35.200000000000003
 30
0.0
 11
16.885714285714243
 21
35.200000000000003
 31
0.0
  0
LINE
  5
228
100
AcDbEntity
  8
0
  6
CONTINUOUS
 62
               7
100
AcDbLine
 10
22.742857142857133
 20
34.200000000000003
 30
0.0
 11
16.885714285714243
 21
34.200000000000003
 31
0.0
  0
LINE
  5
229
100
AcDbEntity
  8
0
  6
CONTINUOUS
 62
               7
100
AcDbLine
 10
21.699999999999932
 20
35.200000000000003
 30
0.0
 11
21.699999999999932
 21
42.199999999999974
 31
0.0
  0
LINE
  5
22A
100
AcDbEntity
  8
0
  6
CONTINUOUS
 62
               7
100
AcDbLine
 10
22.742857142857133
 20
34.200000000000003
 30
0.0
 11
22.742857142857133
 21
41.200000000000003
 31
0.0
  0
LINE
  5
22B
100
AcDbEntity
  8
0
  6
CONTINUOUS
 62
               7
100
AcDbLine
 10
-22.742857142857133
 20
34.200000000000003
 30
0.0
 11
-22.742857142857133
 21
41.200000000000003
 31
0.0
  0
LINE
  5
22C
100
AcDbEntity
  8
0
  6
CONTINUOUS
 62
               7
100
AcDbLine
 10
-21.700000000000045
 20
35.200000000000003
 30
0.0
 11
-21.700000000000045
 21
42.199999999999974
 31
0.0
  0
LINE
  5
22D
100
AcDbEntity
  8
0
  6
CONTINUOUS
 62
               7
100
AcDbLine
 10
-22.742857142857133
 20
41.200000000000003
 30
0.0
 11
-26.242857142857133
 21
41.200000000000003
 31
0.0
  0
LINE
  5
22E
100
AcDbEntity
  8
0
  6
CONTINUOUS
 62
               7
100
AcDbLine
 10
16.885714285714243
 20
41.200000000000003
 30
0.0
 11
11.114285714285757
 21
41.200000000000003
 31
0.0
  0
LINE
  5
22F
100
AcDbEntity
  8
0
  6
CONTINUOUS
 62
               7
100
AcDbLine
 10
16.885714285714243
 20
34.200000000000003
 30
0.0
 11
16.885714285714243
 21
41.200000000000003
 31
0.0
  0
LINE
  5
230
100
AcDbEntity
  8
0
  6
CONTINUOUS
 62
               7
100
AcDbLine
 10
-16.899999999999977
 20
34.200000000000003
 30
0.0
 11
-16.899999999999977
 21
41.200000000000003
 31
0.0
  0
LINE
  5
231
100
AcDbEntity
  8
0
  6
CONTINUOUS
 62
               7
100
AcDbLine
 10
-10.342857142857156
 20
35.200000000000003
 30
0.0
 11
-10.342857142857156
 21
42.199999999999974
 31
0.0
  0
LINE
  5
232
100
AcDbEntity
  8
0
  6
CONTINUOUS
 62
               7
100
AcDbLine
 10
-11.114285714285757
 20
34.200000000000003
 30
0.0
 11
-11.114285714285757
 21
41.200000000000003
 31
0.0
  0
LINE
  5
233
100
AcDbEntity
  8
0
  6
CONTINUOUS
 62
               7
100
AcDbLine
 10
10.342857142857156
 20
35.200000000000003
 30
0.0
 11
10.342857142857156
 21
42.199999999999974
 31
0.0
  0
LINE
  5
234
100
AcDbEntity
  8
0
  6
CONTINUOUS
 62
               7
100
AcDbLine
 10
11.114285714285757
 20
34.200000000000003
 30
0.0
 11
11.114285714285757
 21
41.200000000000003
 31
0.0
  0
LINE
  5
235
100
AcDbEntity
  8
0
  6
CONTINUOUS
 62
               7
100
AcDbLine
 10
-3.5
 20
34.200000000000003
 30
0.0
 11
-3.5
 21
42.199999999999974
 31
0.0
  0
LINE
  5
236
100
AcDbEntity
  8
0
  6
CONTINUOUS
 62
               7
100
AcDbLine
 10
3.5
 20
34.200000000000003
 30
0.0
 11
3.5
 21
42.199999999999974
 31
0.0
  0
LINE
  5
237
100
AcDbEntity
  8
0
  6
CONTINUOUS
 62
               7
100
AcDbLine
 10
-16.899999999999977
 20
35.200000000000003
 30
0.0
 11
-21.700000000000045
 21
35.200000000000003
 31
0.0
  0
LINE
  5
238
100
AcDbEntity
  8
0
  6
CONTINUOUS
 62
               7
100
AcDbLine
 10
-16.899999999999977
 20
34.200000000000003
 30
0.0
 11
-22.742857142857133
 21
34.200000000000003
 31
0.0
  0
LINE
  5
239
100
AcDbEntity
  8
0
  6
CONTINUOUS
 62
               7
100
AcDbLine
 10
10.342857142857156
 20
35.200000000000003
 30
0.0
 11
3.7714285714286007
 21
35.200000000000003
 31
0.0
  0
LINE
  5
23A
100
AcDbEntity
  8
0
  6
CONTINUOUS
 62
               7
100
AcDbLine
 10
11.114285714285757
 20
34.200000000000003
 30
0.0
 11
3.5
 21
34.200000000000003
 31
0.0
  0
LINE
  5
23B
100
AcDbEntity
  8
0
  6
CONTINUOUS
 62
               7
100
AcDbLine
 10
-3.5
 20
35.200000000000003
 30
0.0
 11
-10.342857142857156
 21
35.200000000000003
 31
0.0
  0
LINE
  5
23C
100
AcDbEntity
  8
0
  6
CONTINUOUS
 62
               7
100
AcDbLine
 10
-3.5
 20
34.200000000000003
 30
0.0
 11
-11.114285714285757
 21
34.200000000000003
 31
0.0
  0
LINE
  5
23D
100
AcDbEntity
  8
0
  6
CONTINUOUS
 62
               7
100
AcDbLine
 10
-11.114285714285757
 20
41.200000000000003
 30
0.0
 11
-16.899999999999977
 21
41.200000000000003
 31
0.0
  0
LINE
  5
23E
100
AcDbEntity
  8
0
  6
CONTINUOUS
 62
               7
100
AcDbLine
 10
3.5
 20
41.200000000000003
 30
0.0
 11
-3.5
 21
41.200000000000003
 31
0.0
  0
LINE
  5
23F
100
AcDbEntity
  8
0
  6
CONTINUOUS
 62
               7
100
AcDbLine
 10
-28.5
 20
41.200000000000003
 30
0.0
 11
-27.5
 21
42.199999999999974
 31
0.0
  0
LINE
  5
240
100
AcDbEntity
  8
0
  6
CONTINUOUS
 62
               7
100
AcDbLine
 10
28.5
 20
41.200000000000003
 30
0.0
 11
27.5
 21
42.199999999999974
 31
0.0
  0
LINE
  5
241
100
AcDbEntity
  8
0
  6
CONTINUOUS
 62
               7
100
AcDbLine
 10
27.5
 20
42.199999999999974
 30
0.0
 11
-27.5
 21
42.199999999999974
 31
0.0
  0
LINE
  5
242
100
AcDbEntity
  8
0
  6
CONTINUOUS
 62
               7
100
AcDbLine
 10
-28.5
 20
32.200000000000003
 30
0.0
 11
-28.5
 21
41.200000000000003
 31
0.0
  0
LINE
  5
243
100
AcDbEntity
  8
0
  6
CONTINUOUS
 62
               7
100
AcDbLine
 10
28.5
 20
32.200000000000003
 30
0.0
 11
28.5
 21
41.200000000000003
 31
0.0
  0
LINE
  5
244
100
AcDbEntity
  8
0
  6
CONTINUOUS
 62
               7
100
AcDbLine
 10
28.5
 20
32.200000000000003
 30
0.0
 11
-28.5
 21
32.200000000000003
 31
0.0
  0
LINE
  5
245
100
AcDbEntity
  8
0
  6
CONTINUOUS
 62
               7
100
AcDbLine
 10
-26.242857142857133
 20
41.200000000000003
 30
0.0
 11
-25.48571428571438
 21
42.199999999999974
 31
0.0
  0
LINE
  5
246
100
AcDbEntity
  8
0
  6
CONTINUOUS
 62
               7
100
AcDbLine
 10
-22.742857142857133
 20
41.200000000000003
 30
0.0
 11
-21.700000000000045
 21
42.199999999999974
 31
0.0
  0
LINE
  5
247
100
AcDbEntity
  8
0
  6
CENTER
 62
             200
100
AcDbLine
 10
47.128571428571377
 20
48.999999999999986
 30
0.0
 11
39.299999999999955
 21
48.999999999999986
 31
0.0
  0
LINE
  5
248
100
AcDbEntity
  8
0
  6
CONTINUOUS
 62
               4
100
AcDbLine
 10
41.799999999999955
 20
58.999999999999986
 30
0.0
 11
45.0
 21
58.999999999999986
 31
0.0
  0
LINE
  5
249
100
AcDbEntity
  8
0
  6
CONTINUOUS
 62
               4
100
AcDbLine
 10
28.5
 20
32.200000000000003
 30
0.0
 11
40.299999999999955
 21
32.200000000000003
 31
0.0
  0
LINE
  5
24A
100
AcDbEntity
  8
0
  6
CONTINUOUS
 62
               4
100
AcDbLine
 10
27.0
 20
28.999999999999986
 30
0.0
 11
40.299999999999955
 21
28.999999999999986
 31
0.0
  0
LINE
  5
24B
100
AcDbEntity
  8
0
  6
CONTINUOUS
 62
               7
100
AcDbLine
 10
-15.071428571428555
 20
58.199999999999974
 30
0.0
 11
-15.62857142857149
 21
42.199999999999974
 31
0.0
  0
LINE
  5
24C
100
AcDbEntity
  8
0
  6
CONTINUOUS
 62
               7
100
AcDbLine
 10
-4.6142857142857565
 20
58.199999999999974
 30
0.0
 11
-5.1714285714285779
 21
42.199999999999974
 31
0.0
  0
LINE
  5
24D
100
AcDbEntity
  8
0
  6
CONTINUOUS
 62
               7
100
AcDbLine
 10
5.1714285714285779
 20
42.199999999999974
 30
0.0
 11
4.6142857142857565
 21
58.199999999999974
 31
0.0
  0
LINE
  5
24E
100
AcDbEntity
  8
0
  6
CONTINUOUS
 62
               7
100
AcDbLine
 10
15.628571428571377
 20
42.199999999999974
 30
0.0
 11
15.071428571428555
 21
58.199999999999974
 31
0.0
  0
LINE
  5
24F
100
AcDbEntity
  8
0
  6
CONTINUOUS
 62
               7
100
AcDbLine
 10
-18.571428571428555
 20
58.199999999999974
 30
0.0
 11
-19.12857142857149
 21
42.199999999999974
 31
0.0
  0
LINE
  5
250
100
AcDbEntity
  8
0
  6
CONTINUOUS
 62
               7
100
AcDbLine
 10
19.12857142857149
 20
42.199999999999974
 30
0.0
 11
18.571428571428555
 21
58.199999999999974
 31
0.0
  0
LINE
  5
251
100
AcDbEntity
  8
0
  6
CONTINUOUS
 62
               7
100
AcDbLine
 10
-27.5
 20
28.999999999999986
 30
0.0
 11
-27.0
 21
28.999999999999986
 31
0.0
  0
LINE
  5
252
100
AcDbEntity
  8
0
  6
CONTINUOUS
 62
               7
100
AcDbLine
 10
28.5
 20
27.5
 30
0.0
 11
29.942857142857179
 21
-14.028571428571425
 31
0.0
  0
LINE
  5
253
100
AcDbEntity
  8
0
  6
CONTINUOUS
 62
               7
100
AcDbLine
 10
-29.957142857142912
 20
-14.028571428571425
 30
0.0
 11
-28.5
 21
27.5
 31
0.0
  0
LINE
  5
254
100
AcDbEntity
  8
0
  6
CONTINUOUS
 62
               7
100
AcDbLine
 10
27.0
 20
28.999999999999986
 30
0.0
 11
28.5
 21
27.5
 31
0.0
  0
LINE
  5
255
100
AcDbEntity
  8
0
  6
CONTINUOUS
 62
               7
100
AcDbLine
 10
-28.5
 20
27.5
 30
0.0
 11
-27.0
 21
28.999999999999986
 31
0.0
  0
LINE
  5
256
100
AcDbEntity
  8
0
  6
CONTINUOUS
 62
               7
100
AcDbLine
 10
-28.5
 20
27.5
 30
0.0
 11
28.5
 21
27.5
 31
0.0
  0
LINE
  5
257
100
AcDbEntity
  8
0
  6
CONTINUOUS
 62
               7
100
AcDbLine
 10
-27.0
 20
28.999999999999986
 30
0.0
 11
27.0
 21
28.999999999999986
 31
0.0
  0
LINE
  5
258
100
AcDbEntity
  8
0
  6
CONTINUOUS
 62
               7
100
AcDbLine
 10
0.0
 20
16.700000000000003
 30
0.0
 11
0.0
 21
16.0
 31
0.0
  0
LINE
  5
259
100
AcDbEntity
  8
0
  6
CONTINUOUS
 62
               7
100
AcDbLine
 10
20.0
 20
15.0
 30
0.0
 11
20.0
 21
-16.000000000000014
 31
0.0
  0
LINE
  5
25A
100
AcDbEntity
  8
0
  6
CONTINUOUS
 62
               7
100
AcDbLine
 10
-20.0
 20
15.0
 30
0.0
 11
-20.0
 21
-16.000000000000014
 31
0.0
  0
LINE
  5
25B
100
AcDbEntity
  8
0
  6
CENTER
 62
               2
100
AcDbLine
 10
-83.557142857142821
 20
0.0
 30
0.0
 11
37.442857142857179
 21
0.0
 31
0.0
  0
LINE
  5
25C
100
AcDbEntity
  8
0
  6
CONTINUOUS
 62
               7
100
AcDbLine
 10
19.0
 20
16.0
 30
0.0
 11
20.0
 21
15.0
 31
0.0
  0
LINE
  5
25D
100
AcDbEntity
  8
0
  6
CONTINUOUS
 62
               7
100
AcDbLine
 10
-19.0
 20
16.0
 30
0.0
 11
-20.0
 21
15.0
 31
0.0
  0
LINE
  5
25E
100
AcDbEntity
  8
0
  6
CONTINUOUS
 62
               7
100
AcDbLine
 10
-20.0
 20
15.0
 30
0.0
 11
20.0
 21
15.0
 31
0.0
  0
LINE
  5
25F
100
AcDbEntity
  8
0
  6
CONTINUOUS
 62
               7
100
AcDbLine
 10
-19.0
 20
16.0
 30
0.0
 11
-19.0
 21
-16.000000000000014
 31
0.0
  0
LINE
  5
260
100
AcDbEntity
  8
0
  6
CONTINUOUS
 62
               7
100
AcDbLine
 10
19.0
 20
16.0
 30
0.0
 11
19.0
 21
-16.000000000000014
 31
0.0
  0
LINE
  5
261
100
AcDbEntity
  8
0
  6
CONTINUOUS
 62
               7
100
AcDbLine
 10
-19.0
 20
16.0
 30
0.0
 11
19.0
 21
16.0
 31
0.0
  0
LINE
  5
262
100
AcDbEntity
  8
0
  6
CONTINUOUS
 62
               7
100
AcDbLine
 10
-38.5
 20
-36.0
 30
0.0
 11
38.5
 21
-36.0
 31
0.0
  0
LINE
  5
263
100
AcDbEntity
  8
0
  6
CONTINUOUS
 62
               7
100
AcDbLine
 10
22.0
 20
-15.000000000000014
 30
0.0
 11
38.5
 21
-15.000000000000014
 31
0.0
  0
LINE
  5
264
100
AcDbEntity
  8
0
  6
CONTINUOUS
 62
               7
100
AcDbLine
 10
-39.5
 20
-16.000000000000014
 30
0.0
 11
39.5
 21
-16.000000000000014
 31
0.0
  0
LINE
  5
265
100
AcDbEntity
  8
0
  6
CONTINUOUS
 62
               7
100
AcDbLine
 10
39.5
 20
-16.000000000000014
 30
0.0
 11
38.5
 21
-15.000000000000014
 31
0.0
  0
LINE
  5
266
100
AcDbEntity
  8
0
  6
CONTINUOUS
 62
               7
100
AcDbLine
 10
-39.5
 20
-16.000000000000014
 30
0.0
 11
-38.5
 21
-15.000000000000014
 31
0.0
  0
LINE
  5
267
100
AcDbEntity
  8
0
  6
CONTINUOUS
 62
               7
100
AcDbLine
 10
-39.5
 20
-35.000000000000014
 30
0.0
 11
39.5
 21
-35.000000000000014
 31
0.0
  0
LINE
  5
268
100
AcDbEntity
  8
0
  6
CONTINUOUS
 62
               7
100
AcDbLine
 10
39.5
 20
-35.000000000000014
 30
0.0
 11
38.5
 21
-36.0
 31
0.0
  0
LINE
  5
269
100
AcDbEntity
  8
0
  6
CONTINUOUS
 62
               7
100
AcDbLine
 10
-39.5
 20
-35.000000000000014
 30
0.0
 11
-38.5
 21
-36.0
 31
0.0
  0
LINE
  5
26A
100
AcDbEntity
  8
0
  6
CONTINUOUS
 62
               7
100
AcDbLine
 10
-38.5
 20
-15.000000000000014
 30
0.0
 11
-22.0
 21
-15.000000000000014
 31
0.0
  0
LINE
  5
26B
100
AcDbEntity
  8
0
  6
CONTINUOUS
 62
               7
100
AcDbLine
 10
39.5
 20
-16.000000000000014
 30
0.0
 11
39.5
 21
-35.000000000000014
 31
0.0
  0
LINE
  5
26C
100
AcDbEntity
  8
0
  6
CONTINUOUS
 62
               7
100
AcDbLine
 10
-39.5
 20
-16.000000000000014
 30
0.0
 11
-39.5
 21
-35.000000000000014
 31
0.0
  0
LINE
  5
26D
100
AcDbEntity
  8
0
  6
CONTINUOUS
 62
               7
100
AcDbLine
 10
-18.5
 20
88.200000000000003
 30
0.0
 11
-19.285714285714334
 21
63.199999999999974
 31
0.0
  0
LINE
  5
26E
100
AcDbEntity
  8
0
  6
CONTINUOUS
 62
               7
100
AcDbLine
 10
-18.5
 20
88.200000000000003
 30
0.0
 11
-19.071428571428555
 21
88.200000000000003
 31
0.0
  0
LINE
  5
26F
100
AcDbEntity
  8
0
  6
CONTINUOUS
 62
               7
100
AcDbLine
 10
-16.885714285714243
 20
87.200000000000003
 30
0.0
 11
-18.085714285714289
 21
62.199999999999974
 31
0.0
  0
LINE
  5
270
100
AcDbEntity
  8
0
  6
CONTINUOUS
 62
               7
100
AcDbLine
 10
-15.842857142857156
 20
88.200000000000003
 30
0.0
 11
-9.9857142857142662
 21
88.200000000000003
 31
0.0
  0
LINE
  5
271
100
AcDbEntity
  8
0
  6
CONTINUOUS
 62
               7
100
AcDbLine
 10
-11.171428571428578
 20
62.199999999999974
 30
0.0
 11
-4.8857142857142435
 21
62.199999999999974
 31
0.0
  0
LINE
  5
272
100
AcDbEntity
  8
0
  6
CONTINUOUS
 62
               7
100
AcDbLine
 10
-11.214285714285666
 20
87.200000000000003
 30
0.0
 11
-11.171428571428578
 21
62.199999999999974
 31
0.0
  0
LINE
  5
273
100
AcDbEntity
  8
0
  6
CONTINUOUS
 62
               7
100
AcDbLine
 10
-9.9857142857142662
 20
88.200000000000003
 30
0.0
 11
-9.9428571428571786
 21
63.199999999999974
 31
0.0
  0
LINE
  5
274
100
AcDbEntity
  8
0
  6
CONTINUOUS
 62
               7
100
AcDbLine
 10
-21.271428571428601
 20
58.199999999999974
 30
0.0
 11
-20.257142857142867
 21
87.514285714285691
 31
0.0
  0
LINE
  5
275
100
AcDbEntity
  8
0
  6
CONTINUOUS
 62
               7
100
AcDbLine
 10
-20.257142857142867
 20
87.514285714285691
 30
0.0
 11
-19.071428571428555
 21
88.200000000000003
 31
0.0
  0
LINE
  5
276
100
AcDbEntity
  8
0
  6
CONTINUOUS
 62
               7
100
AcDbLine
 10
-21.14285714285711
 20
62.199999999999974
 30
0.0
 11
-18.085714285714289
 21
62.199999999999974
 31
0.0
  0
LINE
  5
277
100
AcDbEntity
  8
0
  6
CONTINUOUS
 62
               7
100
AcDbLine
 10
-19.071428571428555
 20
88.200000000000003
 30
0.0
 11
-19.028571428571468
 21
89.228571428571414
 31
0.0
  0
LINE
  5
278
100
AcDbEntity
  8
0
  6
CONTINUOUS
 62
               7
100
AcDbLine
 10
18.485714285714266
 20
88.200000000000003
 30
0.0
 11
19.285714285714221
 21
63.199999999999974
 31
0.0
  0
LINE
  5
279
100
AcDbEntity
  8
0
  6
CONTINUOUS
 62
               7
100
AcDbLine
 10
18.485714285714266
 20
88.200000000000003
 30
0.0
 11
19.071428571428555
 21
88.200000000000003
 31
0.0
  0
LINE
  5
27A
100
AcDbEntity
  8
0
  6
CONTINUOUS
 62
               7
100
AcDbLine
 10
16.885714285714243
 20
87.200000000000003
 30
0.0
 11
18.071428571428555
 21
62.199999999999974
 31
0.0
  0
LINE
  5
27B
100
AcDbEntity
  8
0
  6
CONTINUOUS
 62
               7
100
AcDbLine
 10
15.842857142857156
 20
88.200000000000003
 30
0.0
 11
9.9857142857142662
 21
88.200000000000003
 31
0.0
  0
LINE
  5
27C
100
AcDbEntity
  8
0
  6
CONTINUOUS
 62
               7
100
AcDbLine
 10
11.171428571428578
 20
62.199999999999974
 30
0.0
 11
4.8857142857142435
 21
62.199999999999974
 31
0.0
  0
LINE
  5
27D
100
AcDbEntity
  8
0
  6
CONTINUOUS
 62
               7
100
AcDbLine
 10
11.199999999999932
 20
87.200000000000003
 30
0.0
 11
11.171428571428578
 21
62.199999999999974
 31
0.0
  0
LINE
  5
27E
100
AcDbEntity
  8
0
  6
CONTINUOUS
 62
               7
100
AcDbLine
 10
9.9857142857142662
 20
88.200000000000003
 30
0.0
 11
9.9285714285714448
 21
63.199999999999974
 31
0.0
  0
LINE
  5
27F
100
AcDbEntity
  8
0
  6
CONTINUOUS
 62
               7
100
AcDbLine
 10
-3.9714285714286461
 20
88.200000000000003
 30
0.0
 11
-4.8857142857142435
 21
62.199999999999974
 31
0.0
  0
LINE
  5
280
100
AcDbEntity
  8
0
  6
CONTINUOUS
 62
               7
100
AcDbLine
 10
4.8857142857142435
 20
62.199999999999974
 30
0.0
 11
3.9714285714285325
 21
88.200000000000003
 31
0.0
  0
LINE
  5
281
100
AcDbEntity
  8
0
  6
CONTINUOUS
 62
               7
100
AcDbLine
 10
21.271428571428601
 20
58.199999999999974
 30
0.0
 11
20.242857142857133
 21
87.514285714285691
 31
0.0
  0
LINE
  5
282
100
AcDbEntity
  8
0
  6
CONTINUOUS
 62
               7
100
AcDbLine
 10
20.242857142857133
 20
87.514285714285691
 30
0.0
 11
19.071428571428555
 21
88.200000000000003
 31
0.0
  0
LINE
  5
283
100
AcDbEntity
  8
0
  6
CONTINUOUS
 62
               7
100
AcDbLine
 10
21.128571428571377
 20
62.199999999999974
 30
0.0
 11
18.071428571428555
 21
62.199999999999974
 31
0.0
  0
LINE
  5
284
100
AcDbEntity
  8
0
  6
CONTINUOUS
 62
               7
100
AcDbLine
 10
3.9714285714285325
 20
88.200000000000003
 30
0.0
 11
-3.9714285714286461
 21
88.200000000000003
 31
0.0
  0
LINE
  5
285
100
AcDbEntity
  8
0
  6
CONTINUOUS
 62
               7
100
AcDbLine
 10
21.271428571428601
 20
58.199999999999974
 30
0.0
 11
-21.271428571428601
 21
58.199999999999974
 31
0.0
  0
LINE
  5
286
100
AcDbEntity
  8
0
  6
CONTINUOUS
 62
               7
100
AcDbLine
 10
19.071428571428555
 20
88.200000000000003
 30
0.0
 11
19.028571428571354
 21
89.228571428571414
 31
0.0
  0
LINE
  5
287
100
AcDbEntity
  8
0
  6
CONTINUOUS
 62
               7
100
AcDbLine
 10
18.028571428571354
 20
90.200000000000003
 30
0.0
 11
-18.042857142857201
 21
90.200000000000003
 31
0.0
  0
ENDBLK
  5
288
100
AcDbEntity
  8
0
100
AcDbBlockEnd
  0
ENDSEC
  0
SECTION
  2
ENTITIES
  0
INSERT
  5
289
100
AcDbEntity
  8
0
100
AcDbBlockReference
  2
MS_2
 10
104.14814446982984
 20
20.23831498732261
 30
0.0
  0
INSERT
  5
28A
100
AcDbEntity
  8
0
100
AcDbBlockReference
  2
MS_1
 10
-105.85185553017016
 20
20.23831498732261
 30
0.0
  0
MTEXT
  5
28B
100
AcDbEntity
  8
0
  6
CONTINUOUS
 62
               2
100
AcDbMText
 10
-10.932582153705312
 20
21.363299728533548
 30
0.0
 40
4.5
 41
0.0
 71
               7
 72
               1
  1
\A1;OUT
  7
MX_NOTE_STANDARD
  0
MTEXT
  5
28C
100
AcDbEntity
  8
0
  6
CONTINUOUS
 62
               2
100
AcDbMText
 10
-135.78260505261775
 20
21.363284469744485
 30
0.0
 40
4.5
 41
0.0
 71
               7
 72
               1
  1
\W1.200;\A1;IN
  7
MX_NOTE_STANDARD
  0
MTEXT
  5
28D
100
AcDbEntity
  8
0
  6
CONTINUOUS
 62
               7
100
AcDbMText
 10
-268.264864924037
 20
160.5
 30
0.0
 40
6.3000001907348633
 41
0.0
 71
               4
 72
               1
  1
\W1.081;\A1;MODEL:CS-FR600-03-F1
  7
MX_NOTE_STANDARD
  0
MTEXT
  5
28E
100
AcDbEntity
  8
0
  6
CONTINUOUS
 62
               7
100
AcDbMText
 10
-279.98339730180533
 20
185.5
 30
0.0
 40
6.3000001907348633
 41
0.0
 71
               4
 72
               1
  1
\W1.063;\A1;CS FILTER REGULATOR
  7
MX_NOTE_STANDARD
  0
MTEXT
  5
28F
100
AcDbEntity
  8
0
  6
CONTINUOUS
 62
               7
100
AcDbMText
 10
170.2809980228688
 20
-185.0
 30
0.0
 40
9.0
 41
0.0
 71
               4
 72
               1
  1
\W1.121;\A1;KOGANEI CORP.
  7
MX_NOTE_STANDARD
  0
MTEXT
  5
290
100
AcDbEntity
  8
0
  6
CONTINUOUS
 62
               7
100
AcDbMText
 10
201.38633858070557
 20
185.5
 30
0.0
 40
6.3000001907348633
 41
0.0
 71
               4
 72
               1
  1
\W1.273;\A1;Ver.1.0
  7
MX_NOTE_STANDARD
  0
LINE
  5
291
100
AcDbEntity
  8
0
  6
CONTINUOUS
 62
               7
100
AcDbLine
 10
-161.25
 20
195.5
 30
0.0
 11
-161.25
 21
175.5
 31
0.0
  0
LINE
  5
292
100
AcDbEntity
  8
0
  6
CONTINUOUS
 62
               7
100
AcDbLine
 10
162.09999999999999
 20
195.5
 30
0.0
 11
162.09999999999999
 21
175.5
 31
0.0
  0
LINE
  5
293
100
AcDbEntity
  8
0
  6
CONTINUOUS
 62
               7
100
AcDbLine
 10
-281.25
 20
175.5
 30
0.0
 11
-161.25
 21
175.5
 31
0.0
  0
LINE
  5
294
100
AcDbEntity
  8
0
  6
CONTINUOUS
 62
               7
100
AcDbLine
 10
162.09999999999999
 20
175.5
 30
0.0
 11
282.10000000000002
 21
175.5
 31
0.0
  0
LINE
  5
295
100
AcDbEntity
  8
0
  6
CONTINUOUS
 62
               7
100
AcDbLine
 10
162.09999999999999
 20
-175.0
 30
0.0
 11
282.10000000000002
 21
-175.0
 31
0.0
  0
LINE
  5
296
100
AcDbEntity
  8
0
  6
CONTINUOUS
 62
               7
100
AcDbLine
 10
162.09999999999999
 20
-175.0
 30
0.0
 11
162.09999999999999
 21
-195.0
 31
0.0
  0
LINE
  5
297
100
AcDbEntity
  8
0
  6
CONTINUOUS
 62
               7
100
AcDbLine
 10
-281.25
 20
-195.0
 30
0.0
 11
282.10000000000002
 21
-195.0
 31
0.0
  0
LINE
  5
298
100
AcDbEntity
  8
0
  6
CONTINUOUS
 62
               7
100
AcDbLine
 10
282.10000000000002
 20
195.5
 30
0.0
 11
282.10000000000002
 21
-195.0
 31
0.0
  0
LINE
  5
299
100
AcDbEntity
  8
0
  6
CONTINUOUS
 62
               7
100
AcDbLine
 10
-281.25
 20
195.5
 30
0.0
 11
-281.25
 21
-195.0
 31
0.0
  0
LINE
  5
29A
100
AcDbEntity
  8
0
  6
CONTINUOUS
 62
               7
100
AcDbLine
 10
-281.25
 20
195.5
 30
0.0
 11
282.10000000000002
 21
195.5
 31
0.0
  0
ENDSEC
  0
SECTION
  2
OBJECTS
  0
DICTIONARY
  5
19
100
AcDbDictionary
  3
ACAD_GROUP
350
1A
  3
ACAD_MLINESTYLE
350
1B
  0
DICTIONARY
  5
1A
102
{ACAD_REACTORS
330
19
102
}
100
AcDbDictionary
  0
DICTIONARY
  5
1B
102
{ACAD_REACTORS
330
19
102
}
100
AcDbDictionary
  3
STANDARD
350
1C
  0
MLINESTYLE
  5
1C
102
{ACAD_REACTORS
330
1B
102
}
100
AcDbMlineStyle
  2
Standard
 70
               0
  3

 62
               0
 51
90.0
 52
90.0
 71
               2
 49
0.5
 62
             256
  6
ByLayer
 49
-0.5
 62
             256
  6
ByLayer
  0
ENDSEC
  0
EOF
