  0
SECTION
  2
HEADER
  9
$ACADVER
  1
AC1012
  9
$DWGCODEPAGE
  3
dos932
  9
$INSBASE
 10
0.0
 20
0.0
 30
0.0
  9
$EXTMIN
 10
-194.25
 20
-133.5
 30
0.0
  9
$EXTMAX
 10
196.25000429153442
 20
132.60000610351562
 30
0.0
  9
$LIMMIN
 10
-194.25
 20
-133.5
  9
$LIMMAX
 10
196.25000429153442
 20
132.60000610351562
  9
$ORTHOMODE
 70
               0
  9
$REGENMODE
 70
               1
  9
$FILLMODE
 70
               1
  9
$QTEXTMODE
 70
               0
  9
$MIRRTEXT
 70
               1
  9
$DRAGMODE
 70
               2
  9
$LTSCALE
 40
1.0
  9
$OSMODE
 70
               0
  9
$ATTMODE
 70
               1
  9
$TEXTSIZE
 40
3.2000000476837158
  9
$TRACEWID
 40
0.05
  9
$TEXTSTYLE
  7
MX_NOTE_STANDARD
  9
$CLAYER
  8
0
  9
$CELTYPE
  6
CONTINUOUS
  9
$CECOLOR
 62
             256
  9
$CELTSCALE
 40
1.0
  9
$DELOBJ
 70
               1
  9
$DISPSILH
 70
               0
  9
$DIMSCALE
 40
1.0
  9
$DIMASZ
 40
2.5
  9
$DIMEXO
 40
1.5
  9
$DIMDLI
 40
3.75
  9
$DIMRND
 40
0.0
  9
$DIMDLE
 40
0.0
  9
$DIMEXE
 40
1.5
  9
$DIMTP
 40
0.0
  9
$DIMTM
 40
0.0
  9
$DIMTXT
 40
3.2000000476837158
  9
$DIMCEN
 40
2.5
  9
$DIMTSZ
 40
0.0
  9
$DIMTOL
 70
               0
  9
$DIMLIM
 70
               0
  9
$DIMTIH
 70
               0
  9
$DIMTOH
 70
               0
  9
$DIMSE1
 70
               0
  9
$DIMSE2
 70
               0
  9
$DIMTAD
 70
               1
  9
$DIMZIN
 70
               8
  9
$DIMBLK
  1

  9
$DIMASO
 70
               1
  9
$DIMSHO
 70
               1
  9
$DIMPOST
  1

  9
$DIMAPOST
  1

  9
$DIMALT
 70
               0
  9
$DIMALTD
 70
               4
  9
$DIMALTF
 40
0.0394
  9
$DIMLFAC
 40
1.0
  9
$DIMTOFL
 70
               1
  9
$DIMTVP
 40
0.0
  9
$DIMTIX
 70
               0
  9
$DIMSOXD
 70
               0
  9
$DIMSAH
 70
               0
  9
$DIMBLK1
  1

  9
$DIMBLK2
  1

  9
$DIMSTYLE
  2
MXDIMSTYLE
  9
$DIMCLRD
 70
               0
  9
$DIMCLRE
 70
               0
  9
$DIMCLRT
 70
               0
  9
$DIMTFAC
 40
1.0
  9
$DIMGAP
 40
1.0
  9
$DIMJUST
 70
               0
  9
$DIMSD1
 70
               0
  9
$DIMSD2
 70
               0
  9
$DIMTOLJ
 70
               1
  9
$DIMTZIN
 70
               0
  9
$DIMALTZ
 70
               0
  9
$DIMALTTZ
 70
               0
  9
$DIMFIT
 70
               3
  9
$DIMUPT
 70
               1
  9
$DIMUNIT
 70
               2
  9
$DIMDEC
 70
               4
  9
$DIMTDEC
 70
               4
  9
$DIMALTU
 70
               8
  9
$DIMALTTD
 70
               4
  9
$DIMTXSTY
  7
MX_NOTE_STANDARD
  9
$DIMAUNIT
 70
               0
  9
$LUNITS
 70
               2
  9
$LUPREC
 70
               4
  9
$SKETCHINC
 40
0.1
  9
$FILLETRAD
 40
0.0
  9
$AUNITS
 70
               0
  9
$AUPREC
 70
               0
  9
$MENU
  1
acad
  9
$ELEVATION
 40
0.0
  9
$PELEVATION
 40
0.0
  9
$THICKNESS
 40
0.0
  9
$LIMCHECK
 70
               0
  9
$BLIPMODE
 70
               1
  9
$CHAMFERA
 40
0.0
  9
$CHAMFERB
 40
0.0
  9
$CHAMFERC
 40
0.0
  9
$CHAMFERD
 40
0.0
  9
$SKPOLY
 70
               0
  9
$TDCREATE
 40
2452220.697199074
  9
$TDUPDATE
 40
2452220.697199074
  9
$TDINDWG
 40
0.0000000000
  9
$TDUSRTIMER
 40
0.0000000000
  9
$USRTIMER
 70
               1
  9
$ANGBASE
 50
0.0
  9
$ANGDIR
 70
               0
  9
$PDMODE
 70
               0
  9
$PDSIZE
 40
0.0
  9
$PLINEWID
 40
0.0
  9
$COORDS
 70
               1
  9
$SPLFRAME
 70
               0
  9
$SPLINETYPE
 70
               6
  9
$SPLINESEGS
 70
               8
  9
$ATTDIA
 70
               0
  9
$ATTREQ
 70
               1
  9
$HANDLING
 70
               1
  9
$HANDSEED
  5
244
  9
$SURFTAB1
 70
               6
  9
$SURFTAB2
 70
               6
  9
$SURFTYPE
 70
               6
  9
$SURFU
 70
               6
  9
$SURFV
 70
               6
  9
$UCSNAME
  2

  9
$UCSORG
 10
0.0
 20
0.0
 30
0.0
  9
$UCSXDIR
 10
1.0
 20
0.0
 30
0.0
  9
$UCSYDIR
 10
0.0
 20
1.0
 30
0.0
  9
$PUCSNAME
  2

  9
$PUCSORG
 10
0.0
 20
0.0
 30
0.0
  9
$PUCSXDIR
 10
1.0
 20
0.0
 30
0.0
  9
$PUCSYDIR
 10
0.0
 20
1.0
 30
0.0
  9
$USERI1
 70
               0
  9
$USERI2
 70
               0
  9
$USERI3
 70
               0
  9
$USERI4
 70
               0
  9
$USERI5
 70
               0
  9
$USERR1
 40
0.0
  9
$USERR2
 40
0.0
  9
$USERR3
 40
0.0
  9
$USERR4
 40
0.0
  9
$USERR5
 40
0.0
  9
$WORLDVIEW
 70
               1
  9
$SHADEDGE
 70
               3
  9
$SHADEDIF
 70
              70
  9
$TILEMODE
 70
               1
  9
$MAXACTVP
 70
              16
  9
$PINSBASE
 10
0.0
 20
0.0
 30
0.0
  9
$PLIMCHECK
 70
               0
  9
$PEXTMIN
 10
1.0000000000000000E+20
 20
1.0000000000000000E+20
 30
1.0000000000000000E+20
  9
$PEXTMAX
 10
-1.0000000000000000E+20
 20
-1.0000000000000000E+20
 30
-1.0000000000000000E+20
  9
$PLIMMIN
 10
0.0
 20
0.0
  9
$PLIMMAX
 10
12.0
 20
9.0
  9
$UNITMODE
 70
               0
  9
$VISRETAIN
 70
               0
  9
$PLINEGEN
 70
               1
  9
$PSLTSCALE
 70
               0
  9
$TREEDEPTH
 70
            3020
  9
$PICKSTYLE
 70
               1
  9
$CMLSTYLE
  2
Standard
  9
$CMLJUST
 70
               0
  9
$CMLSCALE
 40
1.0
  9
$SAVEIMAGES
 70
               0
  0
ENDSEC
  0
SECTION
  2
CLASSES
  0
CLASS
  1
LWPOLYLINE
  2
AcDbPolyline
  3
"AutoCAD"
 90
        0
280
               0
281
               1
  0
CLASS
  1
IMAGE
  2
AcDbRasterImage
  3
ISM
 90
      127
280
               0
281
               1
  0
CLASS
  1
OLE2FRAME
  2
AcDbOle2Frame
  3
""
 90
        0
280
               0
281
               1
  0
CLASS
  1
HATCH
  2
AcDbHatch
  3
"ACAD_SEDONA"
 90
        0
280
               0
281
               1
  0
CLASS
  1
DICTIONARYVAR
  2
AcDbDictionaryVar
  3
"AutoCAD"
 90
        0
280
               0
281
               0
  0
CLASS
  1
RASTERVARIABLES
  2
AcDbRasterVariables
  3
ISM
 90
        0
280
               0
281
               0
  0
CLASS
  1
IMAGEDEF
  2
AcDbRasterImageDef
  3
ISM
 90
        0
280
               0
281
               0
  0
CLASS
  1
IMAGEDEF_REACTOR
  2
AcDbRasterImageDefReactor
  3
ISM
 90
        1
280
               0
281
               0
  0
CLASS
  1
IDBUFFER
  2
AcDbIdBuffer
  3
"Acad"
 90
        0
280
               0
281
               0
  0
CLASS
  1
SPATIAL_FILTER
  2
AcDbSpatialFilter
  3
"Acad"
 90
        0
280
               0
281
               0
  0
CLASS
  1
XRECORD
  2
AcDbXrecord
  3
"<Built In>"
 90
        0
280
               0
281
               0
  0
CLASS
  1
SORTENTSTABLE
  2
AcDbSortentsTable
  3
"AutoCAD"
 90
        0
280
               0
281
               0
  0
CLASS
  1
LAYER_INDEX
  2
AcDbLayerIndex
  3
"Acad"
 90
        0
280
               0
281
               0
  0
CLASS
  1
SPATIAL_INDEX
  2
AcDbSpatialIndex
  3
"Acad"
 90
        0
280
               0
281
               0
  0
CLASS
  1
OBJECT_PTR
  2
CAseDLPNTableRecord
  3
"ASE-LPNTableRecord"
 90
        1
280
               0
281
               0
  0
CLASS
  1
LAYOUT
  2
AcDbLayout
  3
"AutoCAD 2000"
 90
        1
280
               0
281
               0
  0
CLASS
  1
PLOTSETTINGS
  2
AcDbPlotSettings
  3
"AutoCAD 2000"
 90
        1
280
               0
281
               0
  0
CLASS
  1
ACDBDICTIONARYWDFLT
  2
AcDbDictionaryWithDefault
  3
"AutoCAD 2000"
 90
        1
280
               0
281
               0
  0
CLASS
  1
ACDBPLACEHOLDER
  2
AcDbPlaceHolder
  3
"AutoCAD 2000"
 90
        1
280
               0
281
               0
  0
CLASS
  1
VBA_PROJECT
  2
AcDbVbaProject
  3
"acadvba"
 90
        1
280
               0
281
               0
  0
CLASS
  1
WIPEOUT
  2
AcDbWipeout
  3
WipeOut|AutoCAD Express Tool|expresstools@autodesk.com
 90
      127
280
               0
281
               1
  0
CLASS
  1
WIPEOUTVARIABLES
  2
AcDbWipeoutVariables
  3
WipeOut|AutoCAD Express Tool|expresstools@autodesk.com
 90
        0
280
               0
281
               0
  0
CLASS
  1
RTEXT
  2
RText
  3
RText|AutoCAD Express Tool|expresstools@autodesk.com
 90
        0
280
               0
281
               1
  0
CLASS
  1
ARCALIGNEDTEXT
  2
AcDbArcAlignedText
  3
ATEXT|AutoCAD Express Tool|expresstools@autodesk.com
 90
        0
280
               0
281
               1
  0
ENDSEC
  0
SECTION
  2
TABLES
  0
TABLE
  2
VPORT
  5
7
100
AcDbSymbolTable
 70
               1
  0
VPORT
  5
15
100
AcDbSymbolTableRecord
100
AcDbViewportTableRecord
  2
*ACTIVE
 70
               0
 10
0.0
 20
0.0
 11
1.0
 21
1.0
 12
1.0000021457672119
 22
-0.4499969482421875
 13
0.0
 23
0.0
 14
1.0
 24
1.0
 15
0.0
 25
0.0
 16
0.0
 26
0.0
 36
1.0
 17
0.0
 27
0.0
 37
0.0
 40
268.76100616455079
 41
1.7320508075688772
 42
50.0
 43
0.0
 44
0.0
 50
0.0
 51
0.0
 71
               0
 72
             100
 73
               1
 74
               1
 75
               0
 76
               0
 77
               0
 78
               0
  0
ENDTAB
  0
TABLE
  2
LTYPE
  5
4
100
AcDbSymbolTable
 70
               4
  0
LTYPE
  5
11
100
AcDbSymbolTableRecord
100
AcDbLinetypeTableRecord
  2
BYBLOCK
 70
              64
  3

 72
              65
 73
               0
 40
0.0
  0
LTYPE
  5
12
100
AcDbSymbolTableRecord
100
AcDbLinetypeTableRecord
  2
BYLAYER
 70
              64
  3

 72
              65
 73
               0
 40
0.0
  0
LTYPE
  5
13
100
AcDbSymbolTableRecord
100
AcDbLinetypeTableRecord
  2
CONTINUOUS
 70
              64
  3
Solid line
 72
              65
 73
               0
 40
0.0
  0
LTYPE
  5
37
100
AcDbSymbolTableRecord
100
AcDbLinetypeTableRecord
  2
CENTER
 70
              64
  3
Center ____ _ ____ _ ____ _ ____ _ ____ _ ____
 72
              65
 73
               4
 40
50.800000000000004
 49
31.75
 74
               0
 49
-6.3499999999999996
 74
               0
 49
6.3499999999999996
 74
               0
 49
-6.3499999999999996
 74
               0
  0
ENDTAB
  0
TABLE
  2
LAYER
  5
2
100
AcDbSymbolTable
 70
               2
  0
LAYER
  5
14
100
AcDbSymbolTableRecord
100
AcDbLayerTableRecord
  2
0
 70
               0
 62
               7
  6
CONTINUOUS
  0
LAYER
  5
1D
100
AcDbSymbolTableRecord
100
AcDbLayerTableRecord
  2
DEFPOINTS
 70
               0
 62
               7
  6
CONTINUOUS
  0
ENDTAB
  0
TABLE
  2
STYLE
  5
3
100
AcDbSymbolTable
 70
               1
  0
STYLE
  5
17
100
AcDbSymbolTableRecord
100
AcDbTextStyleTableRecord
  2
MX_NOTE_STANDARD
 70
               0
 40
3.2000000476837158
 41
1.0
 50
0.0
 71
               0
 42
3.2000000476837158
  3
txt.shx
  4
extfont.shx
  0
ENDTAB
  0
TABLE
  2
VIEW
  5
5
100
AcDbSymbolTable
 70
               0
  0
ENDTAB
  0
TABLE
  2
UCS
  5
6
100
AcDbSymbolTable
 70
               0
  0
ENDTAB
  0
TABLE
  2
APPID
  5
8
100
AcDbSymbolTable
 70
               1
  0
APPID
  5
16
100
AcDbSymbolTableRecord
100
AcDbRegAppTableRecord
  2
ACAD
 70
               0
  0
ENDTAB
  0
TABLE
  2
DIMSTYLE
  5
9
100
AcDbSymbolTable
 70
               1
  0
DIMSTYLE
105
18
100
AcDbSymbolTableRecord
100
AcDbDimStyleTableRecord
  2
MXDIMSTYLE
 70
               0
  3

  4

  5

  6

  7

 40
1.0
 41
2.5
 42
1.5
 43
3.75
 44
1.5
 45
0.0
 46
0.0
 47
0.0
 48
0.0
 71
               0
 72
               0
 73
               0
 74
               0
 75
               0
 76
               0
 77
               1
 78
               8
140
3.2000000476837158
141
2.5
142
0.0
143
0.0394
144
1.0
145
0.0
146
1.0
147
1.0
170
               0
171
               4
172
               1
173
               0
174
               0
175
               0
176
               0
177
               0
178
               0
270
               2
271
               4
272
               4
273
               8
274
               4
275
               0
280
               0
281
               0
282
               0
283
               1
284
               0
285
               0
286
               0
287
               3
288
               1
340
17
  0
ENDTAB
  0
TABLE
  2
BLOCK_RECORD
  5
1
100
AcDbSymbolTable
 70
               6
  0
BLOCK_RECORD
  5
A
100
AcDbSymbolTableRecord
100
AcDbBlockTableRecord
  2
*MODEL_SPACE
  0
BLOCK_RECORD
  5
B
100
AcDbSymbolTableRecord
100
AcDbBlockTableRecord
  2
*PAPER_SPACE
  0
BLOCK_RECORD
  5
1E
100
AcDbSymbolTableRecord
100
AcDbBlockTableRecord
  2
MS_1
  0
BLOCK_RECORD
  5
1F
100
AcDbSymbolTableRecord
100
AcDbBlockTableRecord
  2
MS_2
  0
BLOCK_RECORD
  5
20
100
AcDbSymbolTableRecord
100
AcDbBlockTableRecord
  2
MS_3
  0
BLOCK_RECORD
  5
21
100
AcDbSymbolTableRecord
100
AcDbBlockTableRecord
  2
MS_4
  0
BLOCK_RECORD
  5
22
100
AcDbSymbolTableRecord
100
AcDbBlockTableRecord
  2
MS_5
  0
BLOCK_RECORD
  5
23
100
AcDbSymbolTableRecord
100
AcDbBlockTableRecord
  2
MS_6
  0
ENDTAB
  0
ENDSEC
  0
SECTION
  2
BLOCKS
  0
BLOCK
  5
D
100
AcDbEntity
  8
0
100
AcDbBlockBegin
  2
*MODEL_SPACE
 70
               0
 10
0.0
 20
0.0
 30
0.0
  3
*MODEL_SPACE
  1

  0
ENDBLK
  5
E
100
AcDbEntity
  8
0
100
AcDbBlockEnd
  0
BLOCK
  5
F
100
AcDbEntity
 67
               1
  8
0
100
AcDbBlockBegin
  2
*PAPER_SPACE
 70
               0
 10
0.0
 20
0.0
 30
0.0
  3
*PAPER_SPACE
  1

  0
ENDBLK
  5
10
100
AcDbEntity
 67
               1
  8
0
100
AcDbBlockEnd
  0
BLOCK
  5
24
100
AcDbEntity
  8
0
100
AcDbBlockBegin
  2
MS_1
 70
               0
 10
0.0
 20
0.0
 30
0.0
  3
MS_1
  1

  0
ARC
  5
25
100
AcDbEntity
  8
0
  6
CONTINUOUS
 62
               4
100
AcDbCircle
 10
9.0
 20
-36.199999999999989
 30
0.0
 40
1.0000000059604681
100
AcDbArc
 50
17.457603016323276
 51
162.54239698367633
  0
ARC
  5
26
100
AcDbEntity
  8
0
  6
CONTINUOUS
 62
               4
100
AcDbCircle
 10
9.0
 20
-36.199999999999989
 30
0.0
 40
0.6535898394082977
100
AcDbArc
 50
27.322821500161311
 51
152.67717849983825
  0
LINE
  5
27
100
AcDbEntity
  8
0
  6
CONTINUOUS
 62
               4
100
AcDbLine
 10
8.4193282526437656
 20
-35.899999999999977
 30
0.0
 11
7.1744863937641412
 21
-35.899999999999977
 31
0.0
  0
LINE
  5
28
100
AcDbEntity
  8
0
  6
CONTINUOUS
 62
               4
100
AcDbLine
 10
8.4193282526437088
 20
-36.499999999999972
 30
0.0
 11
7.1744863736471132
 21
-36.499999999999972
 31
0.0
  0
LINE
  5
29
100
AcDbEntity
  8
0
  6
CONTINUOUS
 62
               4
100
AcDbLine
 10
10.825513655974987
 20
-35.899999999999977
 30
0.0
 11
9.5806717473562344
 21
-35.899999999999977
 31
0.0
  0
LINE
  5
2A
100
AcDbEntity
  8
0
  6
CONTINUOUS
 62
               4
100
AcDbLine
 10
10.825513655974987
 20
-36.499999999999972
 30
0.0
 11
9.5806717473562344
 21
-36.499999999999972
 31
0.0
  0
ARC
  5
2B
100
AcDbEntity
  8
0
  6
CONTINUOUS
 62
               4
100
AcDbCircle
 10
9.0
 20
-36.199999999999989
 30
0.0
 40
0.6535898394082977
100
AcDbArc
 50
207.32282150015746
 51
332.67717849984132
  0
ARC
  5
2C
100
AcDbEntity
  8
0
  6
CONTINUOUS
 62
               4
100
AcDbCircle
 10
9.0
 20
-36.199999999999989
 30
0.0
 40
1.0000000059604681
100
AcDbArc
 50
197.45760301632075
 51
342.54239698367803
  0
CIRCLE
  5
2D
100
AcDbEntity
  8
0
  6
CONTINUOUS
 62
               4
100
AcDbCircle
 10
9.0
 20
-36.199999999999989
 30
0.0
 40
1.8500000000000001
  0
CIRCLE
  5
2E
100
AcDbEntity
  8
0
  6
CONTINUOUS
 62
               4
100
AcDbCircle
 10
9.0
 20
-36.199999999999989
 30
0.0
 40
1.8999999999999997
  0
ARC
  5
2F
100
AcDbEntity
  8
0
  6
CONTINUOUS
 62
               4
100
AcDbCircle
 10
9.0
 20
19.399999999999977
 30
0.0
 40
1.0000000059604681
100
AcDbArc
 50
17.457603016323276
 51
162.54239698367633
  0
ARC
  5
30
100
AcDbEntity
  8
0
  6
CONTINUOUS
 62
               4
100
AcDbCircle
 10
9.0
 20
19.399999999999977
 30
0.0
 40
0.6535898394082977
100
AcDbArc
 50
27.322821500161311
 51
152.67717849983825
  0
LINE
  5
31
100
AcDbEntity
  8
0
  6
CONTINUOUS
 62
               4
100
AcDbLine
 10
8.4193282526437656
 20
19.699999999999989
 30
0.0
 11
7.1744863937641412
 21
19.699999999999989
 31
0.0
  0
LINE
  5
32
100
AcDbEntity
  8
0
  6
CONTINUOUS
 62
               4
100
AcDbLine
 10
8.4193282526437088
 20
19.099999999999994
 30
0.0
 11
7.1744863736471132
 21
19.099999999999994
 31
0.0
  0
LINE
  5
33
100
AcDbEntity
  8
0
  6
CONTINUOUS
 62
               4
100
AcDbLine
 10
10.825513655974987
 20
19.699999999999989
 30
0.0
 11
9.5806717473562344
 21
19.699999999999989
 31
0.0
  0
LINE
  5
34
100
AcDbEntity
  8
0
  6
CONTINUOUS
 62
               4
100
AcDbLine
 10
10.825513655974987
 20
19.099999999999994
 30
0.0
 11
9.5806717473562344
 21
19.099999999999994
 31
0.0
  0
ARC
  5
35
100
AcDbEntity
  8
0
  6
CONTINUOUS
 62
               4
100
AcDbCircle
 10
9.0
 20
19.399999999999977
 30
0.0
 40
0.6535898394082977
100
AcDbArc
 50
207.32282150015746
 51
332.67717849984132
  0
ARC
  5
36
100
AcDbEntity
  8
0
  6
CONTINUOUS
 62
               4
100
AcDbCircle
 10
9.0
 20
19.399999999999977
 30
0.0
 40
1.0000000059604681
100
AcDbArc
 50
197.45760301632075
 51
342.54239698367803
  0
LINE
  5
38
100
AcDbEntity
  8
0
  6
CENTER
 62
             200
100
AcDbLine
 10
6.7500000051886104
 20
19.399999999999977
 30
0.0
 11
11.25000000518861
 21
19.399999999999977
 31
0.0
  0
CIRCLE
  5
39
100
AcDbEntity
  8
0
  6
CONTINUOUS
 62
               4
100
AcDbCircle
 10
9.0
 20
19.399999999999977
 30
0.0
 40
1.8500000000000001
  0
CIRCLE
  5
3A
100
AcDbEntity
  8
0
  6
CONTINUOUS
 62
               4
100
AcDbCircle
 10
9.0
 20
19.399999999999977
 30
0.0
 40
1.8999999999999997
  0
LINE
  5
3B
100
AcDbEntity
  8
0
  6
CONTINUOUS
 62
             200
100
AcDbLine
 10
5.2849999547004529
 20
69.713019341230392
 30
0.0
 11
12.715000000000003
 21
67.722156829329151
 31
0.0
  0
LINE
  5
3C
100
AcDbEntity
  8
0
  6
CONTINUOUS
 62
             200
100
AcDbLine
 10
5.2849999547004529
 20
68.677743166685104
 30
0.0
 11
12.715000000000003
 21
66.686880654783863
 31
0.0
  0
LINE
  5
3D
100
AcDbEntity
  8
0
  6
CONTINUOUS
 62
               4
100
AcDbLine
 10
10.284999999999997
 20
73.199950000000001
 30
0.0
 11
11.715000000000003
 21
73.199950000000001
 31
0.0
  0
LINE
  5
3E
100
AcDbEntity
  8
0
  6
CONTINUOUS
 62
               4
100
AcDbLine
 10
10.599999999999994
 20
83.199950000000001
 30
0.0
 11
11.400000000000006
 21
83.199950000000001
 31
0.0
  0
LINE
  5
3F
100
AcDbEntity
  8
0
  6
CONTINUOUS
 62
               4
100
AcDbLine
 10
10.599999999999994
 20
73.199950014692547
 30
0.0
 11
10.599999999999994
 21
83.199950000000001
 31
0.0
  0
LINE
  5
40
100
AcDbEntity
  8
0
  6
CONTINUOUS
 62
               4
100
AcDbLine
 10
11.400000000000006
 20
73.199950014692547
 30
0.0
 11
11.400000000000006
 21
83.199950000000001
 31
0.0
  0
LINE
  5
41
100
AcDbEntity
  8
0
  6
CONTINUOUS
 62
               4
100
AcDbLine
 10
10.284999999999997
 20
68.373273366936814
 30
0.0
 11
10.284999999999997
 21
73.199950000000001
 31
0.0
  0
LINE
  5
42
100
AcDbEntity
  8
0
  6
CONTINUOUS
 62
               4
100
AcDbLine
 10
11.715000000000003
 20
67.990106021760312
 30
0.0
 11
11.715000000000003
 21
73.199950000000001
 31
0.0
  0
LINE
  5
43
100
AcDbEntity
  8
0
  6
CONTINUOUS
 62
               4
100
AcDbLine
 10
11.715000000000003
 20
63.199950000000001
 30
0.0
 11
11.715000000000003
 21
66.954829847214967
 31
0.0
  0
LINE
  5
44
100
AcDbEntity
  8
0
  6
CONTINUOUS
 62
               4
100
AcDbLine
 10
10.284999999999997
 20
63.199950000000001
 30
0.0
 11
10.284999999999997
 21
67.337997192391526
 31
0.0
  0
ARC
  5
45
100
AcDbEntity
  8
0
  6
CONTINUOUS
 62
               7
100
AcDbCircle
 10
4.4000000000000057
 20
-38.600000000000023
 30
0.0
 40
0.4
100
AcDbArc
 50
179.9999999999996
 51
269.99999999999937
  0
ARC
  5
46
100
AcDbEntity
  8
0
  6
CONTINUOUS
 62
               7
100
AcDbCircle
 10
13.599999999999994
 20
-38.600000000000023
 30
0.0
 40
0.4
100
AcDbArc
 50
269.99999999999937
 51
0.0
  0
LINE
  5
47
100
AcDbEntity
  8
0
  6
CONTINUOUS
 62
               7
100
AcDbLine
 10
13.599999994039536
 20
-39.0
 30
0.0
 11
4.4000000000000057
 21
-39.0
 31
0.0
  0
LINE
  5
48
100
AcDbEntity
  8
0
  6
CENTER
 62
             200
100
AcDbLine
 10
11.400000000000006
 20
-36.199999999999989
 30
0.0
 11
6.5999999999999943
 21
-36.199999999999989
 31
0.0
  0
LINE
  5
49
100
AcDbEntity
  8
0
  6
CONTINUOUS
 62
               4
100
AcDbLine
 10
7.7150000000000034
 20
69.061902791484783
 30
0.0
 11
7.7150000000000034
 21
73.199950000000001
 31
0.0
  0
LINE
  5
4A
100
AcDbEntity
  8
0
  6
CONTINUOUS
 62
               4
100
AcDbLine
 10
6.2849999999999966
 20
69.445070136661286
 30
0.0
 11
6.2849999999999966
 21
73.199950000000001
 31
0.0
  0
LINE
  5
4B
100
AcDbEntity
  8
0
  6
CONTINUOUS
 62
               4
100
AcDbLine
 10
7.4000000000000057
 20
73.199950014692547
 30
0.0
 11
7.4000000000000057
 21
83.199950000000001
 31
0.0
  0
LINE
  5
4C
100
AcDbEntity
  8
0
  6
CONTINUOUS
 62
               4
100
AcDbLine
 10
6.5999999999999943
 20
73.199950014692547
 30
0.0
 11
6.5999999999999943
 21
83.199950000000001
 31
0.0
  0
LINE
  5
4D
100
AcDbEntity
  8
0
  6
CONTINUOUS
 62
               4
100
AcDbLine
 10
6.5999999999999943
 20
83.199950000000001
 30
0.0
 11
7.4000000000000057
 21
83.199950000000001
 31
0.0
  0
LINE
  5
4E
100
AcDbEntity
  8
0
  6
CONTINUOUS
 62
               4
100
AcDbLine
 10
6.2849999999999966
 20
73.199950000000001
 30
0.0
 11
7.7150000000000034
 21
73.199950000000001
 31
0.0
  0
LINE
  5
4F
100
AcDbEntity
  8
0
  6
CONTINUOUS
 62
               4
100
AcDbLine
 10
7.7150000000000034
 20
63.199950000000001
 30
0.0
 11
7.7150000000000034
 21
68.026626616939495
 31
0.0
  0
LINE
  5
50
100
AcDbEntity
  8
0
  6
CONTINUOUS
 62
               4
100
AcDbLine
 10
6.2849999999999966
 20
63.199950000000001
 30
0.0
 11
6.2849999999999966
 21
68.409793962115998
 31
0.0
  0
LINE
  5
51
100
AcDbEntity
  8
0
  6
CONTINUOUS
 62
               7
100
AcDbLine
 10
5.5
 20
56.699950000000001
 30
0.0
 11
4.0
 21
56.699950000000001
 31
0.0
  0
LINE
  5
52
100
AcDbEntity
  8
0
  6
CONTINUOUS
 62
               7
100
AcDbLine
 10
4.5999999999999943
 20
49.5
 30
0.0
 11
4.0
 21
53.199950000000001
 31
0.0
  0
LINE
  5
53
100
AcDbEntity
  8
0
  6
CONTINUOUS
 62
               7
100
AcDbLine
 10
13.400000000000006
 20
49.5
 30
0.0
 11
14.0
 21
53.199950000000001
 31
0.0
  0
LINE
  5
54
100
AcDbEntity
  8
0
  6
CONTINUOUS
 62
               7
100
AcDbLine
 10
5.5
 20
54.699950000000001
 30
0.0
 11
5.0
 21
54.699950000000001
 31
0.0
  0
LINE
  5
55
100
AcDbEntity
  8
0
  6
CONTINUOUS
 62
               7
100
AcDbLine
 10
8.0
 20
51.0
 30
0.0
 11
8.0
 21
52.699950000000001
 31
0.0
  0
LINE
  5
56
100
AcDbEntity
  8
0
  6
CONTINUOUS
 62
               7
100
AcDbLine
 10
10.0
 20
51.0
 30
0.0
 11
10.0
 21
52.699950000000001
 31
0.0
  0
LINE
  5
57
100
AcDbEntity
  8
0
  6
CONTINUOUS
 62
               7
100
AcDbLine
 10
5.0
 20
51.000000001497028
 30
0.0
 11
5.0
 21
54.699950000000001
 31
0.0
  0
LINE
  5
58
100
AcDbEntity
  8
0
  6
CONTINUOUS
 62
               7
100
AcDbLine
 10
13.0
 20
51.0
 30
0.0
 11
13.0
 21
54.699950000000001
 31
0.0
  0
LINE
  5
59
100
AcDbEntity
  8
0
  6
CONTINUOUS
 62
               7
100
AcDbLine
 10
5.5
 20
55.699950000000001
 30
0.0
 11
5.0
 21
55.699950000000001
 31
0.0
  0
LINE
  5
5A
100
AcDbEntity
  8
0
  6
CONTINUOUS
 62
               7
100
AcDbLine
 10
5.0
 20
55.699950000000001
 30
0.0
 11
5.0
 21
56.699950000000001
 31
0.0
  0
LINE
  5
5B
100
AcDbEntity
  8
0
  6
CONTINUOUS
 62
               7
100
AcDbLine
 10
13.0
 20
55.699950000000001
 30
0.0
 11
13.0
 21
56.699950000000001
 31
0.0
  0
LINE
  5
5C
100
AcDbEntity
  8
0
  6
CONTINUOUS
 62
               7
100
AcDbLine
 10
13.0
 20
54.699950000000001
 30
0.0
 11
12.5
 21
54.699950000000001
 31
0.0
  0
LINE
  5
5D
100
AcDbEntity
  8
0
  6
CONTINUOUS
 62
               7
100
AcDbLine
 10
13.0
 20
55.699950000000001
 30
0.0
 11
12.5
 21
55.699950000000001
 31
0.0
  0
LINE
  5
5E
100
AcDbEntity
  8
0
  6
CONTINUOUS
 62
               7
100
AcDbLine
 10
4.0
 20
49.300000000000011
 30
0.0
 11
4.0
 21
56.699950000000001
 31
0.0
  0
LINE
  5
5F
100
AcDbEntity
  8
0
  6
CONTINUOUS
 62
               7
100
AcDbLine
 10
14.0
 20
49.300000000000011
 30
0.0
 11
14.0
 21
56.699950000000001
 31
0.0
  0
LINE
  5
60
100
AcDbEntity
  8
0
  6
CONTINUOUS
 62
               7
100
AcDbLine
 10
14.0
 20
56.699950000000001
 30
0.0
 11
12.5
 21
56.699950000000001
 31
0.0
  0
LINE
  5
61
100
AcDbEntity
  8
0
  6
CONTINUOUS
 62
               4
100
AcDbLine
 10
13.0
 20
63.199950000000001
 30
0.0
 11
13.0
 21
56.699950000000001
 31
0.0
  0
LINE
  5
62
100
AcDbEntity
  8
0
  6
CONTINUOUS
 62
               4
100
AcDbLine
 10
5.0
 20
63.199950000000001
 30
0.0
 11
5.0
 21
56.699950000000001
 31
0.0
  0
LINE
  5
63
100
AcDbEntity
  8
0
  6
CONTINUOUS
 62
               4
100
AcDbLine
 10
12.5
 20
61.699950000000001
 30
0.0
 11
5.5
 21
61.699950000000001
 31
0.0
  0
LINE
  5
64
100
AcDbEntity
  8
0
  6
CONTINUOUS
 62
               4
100
AcDbLine
 10
12.5
 20
56.249949999999956
 30
0.0
 11
5.5
 21
56.249949999999956
 31
0.0
  0
LINE
  5
65
100
AcDbEntity
  8
0
  6
CONTINUOUS
 62
               4
100
AcDbLine
 10
12.5
 20
52.699950000000001
 30
0.0
 11
5.5
 21
52.699950000000001
 31
0.0
  0
LINE
  5
66
100
AcDbEntity
  8
0
  6
CONTINUOUS
 62
               4
100
AcDbLine
 10
13.900000000000006
 20
63.199950000000001
 30
0.0
 11
13.900000000000006
 21
56.699950000000001
 31
0.0
  0
LINE
  5
67
100
AcDbEntity
  8
0
  6
CONTINUOUS
 62
               4
100
AcDbLine
 10
4.0999999999999943
 20
63.199950000000001
 30
0.0
 11
4.0999999999999943
 21
56.699950000000001
 31
0.0
  0
LINE
  5
68
100
AcDbEntity
  8
0
  6
CONTINUOUS
 62
               4
100
AcDbLine
 10
13.900000000000006
 20
63.199950000000001
 30
0.0
 11
4.0999999999999943
 21
63.199950000000001
 31
0.0
  0
LINE
  5
69
100
AcDbEntity
  8
0
  6
CONTINUOUS
 62
               4
100
AcDbLine
 10
12.5
 20
63.199950000000001
 30
0.0
 11
12.5
 21
52.699950000000001
 31
0.0
  0
LINE
  5
6A
100
AcDbEntity
  8
0
  6
CONTINUOUS
 62
               4
100
AcDbLine
 10
5.5
 20
63.199950000000001
 30
0.0
 11
5.5
 21
52.699950000000001
 31
0.0
  0
LINE
  5
6B
100
AcDbEntity
  8
0
  6
CENTER
 62
             200
100
AcDbLine
 10
18.0
 20
-29.5
 30
0.0
 11
18.0
 21
-34.5
 31
0.0
  0
LINE
  5
6C
100
AcDbEntity
  8
0
  6
CENTER
 62
             200
100
AcDbLine
 10
20.5
 20
-32.0
 30
0.0
 11
15.5
 21
-32.0
 31
0.0
  0
LINE
  5
6D
100
AcDbEntity
  8
0
  6
CENTER
 62
             200
100
AcDbLine
 10
0.0
 20
2.5
 30
0.0
 11
0.0
 21
-2.5
 31
0.0
  0
LINE
  5
6E
100
AcDbEntity
  8
0
  6
CENTER
 62
             200
100
AcDbLine
 10
2.5
 20
0.0
 30
0.0
 11
-2.5
 21
0.0
 31
0.0
  0
CIRCLE
  5
6F
100
AcDbEntity
  8
0
  6
CONTINUOUS
 62
               4
100
AcDbCircle
 10
18.0
 20
-32.0
 30
0.0
 40
1.6000000000000001
  0
CIRCLE
  5
70
100
AcDbEntity
  8
0
  6
CONTINUOUS
 62
               4
100
AcDbCircle
 10
0.0
 20
0.0
 30
0.0
 40
1.6000000000000001
  0
LINE
  5
71
100
AcDbEntity
  8
0
  6
CONTINUOUS
 62
               4
100
AcDbLine
 10
4.0
 20
-35.0
 30
0.0
 11
-3.0
 21
-35.0
 31
0.0
  0
LINE
  5
72
100
AcDbEntity
  8
0
  6
CONTINUOUS
 62
               4
100
AcDbLine
 10
4.0
 20
3.0
 30
0.0
 11
-3.0
 21
3.0
 31
0.0
  0
LINE
  5
73
100
AcDbEntity
  8
0
  6
CONTINUOUS
 62
               4
100
AcDbLine
 10
21.0
 20
3.0
 30
0.0
 11
14.0
 21
3.0
 31
0.0
  0
LINE
  5
74
100
AcDbEntity
  8
0
  6
CONTINUOUS
 62
               4
100
AcDbLine
 10
-3.0
 20
-35.0
 30
0.0
 11
-3.0
 21
3.0
 31
0.0
  0
LINE
  5
75
100
AcDbEntity
  8
0
  6
CONTINUOUS
 62
               4
100
AcDbLine
 10
21.0
 20
-35.0
 30
0.0
 11
21.0
 21
3.0
 31
0.0
  0
LINE
  5
76
100
AcDbEntity
  8
0
  6
CONTINUOUS
 62
               7
100
AcDbLine
 10
14.0
 20
-38.600000000000023
 30
0.0
 11
14.0
 21
0.4500000012919827
 31
0.0
  0
LINE
  5
77
100
AcDbEntity
  8
0
  6
CONTINUOUS
 62
               7
100
AcDbLine
 10
4.0
 20
-38.600000000000023
 30
0.0
 11
4.0
 21
-25.150000052264289
 31
0.0
  0
LINE
  5
78
100
AcDbEntity
  8
0
  6
CONTINUOUS
 62
               7
100
AcDbLine
 10
14.0
 20
4.0
 30
0.0
 11
4.0
 21
4.0
 31
0.0
  0
LINE
  5
79
100
AcDbEntity
  8
0
  6
CONTINUOUS
 62
               7
100
AcDbLine
 10
14.0
 20
-28.0
 30
0.0
 11
4.0
 21
-28.0
 31
0.0
  0
LINE
  5
7A
100
AcDbEntity
  8
0
  6
CENTER
 62
               2
100
AcDbLine
 10
9.0
 20
-40.0
 30
0.0
 11
9.0
 21
64.199950000000001
 31
0.0
  0
LINE
  5
7B
100
AcDbEntity
  8
0
  6
CONTINUOUS
 62
               7
100
AcDbLine
 10
13.0
 20
13.199999999999989
 30
0.0
 11
4.0
 21
13.199999999999989
 31
0.0
  0
LINE
  5
7C
100
AcDbEntity
  8
0
  6
CONTINUOUS
 62
               7
100
AcDbLine
 10
13.99999999481139
 20
11.199999999999989
 30
0.0
 11
4.0
 21
11.199999999999989
 31
0.0
  0
LINE
  5
7D
100
AcDbEntity
  8
0
  6
CONTINUOUS
 62
               7
100
AcDbLine
 10
13.99999999481139
 20
22.800000000000011
 30
0.0
 11
4.0
 21
22.800000000000011
 31
0.0
  0
LINE
  5
7E
100
AcDbEntity
  8
0
  6
CONTINUOUS
 62
               4
100
AcDbLine
 10
21.0
 20
-35.0
 30
0.0
 11
14.0
 21
-35.0
 31
0.0
  0
LINE
  5
7F
100
AcDbEntity
  8
0
  6
CONTINUOUS
 62
               7
100
AcDbLine
 10
12.0
 20
46.300000000000011
 30
0.0
 11
6.0
 21
46.300000000000011
 31
0.0
  0
LINE
  5
80
100
AcDbEntity
  8
0
  6
CONTINUOUS
 62
               7
100
AcDbLine
 10
14.0
 20
49.300000000000011
 30
0.0
 11
4.0
 21
49.300000000000011
 31
0.0
  0
LINE
  5
81
100
AcDbEntity
  8
0
  6
CONTINUOUS
 62
               7
100
AcDbLine
 10
12.5
 20
45.300000000000011
 30
0.0
 11
5.5
 21
45.300000000000011
 31
0.0
  0
LINE
  5
82
100
AcDbEntity
  8
0
  6
CONTINUOUS
 62
               7
100
AcDbLine
 10
12.5
 20
49.300000000000011
 30
0.0
 11
12.5
 21
45.300000000000011
 31
0.0
  0
LINE
  5
83
100
AcDbEntity
  8
0
  6
CONTINUOUS
 62
               7
100
AcDbLine
 10
5.5
 20
49.300000000000011
 30
0.0
 11
5.5
 21
45.300000000000011
 31
0.0
  0
LINE
  5
84
100
AcDbEntity
  8
0
  6
CONTINUOUS
 62
               7
100
AcDbLine
 10
14.0
 20
49.300000000000011
 30
0.0
 11
14.0
 21
22.800000000000011
 31
0.0
  0
LINE
  5
85
100
AcDbEntity
  8
0
  6
CONTINUOUS
 62
               7
100
AcDbLine
 10
4.0
 20
49.300000000000011
 30
0.0
 11
4.0
 21
22.800000000000011
 31
0.0
  0
LINE
  5
86
100
AcDbEntity
  8
0
  6
CONTINUOUS
 62
               7
100
AcDbLine
 10
13.400000000000006
 20
51.0
 30
0.0
 11
13.400000000000006
 21
49.300000000000011
 31
0.0
  0
LINE
  5
87
100
AcDbEntity
  8
0
  6
CONTINUOUS
 62
               7
100
AcDbLine
 10
4.5999999999999943
 20
51.0
 30
0.0
 11
4.5999999999999943
 21
49.300000000000011
 31
0.0
  0
LINE
  5
88
100
AcDbEntity
  8
0
  6
CONTINUOUS
 62
               7
100
AcDbLine
 10
6.0
 20
51.0
 30
0.0
 11
6.0
 21
46.300000000000011
 31
0.0
  0
LINE
  5
89
100
AcDbEntity
  8
0
  6
CONTINUOUS
 62
               7
100
AcDbLine
 10
12.0
 20
51.0
 30
0.0
 11
12.0
 21
46.300000000000011
 31
0.0
  0
LINE
  5
8A
100
AcDbEntity
  8
0
  6
CONTINUOUS
 62
               7
100
AcDbLine
 10
4.5999999999999943
 20
51.0
 30
0.0
 11
13.400000000000006
 21
51.0
 31
0.0
  0
LINE
  5
8B
100
AcDbEntity
  8
0
  6
CONTINUOUS
 62
               7
100
AcDbLine
 10
13.0
 20
11.199999999999989
 30
0.0
 11
13.0
 21
13.199999999999989
 31
0.0
  0
CIRCLE
  5
8C
100
AcDbEntity
  8
0
  6
CONTINUOUS
 62
               7
100
AcDbCircle
 10
12.799999992189726
 20
0.799999974513895
 30
0.0
 40
1.25
  0
ARC
  5
8D
100
AcDbEntity
  8
0
  6
CONTINUOUS
 62
               7
100
AcDbCircle
 10
13.600000000000023
 20
-1.1999999999999886
 30
0.0
 40
0.4
100
AcDbArc
 50
0.0
 51
89.999999999999801
  0
ARC
  5
8E
100
AcDbEntity
  8
0
  6
CONTINUOUS
 62
               7
100
AcDbCircle
 10
13.600000000000023
 20
2.7999999999999972
 30
0.0
 40
0.4
100
AcDbArc
 50
269.99999999999937
 51
0.0
  0
LINE
  5
8F
100
AcDbEntity
  8
0
  6
CONTINUOUS
 62
               7
100
AcDbLine
 10
11.916116523742687
 20
-0.0838834762573129
 30
0.0
 11
13.683883476257336
 21
1.6838834762573356
 31
0.0
  0
LINE
  5
90
100
AcDbEntity
  8
0
  6
CONTINUOUS
 62
               7
100
AcDbLine
 10
12.163603889942181
 20
1.4363961100578422
 30
0.0
 11
13.436396111905822
 21
0.163603888094201
 31
0.0
  0
ARC
  5
91
100
AcDbEntity
  8
0
  6
CONTINUOUS
 62
               7
100
AcDbCircle
 10
12.799999999999997
 20
0.7999999999999972
 30
0.0
 40
1.6000000000000001
100
AcDbArc
 50
89.999999999999801
 51
269.99999999999937
  0
LINE
  5
92
100
AcDbEntity
  8
0
  6
CONTINUOUS
 62
               7
100
AcDbLine
 10
12.800000011920929
 20
2.4000000000000057
 30
0.0
 11
13.599999994039536
 21
2.4000000000000057
 31
0.0
  0
LINE
  5
93
100
AcDbEntity
  8
0
  6
CONTINUOUS
 62
               7
100
AcDbLine
 10
12.800000011920929
 20
-0.799999999999983
 30
0.0
 11
13.599999994039536
 21
-0.799999999999983
 31
0.0
  0
CIRCLE
  5
94
100
AcDbEntity
  8
0
  6
CONTINUOUS
 62
               7
100
AcDbCircle
 10
5.1999999921897029
 20
-24.800000025486128
 30
0.0
 40
1.25
  0
ARC
  5
95
100
AcDbEntity
  8
0
  6
CONTINUOUS
 62
               7
100
AcDbCircle
 10
4.4000000000000057
 20
-22.800000000000026
 30
0.0
 40
0.4
100
AcDbArc
 50
179.9999999999996
 51
269.99999999999937
  0
ARC
  5
96
100
AcDbEntity
  8
0
  6
CONTINUOUS
 62
               7
100
AcDbCircle
 10
4.4000000000000057
 20
-26.800000000000026
 30
0.0
 40
0.4
100
AcDbArc
 50
89.999999999999801
 51
179.9999999999996
  0
ARC
  5
97
100
AcDbEntity
  8
0
  6
CONTINUOUS
 62
               7
100
AcDbCircle
 10
5.2000000000000171
 20
-24.800000000000026
 30
0.0
 40
1.6000000000000001
100
AcDbArc
 50
269.99999999999937
 51
89.999999999999801
  0
LINE
  5
98
100
AcDbEntity
  8
0
  6
CONTINUOUS
 62
               7
100
AcDbLine
 10
4.5636038899421578
 20
-24.163603889942181
 30
0.0
 11
5.836396111905799
 21
-25.436396111905822
 31
0.0
  0
LINE
  5
99
100
AcDbEntity
  8
0
  6
CONTINUOUS
 62
               7
100
AcDbLine
 10
4.3161165237426644
 20
-25.683883476257336
 30
0.0
 11
6.0838834762573129
 21
-23.916116523742687
 31
0.0
  0
LINE
  5
9A
100
AcDbEntity
  8
0
  6
CONTINUOUS
 62
               7
100
AcDbLine
 10
4.4000000059604503
 20
-23.200000000000017
 30
0.0
 11
5.1999999880790568
 21
-23.200000000000017
 31
0.0
  0
LINE
  5
9B
100
AcDbEntity
  8
0
  6
CONTINUOUS
 62
               7
100
AcDbLine
 10
4.4000000059604503
 20
-26.40000000000002
 30
0.0
 11
5.1999999880790568
 21
-26.40000000000002
 31
0.0
  0
LINE
  5
9C
100
AcDbEntity
  8
0
  6
CONTINUOUS
 62
               7
100
AcDbLine
 10
14.0
 20
1.1499999477358074
 30
0.0
 11
14.0
 21
22.800000000000011
 31
0.0
  0
LINE
  5
9D
100
AcDbEntity
  8
0
  6
CONTINUOUS
 62
               7
100
AcDbLine
 10
4.0
 20
-24.449999998707966
 30
0.0
 11
4.0
 21
22.800000000000011
 31
0.0
  0
ENDBLK
  5
9E
100
AcDbEntity
  8
0
100
AcDbBlockEnd
  0
BLOCK
  5
9F
100
AcDbEntity
  8
0
100
AcDbBlockBegin
  2
MS_2
 70
               0
 10
0.0
 20
0.0
 30
0.0
  3
MS_2
  1

  0
LINE
  5
A0
100
AcDbEntity
  8
0
  6
CONTINUOUS
 62
               4
100
AcDbLine
 10
46.700000000000017
 20
-38.049999999999969
 30
0.0
 11
46.700000000000017
 21
-36.499999999999957
 31
0.0
  0
LINE
  5
A1
100
AcDbEntity
  8
0
  6
CONTINUOUS
 62
               4
100
AcDbLine
 10
45.700000000000017
 20
-34.349999999999966
 30
0.0
 11
46.700000000000017
 21
-34.349999999999966
 31
0.0
  0
LINE
  5
A2
100
AcDbEntity
  8
0
  6
CONTINUOUS
 62
               4
100
AcDbLine
 10
45.700000000000017
 20
-38.049999999999969
 30
0.0
 11
46.700000000000017
 21
-38.049999999999969
 31
0.0
  0
LINE
  5
A3
100
AcDbEntity
  8
0
  6
CONTINUOUS
 62
               4
100
AcDbLine
 10
46.100000000000051
 20
-35.899999999999963
 30
0.0
 11
46.700000000000017
 21
-35.899999999999963
 31
0.0
  0
LINE
  5
A4
100
AcDbEntity
  8
0
  6
CONTINUOUS
 62
               4
100
AcDbLine
 10
46.100000000000051
 20
-36.499999999999957
 30
0.0
 11
46.700000000000017
 21
-36.499999999999957
 31
0.0
  0
LINE
  5
A5
100
AcDbEntity
  8
0
  6
CONTINUOUS
 62
               4
100
AcDbLine
 10
46.700000000000017
 20
-35.899999999999963
 30
0.0
 11
46.700000000000017
 21
-34.349999999999966
 31
0.0
  0
LINE
  5
A6
100
AcDbEntity
  8
0
  6
CONTINUOUS
 62
               4
100
AcDbLine
 10
46.100000000000051
 20
-36.499999999999957
 30
0.0
 11
46.100000000000051
 21
-35.899999999999963
 31
0.0
  0
LINE
  5
A7
100
AcDbEntity
  8
0
  6
CONTINUOUS
 62
               4
100
AcDbLine
 10
46.700000000000017
 20
17.549999999999997
 30
0.0
 11
46.700000000000017
 21
19.100000000000009
 31
0.0
  0
LINE
  5
A8
100
AcDbEntity
  8
0
  6
CONTINUOUS
 62
               4
100
AcDbLine
 10
45.700000000000017
 20
21.25
 30
0.0
 11
46.700000000000017
 21
21.25
 31
0.0
  0
LINE
  5
A9
100
AcDbEntity
  8
0
  6
CONTINUOUS
 62
               4
100
AcDbLine
 10
45.700000000000017
 20
17.549999999999997
 30
0.0
 11
46.700000000000017
 21
17.549999999999997
 31
0.0
  0
LINE
  5
AA
100
AcDbEntity
  8
0
  6
CONTINUOUS
 62
               4
100
AcDbLine
 10
46.100000000000051
 20
19.700000000000003
 30
0.0
 11
46.700000000000017
 21
19.700000000000003
 31
0.0
  0
LINE
  5
AB
100
AcDbEntity
  8
0
  6
CONTINUOUS
 62
               4
100
AcDbLine
 10
46.100000000000051
 20
19.100000000000009
 30
0.0
 11
46.700000000000017
 21
19.100000000000009
 31
0.0
  0
LINE
  5
AC
100
AcDbEntity
  8
0
  6
CONTINUOUS
 62
               4
100
AcDbLine
 10
46.700000000000017
 20
19.700000000000003
 30
0.0
 11
46.700000000000017
 21
21.25
 31
0.0
  0
LINE
  5
AD
100
AcDbEntity
  8
0
  6
CONTINUOUS
 62
               4
100
AcDbLine
 10
46.100000000000051
 20
19.100000000000009
 30
0.0
 11
46.100000000000051
 21
19.700000000000003
 31
0.0
  0
LINE
  5
AE
100
AcDbEntity
  8
0
  6
CONTINUOUS
 62
               7
100
AcDbLine
 10
23.999999993587323
 20
-26.800000009824473
 30
0.0
 11
24.699999981666394
 21
-26.800000009824473
 31
0.0
  0
LINE
  5
AF
100
AcDbEntity
  8
0
  6
CONTINUOUS
 62
               7
100
AcDbLine
 10
24.0
 20
-26.799999982118592
 30
0.0
 11
24.0
 21
2.7999999821186208
 31
0.0
  0
LINE
  5
B0
100
AcDbEntity
  8
0
  6
CONTINUOUS
 62
               7
100
AcDbLine
 10
23.999999993587323
 20
2.7999999901755501
 30
0.0
 11
24.699999999999989
 21
2.7999999901755501
 31
0.0
  0
LINE
  5
B1
100
AcDbEntity
  8
0
  6
CONTINUOUS
 62
               4
100
AcDbLine
 10
22.485000000000028
 20
69.244108249887816
 30
0.0
 11
22.485000000000028
 21
73.199950000000015
 31
0.0
  0
LINE
  5
B2
100
AcDbEntity
  8
0
  6
CONTINUOUS
 62
               4
100
AcDbLine
 10
23.915000000000035
 20
68.860940904701536
 30
0.0
 11
23.915000000000035
 21
73.199950000000015
 31
0.0
  0
LINE
  5
B3
100
AcDbEntity
  8
0
  6
CONTINUOUS
 62
               4
100
AcDbLine
 10
24.985000000000028
 20
68.574235268792918
 30
0.0
 11
24.985000000000028
 21
73.199950000000015
 31
0.0
  0
LINE
  5
B4
100
AcDbEntity
  8
0
  6
CONTINUOUS
 62
               4
100
AcDbLine
 10
26.415000000000035
 20
68.191067923606582
 30
0.0
 11
26.415000000000035
 21
73.199950000000015
 31
0.0
  0
LINE
  5
B5
100
AcDbEntity
  8
0
  6
CONTINUOUS
 62
             200
100
AcDbLine
 10
21.48500007390976
 20
68.476781234145179
 30
0.0
 11
27.415000021457672
 21
66.887842535972609
 31
0.0
  0
LINE
  5
B6
100
AcDbEntity
  8
0
  6
CONTINUOUS
 62
             200
100
AcDbLine
 10
21.485000014305115
 20
69.512057438492789
 30
0.0
 11
27.415000021457672
 21
67.923118725419059
 31
0.0
  0
LINE
  5
B7
100
AcDbEntity
  8
0
  6
CONTINUOUS
 62
               4
100
AcDbLine
 10
24.0
 20
-34.999999999999986
 30
0.0
 11
0.0
 21
-34.999999999999986
 31
0.0
  0
LINE
  5
B8
100
AcDbEntity
  8
0
  6
CONTINUOUS
 62
               4
100
AcDbLine
 10
24.0
 20
-34.999999999999986
 30
0.0
 11
24.0
 21
3.0000000000000142
 31
0.0
  0
LINE
  5
B9
100
AcDbEntity
  8
0
  6
CONTINUOUS
 62
               4
100
AcDbLine
 10
0.0
 20
-34.999999999999986
 30
0.0
 11
0.0
 21
3.0000000000000142
 31
0.0
  0
LINE
  5
BA
100
AcDbEntity
  8
0
  6
CONTINUOUS
 62
               4
100
AcDbLine
 10
24.0
 20
3.0000000000000142
 30
0.0
 11
0.0
 21
3.0000000000000142
 31
0.0
  0
CIRCLE
  5
BB
100
AcDbEntity
  8
0
  6
CONTINUOUS
 62
               4
100
AcDbCircle
 10
16.5
 20
-8.4999999999999858
 30
0.0
 40
4.2830000000000004
  0
CIRCLE
  5
BC
100
AcDbEntity
  8
0
  6
CONTINUOUS
 62
             200
100
AcDbCircle
 10
16.5
 20
-8.4999999999999858
 30
0.0
 40
4.8639999999999999
  0
CIRCLE
  5
BD
100
AcDbEntity
  8
0
  6
CONTINUOUS
 62
               4
100
AcDbCircle
 10
7.5
 20
-18.499999999999986
 30
0.0
 40
4.2830000000000004
  0
CIRCLE
  5
BE
100
AcDbEntity
  8
0
  6
CONTINUOUS
 62
             200
100
AcDbCircle
 10
7.5
 20
-18.499999999999986
 30
0.0
 40
4.8639999999999999
  0
LINE
  5
BF
100
AcDbEntity
  8
0
  6
CENTER
 62
             200
100
AcDbLine
 10
11.0
 20
-8.4999999999999858
 30
0.0
 11
22.0
 21
-8.4999999999999858
 31
0.0
  0
LINE
  5
C0
100
AcDbEntity
  8
0
  6
CENTER
 62
             200
100
AcDbLine
 10
16.5
 20
-2.9999999999999858
 30
0.0
 11
16.5
 21
-13.999999999999986
 31
0.0
  0
LINE
  5
C1
100
AcDbEntity
  8
0
  6
CENTER
 62
             200
100
AcDbLine
 10
2.0
 20
-18.499999999999986
 30
0.0
 11
13.0
 21
-18.499999999999986
 31
0.0
  0
LINE
  5
C2
100
AcDbEntity
  8
0
  6
CENTER
 62
             200
100
AcDbLine
 10
7.5
 20
-12.999999999999986
 30
0.0
 11
7.5
 21
-23.999999999999986
 31
0.0
  0
LINE
  5
C3
100
AcDbEntity
  8
0
  6
CONTINUOUS
 62
               7
100
AcDbLine
 10
44.200000000000003
 20
11.200000000000003
 30
0.0
 11
44.200000000000003
 21
13.200000000000003
 31
0.0
  0
LINE
  5
C4
100
AcDbEntity
  8
0
  6
CONTINUOUS
 62
               7
100
AcDbLine
 10
41.200000000000003
 20
11.200000000000003
 30
0.0
 11
41.200000000000003
 21
13.200000000000003
 31
0.0
  0
LINE
  5
C5
100
AcDbEntity
  8
0
  6
CONTINUOUS
 62
               7
100
AcDbLine
 10
43.5
 20
-38.699999999999974
 30
0.0
 11
43.5
 21
-38.299999999999997
 31
0.0
  0
ARC
  5
C6
100
AcDbEntity
  8
0
  6
CONTINUOUS
 62
               7
100
AcDbCircle
 10
43.800000000000011
 20
-38.699999999999974
 30
0.0
 40
0.3
100
AcDbArc
 50
179.9999999999996
 51
269.99999999999937
  0
ARC
  5
C7
100
AcDbEntity
  8
0
  6
CONTINUOUS
 62
               7
100
AcDbCircle
 10
43.200000000000017
 20
-38.299999999999997
 30
0.0
 40
0.3
100
AcDbArc
 50
0.0
 51
89.999999999999801
  0
LINE
  5
C8
100
AcDbEntity
  8
0
  6
CONTINUOUS
 62
               7
100
AcDbLine
 10
19.100000000000009
 20
4.0000000000000142
 30
0.0
 11
45.700000000000017
 21
4.0000000000000142
 31
0.0
  0
LINE
  5
C9
100
AcDbEntity
  8
0
  6
CONTINUOUS
 62
               7
100
AcDbLine
 10
24.700000000000003
 20
-27.999999999999986
 30
0.0
 11
45.700000000000017
 21
-27.999999999999986
 31
0.0
  0
LINE
  5
CA
100
AcDbEntity
  8
0
  6
CONTINUOUS
 62
               7
100
AcDbLine
 10
43.700000000000017
 20
-27.999999999999986
 30
0.0
 11
43.700000000000017
 21
4.0000000000000142
 31
0.0
  0
LINE
  5
CB
100
AcDbEntity
  8
0
  6
CONTINUOUS
 62
               7
100
AcDbLine
 10
24.700000000000003
 20
-38.600000000000009
 30
0.0
 11
24.700000000000003
 21
4.0000000000000142
 31
0.0
  0
LINE
  5
CC
100
AcDbEntity
  8
0
  6
CONTINUOUS
 62
               7
100
AcDbLine
 10
18.700000000000003
 20
11.200000000000003
 30
0.0
 11
45.700000000000017
 21
11.200000000000003
 31
0.0
  0
LINE
  5
CD
100
AcDbEntity
  8
0
  6
CONTINUOUS
 62
               7
100
AcDbLine
 10
45.700000000000017
 20
22.800000000000026
 30
0.0
 11
18.700000000000003
 21
22.800000000000026
 31
0.0
  0
LINE
  5
CE
100
AcDbEntity
  8
0
  6
CONTINUOUS
 62
               7
100
AcDbLine
 10
18.700000000000003
 20
11.200000000000003
 30
0.0
 11
18.700000000000003
 21
22.800000000000026
 31
0.0
  0
LINE
  5
CF
100
AcDbEntity
  8
0
  6
CONTINUOUS
 62
               7
100
AcDbLine
 10
45.700000000000017
 20
11.200000000000003
 30
0.0
 11
45.700000000000017
 21
22.800000000000026
 31
0.0
  0
LINE
  5
D0
100
AcDbEntity
  8
0
  6
CONTINUOUS
 62
               7
100
AcDbLine
 10
45.700000000000017
 20
13.200000000000003
 30
0.0
 11
44.200000000000003
 21
13.200000000000003
 31
0.0
  0
LINE
  5
D1
100
AcDbEntity
  8
0
  6
CONTINUOUS
 62
               7
100
AcDbLine
 10
22.700000000000003
 20
11.199999979697466
 30
0.0
 11
22.700000000000003
 21
13.200000000000003
 31
0.0
  0
LINE
  5
D2
100
AcDbEntity
  8
0
  6
CONTINUOUS
 62
               7
100
AcDbLine
 10
41.200000000000003
 20
13.200000000000003
 30
0.0
 11
22.700000000000003
 21
13.200000000000003
 31
0.0
  0
LINE
  5
D3
100
AcDbEntity
  8
0
  6
CONTINUOUS
 62
               7
100
AcDbLine
 10
45.700000000000017
 20
-38.600000000000009
 30
0.0
 11
45.700000000000017
 21
11.200000000000003
 31
0.0
  0
LINE
  5
D4
100
AcDbEntity
  8
0
  6
CONTINUOUS
 62
               7
100
AcDbLine
 10
18.700000000000003
 20
4.3999999999999915
 30
0.0
 11
18.700000000000003
 21
11.200000000000003
 31
0.0
  0
ARC
  5
D5
100
AcDbEntity
  8
0
  6
CONTINUOUS
 62
               7
100
AcDbCircle
 10
19.100000000000009
 20
4.3999999999999915
 30
0.0
 40
0.4
100
AcDbArc
 50
179.9999999999996
 51
269.99999999999937
  0
LINE
  5
D6
100
AcDbEntity
  8
0
  6
CONTINUOUS
 62
               7
100
AcDbLine
 10
25.100000000000009
 20
-38.999999999999986
 30
0.0
 11
45.300000000000011
 21
-38.999999999999986
 31
0.0
  0
ARC
  5
D7
100
AcDbEntity
  8
0
  6
CONTINUOUS
 62
               7
100
AcDbCircle
 10
45.300000000000011
 20
-38.600000000000009
 30
0.0
 40
0.4
100
AcDbArc
 50
-89.999999999999801
 51
0.0
  0
ARC
  5
D8
100
AcDbEntity
  8
0
  6
CONTINUOUS
 62
               7
100
AcDbCircle
 10
25.100000000000009
 20
-38.600000000000009
 30
0.0
 40
0.4
100
AcDbArc
 50
179.9999999999996
 51
269.99999999999937
  0
LINE
  5
D9
100
AcDbEntity
  8
0
  6
CONTINUOUS
 62
               7
100
AcDbLine
 10
43.200000000000017
 20
-37.999999999999986
 30
0.0
 11
40.599999999999994
 21
-37.999999999999986
 31
0.0
  0
LINE
  5
DA
100
AcDbEntity
  8
0
  6
CONTINUOUS
 62
               7
100
AcDbLine
 10
40.300000000000011
 20
-38.699999999999974
 30
0.0
 11
40.300000000000011
 21
-38.299999999999997
 31
0.0
  0
ARC
  5
DB
100
AcDbEntity
  8
0
  6
CONTINUOUS
 62
               7
100
AcDbCircle
 10
40.0
 20
-38.699999999999974
 30
0.0
 40
0.3
100
AcDbArc
 50
-89.999999999999801
 51
0.0
  0
ARC
  5
DC
100
AcDbEntity
  8
0
  6
CONTINUOUS
 62
               7
100
AcDbCircle
 10
40.599999999999994
 20
-38.299999999999997
 30
0.0
 40
0.3
100
AcDbArc
 50
89.999999999999801
 51
179.9999999999996
  0
LINE
  5
DD
100
AcDbEntity
  8
0
  6
CONTINUOUS
 62
               7
100
AcDbLine
 10
40.876000000000005
 20
-38.499999999999986
 30
0.0
 11
42.921999999999997
 21
-38.499999999999986
 31
0.0
  0
LINE
  5
DE
100
AcDbEntity
  8
0
  6
CONTINUOUS
 62
               7
100
AcDbLine
 10
40.650000000000006
 20
-37.999999999999986
 30
0.0
 11
40.677999999999997
 21
-38.317999999999969
 31
0.0
  0
LINE
  5
DF
100
AcDbEntity
  8
0
  6
CONTINUOUS
 62
               7
100
AcDbLine
 10
43.150000000000006
 20
-37.999999999999986
 30
0.0
 11
43.121999999999986
 21
-38.317999999999969
 31
0.0
  0
ARC
  5
E0
100
AcDbEntity
  8
0
  6
CONTINUOUS
 62
               7
100
AcDbCircle
 10
40.875900145270833
 20
-38.301405336463617
 30
0.0
 40
0.1985946886402126
100
AcDbArc
 50
184.79325079332196
 51
270.02880869989963
  0
ARC
  5
E1
100
AcDbEntity
  8
0
  6
CONTINUOUS
 62
               7
100
AcDbCircle
 10
42.922719178809956
 20
-38.29990019649442
 30
0.0
 40
0.2001010959018492
100
AcDbArc
 50
269.79407409513504
 51
354.81031463823109
  0
LINE
  5
E2
100
AcDbEntity
  8
0
  6
CONTINUOUS
 62
               7
100
AcDbLine
 10
43.700000000000017
 20
-26.399999999999963
 30
0.0
 11
45.700000000000017
 21
-26.399999999999963
 31
0.0
  0
LINE
  5
E3
100
AcDbEntity
  8
0
  6
CONTINUOUS
 62
               7
100
AcDbLine
 10
43.700000000000017
 20
-23.199999999999974
 30
0.0
 11
45.700000000000017
 21
-23.199999999999974
 31
0.0
  0
LINE
  5
E4
100
AcDbEntity
  8
0
  6
CONTINUOUS
 62
               7
100
AcDbLine
 10
45.700000000000017
 20
49.500000000000014
 30
0.0
 11
45.700000000000017
 21
22.800000000000026
 31
0.0
  0
LINE
  5
E5
100
AcDbEntity
  8
0
  6
CONTINUOUS
 62
               7
100
AcDbLine
 10
45.700000000000017
 20
49.300000000000026
 30
0.0
 11
18.700000000000003
 21
49.300000000000026
 31
0.0
  0
LINE
  5
E6
100
AcDbEntity
  8
0
  6
CONTINUOUS
 62
               7
100
AcDbLine
 10
22.250000000000014
 20
53.199950000000015
 30
0.0
 11
22.250000000000014
 21
49.700000000000003
 31
0.0
  0
LINE
  5
E7
100
AcDbEntity
  8
0
  6
CONTINUOUS
 62
               7
100
AcDbLine
 10
29.350000000000009
 20
53.199950000000015
 30
0.0
 11
22.250000000000014
 21
53.199950000000015
 31
0.0
  0
LINE
  5
E8
100
AcDbEntity
  8
0
  6
CONTINUOUS
 62
               7
100
AcDbLine
 10
29.350000000000009
 20
49.700000000000003
 30
0.0
 11
20.750000000000014
 21
49.700000000000003
 31
0.0
  0
LINE
  5
E9
100
AcDbEntity
  8
0
  6
CONTINUOUS
 62
               7
100
AcDbLine
 10
42.700000000000017
 20
51.000000000000014
 30
0.0
 11
45.100000000000009
 21
49.500000000000014
 31
0.0
  0
LINE
  5
EA
100
AcDbEntity
  8
0
  6
CONTINUOUS
 62
               7
100
AcDbLine
 10
45.700000000000003
 20
49.500000000000014
 30
0.0
 11
42.700000000000017
 21
51.000000000000014
 31
0.0
  0
LINE
  5
EB
100
AcDbEntity
  8
0
  6
CONTINUOUS
 62
               7
100
AcDbLine
 10
20.750000000000014
 20
51.000000000000014
 30
0.0
 11
18.700000000000003
 21
51.000000000000014
 31
0.0
  0
LINE
  5
EC
100
AcDbEntity
  8
0
  6
CONTINUOUS
 62
               7
100
AcDbLine
 10
42.700000000000017
 20
51.000000000000014
 30
0.0
 11
29.350000000000009
 21
51.000000000000014
 31
0.0
  0
LINE
  5
ED
100
AcDbEntity
  8
0
  6
CONTINUOUS
 62
               7
100
AcDbLine
 10
29.350000000000009
 20
56.699950000000015
 30
0.0
 11
20.750000000000014
 21
56.699950000000015
 31
0.0
  0
LINE
  5
EE
100
AcDbEntity
  8
0
  6
CONTINUOUS
 62
               7
100
AcDbLine
 10
45.100000000000009
 20
49.500000000000014
 30
0.0
 11
45.100000000000009
 21
49.300000000000026
 31
0.0
  0
LINE
  5
EF
100
AcDbEntity
  8
0
  6
CONTINUOUS
 62
               7
100
AcDbLine
 10
20.750000000000014
 20
56.699950000000015
 30
0.0
 11
20.750000000000014
 21
49.700000000000003
 31
0.0
  0
LINE
  5
F0
100
AcDbEntity
  8
0
  6
CONTINUOUS
 62
               7
100
AcDbLine
 10
29.350000000000009
 20
56.699950000000015
 30
0.0
 11
29.350000000000009
 21
49.700000000000003
 31
0.0
  0
LINE
  5
F1
100
AcDbEntity
  8
0
  6
CONTINUOUS
 62
               4
100
AcDbLine
 10
31.250000000000014
 20
61.699950000000015
 30
0.0
 11
31.250000000000014
 21
63.199950000000015
 31
0.0
  0
LINE
  5
F2
100
AcDbEntity
  8
0
  6
CONTINUOUS
 62
               4
100
AcDbLine
 10
29.250000000000014
 20
62.199950000000015
 30
0.0
 11
29.826000000000008
 21
63.199950000000015
 31
0.0
  0
LINE
  5
F3
100
AcDbEntity
  8
0
  6
CONTINUOUS
 62
               4
100
AcDbLine
 10
29.250000000000014
 20
56.699950000000015
 30
0.0
 11
29.250000000000014
 21
63.199950000000015
 31
0.0
  0
LINE
  5
F4
100
AcDbEntity
  8
0
  6
CONTINUOUS
 62
               4
100
AcDbLine
 10
30.250000000000014
 20
52.699950000000015
 30
0.0
 11
30.750000000000014
 21
56.257950000000008
 31
0.0
  0
LINE
  5
F5
100
AcDbEntity
  8
0
  6
CONTINUOUS
 62
               4
100
AcDbLine
 10
30.750000000000014
 20
56.257950000000008
 30
0.0
 11
30.750000000000014
 21
61.699950000000015
 31
0.0
  0
LINE
  5
F6
100
AcDbEntity
  8
0
  6
CONTINUOUS
 62
               4
100
AcDbLine
 10
20.250000000000014
 20
62.199950000000015
 30
0.0
 11
20.750000000000014
 21
62.199950000000015
 31
0.0
  0
LINE
  5
F7
100
AcDbEntity
  8
0
  6
CONTINUOUS
 62
               4
100
AcDbLine
 10
20.250000000000014
 20
62.199950000000015
 30
0.0
 11
20.250000000000014
 21
63.199950000000015
 31
0.0
  0
LINE
  5
F8
100
AcDbEntity
  8
0
  6
CONTINUOUS
 62
               4
100
AcDbLine
 10
20.750000000000014
 20
56.699950000000015
 30
0.0
 11
20.750000000000014
 21
62.199950000000015
 31
0.0
  0
LINE
  5
F9
100
AcDbEntity
  8
0
  6
CONTINUOUS
 62
               4
100
AcDbLine
 10
30.750000000000014
 20
61.699950000000015
 30
0.0
 11
31.250000000000014
 21
61.699950000000015
 31
0.0
  0
LINE
  5
FA
100
AcDbEntity
  8
0
  6
CONTINUOUS
 62
               4
100
AcDbLine
 10
29.350000000000009
 20
52.699950000000015
 30
0.0
 11
30.250000000000014
 21
52.699950000000015
 31
0.0
  0
LINE
  5
FB
100
AcDbEntity
  8
0
  6
CONTINUOUS
 62
               4
100
AcDbLine
 10
29.826000000000008
 20
63.199950000000015
 30
0.0
 11
31.250000000000014
 21
63.199950000000015
 31
0.0
  0
LINE
  5
FC
100
AcDbEntity
  8
0
  6
CONTINUOUS
 62
               4
100
AcDbLine
 10
20.250000000000014
 20
63.199950000000015
 30
0.0
 11
29.250000000000014
 21
63.199950000000015
 31
0.0
  0
LINE
  5
FD
100
AcDbEntity
  8
0
  6
CONTINUOUS
 62
               4
100
AcDbLine
 10
25.300000000000026
 20
73.199950014692561
 30
0.0
 11
25.300000000000026
 21
83.199950000000015
 31
0.0
  0
LINE
  5
FE
100
AcDbEntity
  8
0
  6
CONTINUOUS
 62
               4
100
AcDbLine
 10
26.100000000000037
 20
73.199950014692561
 30
0.0
 11
26.100000000000037
 21
83.199950000000015
 31
0.0
  0
LINE
  5
FF
100
AcDbEntity
  8
0
  6
CONTINUOUS
 62
               4
100
AcDbLine
 10
26.100000000000037
 20
83.199950000000015
 30
0.0
 11
25.300000000000026
 21
83.199950000000015
 31
0.0
  0
LINE
  5
100
100
AcDbEntity
  8
0
  6
CONTINUOUS
 62
               4
100
AcDbLine
 10
26.415000000000035
 20
73.199950000000015
 30
0.0
 11
24.985000000000028
 21
73.199950000000015
 31
0.0
  0
LINE
  5
101
100
AcDbEntity
  8
0
  6
CONTINUOUS
 62
               4
100
AcDbLine
 10
22.800000000000026
 20
73.199950014692561
 30
0.0
 11
22.800000000000026
 21
83.199950000000015
 31
0.0
  0
LINE
  5
102
100
AcDbEntity
  8
0
  6
CONTINUOUS
 62
               4
100
AcDbLine
 10
23.600000000000037
 20
73.199950014692561
 30
0.0
 11
23.600000000000037
 21
83.199950000000015
 31
0.0
  0
LINE
  5
103
100
AcDbEntity
  8
0
  6
CONTINUOUS
 62
               4
100
AcDbLine
 10
23.600000000000037
 20
83.199950000000015
 30
0.0
 11
22.800000000000026
 21
83.199950000000015
 31
0.0
  0
LINE
  5
104
100
AcDbEntity
  8
0
  6
CONTINUOUS
 62
               4
100
AcDbLine
 10
23.915000000000035
 20
73.199950000000015
 30
0.0
 11
22.485000000000028
 21
73.199950000000015
 31
0.0
  0
LINE
  5
105
100
AcDbEntity
  8
0
  6
CONTINUOUS
 62
               4
100
AcDbLine
 10
26.415000000000035
 20
63.199950000000015
 30
0.0
 11
26.415000000000035
 21
67.155791734340553
 31
0.0
  0
LINE
  5
106
100
AcDbEntity
  8
0
  6
CONTINUOUS
 62
               4
100
AcDbLine
 10
24.985000000000028
 20
63.199950000000015
 30
0.0
 11
24.985000000000028
 21
67.538959079784846
 31
0.0
  0
LINE
  5
107
100
AcDbEntity
  8
0
  6
CONTINUOUS
 62
               4
100
AcDbLine
 10
23.915000000000035
 20
63.199950000000015
 30
0.0
 11
23.915000000000035
 21
67.825664715886504
 31
0.0
  0
LINE
  5
108
100
AcDbEntity
  8
0
  6
CONTINUOUS
 62
               4
100
AcDbLine
 10
22.485000000000028
 20
63.199950000000015
 30
0.0
 11
22.485000000000028
 21
68.208832061330853
 31
0.0
  0
LINE
  5
109
100
AcDbEntity
  8
0
  6
CENTER
 62
             200
100
AcDbLine
 10
-1.999999988079054
 20
0.0
 30
0.0
 11
2.000000011920946
 21
0.0
 31
0.0
  0
LINE
  5
10A
100
AcDbEntity
  8
0
  6
CENTER
 62
             200
100
AcDbLine
 10
47.949999994811392
 20
19.400000000000006
 30
0.0
 11
43.449999994811392
 21
19.400000000000006
 31
0.0
  0
LINE
  5
10B
100
AcDbEntity
  8
0
  6
CENTER
 62
             200
100
AcDbLine
 10
47.949999994811392
 20
-36.19999999999996
 30
0.0
 11
43.449999994811392
 21
-36.19999999999996
 31
0.0
  0
LINE
  5
10C
100
AcDbEntity
  8
0
  6
CONTINUOUS
 62
               7
100
AcDbLine
 10
18.700000000000003
 20
22.800000000000026
 30
0.0
 11
18.700000000000003
 21
51.000000000000014
 31
0.0
  0
ENDBLK
  5
10D
100
AcDbEntity
  8
0
100
AcDbBlockEnd
  0
BLOCK
  5
10E
100
AcDbEntity
  8
0
100
AcDbBlockBegin
  2
MS_3
 70
               0
 10
0.0
 20
0.0
 30
0.0
  3
MS_3
  1

  0
LINE
  5
10F
100
AcDbEntity
  8
0
  6
CONTINUOUS
 62
               4
100
AcDbLine
 10
-46.700000000000045
 20
-34.349999999999952
 30
0.0
 11
-46.700000000000045
 21
-35.899999999999963
 31
0.0
  0
LINE
  5
110
100
AcDbEntity
  8
0
  6
CONTINUOUS
 62
               4
100
AcDbLine
 10
-45.700000000000045
 20
-38.049999999999955
 30
0.0
 11
-46.700000000000045
 21
-38.049999999999955
 31
0.0
  0
LINE
  5
111
100
AcDbEntity
  8
0
  6
CONTINUOUS
 62
               4
100
AcDbLine
 10
-45.700000000000045
 20
-34.349999999999952
 30
0.0
 11
-46.700000000000045
 21
-34.349999999999952
 31
0.0
  0
LINE
  5
112
100
AcDbEntity
  8
0
  6
CONTINUOUS
 62
               4
100
AcDbLine
 10
-46.10000000000008
 20
-36.499999999999957
 30
0.0
 11
-46.700000000000045
 21
-36.499999999999957
 31
0.0
  0
LINE
  5
113
100
AcDbEntity
  8
0
  6
CONTINUOUS
 62
               4
100
AcDbLine
 10
-46.10000000000008
 20
-35.899999999999963
 30
0.0
 11
-46.700000000000045
 21
-35.899999999999963
 31
0.0
  0
LINE
  5
114
100
AcDbEntity
  8
0
  6
CONTINUOUS
 62
               4
100
AcDbLine
 10
-46.700000000000045
 20
-36.499999999999957
 30
0.0
 11
-46.700000000000045
 21
-38.049999999999955
 31
0.0
  0
LINE
  5
115
100
AcDbEntity
  8
0
  6
CONTINUOUS
 62
               4
100
AcDbLine
 10
-46.10000000000008
 20
-35.899999999999963
 30
0.0
 11
-46.10000000000008
 21
-36.499999999999957
 31
0.0
  0
LINE
  5
116
100
AcDbEntity
  8
0
  6
CONTINUOUS
 62
               4
100
AcDbLine
 10
-46.700000000000045
 20
21.250000000000014
 30
0.0
 11
-46.700000000000045
 21
19.700000000000003
 31
0.0
  0
LINE
  5
117
100
AcDbEntity
  8
0
  6
CONTINUOUS
 62
               4
100
AcDbLine
 10
-45.700000000000045
 20
17.550000000000011
 30
0.0
 11
-46.700000000000045
 21
17.550000000000011
 31
0.0
  0
LINE
  5
118
100
AcDbEntity
  8
0
  6
CONTINUOUS
 62
               4
100
AcDbLine
 10
-45.700000000000045
 20
21.250000000000014
 30
0.0
 11
-46.700000000000045
 21
21.250000000000014
 31
0.0
  0
LINE
  5
119
100
AcDbEntity
  8
0
  6
CONTINUOUS
 62
               4
100
AcDbLine
 10
-46.10000000000008
 20
19.100000000000009
 30
0.0
 11
-46.700000000000045
 21
19.100000000000009
 31
0.0
  0
LINE
  5
11A
100
AcDbEntity
  8
0
  6
CONTINUOUS
 62
               4
100
AcDbLine
 10
-46.10000000000008
 20
19.700000000000003
 30
0.0
 11
-46.700000000000045
 21
19.700000000000003
 31
0.0
  0
LINE
  5
11B
100
AcDbEntity
  8
0
  6
CONTINUOUS
 62
               4
100
AcDbLine
 10
-46.700000000000045
 20
19.100000000000009
 30
0.0
 11
-46.700000000000045
 21
17.550000000000011
 31
0.0
  0
LINE
  5
11C
100
AcDbEntity
  8
0
  6
CONTINUOUS
 62
               4
100
AcDbLine
 10
-46.10000000000008
 20
19.700000000000003
 30
0.0
 11
-46.10000000000008
 21
19.100000000000009
 31
0.0
  0
LINE
  5
11D
100
AcDbEntity
  8
0
  6
CONTINUOUS
 62
               7
100
AcDbLine
 10
-23.999999993587352
 20
2.800000009824501
 30
0.0
 11
-24.699999981666423
 21
2.800000009824501
 31
0.0
  0
LINE
  5
11E
100
AcDbEntity
  8
0
  6
CONTINUOUS
 62
               7
100
AcDbLine
 10
-24.000000000000028
 20
2.7999999821186208
 30
0.0
 11
-24.000000000000028
 21
-26.799999982118592
 31
0.0
  0
LINE
  5
11F
100
AcDbEntity
  8
0
  6
CONTINUOUS
 62
               7
100
AcDbLine
 10
-23.999999993587352
 20
-26.799999990175493
 30
0.0
 11
-24.700000000000017
 21
-26.799999990175493
 31
0.0
  0
LINE
  5
120
100
AcDbEntity
  8
0
  6
CONTINUOUS
 62
               4
100
AcDbLine
 10
-26.415000000000049
 20
69.244108248720025
 30
0.0
 11
-26.415000000000049
 21
73.199950000000015
 31
0.0
  0
LINE
  5
121
100
AcDbEntity
  8
0
  6
CONTINUOUS
 62
               4
100
AcDbLine
 10
-24.985000000000042
 20
68.860940898961545
 30
0.0
 11
-24.985000000000042
 21
73.199950000000015
 31
0.0
  0
LINE
  5
122
100
AcDbEntity
  8
0
  6
CONTINUOUS
 62
               4
100
AcDbLine
 10
-23.915000000000049
 20
68.574235259631749
 30
0.0
 11
-23.915000000000049
 21
73.199950000000015
 31
0.0
  0
LINE
  5
123
100
AcDbEntity
  8
0
  6
CONTINUOUS
 62
               4
100
AcDbLine
 10
-22.485000000000042
 20
68.191067909873269
 30
0.0
 11
-22.485000000000042
 21
73.199950000000015
 31
0.0
  0
LINE
  5
124
100
AcDbEntity
  8
0
  6
CONTINUOUS
 62
             200
100
AcDbLine
 10
-27.415000000000049
 20
68.476781267120387
 30
0.0
 11
-21.485000000000042
 21
66.887842556213641
 31
0.0
  0
LINE
  5
125
100
AcDbEntity
  8
0
  6
CONTINUOUS
 62
             200
100
AcDbLine
 10
-27.415000000000049
 20
69.512057444355335
 30
0.0
 11
-21.485000000000042
 21
67.923118714237958
 31
0.0
  0
LINE
  5
126
100
AcDbEntity
  8
0
  6
CONTINUOUS
 62
               4
100
AcDbLine
 10
-22.485000000000042
 20
63.199950000000015
 30
0.0
 11
-22.485000000000042
 21
67.155791748609388
 31
0.0
  0
LINE
  5
127
100
AcDbEntity
  8
0
  6
CONTINUOUS
 62
               4
100
AcDbLine
 10
-23.915000000000049
 20
63.199950000000015
 30
0.0
 11
-23.915000000000049
 21
67.538959093735301
 31
0.0
  0
LINE
  5
128
100
AcDbEntity
  8
0
  6
CONTINUOUS
 62
               4
100
AcDbLine
 10
-24.985000000000042
 20
63.199950000000015
 30
0.0
 11
-24.985000000000042
 21
67.825664729598728
 31
0.0
  0
LINE
  5
129
100
AcDbEntity
  8
0
  6
CONTINUOUS
 62
               4
100
AcDbLine
 10
-26.415000000000049
 20
63.199950000000015
 30
0.0
 11
-26.415000000000049
 21
68.20883207472464
 31
0.0
  0
LINE
  5
12A
100
AcDbEntity
  8
0
  6
CONTINUOUS
 62
               4
100
AcDbLine
 10
-23.915000000000049
 20
73.199950000000015
 30
0.0
 11
-22.485000000000042
 21
73.199950000000015
 31
0.0
  0
LINE
  5
12B
100
AcDbEntity
  8
0
  6
CONTINUOUS
 62
               4
100
AcDbLine
 10
-23.600000000000051
 20
83.199950000000015
 30
0.0
 11
-22.80000000000004
 21
83.199950000000015
 31
0.0
  0
LINE
  5
12C
100
AcDbEntity
  8
0
  6
CONTINUOUS
 62
               4
100
AcDbLine
 10
-23.600000000000051
 20
73.199950014692561
 30
0.0
 11
-23.600000000000051
 21
83.199950000000015
 31
0.0
  0
LINE
  5
12D
100
AcDbEntity
  8
0
  6
CONTINUOUS
 62
               4
100
AcDbLine
 10
-22.80000000000004
 20
73.199950014692561
 30
0.0
 11
-22.80000000000004
 21
83.199950000000015
 31
0.0
  0
LINE
  5
12E
100
AcDbEntity
  8
0
  6
CONTINUOUS
 62
               4
100
AcDbLine
 10
-26.415000000000049
 20
73.199950000000015
 30
0.0
 11
-24.985000000000042
 21
73.199950000000015
 31
0.0
  0
LINE
  5
12F
100
AcDbEntity
  8
0
  6
CONTINUOUS
 62
               4
100
AcDbLine
 10
-26.100000000000051
 20
83.199950000000015
 30
0.0
 11
-25.30000000000004
 21
83.199950000000015
 31
0.0
  0
LINE
  5
130
100
AcDbEntity
  8
0
  6
CONTINUOUS
 62
               4
100
AcDbLine
 10
-26.100000000000051
 20
73.199950014692561
 30
0.0
 11
-26.100000000000051
 21
83.199950000000015
 31
0.0
  0
LINE
  5
131
100
AcDbEntity
  8
0
  6
CONTINUOUS
 62
               4
100
AcDbLine
 10
-25.30000000000004
 20
73.199950014692561
 30
0.0
 11
-25.30000000000004
 21
83.199950000000015
 31
0.0
  0
LINE
  5
132
100
AcDbEntity
  8
0
  6
CONTINUOUS
 62
               4
100
AcDbLine
 10
-20.25
 20
63.199950000000015
 30
0.0
 11
-29.250000000000028
 21
63.199950000000015
 31
0.0
  0
LINE
  5
133
100
AcDbEntity
  8
0
  6
CONTINUOUS
 62
               4
100
AcDbLine
 10
-29.826000000000022
 20
63.199950000000015
 30
0.0
 11
-31.250000000000028
 21
63.199950000000015
 31
0.0
  0
LINE
  5
134
100
AcDbEntity
  8
0
  6
CONTINUOUS
 62
               4
100
AcDbLine
 10
-29.350000000000023
 20
52.699950000000015
 30
0.0
 11
-30.250000000000028
 21
52.699950000000015
 31
0.0
  0
LINE
  5
135
100
AcDbEntity
  8
0
  6
CONTINUOUS
 62
               4
100
AcDbLine
 10
-30.750000000000028
 20
61.699950000000015
 30
0.0
 11
-31.250000000000028
 21
61.699950000000015
 31
0.0
  0
LINE
  5
136
100
AcDbEntity
  8
0
  6
CONTINUOUS
 62
               4
100
AcDbLine
 10
-20.750000000000028
 20
56.699950000000015
 30
0.0
 11
-20.750000000000028
 21
62.199950000000015
 31
0.0
  0
LINE
  5
137
100
AcDbEntity
  8
0
  6
CONTINUOUS
 62
               4
100
AcDbLine
 10
-20.25
 20
62.199950000000015
 30
0.0
 11
-20.25
 21
63.199950000000015
 31
0.0
  0
LINE
  5
138
100
AcDbEntity
  8
0
  6
CONTINUOUS
 62
               4
100
AcDbLine
 10
-20.25
 20
62.199950000000015
 30
0.0
 11
-20.750000000000028
 21
62.199950000000015
 31
0.0
  0
LINE
  5
139
100
AcDbEntity
  8
0
  6
CONTINUOUS
 62
               4
100
AcDbLine
 10
-30.750000000000028
 20
56.257950000000008
 30
0.0
 11
-30.750000000000028
 21
61.699950000000015
 31
0.0
  0
LINE
  5
13A
100
AcDbEntity
  8
0
  6
CONTINUOUS
 62
               4
100
AcDbLine
 10
-30.250000000000028
 20
52.699950000000015
 30
0.0
 11
-30.750000000000028
 21
56.257950000000008
 31
0.0
  0
LINE
  5
13B
100
AcDbEntity
  8
0
  6
CONTINUOUS
 62
               4
100
AcDbLine
 10
-29.250000000000028
 20
56.699950000000015
 30
0.0
 11
-29.250000000000028
 21
63.199950000000015
 31
0.0
  0
LINE
  5
13C
100
AcDbEntity
  8
0
  6
CONTINUOUS
 62
               4
100
AcDbLine
 10
-29.250000000000028
 20
62.199950000000015
 30
0.0
 11
-29.826000000000022
 21
63.199950000000015
 31
0.0
  0
LINE
  5
13D
100
AcDbEntity
  8
0
  6
CONTINUOUS
 62
               4
100
AcDbLine
 10
-31.250000000000028
 20
61.699950000000015
 30
0.0
 11
-31.250000000000028
 21
63.199950000000015
 31
0.0
  0
LINE
  5
13E
100
AcDbEntity
  8
0
  6
CONTINUOUS
 62
               7
100
AcDbLine
 10
-29.350000000000023
 20
56.699950000000015
 30
0.0
 11
-29.350000000000023
 21
49.700000000000003
 31
0.0
  0
LINE
  5
13F
100
AcDbEntity
  8
0
  6
CONTINUOUS
 62
               7
100
AcDbLine
 10
-20.750000000000028
 20
56.699950000000015
 30
0.0
 11
-20.750000000000028
 21
49.700000000000003
 31
0.0
  0
LINE
  5
140
100
AcDbEntity
  8
0
  6
CONTINUOUS
 62
               7
100
AcDbLine
 10
-45.100000000000023
 20
49.500000000000014
 30
0.0
 11
-45.100000000000023
 21
49.300000000000026
 31
0.0
  0
LINE
  5
141
100
AcDbEntity
  8
0
  6
CONTINUOUS
 62
               7
100
AcDbLine
 10
-29.350000000000023
 20
56.699950000000015
 30
0.0
 11
-20.750000000000028
 21
56.699950000000015
 31
0.0
  0
LINE
  5
142
100
AcDbEntity
  8
0
  6
CONTINUOUS
 62
               7
100
AcDbLine
 10
-42.700000000000045
 20
51.000000000000014
 30
0.0
 11
-29.350000000000023
 21
51.000000000000014
 31
0.0
  0
LINE
  5
143
100
AcDbEntity
  8
0
  6
CONTINUOUS
 62
               7
100
AcDbLine
 10
-20.750000000000028
 20
51.000000000000014
 30
0.0
 11
-18.700000000000045
 21
51.000000000000014
 31
0.0
  0
LINE
  5
144
100
AcDbEntity
  8
0
  6
CONTINUOUS
 62
               7
100
AcDbLine
 10
-45.700000000000017
 20
49.500000000000014
 30
0.0
 11
-42.700000000000045
 21
51.000000000000014
 31
0.0
  0
LINE
  5
145
100
AcDbEntity
  8
0
  6
CONTINUOUS
 62
               7
100
AcDbLine
 10
-42.700000000000045
 20
51.000000000000014
 30
0.0
 11
-45.100000000000023
 21
49.500000000000014
 31
0.0
  0
LINE
  5
146
100
AcDbEntity
  8
0
  6
CONTINUOUS
 62
               7
100
AcDbLine
 10
-29.350000000000023
 20
49.700000000000003
 30
0.0
 11
-20.750000000000028
 21
49.700000000000003
 31
0.0
  0
LINE
  5
147
100
AcDbEntity
  8
0
  6
CONTINUOUS
 62
               7
100
AcDbLine
 10
-29.350000000000023
 20
53.199950000000015
 30
0.0
 11
-22.250000000000028
 21
53.199950000000015
 31
0.0
  0
LINE
  5
148
100
AcDbEntity
  8
0
  6
CONTINUOUS
 62
               7
100
AcDbLine
 10
-22.250000000000028
 20
53.199950000000015
 30
0.0
 11
-22.250000000000028
 21
49.700000000000003
 31
0.0
  0
LINE
  5
149
100
AcDbEntity
  8
0
  6
CONTINUOUS
 62
               7
100
AcDbLine
 10
-45.700000000000045
 20
49.300000000000026
 30
0.0
 11
-18.700000000000045
 21
49.300000000000026
 31
0.0
  0
LINE
  5
14A
100
AcDbEntity
  8
0
  6
CONTINUOUS
 62
               7
100
AcDbLine
 10
-45.700000000000045
 20
49.500000000000014
 30
0.0
 11
-45.700000000000045
 21
22.800000000000026
 31
0.0
  0
LINE
  5
14B
100
AcDbEntity
  8
0
  6
CONTINUOUS
 62
               7
100
AcDbLine
 10
-18.700000000000045
 20
22.800000000000026
 30
0.0
 11
-18.700000000000045
 21
51.000000000000014
 31
0.0
  0
LINE
  5
14C
100
AcDbEntity
  8
0
  6
CONTINUOUS
 62
               7
100
AcDbLine
 10
-43.700000000000045
 20
-0.7999999999999972
 30
0.0
 11
-45.700000000000045
 21
-0.7999999999999972
 31
0.0
  0
LINE
  5
14D
100
AcDbEntity
  8
0
  6
CONTINUOUS
 62
               7
100
AcDbLine
 10
-43.700000000000045
 20
2.3999999999999915
 30
0.0
 11
-45.700000000000045
 21
2.3999999999999915
 31
0.0
  0
ARC
  5
14E
100
AcDbEntity
  8
0
  6
CONTINUOUS
 62
               7
100
AcDbCircle
 10
-25.477280821190078
 20
-38.29990019649442
 30
0.0
 40
0.2001010959018492
100
AcDbArc
 50
269.79407409513504
 51
354.81031463823109
  0
ARC
  5
14F
100
AcDbEntity
  8
0
  6
CONTINUOUS
 62
               7
100
AcDbCircle
 10
-27.524099854729201
 20
-38.301405336463617
 30
0.0
 40
0.1985946886402126
100
AcDbArc
 50
184.79325079332196
 51
270.02880869989963
  0
LINE
  5
150
100
AcDbEntity
  8
0
  6
CONTINUOUS
 62
               7
100
AcDbLine
 10
-25.250000000000028
 20
-37.999999999999986
 30
0.0
 11
-25.278000000000048
 21
-38.317999999999969
 31
0.0
  0
LINE
  5
151
100
AcDbEntity
  8
0
  6
CONTINUOUS
 62
               7
100
AcDbLine
 10
-27.750000000000028
 20
-37.999999999999986
 30
0.0
 11
-27.722000000000037
 21
-38.317999999999969
 31
0.0
  0
LINE
  5
152
100
AcDbEntity
  8
0
  6
CONTINUOUS
 62
               7
100
AcDbLine
 10
-27.524000000000029
 20
-38.499999999999986
 30
0.0
 11
-25.478000000000037
 21
-38.499999999999986
 31
0.0
  0
ARC
  5
153
100
AcDbEntity
  8
0
  6
CONTINUOUS
 62
               7
100
AcDbCircle
 10
-27.80000000000004
 20
-38.299999999999997
 30
0.0
 40
0.3
100
AcDbArc
 50
89.999999999999801
 51
179.9999999999996
  0
ARC
  5
154
100
AcDbEntity
  8
0
  6
CONTINUOUS
 62
               7
100
AcDbCircle
 10
-25.000000000000028
 20
-37.699999999999974
 30
0.0
 40
0.3
100
AcDbArc
 50
269.99999999999937
 51
0.0
  0
ARC
  5
155
100
AcDbEntity
  8
0
  6
CONTINUOUS
 62
               7
100
AcDbCircle
 10
-28.400000000000034
 20
-38.699999999999974
 30
0.0
 40
0.3
100
AcDbArc
 50
269.99999999999937
 51
0.0
  0
LINE
  5
156
100
AcDbEntity
  8
0
  6
CONTINUOUS
 62
               7
100
AcDbLine
 10
-28.100000000000023
 20
-38.699999999999974
 30
0.0
 11
-28.100000000000023
 21
-38.299999999999997
 31
0.0
  0
LINE
  5
157
100
AcDbEntity
  8
0
  6
CONTINUOUS
 62
               7
100
AcDbLine
 10
-25.000000000000028
 20
-37.999999999999986
 30
0.0
 11
-27.80000000000004
 21
-37.999999999999986
 31
0.0
  0
ARC
  5
158
100
AcDbEntity
  8
0
  6
CONTINUOUS
 62
               7
100
AcDbCircle
 10
-25.100000000000023
 20
-38.600000000000009
 30
0.0
 40
0.4
100
AcDbArc
 50
269.99999999999937
 51
0.0
  0
ARC
  5
159
100
AcDbEntity
  8
0
  6
CONTINUOUS
 62
               7
100
AcDbCircle
 10
-45.300000000000011
 20
-38.600000000000009
 30
0.0
 40
0.4
100
AcDbArc
 50
179.9999999999996
 51
269.99999999999937
  0
LINE
  5
15A
100
AcDbEntity
  8
0
  6
CONTINUOUS
 62
               7
100
AcDbLine
 10
-25.100000000000023
 20
-38.999999999999986
 30
0.0
 11
-45.300000000000011
 21
-38.999999999999986
 31
0.0
  0
ARC
  5
15B
100
AcDbEntity
  8
0
  6
CONTINUOUS
 62
               7
100
AcDbCircle
 10
-19.100000000000023
 20
4.3999999999999915
 30
0.0
 40
0.4
100
AcDbArc
 50
269.99999999999937
 51
0.0
  0
LINE
  5
15C
100
AcDbEntity
  8
0
  6
CONTINUOUS
 62
               7
100
AcDbLine
 10
-18.700000000000045
 20
4.3999999999999915
 30
0.0
 11
-18.700000000000045
 21
11.200000000000003
 31
0.0
  0
LINE
  5
15D
100
AcDbEntity
  8
0
  6
CONTINUOUS
 62
               7
100
AcDbLine
 10
-45.700000000000045
 20
-38.600000000000009
 30
0.0
 11
-45.700000000000045
 21
11.200000000000003
 31
0.0
  0
LINE
  5
15E
100
AcDbEntity
  8
0
  6
CONTINUOUS
 62
               7
100
AcDbLine
 10
-21.700000000000017
 20
13.200000000000003
 30
0.0
 11
-41.700000000000045
 21
13.200000000000003
 31
0.0
  0
LINE
  5
15F
100
AcDbEntity
  8
0
  6
CONTINUOUS
 62
               7
100
AcDbLine
 10
-19.700000000000045
 20
11.199999979697466
 30
0.0
 11
-19.700000000000045
 21
13.200000000000003
 31
0.0
  0
LINE
  5
160
100
AcDbEntity
  8
0
  6
CONTINUOUS
 62
               7
100
AcDbLine
 10
-21.700000000000017
 20
11.199999979697466
 30
0.0
 11
-21.700000000000017
 21
13.200000000000003
 31
0.0
  0
LINE
  5
161
100
AcDbEntity
  8
0
  6
CONTINUOUS
 62
               7
100
AcDbLine
 10
-41.700000000000045
 20
11.199999979697466
 30
0.0
 11
-41.700000000000045
 21
13.200000000000003
 31
0.0
  0
LINE
  5
162
100
AcDbEntity
  8
0
  6
CONTINUOUS
 62
               7
100
AcDbLine
 10
-18.700000000000045
 20
13.200000000000003
 30
0.0
 11
-19.700000000000045
 21
13.200000000000003
 31
0.0
  0
LINE
  5
163
100
AcDbEntity
  8
0
  6
CONTINUOUS
 62
               7
100
AcDbLine
 10
-45.700000000000045
 20
11.200000000000003
 30
0.0
 11
-45.700000000000045
 21
22.800000000000026
 31
0.0
  0
LINE
  5
164
100
AcDbEntity
  8
0
  6
CONTINUOUS
 62
               7
100
AcDbLine
 10
-18.700000000000045
 20
11.200000000000003
 30
0.0
 11
-18.700000000000045
 21
22.800000000000026
 31
0.0
  0
LINE
  5
165
100
AcDbEntity
  8
0
  6
CONTINUOUS
 62
               7
100
AcDbLine
 10
-45.700000000000045
 20
22.800000000000026
 30
0.0
 11
-18.700000000000045
 21
22.800000000000026
 31
0.0
  0
LINE
  5
166
100
AcDbEntity
  8
0
  6
CONTINUOUS
 62
               7
100
AcDbLine
 10
-18.700000000000045
 20
11.200000000000003
 30
0.0
 11
-45.700000000000045
 21
11.200000000000003
 31
0.0
  0
LINE
  5
167
100
AcDbEntity
  8
0
  6
CONTINUOUS
 62
               7
100
AcDbLine
 10
-24.700000000000017
 20
-38.600000000000009
 30
0.0
 11
-24.700000000000017
 21
4.0000000000000142
 31
0.0
  0
LINE
  5
168
100
AcDbEntity
  8
0
  6
CONTINUOUS
 62
               7
100
AcDbLine
 10
-43.700000000000045
 20
-27.999999999999986
 30
0.0
 11
-43.700000000000045
 21
4.0000000000000142
 31
0.0
  0
LINE
  5
169
100
AcDbEntity
  8
0
  6
CONTINUOUS
 62
               7
100
AcDbLine
 10
-24.700000000000017
 20
-27.999999999999986
 30
0.0
 11
-45.700000000000045
 21
-27.999999999999986
 31
0.0
  0
LINE
  5
16A
100
AcDbEntity
  8
0
  6
CONTINUOUS
 62
               7
100
AcDbLine
 10
-19.100000000000023
 20
4.0000000000000142
 30
0.0
 11
-45.700000000000045
 21
4.0000000000000142
 31
0.0
  0
CIRCLE
  5
16B
100
AcDbEntity
  8
0
  6
CONTINUOUS
 62
             200
100
AcDbCircle
 10
-7.5
 20
-23.499999999999986
 30
0.0
 40
4.8639999999999999
  0
CIRCLE
  5
16C
100
AcDbEntity
  8
0
  6
CONTINUOUS
 62
               4
100
AcDbCircle
 10
-7.5
 20
-23.499999999999986
 30
0.0
 40
4.2830000000000004
  0
CIRCLE
  5
16D
100
AcDbEntity
  8
0
  6
CONTINUOUS
 62
             200
100
AcDbCircle
 10
-16.5
 20
-13.499999999999986
 30
0.0
 40
4.8639999999999999
  0
CIRCLE
  5
16E
100
AcDbEntity
  8
0
  6
CONTINUOUS
 62
               4
100
AcDbCircle
 10
-16.5
 20
-13.499999999999986
 30
0.0
 40
4.2830000000000004
  0
CIRCLE
  5
16F
100
AcDbEntity
  8
0
  6
CONTINUOUS
 62
             200
100
AcDbCircle
 10
-7.5
 20
-3.4999999999999858
 30
0.0
 40
4.8639999999999999
  0
CIRCLE
  5
170
100
AcDbEntity
  8
0
  6
CONTINUOUS
 62
               4
100
AcDbCircle
 10
-7.5
 20
-3.4999999999999858
 30
0.0
 40
4.2830000000000004
  0
LINE
  5
171
100
AcDbEntity
  8
0
  6
CONTINUOUS
 62
               4
100
AcDbLine
 10
-24.000000000000028
 20
3.0000000000000142
 30
0.0
 11
0.0
 21
3.0000000000000142
 31
0.0
  0
LINE
  5
172
100
AcDbEntity
  8
0
  6
CONTINUOUS
 62
               4
100
AcDbLine
 10
0.0
 20
-34.999999999999986
 30
0.0
 11
0.0
 21
3.0000000000000142
 31
0.0
  0
LINE
  5
173
100
AcDbEntity
  8
0
  6
CONTINUOUS
 62
               4
100
AcDbLine
 10
-24.000000000000028
 20
-34.999999999999986
 30
0.0
 11
-24.000000000000028
 21
3.0000000000000142
 31
0.0
  0
LINE
  5
174
100
AcDbEntity
  8
0
  6
CONTINUOUS
 62
               4
100
AcDbLine
 10
-24.000000000000028
 20
-34.999999999999986
 30
0.0
 11
0.0
 21
-34.999999999999986
 31
0.0
  0
LINE
  5
175
100
AcDbEntity
  8
0
  6
CENTER
 62
             200
100
AcDbLine
 10
-10.635999999999996
 20
-13.499999999999986
 30
0.0
 11
-22.364000000000004
 21
-13.499999999999986
 31
0.0
  0
LINE
  5
176
100
AcDbEntity
  8
0
  6
CENTER
 62
             200
100
AcDbLine
 10
-16.5
 20
-7.635999999999985
 30
0.0
 11
-16.5
 21
-19.363999999999987
 31
0.0
  0
LINE
  5
177
100
AcDbEntity
  8
0
  6
CENTER
 62
             200
100
AcDbLine
 10
-1.6359999999999957
 20
-23.499999999999986
 30
0.0
 11
-13.364000000000004
 21
-23.499999999999986
 31
0.0
  0
LINE
  5
178
100
AcDbEntity
  8
0
  6
CENTER
 62
             200
100
AcDbLine
 10
-7.5
 20
-17.635999999999985
 30
0.0
 11
-7.5
 21
-29.363999999999987
 31
0.0
  0
LINE
  5
179
100
AcDbEntity
  8
0
  6
CENTER
 62
             200
100
AcDbLine
 10
-1.6359999999999957
 20
-3.4999999999999858
 30
0.0
 11
-13.364000000000004
 21
-3.4999999999999858
 31
0.0
  0
LINE
  5
17A
100
AcDbEntity
  8
0
  6
CENTER
 62
             200
100
AcDbLine
 10
-7.5
 20
2.364000000000015
 30
0.0
 11
-7.5
 21
-9.3639999999999866
 31
0.0
  0
LINE
  5
17B
100
AcDbEntity
  8
0
  6
CENTER
 62
             200
100
AcDbLine
 10
-1.999999988079054
 20
0.0
 30
0.0
 11
2.000000011920946
 21
0.0
 31
0.0
  0
LINE
  5
17C
100
AcDbEntity
  8
0
  6
CENTER
 62
             200
100
AcDbLine
 10
-43.45000000518867
 20
19.400000000000006
 30
0.0
 11
-47.95000000518867
 21
19.400000000000006
 31
0.0
  0
LINE
  5
17D
100
AcDbEntity
  8
0
  6
CENTER
 62
             200
100
AcDbLine
 10
-43.45000000518867
 20
-36.19999999999996
 30
0.0
 11
-47.95000000518867
 21
-36.19999999999996
 31
0.0
  0
ENDBLK
  5
17E
100
AcDbEntity
  8
0
100
AcDbBlockEnd
  0
BLOCK
  5
17F
100
AcDbEntity
  8
0
100
AcDbBlockBegin
  2
MS_4
 70
               0
 10
0.0
 20
0.0
 30
0.0
  3
MS_4
  1

  0
LINE
  5
180
100
AcDbEntity
  8
0
  6
CENTER
 62
               2
100
AcDbLine
 10
0.0
 20
-2.0688839386201039
 30
0.0
 11
0.0
 21
41.39994999999999
 31
0.0
  0
LINE
  5
181
100
AcDbEntity
  8
0
  6
CONTINUOUS
 62
               7
100
AcDbLine
 10
-4.4000000000000057
 20
28.199999999999989
 30
0.0
 11
4.4000000000000057
 21
28.199999999999989
 31
0.0
  0
LINE
  5
182
100
AcDbEntity
  8
0
  6
CONTINUOUS
 62
               7
100
AcDbLine
 10
3.0
 20
28.199999999999989
 30
0.0
 11
3.0
 21
23.499999999999986
 31
0.0
  0
LINE
  5
183
100
AcDbEntity
  8
0
  6
CONTINUOUS
 62
               7
100
AcDbLine
 10
-3.0
 20
28.199999999999989
 30
0.0
 11
-3.0
 21
23.499999999999986
 31
0.0
  0
LINE
  5
184
100
AcDbEntity
  8
0
  6
CONTINUOUS
 62
               7
100
AcDbLine
 10
-4.4000000000000057
 20
28.199999999999989
 30
0.0
 11
-4.4000000000000057
 21
26.499999999999986
 31
0.0
  0
LINE
  5
185
100
AcDbEntity
  8
0
  6
CONTINUOUS
 62
               7
100
AcDbLine
 10
4.4000000000000057
 20
28.199999999999989
 30
0.0
 11
4.4000000000000057
 21
26.499999999999986
 31
0.0
  0
LINE
  5
186
100
AcDbEntity
  8
0
  6
CONTINUOUS
 62
               7
100
AcDbLine
 10
-5.0
 20
26.499999999999986
 30
0.0
 11
-5.0
 21
0.0
 31
0.0
  0
LINE
  5
187
100
AcDbEntity
  8
0
  6
CONTINUOUS
 62
               7
100
AcDbLine
 10
5.0
 20
26.499999999999986
 30
0.0
 11
5.0
 21
0.0
 31
0.0
  0
LINE
  5
188
100
AcDbEntity
  8
0
  6
CONTINUOUS
 62
               7
100
AcDbLine
 10
-3.5
 20
26.499999999999986
 30
0.0
 11
-3.5
 21
22.499999999999986
 31
0.0
  0
LINE
  5
189
100
AcDbEntity
  8
0
  6
CONTINUOUS
 62
               7
100
AcDbLine
 10
3.5
 20
26.499999999999986
 30
0.0
 11
3.5
 21
22.499999999999986
 31
0.0
  0
LINE
  5
18A
100
AcDbEntity
  8
0
  6
CONTINUOUS
 62
               7
100
AcDbLine
 10
3.5
 20
22.499999999999986
 30
0.0
 11
-3.5
 21
22.499999999999986
 31
0.0
  0
LINE
  5
18B
100
AcDbEntity
  8
0
  6
CONTINUOUS
 62
               7
100
AcDbLine
 10
5.0
 20
26.499999999999986
 30
0.0
 11
-5.0
 21
26.499999999999986
 31
0.0
  0
LINE
  5
18C
100
AcDbEntity
  8
0
  6
CONTINUOUS
 62
               7
100
AcDbLine
 10
3.0
 20
23.499999999999986
 30
0.0
 11
-3.0
 21
23.499999999999986
 31
0.0
  0
LINE
  5
18D
100
AcDbEntity
  8
0
  6
CONTINUOUS
 62
               7
100
AcDbLine
 10
4.9999999948113754
 20
0.0
 30
0.0
 11
-5.0
 21
0.0
 31
0.0
  0
LINE
  5
18E
100
AcDbEntity
  8
0
  6
CONTINUOUS
 62
               4
100
AcDbLine
 10
-3.5
 20
40.39994999999999
 30
0.0
 11
-3.5
 21
29.89994999999999
 31
0.0
  0
LINE
  5
18F
100
AcDbEntity
  8
0
  6
CONTINUOUS
 62
               4
100
AcDbLine
 10
3.5
 20
40.39994999999999
 30
0.0
 11
3.5
 21
29.89994999999999
 31
0.0
  0
LINE
  5
190
100
AcDbEntity
  8
0
  6
CONTINUOUS
 62
               4
100
AcDbLine
 10
4.2999999999999972
 20
40.39994999999999
 30
0.0
 11
-4.2999999999999972
 21
40.39994999999999
 31
0.0
  0
LINE
  5
191
100
AcDbEntity
  8
0
  6
CONTINUOUS
 62
               4
100
AcDbLine
 10
-4.9000000000000057
 20
35.39994999999999
 30
0.0
 11
-4.9000000000000057
 21
33.89994999999999
 31
0.0
  0
LINE
  5
192
100
AcDbEntity
  8
0
  6
CONTINUOUS
 62
               4
100
AcDbLine
 10
4.9000000000000057
 20
35.39994999999999
 30
0.0
 11
4.9000000000000057
 21
33.89994999999999
 31
0.0
  0
LINE
  5
193
100
AcDbEntity
  8
0
  6
CONTINUOUS
 62
               4
100
AcDbLine
 10
3.5
 20
29.89994999999999
 30
0.0
 11
-3.5
 21
29.89994999999999
 31
0.0
  0
LINE
  5
194
100
AcDbEntity
  8
0
  6
CONTINUOUS
 62
               4
100
AcDbLine
 10
3.5
 20
33.449949999999987
 30
0.0
 11
-3.5
 21
33.449949999999987
 31
0.0
  0
LINE
  5
195
100
AcDbEntity
  8
0
  6
CONTINUOUS
 62
               4
100
AcDbLine
 10
3.5
 20
38.89994999999999
 30
0.0
 11
-3.5
 21
38.89994999999999
 31
0.0
  0
LINE
  5
196
100
AcDbEntity
  8
0
  6
CONTINUOUS
 62
               4
100
AcDbLine
 10
5.0
 20
33.89994999999999
 30
0.0
 11
3.5
 21
33.89994999999999
 31
0.0
  0
LINE
  5
197
100
AcDbEntity
  8
0
  6
CONTINUOUS
 62
               7
100
AcDbLine
 10
5.0
 20
26.499999999999986
 30
0.0
 11
5.0
 21
33.89994999999999
 31
0.0
  0
LINE
  5
198
100
AcDbEntity
  8
0
  6
CONTINUOUS
 62
               7
100
AcDbLine
 10
-5.0
 20
26.499999999999986
 30
0.0
 11
-5.0
 21
33.89994999999999
 31
0.0
  0
LINE
  5
199
100
AcDbEntity
  8
0
  6
CONTINUOUS
 62
               7
100
AcDbLine
 10
4.0
 20
32.89994999999999
 30
0.0
 11
3.5
 21
32.89994999999999
 31
0.0
  0
LINE
  5
19A
100
AcDbEntity
  8
0
  6
CONTINUOUS
 62
               7
100
AcDbLine
 10
4.0
 20
31.89994999999999
 30
0.0
 11
3.5
 21
31.89994999999999
 31
0.0
  0
LINE
  5
19B
100
AcDbEntity
  8
0
  6
CONTINUOUS
 62
               7
100
AcDbLine
 10
4.0
 20
32.89994999999999
 30
0.0
 11
4.0
 21
33.89994999999999
 31
0.0
  0
LINE
  5
19C
100
AcDbEntity
  8
0
  6
CONTINUOUS
 62
               7
100
AcDbLine
 10
-4.0
 20
32.89994999999999
 30
0.0
 11
-4.0
 21
33.89994999999999
 31
0.0
  0
LINE
  5
19D
100
AcDbEntity
  8
0
  6
CONTINUOUS
 62
               7
100
AcDbLine
 10
-3.5
 20
32.89994999999999
 30
0.0
 11
-4.0
 21
32.89994999999999
 31
0.0
  0
LINE
  5
19E
100
AcDbEntity
  8
0
  6
CONTINUOUS
 62
               7
100
AcDbLine
 10
4.0
 20
28.199999999999989
 30
0.0
 11
4.0
 21
31.89994999999999
 31
0.0
  0
LINE
  5
19F
100
AcDbEntity
  8
0
  6
CONTINUOUS
 62
               7
100
AcDbLine
 10
-4.0
 20
28.200000001497031
 30
0.0
 11
-4.0
 21
31.89994999999999
 31
0.0
  0
LINE
  5
1A0
100
AcDbEntity
  8
0
  6
CONTINUOUS
 62
               7
100
AcDbLine
 10
1.0
 20
28.199999999999989
 30
0.0
 11
1.0
 21
29.89994999999999
 31
0.0
  0
LINE
  5
1A1
100
AcDbEntity
  8
0
  6
CONTINUOUS
 62
               7
100
AcDbLine
 10
-1.0
 20
28.199999999999989
 30
0.0
 11
-1.0
 21
29.89994999999999
 31
0.0
  0
LINE
  5
1A2
100
AcDbEntity
  8
0
  6
CONTINUOUS
 62
               7
100
AcDbLine
 10
-3.5
 20
31.89994999999999
 30
0.0
 11
-4.0
 21
31.89994999999999
 31
0.0
  0
LINE
  5
1A3
100
AcDbEntity
  8
0
  6
CONTINUOUS
 62
               7
100
AcDbLine
 10
4.4000000000000057
 20
26.699999999999989
 30
0.0
 11
5.0
 21
30.39994999999999
 31
0.0
  0
LINE
  5
1A4
100
AcDbEntity
  8
0
  6
CONTINUOUS
 62
               7
100
AcDbLine
 10
-4.4000000000000057
 20
26.699999999999989
 30
0.0
 11
-5.0
 21
30.39994999999999
 31
0.0
  0
LINE
  5
1A5
100
AcDbEntity
  8
0
  6
CONTINUOUS
 62
               4
100
AcDbLine
 10
-3.5
 20
33.89994999999999
 30
0.0
 11
-5.0
 21
33.89994999999999
 31
0.0
  0
LINE
  5
1A6
100
AcDbEntity
  8
0
  6
CONTINUOUS
 62
               4
100
AcDbLine
 10
-2.7150000000000034
 20
40.39994999999999
 30
0.0
 11
-2.7150000000000034
 21
45.609793962116001
 31
0.0
  0
LINE
  5
1A7
100
AcDbEntity
  8
0
  6
CONTINUOUS
 62
               4
100
AcDbLine
 10
-1.2849999999999966
 20
40.39994999999999
 30
0.0
 11
-1.2849999999999966
 21
45.226626616939498
 31
0.0
  0
LINE
  5
1A8
100
AcDbEntity
  8
0
  6
CONTINUOUS
 62
               4
100
AcDbLine
 10
-2.7150000000000034
 20
50.39994999999999
 30
0.0
 11
-1.2849999999999966
 21
50.39994999999999
 31
0.0
  0
LINE
  5
1A9
100
AcDbEntity
  8
0
  6
CONTINUOUS
 62
               4
100
AcDbLine
 10
-2.4000000000000057
 20
60.39994999999999
 30
0.0
 11
-1.5999999999999943
 21
60.39994999999999
 31
0.0
  0
LINE
  5
1AA
100
AcDbEntity
  8
0
  6
CONTINUOUS
 62
               4
100
AcDbLine
 10
-2.4000000000000057
 20
50.399950014692536
 30
0.0
 11
-2.4000000000000057
 21
60.39994999999999
 31
0.0
  0
LINE
  5
1AB
100
AcDbEntity
  8
0
  6
CONTINUOUS
 62
               4
100
AcDbLine
 10
-1.5999999999999943
 20
50.399950014692536
 30
0.0
 11
-1.5999999999999943
 21
60.39994999999999
 31
0.0
  0
LINE
  5
1AC
100
AcDbEntity
  8
0
  6
CONTINUOUS
 62
               4
100
AcDbLine
 10
-2.7150000000000034
 20
46.645070136661289
 30
0.0
 11
-2.7150000000000034
 21
50.39994999999999
 31
0.0
  0
LINE
  5
1AD
100
AcDbEntity
  8
0
  6
CONTINUOUS
 62
               4
100
AcDbLine
 10
-1.2849999999999966
 20
46.261902791484786
 30
0.0
 11
-1.2849999999999966
 21
50.39994999999999
 31
0.0
  0
LINE
  5
1AE
100
AcDbEntity
  8
0
  6
CONTINUOUS
 62
               4
100
AcDbLine
 10
4.2999999999999972
 20
38.39994999999999
 30
0.0
 11
3.5
 21
38.39994999999999
 31
0.0
  0
LINE
  5
1AF
100
AcDbEntity
  8
0
  6
CONTINUOUS
 62
               4
100
AcDbLine
 10
4.9000000000000057
 20
35.39994999999999
 30
0.0
 11
3.7999999999999972
 21
35.39994999999999
 31
0.0
  0
LINE
  5
1B0
100
AcDbEntity
  8
0
  6
CONTINUOUS
 62
               4
100
AcDbLine
 10
3.7999999999999972
 20
35.39994999999999
 30
0.0
 11
3.7999999999999972
 21
38.39994999999999
 31
0.0
  0
LINE
  5
1B1
100
AcDbEntity
  8
0
  6
CONTINUOUS
 62
               4
100
AcDbLine
 10
-3.7999999999999972
 20
35.39994999999999
 30
0.0
 11
-3.7999999999999972
 21
38.39994999999999
 31
0.0
  0
LINE
  5
1B2
100
AcDbEntity
  8
0
  6
CONTINUOUS
 62
               4
100
AcDbLine
 10
-3.7999999999999972
 20
35.39994999999999
 30
0.0
 11
-4.9000000000000057
 21
35.39994999999999
 31
0.0
  0
LINE
  5
1B3
100
AcDbEntity
  8
0
  6
CONTINUOUS
 62
               4
100
AcDbLine
 10
-3.5
 20
38.39994999999999
 30
0.0
 11
-4.2999999999999972
 21
38.39994999999999
 31
0.0
  0
LINE
  5
1B4
100
AcDbEntity
  8
0
  6
CONTINUOUS
 62
               4
100
AcDbLine
 10
-4.2999999999999972
 20
38.39994999999999
 30
0.0
 11
-4.2999999999999972
 21
40.39994999999999
 31
0.0
  0
LINE
  5
1B5
100
AcDbEntity
  8
0
  6
CONTINUOUS
 62
               4
100
AcDbLine
 10
4.2999999999999972
 20
38.39994999999999
 30
0.0
 11
4.2999999999999972
 21
40.39994999999999
 31
0.0
  0
LINE
  5
1B6
100
AcDbEntity
  8
0
  6
CONTINUOUS
 62
             200
100
AcDbLine
 10
-3.7150000452995471
 20
46.913019341230395
 30
0.0
 11
3.7150000000000034
 21
44.922156829329154
 31
0.0
  0
LINE
  5
1B7
100
AcDbEntity
  8
0
  6
CONTINUOUS
 62
             200
100
AcDbLine
 10
-3.7150000452995471
 20
45.877743166685107
 30
0.0
 11
3.7150000000000034
 21
43.886880654783866
 31
0.0
  0
LINE
  5
1B8
100
AcDbEntity
  8
0
  6
CONTINUOUS
 62
               4
100
AcDbLine
 10
2.7150000000000034
 20
40.399950000000004
 30
0.0
 11
2.7150000000000034
 21
44.15482984721497
 31
0.0
  0
LINE
  5
1B9
100
AcDbEntity
  8
0
  6
CONTINUOUS
 62
               4
100
AcDbLine
 10
1.2849999999999966
 20
40.399950000000004
 30
0.0
 11
1.2849999999999966
 21
44.537997192391529
 31
0.0
  0
LINE
  5
1BA
100
AcDbEntity
  8
0
  6
CONTINUOUS
 62
               4
100
AcDbLine
 10
2.7150000000000034
 20
45.190106021760315
 30
0.0
 11
2.7150000000000034
 21
50.399950000000004
 31
0.0
  0
LINE
  5
1BB
100
AcDbEntity
  8
0
  6
CONTINUOUS
 62
               4
100
AcDbLine
 10
1.2849999999999966
 20
45.573273366936817
 30
0.0
 11
1.2849999999999966
 21
50.399950000000004
 31
0.0
  0
LINE
  5
1BC
100
AcDbEntity
  8
0
  6
CONTINUOUS
 62
               4
100
AcDbLine
 10
2.4000000000000057
 20
50.39995001469255
 30
0.0
 11
2.4000000000000057
 21
60.399950000000004
 31
0.0
  0
LINE
  5
1BD
100
AcDbEntity
  8
0
  6
CONTINUOUS
 62
               4
100
AcDbLine
 10
1.5999999999999943
 20
50.39995001469255
 30
0.0
 11
1.5999999999999943
 21
60.399950000000004
 31
0.0
  0
LINE
  5
1BE
100
AcDbEntity
  8
0
  6
CONTINUOUS
 62
               4
100
AcDbLine
 10
1.5999999999999943
 20
60.399950000000004
 30
0.0
 11
2.4000000000000057
 21
60.399950000000004
 31
0.0
  0
LINE
  5
1BF
100
AcDbEntity
  8
0
  6
CONTINUOUS
 62
               4
100
AcDbLine
 10
1.2849999999999966
 20
50.399950000000004
 30
0.0
 11
2.7150000000000034
 21
50.399950000000004
 31
0.0
  0
ENDBLK
  5
1C0
100
AcDbEntity
  8
0
100
AcDbBlockEnd
  0
BLOCK
  5
1C1
100
AcDbEntity
  8
0
100
AcDbBlockBegin
  2
MS_5
 70
               0
 10
0.0
 20
0.0
 30
0.0
  3
MS_5
  1

  0
LINE
  5
1C2
100
AcDbEntity
  8
0
  6
CONTINUOUS
 62
               4
100
AcDbLine
 10
3.785000000000025
 20
40.39994999999999
 30
0.0
 11
3.785000000000025
 21
45.408832061330799
 31
0.0
  0
LINE
  5
1C3
100
AcDbEntity
  8
0
  6
CONTINUOUS
 62
               4
100
AcDbLine
 10
5.2150000000000318
 20
40.39994999999999
 30
0.0
 11
5.2150000000000318
 21
45.025664715886492
 31
0.0
  0
LINE
  5
1C4
100
AcDbEntity
  8
0
  6
CONTINUOUS
 62
               4
100
AcDbLine
 10
6.285000000000025
 20
40.39994999999999
 30
0.0
 11
6.285000000000025
 21
44.73895907978482
 31
0.0
  0
LINE
  5
1C5
100
AcDbEntity
  8
0
  6
CONTINUOUS
 62
               4
100
AcDbLine
 10
7.7150000000000318
 20
40.39994999999999
 30
0.0
 11
7.7150000000000318
 21
44.355791734340514
 31
0.0
  0
LINE
  5
1C6
100
AcDbEntity
  8
0
  6
CONTINUOUS
 62
               4
100
AcDbLine
 10
5.2150000000000318
 20
50.39994999999999
 30
0.0
 11
3.785000000000025
 21
50.39994999999999
 31
0.0
  0
LINE
  5
1C7
100
AcDbEntity
  8
0
  6
CONTINUOUS
 62
               4
100
AcDbLine
 10
4.9000000000000341
 20
60.39994999999999
 30
0.0
 11
4.1000000000000227
 21
60.39994999999999
 31
0.0
  0
LINE
  5
1C8
100
AcDbEntity
  8
0
  6
CONTINUOUS
 62
               4
100
AcDbLine
 10
4.9000000000000341
 20
50.399950014692536
 30
0.0
 11
4.9000000000000341
 21
60.39994999999999
 31
0.0
  0
LINE
  5
1C9
100
AcDbEntity
  8
0
  6
CONTINUOUS
 62
               4
100
AcDbLine
 10
4.1000000000000227
 20
50.399950014692536
 30
0.0
 11
4.1000000000000227
 21
60.39994999999999
 31
0.0
  0
LINE
  5
1CA
100
AcDbEntity
  8
0
  6
CONTINUOUS
 62
               4
100
AcDbLine
 10
7.7150000000000318
 20
50.39994999999999
 30
0.0
 11
6.285000000000025
 21
50.39994999999999
 31
0.0
  0
LINE
  5
1CB
100
AcDbEntity
  8
0
  6
CONTINUOUS
 62
               4
100
AcDbLine
 10
7.4000000000000341
 20
60.39994999999999
 30
0.0
 11
6.6000000000000227
 21
60.39994999999999
 31
0.0
  0
LINE
  5
1CC
100
AcDbEntity
  8
0
  6
CONTINUOUS
 62
               4
100
AcDbLine
 10
7.4000000000000341
 20
50.399950014692536
 30
0.0
 11
7.4000000000000341
 21
60.39994999999999
 31
0.0
  0
LINE
  5
1CD
100
AcDbEntity
  8
0
  6
CONTINUOUS
 62
               4
100
AcDbLine
 10
6.6000000000000227
 20
50.399950014692536
 30
0.0
 11
6.6000000000000227
 21
60.39994999999999
 31
0.0
  0
LINE
  5
1CE
100
AcDbEntity
  8
0
  6
CONTINUOUS
 62
               7
100
AcDbLine
 10
10.650000000000034
 20
33.89994999999999
 30
0.0
 11
10.650000000000034
 21
26.899999999999977
 31
0.0
  0
LINE
  5
1CF
100
AcDbEntity
  8
0
  6
CONTINUOUS
 62
               7
100
AcDbLine
 10
2.0500000000000114
 20
33.89994999999999
 30
0.0
 11
2.0500000000000114
 21
26.899999999999977
 31
0.0
  0
LINE
  5
1D0
100
AcDbEntity
  8
0
  6
CONTINUOUS
 62
               7
100
AcDbLine
 10
26.400000000000034
 20
26.699999999999989
 30
0.0
 11
26.400000000000034
 21
26.5
 31
0.0
  0
LINE
  5
1D1
100
AcDbEntity
  8
0
  6
CONTINUOUS
 62
               7
100
AcDbLine
 10
10.650000000000034
 20
33.89994999999999
 30
0.0
 11
2.0500000000000114
 21
33.89994999999999
 31
0.0
  0
LINE
  5
1D2
100
AcDbEntity
  8
0
  6
CONTINUOUS
 62
               7
100
AcDbLine
 10
24.000000000000028
 20
28.199999999999989
 30
0.0
 11
10.650000000000034
 21
28.199999999999989
 31
0.0
  0
LINE
  5
1D3
100
AcDbEntity
  8
0
  6
CONTINUOUS
 62
               7
100
AcDbLine
 10
2.0500000000000114
 20
28.199999999999989
 30
0.0
 11
0.0
 21
28.199999999999989
 31
0.0
  0
LINE
  5
1D4
100
AcDbEntity
  8
0
  6
CONTINUOUS
 62
               7
100
AcDbLine
 10
27.0
 20
26.699999999999989
 30
0.0
 11
24.000000000000028
 21
28.199999999999989
 31
0.0
  0
LINE
  5
1D5
100
AcDbEntity
  8
0
  6
CONTINUOUS
 62
               7
100
AcDbLine
 10
24.000000000000028
 20
28.199999999999989
 30
0.0
 11
26.400000000000034
 21
26.699999999999989
 31
0.0
  0
LINE
  5
1D6
100
AcDbEntity
  8
0
  6
CONTINUOUS
 62
               7
100
AcDbLine
 10
10.650000000000034
 20
26.899999999999977
 30
0.0
 11
2.0500000000000114
 21
26.899999999999977
 31
0.0
  0
LINE
  5
1D7
100
AcDbEntity
  8
0
  6
CONTINUOUS
 62
               7
100
AcDbLine
 10
10.650000000000034
 20
30.39994999999999
 30
0.0
 11
3.5500000000000114
 21
30.39994999999999
 31
0.0
  0
LINE
  5
1D8
100
AcDbEntity
  8
0
  6
CONTINUOUS
 62
               7
100
AcDbLine
 10
3.5500000000000114
 20
30.39994999999999
 30
0.0
 11
3.5500000000000114
 21
26.899999999999977
 31
0.0
  0
LINE
  5
1D9
100
AcDbEntity
  8
0
  6
CONTINUOUS
 62
               7
100
AcDbLine
 10
27.000000000000028
 20
26.5
 30
0.0
 11
0.0
 21
26.5
 31
0.0
  0
LINE
  5
1DA
100
AcDbEntity
  8
0
  6
CONTINUOUS
 62
               7
100
AcDbLine
 10
27.000000000000028
 20
26.699999999999989
 30
0.0
 11
27.000000000000028
 21
0.0
 31
0.0
  0
LINE
  5
1DB
100
AcDbEntity
  8
0
  6
CONTINUOUS
 62
               7
100
AcDbLine
 10
0.0
 20
0.0
 30
0.0
 11
0.0
 21
28.199999999999989
 31
0.0
  0
LINE
  5
1DC
100
AcDbEntity
  8
0
  6
CONTINUOUS
 62
               7
100
AcDbLine
 10
27.000000000000028
 20
0.0
 30
0.0
 11
0.0
 21
0.0
 31
0.0
  0
LINE
  5
1DD
100
AcDbEntity
  8
0
  6
CONTINUOUS
 62
             200
100
AcDbLine
 10
2.7850000143051261
 20
46.712057438492749
 30
0.0
 11
8.7150000214576835
 21
45.123118725419019
 31
0.0
  0
LINE
  5
1DE
100
AcDbEntity
  8
0
  6
CONTINUOUS
 62
             200
100
AcDbLine
 10
2.7850000739097709
 20
45.676781234145139
 30
0.0
 11
8.7150000214576835
 21
44.08784253597257
 31
0.0
  0
LINE
  5
1DF
100
AcDbEntity
  8
0
  6
CONTINUOUS
 62
               4
100
AcDbLine
 10
7.7150000000000318
 20
45.391067923606556
 30
0.0
 11
7.7150000000000318
 21
50.39994999999999
 31
0.0
  0
LINE
  5
1E0
100
AcDbEntity
  8
0
  6
CONTINUOUS
 62
               4
100
AcDbLine
 10
6.285000000000025
 20
45.774235268792864
 30
0.0
 11
6.285000000000025
 21
50.39994999999999
 31
0.0
  0
LINE
  5
1E1
100
AcDbEntity
  8
0
  6
CONTINUOUS
 62
               4
100
AcDbLine
 10
5.2150000000000318
 20
46.060940904701496
 30
0.0
 11
5.2150000000000318
 21
50.39994999999999
 31
0.0
  0
LINE
  5
1E2
100
AcDbEntity
  8
0
  6
CONTINUOUS
 62
               4
100
AcDbLine
 10
3.785000000000025
 20
46.444108249887805
 30
0.0
 11
3.785000000000025
 21
50.39994999999999
 31
0.0
  0
LINE
  5
1E3
100
AcDbEntity
  8
0
  6
CONTINUOUS
 62
               4
100
AcDbLine
 10
2.3000000000000114
 20
40.39994996725197
 30
0.0
 11
9.5999999999999943
 21
40.399949990574953
 31
0.0
  0
LINE
  5
1E4
100
AcDbEntity
  8
0
  6
CONTINUOUS
 62
               4
100
AcDbLine
 10
11.524759100277947
 20
40.39994999672443
 30
0.0
 11
12.550000000000011
 21
40.39994999999999
 31
0.0
  0
LINE
  5
1E5
100
AcDbEntity
  8
0
  6
CONTINUOUS
 62
               4
100
AcDbLine
 10
10.650000000000034
 20
29.898408856234312
 30
0.0
 11
11.550000033551669
 21
29.89840885910975
 31
0.0
  0
LINE
  5
1E6
100
AcDbEntity
  8
0
  6
CONTINUOUS
 62
               4
100
AcDbLine
 10
12.050000004792423
 20
38.899949998402519
 30
0.0
 11
12.550000004792423
 21
38.89994999999999
 31
0.0
  0
LINE
  5
1E7
100
AcDbEntity
  8
0
  6
CONTINUOUS
 62
               4
100
AcDbLine
 10
12.050000022185088
 20
33.456102342152533
 30
0.0
 11
12.050000004792423
 21
38.899949998402519
 31
0.0
  0
LINE
  5
1E8
100
AcDbEntity
  8
0
  6
CONTINUOUS
 62
               4
100
AcDbLine
 10
11.550071181108535
 20
29.898404576273961
 30
0.0
 11
12.050070492757754
 21
33.456092661560277
 31
0.0
  0
LINE
  5
1E9
100
AcDbEntity
  8
0
  6
CONTINUOUS
 62
               4
100
AcDbLine
 10
12.550000004792423
 20
38.89994999999999
 30
0.0
 11
12.550000000000011
 21
40.39994999999999
 31
0.0
  0
LINE
  5
1EA
100
AcDbEntity
  8
0
  6
CONTINUOUS
 62
               4
100
AcDbLine
 10
9.1000000063898483
 20
38.399949988977497
 30
0.0
 11
9.1000000207670269
 21
33.89994999999999
 31
0.0
  0
LINE
  5
1EB
100
AcDbEntity
  8
0
  6
CONTINUOUS
 62
               4
100
AcDbLine
 10
2.6000000159746435
 20
35.399949968210478
 30
0.0
 11
2.6000000207670269
 21
33.899949980031707
 31
0.0
  0
LINE
  5
1EC
100
AcDbEntity
  8
0
  6
CONTINUOUS
 62
               4
100
AcDbLine
 10
9.1000000159746435
 20
35.399949988977497
 30
0.0
 11
2.6000000159746435
 21
35.399949968210478
 31
0.0
  0
LINE
  5
1ED
100
AcDbEntity
  8
0
  6
CONTINUOUS
 62
               4
100
AcDbLine
 10
3.3000000063898369
 20
38.399949970446926
 30
0.0
 11
3.3000000159746605
 21
35.399949970446926
 31
0.0
  0
LINE
  5
1EE
100
AcDbEntity
  8
0
  6
CONTINUOUS
 62
               4
100
AcDbLine
 10
9.6000000063898483
 20
38.399949990574967
 30
0.0
 11
2.3000000063898369
 21
38.399949967251999
 31
0.0
  0
LINE
  5
1EF
100
AcDbEntity
  8
0
  6
CONTINUOUS
 62
               4
100
AcDbLine
 10
2.3000000000000114
 20
40.399949980031693
 30
0.0
 11
2.3000000063898369
 21
38.399949967251999
 31
0.0
  0
LINE
  5
1F0
100
AcDbEntity
  8
0
  6
CONTINUOUS
 62
               4
100
AcDbLine
 10
9.5999999999999943
 20
40.399949980031693
 30
0.0
 11
9.6000000063898483
 21
38.399949990574967
 31
0.0
  0
LINE
  5
1F1
100
AcDbEntity
  8
0
  6
CONTINUOUS
 62
               4
100
AcDbLine
 10
10.550000020767044
 20
33.89994999999999
 30
0.0
 11
10.550000009584778
 21
37.399949998998579
 31
0.0
  0
LINE
  5
1F2
100
AcDbEntity
  8
0
  6
CONTINUOUS
 62
               4
100
AcDbLine
 10
10.550000020767072
 20
34.89994999361015
 30
0.0
 11
9.1000000175721141
 21
34.899949988977511
 31
0.0
  0
LINE
  5
1F3
100
AcDbEntity
  8
0
  6
CONTINUOUS
 62
               4
100
AcDbLine
 10
11.52475906936894
 20
40.399949901596258
 30
0.0
 11
10.549999997303587
 21
37.399949961200903
 31
0.0
  0
ENDBLK
  5
1F4
100
AcDbEntity
  8
0
100
AcDbBlockEnd
  0
BLOCK
  5
1F5
100
AcDbEntity
  8
0
100
AcDbBlockBegin
  2
MS_6
 70
               0
 10
0.0
 20
0.0
 30
0.0
  3
MS_6
  1

  0
LINE
  5
1F6
100
AcDbEntity
  8
0
  6
CONTINUOUS
 62
               7
100
AcDbLine
 10
-27.000000000000014
 20
0.0
 30
0.0
 11
0.0
 21
0.0
 31
0.0
  0
LINE
  5
1F7
100
AcDbEntity
  8
0
  6
CONTINUOUS
 62
               7
100
AcDbLine
 10
0.0
 20
0.0
 30
0.0
 11
0.0
 21
28.199999999999989
 31
0.0
  0
LINE
  5
1F8
100
AcDbEntity
  8
0
  6
CONTINUOUS
 62
               7
100
AcDbLine
 10
-27.000000000000014
 20
26.699999999999989
 30
0.0
 11
-27.000000000000014
 21
0.0
 31
0.0
  0
LINE
  5
1F9
100
AcDbEntity
  8
0
  6
CONTINUOUS
 62
               7
100
AcDbLine
 10
-27.000000000000014
 20
26.5
 30
0.0
 11
0.0
 21
26.5
 31
0.0
  0
LINE
  5
1FA
100
AcDbEntity
  8
0
  6
CONTINUOUS
 62
               7
100
AcDbLine
 10
-3.5500000000000114
 20
30.39994999999999
 30
0.0
 11
-3.5500000000000114
 21
26.899999999999977
 31
0.0
  0
LINE
  5
1FB
100
AcDbEntity
  8
0
  6
CONTINUOUS
 62
               7
100
AcDbLine
 10
-10.650000000000006
 20
30.39994999999999
 30
0.0
 11
-3.5500000000000114
 21
30.39994999999999
 31
0.0
  0
LINE
  5
1FC
100
AcDbEntity
  8
0
  6
CONTINUOUS
 62
               7
100
AcDbLine
 10
-10.650000000000006
 20
26.899999999999977
 30
0.0
 11
-2.0500000000000114
 21
26.899999999999977
 31
0.0
  0
LINE
  5
1FD
100
AcDbEntity
  8
0
  6
CONTINUOUS
 62
               7
100
AcDbLine
 10
-24.000000000000014
 20
28.199999999999989
 30
0.0
 11
-26.400000000000006
 21
26.699999999999989
 31
0.0
  0
LINE
  5
1FE
100
AcDbEntity
  8
0
  6
CONTINUOUS
 62
               7
100
AcDbLine
 10
-27.0
 20
26.699999999999989
 30
0.0
 11
-24.000000000000014
 21
28.199999999999989
 31
0.0
  0
LINE
  5
1FF
100
AcDbEntity
  8
0
  6
CONTINUOUS
 62
               7
100
AcDbLine
 10
-2.0500000000000114
 20
28.199999999999989
 30
0.0
 11
0.0
 21
28.199999999999989
 31
0.0
  0
LINE
  5
200
100
AcDbEntity
  8
0
  6
CONTINUOUS
 62
               7
100
AcDbLine
 10
-24.000000000000014
 20
28.199999999999989
 30
0.0
 11
-10.650000000000006
 21
28.199999999999989
 31
0.0
  0
LINE
  5
201
100
AcDbEntity
  8
0
  6
CONTINUOUS
 62
               7
100
AcDbLine
 10
-10.650000000000006
 20
33.89994999999999
 30
0.0
 11
-2.0500000000000114
 21
33.89994999999999
 31
0.0
  0
LINE
  5
202
100
AcDbEntity
  8
0
  6
CONTINUOUS
 62
               7
100
AcDbLine
 10
-26.400000000000006
 20
26.699999999999989
 30
0.0
 11
-26.400000000000006
 21
26.5
 31
0.0
  0
LINE
  5
203
100
AcDbEntity
  8
0
  6
CONTINUOUS
 62
               7
100
AcDbLine
 10
-2.0500000000000114
 20
33.89994999999999
 30
0.0
 11
-2.0500000000000114
 21
26.899999999999977
 31
0.0
  0
LINE
  5
204
100
AcDbEntity
  8
0
  6
CONTINUOUS
 62
               7
100
AcDbLine
 10
-10.650000000000006
 20
33.89994999999999
 30
0.0
 11
-10.650000000000006
 21
26.899999999999977
 31
0.0
  0
LINE
  5
205
100
AcDbEntity
  8
0
  6
CONTINUOUS
 62
               4
100
AcDbLine
 10
-6.6000000000000227
 20
50.399950014692536
 30
0.0
 11
-6.6000000000000227
 21
60.39994999999999
 31
0.0
  0
LINE
  5
206
100
AcDbEntity
  8
0
  6
CONTINUOUS
 62
               4
100
AcDbLine
 10
-7.4000000000000341
 20
50.399950014692536
 30
0.0
 11
-7.4000000000000341
 21
60.39994999999999
 31
0.0
  0
LINE
  5
207
100
AcDbEntity
  8
0
  6
CONTINUOUS
 62
               4
100
AcDbLine
 10
-7.4000000000000341
 20
60.39994999999999
 30
0.0
 11
-6.6000000000000227
 21
60.39994999999999
 31
0.0
  0
LINE
  5
208
100
AcDbEntity
  8
0
  6
CONTINUOUS
 62
               4
100
AcDbLine
 10
-7.7150000000000318
 20
50.39994999999999
 30
0.0
 11
-6.285000000000025
 21
50.39994999999999
 31
0.0
  0
LINE
  5
209
100
AcDbEntity
  8
0
  6
CONTINUOUS
 62
               4
100
AcDbLine
 10
-4.1000000000000227
 20
50.399950014692536
 30
0.0
 11
-4.1000000000000227
 21
60.39994999999999
 31
0.0
  0
LINE
  5
20A
100
AcDbEntity
  8
0
  6
CONTINUOUS
 62
               4
100
AcDbLine
 10
-4.9000000000000341
 20
50.399950014692536
 30
0.0
 11
-4.9000000000000341
 21
60.39994999999999
 31
0.0
  0
LINE
  5
20B
100
AcDbEntity
  8
0
  6
CONTINUOUS
 62
               4
100
AcDbLine
 10
-4.9000000000000341
 20
60.39994999999999
 30
0.0
 11
-4.1000000000000227
 21
60.39994999999999
 31
0.0
  0
LINE
  5
20C
100
AcDbEntity
  8
0
  6
CONTINUOUS
 62
               4
100
AcDbLine
 10
-5.2150000000000318
 20
50.39994999999999
 30
0.0
 11
-3.785000000000025
 21
50.39994999999999
 31
0.0
  0
LINE
  5
20D
100
AcDbEntity
  8
0
  6
CONTINUOUS
 62
               4
100
AcDbLine
 10
-7.7150000000000318
 20
40.39994999999999
 30
0.0
 11
-7.7150000000000318
 21
45.4088320747246
 31
0.0
  0
LINE
  5
20E
100
AcDbEntity
  8
0
  6
CONTINUOUS
 62
               4
100
AcDbLine
 10
-6.285000000000025
 20
40.39994999999999
 30
0.0
 11
-6.285000000000025
 21
45.025664729598688
 31
0.0
  0
LINE
  5
20F
100
AcDbEntity
  8
0
  6
CONTINUOUS
 62
               4
100
AcDbLine
 10
-5.2150000000000318
 20
40.39994999999999
 30
0.0
 11
-5.2150000000000318
 21
44.738959093735247
 31
0.0
  0
LINE
  5
210
100
AcDbEntity
  8
0
  6
CONTINUOUS
 62
               4
100
AcDbLine
 10
-3.785000000000025
 20
40.39994999999999
 30
0.0
 11
-3.785000000000025
 21
44.355791748609334
 31
0.0
  0
LINE
  5
211
100
AcDbEntity
  8
0
  6
CONTINUOUS
 62
             200
100
AcDbLine
 10
-8.7150000000000318
 20
46.712057444355267
 30
0.0
 11
-2.785000000000025
 21
45.123118714237933
 31
0.0
  0
LINE
  5
212
100
AcDbEntity
  8
0
  6
CONTINUOUS
 62
             200
100
AcDbLine
 10
-8.7150000000000318
 20
45.676781267120347
 30
0.0
 11
-2.785000000000025
 21
44.087842556213587
 31
0.0
  0
LINE
  5
213
100
AcDbEntity
  8
0
  6
CONTINUOUS
 62
               4
100
AcDbLine
 10
-3.785000000000025
 20
45.391067909873243
 30
0.0
 11
-3.785000000000025
 21
50.39994999999999
 31
0.0
  0
LINE
  5
214
100
AcDbEntity
  8
0
  6
CONTINUOUS
 62
               4
100
AcDbLine
 10
-5.2150000000000318
 20
45.774235259631723
 30
0.0
 11
-5.2150000000000318
 21
50.39994999999999
 31
0.0
  0
LINE
  5
215
100
AcDbEntity
  8
0
  6
CONTINUOUS
 62
               4
100
AcDbLine
 10
-6.285000000000025
 20
46.060940898961491
 30
0.0
 11
-6.285000000000025
 21
50.39994999999999
 31
0.0
  0
LINE
  5
216
100
AcDbEntity
  8
0
  6
CONTINUOUS
 62
               4
100
AcDbLine
 10
-7.7150000000000318
 20
46.444108248719971
 30
0.0
 11
-7.7150000000000318
 21
50.39994999999999
 31
0.0
  0
LINE
  5
217
100
AcDbEntity
  8
0
  6
CONTINUOUS
 62
               4
100
AcDbLine
 10
-11.52475906936894
 20
40.399949901596258
 30
0.0
 11
-10.549999997303587
 21
37.399949961200903
 31
0.0
  0
LINE
  5
218
100
AcDbEntity
  8
0
  6
CONTINUOUS
 62
               4
100
AcDbLine
 10
-10.550000020767072
 20
34.89994999361015
 30
0.0
 11
-9.1000000175721141
 21
34.899949988977511
 31
0.0
  0
LINE
  5
219
100
AcDbEntity
  8
0
  6
CONTINUOUS
 62
               4
100
AcDbLine
 10
-10.55000002076703
 20
33.89994999999999
 30
0.0
 11
-10.550000009584778
 21
37.399949998998579
 31
0.0
  0
LINE
  5
21A
100
AcDbEntity
  8
0
  6
CONTINUOUS
 62
               4
100
AcDbLine
 10
-9.5999999999999943
 20
40.399949980031693
 30
0.0
 11
-9.6000000063898483
 21
38.399949990574967
 31
0.0
  0
LINE
  5
21B
100
AcDbEntity
  8
0
  6
CONTINUOUS
 62
               4
100
AcDbLine
 10
-2.3000000000000114
 20
40.399949980031693
 30
0.0
 11
-2.3000000063898369
 21
38.399949967251999
 31
0.0
  0
LINE
  5
21C
100
AcDbEntity
  8
0
  6
CONTINUOUS
 62
               4
100
AcDbLine
 10
-9.6000000063898483
 20
38.399949990574967
 30
0.0
 11
-2.3000000063898369
 21
38.399949967251999
 31
0.0
  0
LINE
  5
21D
100
AcDbEntity
  8
0
  6
CONTINUOUS
 62
               4
100
AcDbLine
 10
-3.3000000063898369
 20
38.399949970446926
 30
0.0
 11
-3.3000000159746605
 21
35.399949970446926
 31
0.0
  0
LINE
  5
21E
100
AcDbEntity
  8
0
  6
CONTINUOUS
 62
               4
100
AcDbLine
 10
-9.1000000159746435
 20
35.399949988977497
 30
0.0
 11
-2.6000000159746435
 21
35.399949968210478
 31
0.0
  0
LINE
  5
21F
100
AcDbEntity
  8
0
  6
CONTINUOUS
 62
               4
100
AcDbLine
 10
-2.6000000159746435
 20
35.399949968210478
 30
0.0
 11
-2.6000000207670269
 21
33.899949980031707
 31
0.0
  0
LINE
  5
220
100
AcDbEntity
  8
0
  6
CONTINUOUS
 62
               4
100
AcDbLine
 10
-9.1000000063898483
 20
38.399949988977497
 30
0.0
 11
-9.1000000207670269
 21
33.899949980031707
 31
0.0
  0
LINE
  5
221
100
AcDbEntity
  8
0
  6
CONTINUOUS
 62
               4
100
AcDbLine
 10
-12.550000004792423
 20
38.89994999999999
 30
0.0
 11
-12.550000000000011
 21
40.39994999999999
 31
0.0
  0
LINE
  5
222
100
AcDbEntity
  8
0
  6
CONTINUOUS
 62
               4
100
AcDbLine
 10
-11.550071181108535
 20
29.898404576273961
 30
0.0
 11
-12.050070492757754
 21
33.456092661560277
 31
0.0
  0
LINE
  5
223
100
AcDbEntity
  8
0
  6
CONTINUOUS
 62
               4
100
AcDbLine
 10
-12.050000022185088
 20
33.456102342152533
 30
0.0
 11
-12.050000004792423
 21
38.899949998402519
 31
0.0
  0
LINE
  5
224
100
AcDbEntity
  8
0
  6
CONTINUOUS
 62
               4
100
AcDbLine
 10
-12.050000004792423
 20
38.899949998402519
 30
0.0
 11
-12.550000004792423
 21
38.89994999999999
 31
0.0
  0
LINE
  5
225
100
AcDbEntity
  8
0
  6
CONTINUOUS
 62
               4
100
AcDbLine
 10
-10.650000000000006
 20
29.898408856234312
 30
0.0
 11
-11.550000033551669
 21
29.89840885910975
 31
0.0
  0
LINE
  5
226
100
AcDbEntity
  8
0
  6
CONTINUOUS
 62
               4
100
AcDbLine
 10
-11.524759100277947
 20
40.39994999672443
 30
0.0
 11
-12.550000000000011
 21
40.39994999999999
 31
0.0
  0
LINE
  5
227
100
AcDbEntity
  8
0
  6
CONTINUOUS
 62
               4
100
AcDbLine
 10
-2.3000000000000114
 20
40.39994996725197
 30
0.0
 11
-9.5999999999999943
 21
40.399949990574953
 31
0.0
  0
ENDBLK
  5
228
100
AcDbEntity
  8
0
100
AcDbBlockEnd
  0
ENDSEC
  0
SECTION
  2
ENTITIES
  0
INSERT
  5
229
100
AcDbEntity
  8
0
100
AcDbBlockReference
  2
MS_6
 10
31.354352240691355
 20
-109.59140413335847
 30
0.0
  0
INSERT
  5
22A
100
AcDbEntity
  8
0
100
AcDbBlockReference
  2
MS_5
 10
-106.6456477593087
 20
-109.59140413335847
 30
0.0
  0
INSERT
  5
22B
100
AcDbEntity
  8
0
100
AcDbBlockReference
  2
MS_4
 10
-37.645647759308673
 20
-109.59140413335849
 30
0.0
  0
INSERT
  5
22C
100
AcDbEntity
  8
0
100
AcDbBlockReference
  2
MS_3
 10
135.97500152587895
 20
24.550003051757798
 30
0.0
  0
INSERT
  5
22D
100
AcDbEntity
  8
0
100
AcDbBlockReference
  2
MS_2
 10
-99.424998474121111
 20
24.550003051757798
 30
0.0
  0
INSERT
  5
22E
100
AcDbEntity
  8
0
100
AcDbBlockReference
  2
MS_1
 10
14.275001525878906
 20
24.550003051757813
 30
0.0
  0
MTEXT
  5
22F
100
AcDbEntity
  8
0
  6
CONTINUOUS
 62
               7
100
AcDbMText
 10
-160.72857713224582
 20
89.600006103515625
 30
0.0
 40
4.5
 41
0.0
 71
               4
 72
               1
  1
\W1.029;\A1;CS-JA10AC-25-83-PS
  7
MX_NOTE_STANDARD
  0
MTEXT
  5
230
100
AcDbEntity
  8
0
  6
CONTINUOUS
 62
               7
100
AcDbMText
 10
-160.72857713224582
 20
95.600006103515625
 30
0.0
 40
4.5
 41
0.0
 71
               4
 72
               1
  1
\W1.029;\A1;CS-JA10AB-25-83-PS
  7
MX_NOTE_STANDARD
  0
MTEXT
  5
231
100
AcDbEntity
  8
0
  6
CONTINUOUS
 62
               7
100
AcDbMText
 10
-160.72857713224582
 20
101.60000610351562
 30
0.0
 40
4.5
 41
0.0
 71
               4
 72
               1
  1
\W1.029;\A1;CS-JA10AA-25-83-PS
  7
MX_NOTE_STANDARD
  0
MTEXT
  5
232
100
AcDbEntity
  8
0
  6
CONTINUOUS
 62
               7
100
AcDbMText
 10
-136.28612161885513
 20
-57.779619199907444
 30
0.0
 40
4.5
 41
0.0
 71
               4
 72
               1
  1
\A1;-MS
  7
MX_NOTE_STANDARD
  0
LINE
  5
233
100
AcDbEntity
  8
0
  6
CONTINUOUS
 62
               7
100
AcDbLine
 10
-194.25
 20
-44.799997965494782
 30
0.0
 11
194.80000305175781
 21
-44.799997965494782
 31
0.0
  0
MTEXT
  5
234
100
AcDbEntity
  8
0
  6
CONTINUOUS
 62
             255
100
AcDbMText
 10
-177.95117788060674
 20
125.10000610351562
 30
0.0
 40
4.5
 41
0.0
 71
               4
 72
               1
  1
\W1.065;\A1;CS-JA SERIES
  7
MX_NOTE_STANDARD
  0
MTEXT
  5
235
100
AcDbEntity
  8
0
  6
CONTINUOUS
 62
               7
100
AcDbMText
 10
-187.71167883245977
 20
107.60000610351562
 30
0.0
 40
4.5
 41
0.0
 71
               4
 72
               1
  1
\W1.051;\A1;MODEL:CS-JA10A6-25-83-PS
  7
MX_NOTE_STANDARD
  0
LINE
  5
236
100
AcDbEntity
  8
0
  6
CONTINUOUS
 62
               7
100
AcDbLine
 10
-194.25
 20
132.60000610351562
 30
0.0
 11
194.80000305175781
 21
132.60000610351562
 31
0.0
  0
LINE
  5
237
100
AcDbEntity
  8
0
  6
CONTINUOUS
 62
               7
100
AcDbLine
 10
194.80000305175781
 20
132.60000610351562
 30
0.0
 11
194.80000305175781
 21
-133.5
 31
0.0
  0
LINE
  5
238
100
AcDbEntity
  8
0
  6
CONTINUOUS
 62
               7
100
AcDbLine
 10
-194.25
 20
132.60000610351562
 30
0.0
 11
-194.25
 21
-133.5
 31
0.0
  0
LINE
  5
239
100
AcDbEntity
  8
0
  6
CONTINUOUS
 62
               7
100
AcDbLine
 10
-194.25
 20
-133.5
 30
0.0
 11
194.80000305175781
 21
-133.5
 31
0.0
  0
LINE
  5
23A
100
AcDbEntity
  8
0
  6
CONTINUOUS
 62
               7
100
AcDbLine
 10
109.80000305175781
 20
-118.5
 30
0.0
 11
109.80000305175781
 21
-133.5
 31
0.0
  0
LINE
  5
23B
100
AcDbEntity
  8
0
  6
CONTINUOUS
 62
               7
100
AcDbLine
 10
109.80000305175781
 20
-118.5
 30
0.0
 11
194.80000305175781
 21
-118.5
 31
0.0
  0
LINE
  5
23C
100
AcDbEntity
  8
0
  6
CONTINUOUS
 62
               7
100
AcDbLine
 10
109.80000305175781
 20
132.60000610351562
 30
0.0
 11
109.80000305175781
 21
117.60000610351562
 31
0.0
  0
LINE
  5
23D
100
AcDbEntity
  8
0
  6
CONTINUOUS
 62
               7
100
AcDbLine
 10
109.80000305175781
 20
117.60000610351562
 30
0.0
 11
194.80000305175781
 21
117.60000610351562
 31
0.0
  0
LINE
  5
23E
100
AcDbEntity
  8
0
  6
CONTINUOUS
 62
               7
100
AcDbLine
 10
-194.25
 20
117.60000610351562
 30
0.0
 11
-109.25
 21
117.60000610351562
 31
0.0
  0
LINE
  5
23F
100
AcDbEntity
  8
0
  6
CONTINUOUS
 62
               7
100
AcDbLine
 10
-109.25
 20
132.60000610351562
 30
0.0
 11
-109.25
 21
117.60000610351562
 31
0.0
  0
MTEXT
  5
240
100
AcDbEntity
  8
0
  6
CONTINUOUS
 62
               7
100
AcDbMText
 10
135.28361320576767
 20
125.10000610351562
 30
0.0
 40
4.5
 41
0.0
 71
               4
 72
               1
  1
\W1.311;\A1;Ver. 1.0
  7
MX_NOTE_STANDARD
  0
MTEXT
  5
241
100
AcDbEntity
  8
0
  6
CONTINUOUS
 62
               7
100
AcDbMText
 10
115.5267259825148
 20
-126.0
 30
0.0
 40
6.3000001907348633
 41
0.0
 71
               4
 72
               1
  1
\W1.121;\A1;KOGANEI CORP.
  7
MX_NOTE_STANDARD
  0
ENDSEC
  0
SECTION
  2
OBJECTS
  0
DICTIONARY
  5
19
100
AcDbDictionary
  3
ACAD_GROUP
350
1A
  3
ACAD_MLINESTYLE
350
1B
  0
DICTIONARY
  5
1A
102
{ACAD_REACTORS
330
19
102
}
100
AcDbDictionary
  0
DICTIONARY
  5
1B
102
{ACAD_REACTORS
330
19
102
}
100
AcDbDictionary
  3
STANDARD
350
1C
  0
MLINESTYLE
  5
1C
102
{ACAD_REACTORS
330
1B
102
}
100
AcDbMlineStyle
  2
Standard
 70
               0
  3

 62
               0
 51
90.0
 52
90.0
 71
               2
 49
0.5
 62
             256
  6
ByLayer
 49
-0.5
 62
             256
  6
ByLayer
  0
ENDSEC
  0
EOF
