  0
SECTION
  2
HEADER
  9
$ACADVER
  1
AC1012
  9
$DWGCODEPAGE
  3
dos932
  9
$INSBASE
 10
0.0
 20
0.0
 30
0.0
  9
$EXTMIN
 10
-138.39999389648437
 20
-94.800003051757812
 30
0.0
  9
$EXTMAX
 10
138.35000610351562
 20
94.5
 30
0.0
  9
$LIMMIN
 10
-148.5
 20
-105.00000000000001
  9
$LIMMAX
 10
148.5
 20
105.00000000000001
  9
$ORTHOMODE
 70
               0
  9
$REGENMODE
 70
               1
  9
$FILLMODE
 70
               1
  9
$QTEXTMODE
 70
               0
  9
$MIRRTEXT
 70
               1
  9
$DRAGMODE
 70
               2
  9
$LTSCALE
 40
1.0
  9
$OSMODE
 70
               0
  9
$ATTMODE
 70
               1
  9
$TEXTSIZE
 40
3.2000000476837158
  9
$TRACEWID
 40
0.05
  9
$TEXTSTYLE
  7
MX_NOTE_STANDARD
  9
$CLAYER
  8
0
  9
$CELTYPE
  6
CONTINUOUS
  9
$CECOLOR
 62
             256
  9
$CELTSCALE
 40
1.0
  9
$DELOBJ
 70
               1
  9
$DISPSILH
 70
               0
  9
$DIMSCALE
 40
1.0
  9
$DIMASZ
 40
2.5
  9
$DIMEXO
 40
1.5
  9
$DIMDLI
 40
3.75
  9
$DIMRND
 40
0.0
  9
$DIMDLE
 40
0.0
  9
$DIMEXE
 40
1.5
  9
$DIMTP
 40
0.0
  9
$DIMTM
 40
0.0
  9
$DIMTXT
 40
3.2000000476837158
  9
$DIMCEN
 40
2.5
  9
$DIMTSZ
 40
0.0
  9
$DIMTOL
 70
               0
  9
$DIMLIM
 70
               0
  9
$DIMTIH
 70
               0
  9
$DIMTOH
 70
               0
  9
$DIMSE1
 70
               0
  9
$DIMSE2
 70
               0
  9
$DIMTAD
 70
               1
  9
$DIMZIN
 70
               8
  9
$DIMBLK
  1

  9
$DIMASO
 70
               1
  9
$DIMSHO
 70
               1
  9
$DIMPOST
  1

  9
$DIMAPOST
  1

  9
$DIMALT
 70
               0
  9
$DIMALTD
 70
               4
  9
$DIMALTF
 40
0.03937007874016
  9
$DIMLFAC
 40
1.0
  9
$DIMTOFL
 70
               1
  9
$DIMTVP
 40
0.0
  9
$DIMTIX
 70
               0
  9
$DIMSOXD
 70
               0
  9
$DIMSAH
 70
               1
  9
$DIMBLK1
  1
_OPEN30
  9
$DIMBLK2
  1
_OPEN30
  9
$DIMSTYLE
  2
MXDIMSTYLE
  9
$DIMCLRD
 70
               0
  9
$DIMCLRE
 70
               0
  9
$DIMCLRT
 70
               0
  9
$DIMTFAC
 40
1.0
  9
$DIMGAP
 40
1.0
  9
$DIMJUST
 70
               0
  9
$DIMSD1
 70
               0
  9
$DIMSD2
 70
               0
  9
$DIMTOLJ
 70
               0
  9
$DIMTZIN
 70
               0
  9
$DIMALTZ
 70
               0
  9
$DIMALTTZ
 70
               0
  9
$DIMFIT
 70
               3
  9
$DIMUPT
 70
               1
  9
$DIMUNIT
 70
               2
  9
$DIMDEC
 70
               2
  9
$DIMTDEC
 70
               2
  9
$DIMALTU
 70
               2
  9
$DIMALTTD
 70
               4
  9
$DIMTXSTY
  7
MX_NOTE_STANDARD
  9
$DIMAUNIT
 70
               0
  9
$LUNITS
 70
               2
  9
$LUPREC
 70
               4
  9
$SKETCHINC
 40
0.1
  9
$FILLETRAD
 40
0.0
  9
$AUNITS
 70
               0
  9
$AUPREC
 70
               0
  9
$MENU
  1
acad
  9
$ELEVATION
 40
0.0
  9
$PELEVATION
 40
0.0
  9
$THICKNESS
 40
0.0
  9
$LIMCHECK
 70
               0
  9
$BLIPMODE
 70
               1
  9
$CHAMFERA
 40
0.0
  9
$CHAMFERB
 40
0.0
  9
$CHAMFERC
 40
0.0
  9
$CHAMFERD
 40
0.0
  9
$SKPOLY
 70
               0
  9
$TDCREATE
 40
2453882.358078704
  9
$TDUPDATE
 40
2453882.358078704
  9
$TDINDWG
 40
0.0000000000
  9
$TDUSRTIMER
 40
0.0000000000
  9
$USRTIMER
 70
               1
  9
$ANGBASE
 50
0.0
  9
$ANGDIR
 70
               0
  9
$PDMODE
 70
               0
  9
$PDSIZE
 40
0.0
  9
$PLINEWID
 40
0.0
  9
$COORDS
 70
               1
  9
$SPLFRAME
 70
               0
  9
$SPLINETYPE
 70
               6
  9
$SPLINESEGS
 70
               8
  9
$ATTDIA
 70
               0
  9
$ATTREQ
 70
               1
  9
$HANDLING
 70
               1
  9
$HANDSEED
  5
11F
  9
$SURFTAB1
 70
               6
  9
$SURFTAB2
 70
               6
  9
$SURFTYPE
 70
               6
  9
$SURFU
 70
               6
  9
$SURFV
 70
               6
  9
$UCSNAME
  2

  9
$UCSORG
 10
0.0
 20
0.0
 30
0.0
  9
$UCSXDIR
 10
1.0
 20
0.0
 30
0.0
  9
$UCSYDIR
 10
0.0
 20
1.0
 30
0.0
  9
$PUCSNAME
  2

  9
$PUCSORG
 10
0.0
 20
0.0
 30
0.0
  9
$PUCSXDIR
 10
1.0
 20
0.0
 30
0.0
  9
$PUCSYDIR
 10
0.0
 20
1.0
 30
0.0
  9
$USERI1
 70
               0
  9
$USERI2
 70
               0
  9
$USERI3
 70
               0
  9
$USERI4
 70
               0
  9
$USERI5
 70
               0
  9
$USERR1
 40
0.0
  9
$USERR2
 40
0.0
  9
$USERR3
 40
0.0
  9
$USERR4
 40
0.0
  9
$USERR5
 40
0.0
  9
$WORLDVIEW
 70
               1
  9
$SHADEDGE
 70
               3
  9
$SHADEDIF
 70
              70
  9
$TILEMODE
 70
               1
  9
$MAXACTVP
 70
              16
  9
$PINSBASE
 10
0.0
 20
0.0
 30
0.0
  9
$PLIMCHECK
 70
               0
  9
$PEXTMIN
 10
1.0000000000000000E+20
 20
1.0000000000000000E+20
 30
1.0000000000000000E+20
  9
$PEXTMAX
 10
-1.0000000000000000E+20
 20
-1.0000000000000000E+20
 30
-1.0000000000000000E+20
  9
$PLIMMIN
 10
0.0
 20
0.0
  9
$PLIMMAX
 10
12.0
 20
9.0
  9
$UNITMODE
 70
               0
  9
$VISRETAIN
 70
               0
  9
$PLINEGEN
 70
               1
  9
$PSLTSCALE
 70
               0
  9
$TREEDEPTH
 70
            3020
  9
$PICKSTYLE
 70
               1
  9
$CMLSTYLE
  2
Standard
  9
$CMLJUST
 70
               0
  9
$CMLSCALE
 40
1.0
  9
$SAVEIMAGES
 70
               0
  0
ENDSEC
  0
SECTION
  2
CLASSES
  0
CLASS
  1
LWPOLYLINE
  2
AcDbPolyline
  3
"AutoCAD"
 90
    32768
280
               0
281
               1
  0
CLASS
  1
IMAGE
  2
AcDbRasterImage
  3
ISM
 90
    32895
280
               0
281
               1
  0
CLASS
  1
OLE2FRAME
  2
AcDbOle2Frame
  3
""
 90
    32768
280
               0
281
               1
  0
CLASS
  1
HATCH
  2
AcDbHatch
  3
"ACAD_SEDONA"
 90
    32768
280
               0
281
               1
  0
CLASS
  1
DICTIONARYVAR
  2
AcDbDictionaryVar
  3
"AutoCAD"
 90
    32768
280
               0
281
               0
  0
CLASS
  1
RASTERVARIABLES
  2
AcDbRasterVariables
  3
ISM
 90
    32768
280
               0
281
               0
  0
CLASS
  1
IMAGEDEF
  2
AcDbRasterImageDef
  3
ISM
 90
    32768
280
               0
281
               0
  0
CLASS
  1
IMAGEDEF_REACTOR
  2
AcDbRasterImageDefReactor
  3
ISM
 90
    32769
280
               0
281
               0
  0
CLASS
  1
IDBUFFER
  2
AcDbIdBuffer
  3
"Acad"
 90
    32768
280
               0
281
               0
  0
CLASS
  1
SPATIAL_FILTER
  2
AcDbSpatialFilter
  3
"Acad"
 90
    32768
280
               0
281
               0
  0
CLASS
  1
XRECORD
  2
AcDbXrecord
  3
"<Built In>"
 90
    32768
280
               0
281
               0
  0
CLASS
  1
SORTENTSTABLE
  2
AcDbSortentsTable
  3
"AutoCAD"
 90
    32768
280
               0
281
               0
  0
CLASS
  1
LAYER_INDEX
  2
AcDbLayerIndex
  3
"Acad"
 90
    32768
280
               0
281
               0
  0
CLASS
  1
SPATIAL_INDEX
  2
AcDbSpatialIndex
  3
"Acad"
 90
    32768
280
               0
281
               0
  0
CLASS
  1
OBJECT_PTR
  2
CAseDLPNTableRecord
  3
"ASE-LPNTableRecord"
 90
    32769
280
               0
281
               0
  0
CLASS
  1
LAYOUT
  2
AcDbLayout
  3
"AutoCAD 2000"
 90
    32768
280
               0
281
               0
  0
CLASS
  1
PLOTSETTINGS
  2
AcDbPlotSettings
  3
"AutoCAD 2000"
 90
    32768
280
               0
281
               0
  0
CLASS
  1
ACDBDICTIONARYWDFLT
  2
AcDbDictionaryWithDefault
  3
"AutoCAD 2000"
 90
    32768
280
               0
281
               0
  0
CLASS
  1
ACDBPLACEHOLDER
  2
AcDbPlaceHolder
  3
"AutoCAD 2000"
 90
    32768
280
               0
281
               0
  0
ENDSEC
  0
SECTION
  2
TABLES
  0
TABLE
  2
VPORT
  5
7
100
AcDbSymbolTable
 70
               1
  0
VPORT
  5
15
100
AcDbSymbolTableRecord
100
AcDbViewportTableRecord
  2
*ACTIVE
 70
               0
 10
0.0
 20
0.0
 11
1.0
 21
1.0
 12
0.0
 22
0.0
 13
0.0
 23
0.0
 14
1.0
 24
1.0
 15
0.0
 25
0.0
 16
0.0
 26
0.0
 36
1.0
 17
0.0
 27
0.0
 37
0.0
 40
212.10000000000002
 41
1.7320508075688772
 42
50.0
 43
0.0
 44
0.0
 50
0.0
 51
0.0
 71
               0
 72
             100
 73
               1
 74
               1
 75
               0
 76
               0
 77
               0
 78
               0
  0
ENDTAB
  0
TABLE
  2
LTYPE
  5
4
100
AcDbSymbolTable
 70
               5
  0
LTYPE
  5
11
100
AcDbSymbolTableRecord
100
AcDbLinetypeTableRecord
  2
BYBLOCK
 70
              64
  3

 72
              65
 73
               0
 40
0.0
  0
LTYPE
  5
12
100
AcDbSymbolTableRecord
100
AcDbLinetypeTableRecord
  2
BYLAYER
 70
              64
  3

 72
              65
 73
               0
 40
0.0
  0
LTYPE
  5
13
100
AcDbSymbolTableRecord
100
AcDbLinetypeTableRecord
  2
CONTINUOUS
 70
              64
  3
Solid line
 72
              65
 73
               0
 40
0.0
  0
LTYPE
  5
78
100
AcDbSymbolTableRecord
100
AcDbLinetypeTableRecord
  2
CENTER
 70
              64
  3
Center ____ _ ____ _ ____ _ ____ _ ____ _ ____
 72
              65
 73
               4
 40
50.800000000000004
 49
31.75
 74
               0
 49
-6.3499999999999996
 74
               0
 49
6.3499999999999996
 74
               0
 49
-6.3499999999999996
 74
               0
  0
LTYPE
  5
108
100
AcDbSymbolTableRecord
100
AcDbLinetypeTableRecord
  2
DASHED
 70
              64
  3
Dashed __ __ __ __ __ __ __ __ __ __ __ __ __ _
 72
              65
 73
               2
 40
19.049999999999997
 49
12.699999999999999
 74
               0
 49
-6.3499999999999996
 74
               0
  0
ENDTAB
  0
TABLE
  2
LAYER
  5
2
100
AcDbSymbolTable
 70
               2
  0
LAYER
  5
14
100
AcDbSymbolTableRecord
100
AcDbLayerTableRecord
  2
0
 70
               0
 62
               7
  6
CONTINUOUS
  0
LAYER
  5
1D
100
AcDbSymbolTableRecord
100
AcDbLayerTableRecord
  2
DEFPOINTS
 70
               0
 62
               7
  6
CONTINUOUS
  0
ENDTAB
  0
TABLE
  2
STYLE
  5
3
100
AcDbSymbolTable
 70
               1
  0
STYLE
  5
17
100
AcDbSymbolTableRecord
100
AcDbTextStyleTableRecord
  2
MX_NOTE_STANDARD
 70
               0
 40
0.0
 41
1.0
 50
0.0
 71
               0
 42
3.2000000476837158
  3
txt.shx
  4
extfont.shx
  0
ENDTAB
  0
TABLE
  2
VIEW
  5
5
100
AcDbSymbolTable
 70
               0
  0
ENDTAB
  0
TABLE
  2
UCS
  5
6
100
AcDbSymbolTable
 70
               0
  0
ENDTAB
  0
TABLE
  2
APPID
  5
8
100
AcDbSymbolTable
 70
               1
  0
APPID
  5
16
100
AcDbSymbolTableRecord
100
AcDbRegAppTableRecord
  2
ACAD
 70
               0
  0
ENDTAB
  0
TABLE
  2
DIMSTYLE
  5
9
100
AcDbSymbolTable
 70
               1
  0
DIMSTYLE
105
18
100
AcDbSymbolTableRecord
100
AcDbDimStyleTableRecord
  2
MXDIMSTYLE
 70
               0
  3

  4

  5

  6
_OPEN30
  7
_OPEN30
 40
1.0
 41
2.5
 42
1.5
 43
3.75
 44
1.5
 45
0.0
 46
0.0
 47
0.0
 48
0.0
 71
               0
 72
               0
 73
               0
 74
               0
 75
               0
 76
               0
 77
               1
 78
               8
140
3.2000000476837158
141
2.5
142
0.0
143
0.03937007874016
144
1.0
145
0.0
146
1.0
147
1.0
170
               0
171
               4
172
               1
173
               1
174
               0
175
               0
176
               0
177
               0
178
               0
270
               2
271
               2
272
               2
273
               2
274
               4
275
               0
280
               0
281
               0
282
               0
283
               0
284
               0
285
               0
286
               0
287
               3
288
               1
340
17
  0
ENDTAB
  0
TABLE
  2
BLOCK_RECORD
  5
1
100
AcDbSymbolTable
 70
               6
  0
BLOCK_RECORD
  5
A
100
AcDbSymbolTableRecord
100
AcDbBlockTableRecord
  2
*MODEL_SPACE
  0
BLOCK_RECORD
  5
B
100
AcDbSymbolTableRecord
100
AcDbBlockTableRecord
  2
*PAPER_SPACE
  0
BLOCK_RECORD
  5
1E
100
AcDbSymbolTableRecord
100
AcDbBlockTableRecord
  2
CS-KSHC11X15-1
  0
BLOCK_RECORD
  5
1F
100
AcDbSymbolTableRecord
100
AcDbBlockTableRecord
  2
CS-KSHC11X15-2
  0
BLOCK_RECORD
  5
20
100
AcDbSymbolTableRecord
100
AcDbBlockTableRecord
  2
CS-KSHC11X15-3
  0
BLOCK_RECORD
  5
21
100
AcDbSymbolTableRecord
100
AcDbBlockTableRecord
  2
CS-KSHC11X15-4
  0
BLOCK_RECORD
  5
22
100
AcDbSymbolTableRecord
100
AcDbBlockTableRecord
  2
CS-KSHC11X15-5
  0
BLOCK_RECORD
  5
23
100
AcDbSymbolTableRecord
100
AcDbBlockTableRecord
  2
_OPEN30
  0
ENDTAB
  0
ENDSEC
  0
SECTION
  2
BLOCKS
  0
BLOCK
  5
D
100
AcDbEntity
  8
0
100
AcDbBlockBegin
  2
*MODEL_SPACE
 70
               0
 10
0.0
 20
0.0
 30
0.0
  3
*MODEL_SPACE
  1

  0
ENDBLK
  5
E
100
AcDbEntity
  8
0
100
AcDbBlockEnd
  0
BLOCK
  5
F
100
AcDbEntity
 67
               1
  8
0
100
AcDbBlockBegin
  2
*PAPER_SPACE
 70
               0
 10
0.0
 20
0.0
 30
0.0
  3
*PAPER_SPACE
  1

  0
ENDBLK
  5
10
100
AcDbEntity
 67
               1
  8
0
100
AcDbBlockEnd
  0
BLOCK
  5
29
100
AcDbEntity
  8
0
100
AcDbBlockBegin
  2
CS-KSHC11X15-1
 70
               0
 10
0.0
 20
0.0
 30
0.0
  3
CS-KSHC11X15-1
  1

  0
LINE
  5
2A
100
AcDbEntity
  8
0
  6
CONTINUOUS
 62
               7
100
AcDbLine
 10
71.500000000000057
 20
6.9999999999999574
 30
0.0
 11
71.500000000000057
 21
-7.0000000000000568
 31
0.0
  0
LINE
  5
2B
100
AcDbEntity
  8
0
  6
CONTINUOUS
 62
               7
100
AcDbLine
 10
72.000000000000057
 20
-6.5000000000000568
 30
0.0
 11
71.5
 21
-7.0000000000000568
 31
0.0
  0
LINE
  5
2C
100
AcDbEntity
  8
0
  6
CONTINUOUS
 62
               7
100
AcDbLine
 10
71.500000000000057
 20
6.9999999999999574
 30
0.0
 11
72.000000000000057
 21
6.4999999999999432
 31
0.0
  0
LINE
  5
2D
100
AcDbEntity
  8
0
  6
CONTINUOUS
 62
               2
100
AcDbLine
 10
65.422649730810406
 20
3.8729833462073415
 30
0.0
 11
61.000000000000028
 21
-3.872983346207441
 31
0.0
  0
LINE
  5
2E
100
AcDbEntity
  8
0
  6
CONTINUOUS
 62
               2
100
AcDbLine
 10
61.000000000000028
 20
3.8729833462073415
 30
0.0
 11
65.422649730810406
 21
-3.872983346207441
 31
0.0
  0
ARC
  5
2F
100
AcDbEntity
  8
0
  6
CONTINUOUS
 62
               7
100
AcDbCircle
 10
52.720943808638737
 20
-0.0000000000000426
 30
0.0
 40
13.279056191361283
100
AcDbArc
 50
343.04257370582764
 51
16.957426294172315
  0
ARC
  5
30
100
AcDbEntity
  8
0
  6
CONTINUOUS
 62
               7
100
AcDbCircle
 10
68.000000000000057
 20
-0.0000000000000497
 30
0.0
 40
8.0
100
AcDbArc
 50
151.04497562814035
 51
208.95502437185965
  0
LINE
  5
31
100
AcDbEntity
  8
0
  6
CONTINUOUS
 62
               7
100
AcDbLine
 10
65.422649730810406
 20
-3.872983346207441
 30
0.0
 11
65.422649730810406
 21
-8.0000000000000497
 31
0.0
  0
LINE
  5
32
100
AcDbEntity
  8
0
  6
CONTINUOUS
 62
               7
100
AcDbLine
 10
61.000000000000028
 20
-3.872983346207441
 30
0.0
 11
61.000000000000028
 21
3.8729833462073415
 31
0.0
  0
LINE
  5
33
100
AcDbEntity
  8
0
  6
CONTINUOUS
 62
               7
100
AcDbLine
 10
65.422649730810406
 20
-3.872983346207441
 30
0.0
 11
61.000000000000028
 21
-3.872983346207441
 31
0.0
  0
LINE
  5
34
100
AcDbEntity
  8
0
  6
CONTINUOUS
 62
               7
100
AcDbLine
 10
65.422649730810406
 20
3.8729833462073415
 30
0.0
 11
61.000000000000028
 21
3.8729833462073415
 31
0.0
  0
LINE
  5
35
100
AcDbEntity
  8
0
  6
CONTINUOUS
 62
               7
100
AcDbLine
 10
65.422649730810406
 20
7.9999999999999503
 30
0.0
 11
65.422649730810406
 21
3.8729833462073415
 31
0.0
  0
LINE
  5
36
100
AcDbEntity
  8
0
  6
CONTINUOUS
 62
               7
100
AcDbLine
 10
66.000000000000057
 20
-7.0000000000000568
 30
0.0
 11
65.422649730810406
 21
-8.0000000000000497
 31
0.0
  0
LINE
  5
37
100
AcDbEntity
  8
0
  6
CONTINUOUS
 62
               7
100
AcDbLine
 10
66.000000000000057
 20
6.9999999999999574
 30
0.0
 11
65.422649730810406
 21
7.9999999999999503
 31
0.0
  0
LINE
  5
38
100
AcDbEntity
  8
0
  6
CONTINUOUS
 62
               7
100
AcDbLine
 10
66.000000000000057
 20
-7.0000000000000568
 30
0.0
 11
66.000000000000057
 21
6.9999999999999574
 31
0.0
  0
LINE
  5
39
100
AcDbEntity
  8
0
  6
CONTINUOUS
 62
               7
100
AcDbLine
 10
28.62138045998168
 20
-9.5000000000000497
 30
0.0
 11
29.469886233339366
 21
-10.969655109971072
 31
0.0
  0
LINE
  5
3A
100
AcDbEntity
  8
0
  6
CONTINUOUS
 62
               7
100
AcDbLine
 10
35.62138045998168
 20
-9.5000000000000497
 30
0.0
 11
36.469886233339366
 21
-10.969655109971072
 31
0.0
  0
LINE
  5
3B
100
AcDbEntity
  8
0
  6
CONTINUOUS
 62
               7
100
AcDbLine
 10
42.621380459981708
 20
-9.5000000000000568
 30
0.0
 11
41.77287468662405
 21
-10.969655109971072
 31
0.0
  0
LINE
  5
3C
100
AcDbEntity
  8
0
  6
CONTINUOUS
 62
               7
100
AcDbLine
 10
35.62138045998168
 20
-9.5000000000000497
 30
0.0
 11
34.772874686623993
 21
-10.969655109971072
 31
0.0
  0
LINE
  5
3D
100
AcDbEntity
  8
0
  6
CONTINUOUS
 62
               7
100
AcDbLine
 10
28.62138045998168
 20
9.4999999999999503
 30
0.0
 11
29.469886251225489
 21
10.969655140950636
 31
0.0
  0
LINE
  5
3E
100
AcDbEntity
  8
0
  6
CONTINUOUS
 62
               7
100
AcDbLine
 10
35.62138045998168
 20
9.4999999999999503
 30
0.0
 11
36.469886251225461
 21
10.969655140950636
 31
0.0
  0
LINE
  5
3F
100
AcDbEntity
  8
0
  6
CONTINUOUS
 62
               7
100
AcDbLine
 10
35.62138045998168
 20
9.4999999999999503
 30
0.0
 11
34.772874668737899
 21
10.969655140950636
 31
0.0
  0
LINE
  5
40
100
AcDbEntity
  8
0
  6
CONTINUOUS
 62
               7
100
AcDbLine
 10
42.621380459981708
 20
9.4999999999999432
 30
0.0
 11
41.772874668737927
 21
10.969655140950636
 31
0.0
  0
LINE
  5
41
100
AcDbEntity
  8
0
  6
CONTINUOUS
 62
               7
100
AcDbLine
 10
28.62138045998168
 20
-9.5000000000000497
 30
0.0
 11
28.62138045998168
 21
9.4999999999999503
 31
0.0
  0
LINE
  5
42
100
AcDbEntity
  8
0
  6
CONTINUOUS
 62
               7
100
AcDbLine
 10
35.62138045998168
 20
-9.5000000000000497
 30
0.0
 11
35.62138045998168
 21
9.4999999999999503
 31
0.0
  0
LINE
  5
43
100
AcDbEntity
  8
0
  6
CONTINUOUS
 62
               7
100
AcDbLine
 10
42.621380459981708
 20
-9.5000000000000568
 30
0.0
 11
42.621380459981708
 21
9.4999999999999432
 31
0.0
  0
LINE
  5
44
100
AcDbEntity
  8
0
  6
CONTINUOUS
 62
               7
100
AcDbLine
 10
36.469886233339366
 20
-10.969655109971072
 30
0.0
 11
41.772874686623993
 21
-10.969655109971072
 31
0.0
  0
LINE
  5
45
100
AcDbEntity
  8
0
  6
CONTINUOUS
 62
               7
100
AcDbLine
 10
36.469886251225489
 20
10.969655140950636
 30
0.0
 11
41.772874668737899
 21
10.969655140950636
 31
0.0
  0
LINE
  5
46
100
AcDbEntity
  8
0
  6
CONTINUOUS
 62
               7
100
AcDbLine
 10
29.469886208707209
 20
-10.969655109971072
 30
0.0
 11
34.772874678307886
 21
-10.969655109971072
 31
0.0
  0
LINE
  5
47
100
AcDbEntity
  8
0
  6
CONTINUOUS
 62
               7
100
AcDbLine
 10
29.469886268311853
 20
10.969655140950636
 30
0.0
 11
34.772874678307886
 21
10.969655140950636
 31
0.0
  0
LINE
  5
48
100
AcDbEntity
  8
0
  6
CONTINUOUS
 62
               7
100
AcDbLine
 10
71.5
 20
-7.0000000000000568
 30
0.0
 11
66.000000000000057
 21
-7.0000000000000568
 31
0.0
  0
LINE
  5
49
100
AcDbEntity
  8
0
  6
CONTINUOUS
 62
               7
100
AcDbLine
 10
71.500000000000057
 20
6.9999999999999574
 30
0.0
 11
66.000000000000057
 21
6.9999999999999574
 31
0.0
  0
LINE
  5
4A
100
AcDbEntity
  8
0
  6
CONTINUOUS
 62
               2
100
AcDbLine
 10
42.621380459981708
 20
-7.1880000000000521
 30
0.0
 11
65.891458149392406
 21
-7.1880000000000521
 31
0.0
  0
LINE
  5
4B
100
AcDbEntity
  8
0
  6
CONTINUOUS
 62
               2
100
AcDbLine
 10
42.621380459981708
 20
7.1879999999999526
 30
0.0
 11
65.891458149392406
 21
7.1879999999999526
 31
0.0
  0
LINE
  5
4C
100
AcDbEntity
  8
0
  6
CONTINUOUS
 62
               2
100
AcDbLine
 10
3.2240119044456037
 20
-7.1880000000000521
 30
0.0
 11
28.621380459981708
 21
-7.1880000000000521
 31
0.0
  0
LINE
  5
4D
100
AcDbEntity
  8
0
  6
CONTINUOUS
 62
               2
100
AcDbLine
 10
3.2240119044456037
 20
7.1879999999999526
 30
0.0
 11
28.621380459981708
 21
7.1879999999999526
 31
0.0
  0
LINE
  5
4E
100
AcDbEntity
  8
0
  6
CONTINUOUS
 62
               7
100
AcDbLine
 10
29.45853835030664
 20
5.4651724426985169
 30
0.0
 11
34.784222569656748
 21
5.4651724426985169
 31
0.0
  0
ARC
  5
4F
100
AcDbEntity
  8
0
  6
CONTINUOUS
 62
               7
100
AcDbCircle
 10
33.531844042589313
 20
8.2075862213492314
 30
0.0
 40
4.9104635826076235
100
AcDbArc
 50
153.95099893585979
 51
213.95099893585945
  0
LINE
  5
50
100
AcDbEntity
  8
0
  6
CONTINUOUS
 62
               7
100
AcDbLine
 10
29.45853835030664
 20
-5.4651724426986164
 30
0.0
 11
34.784222569656748
 21
-5.4651724426986164
 31
0.0
  0
ARC
  5
51
100
AcDbEntity
  8
0
  6
CONTINUOUS
 62
               7
100
AcDbCircle
 10
46.878953801313401
 20
-0.0000000000000497
 30
0.0
 40
18.257573341331721
100
AcDbArc
 50
162.58219669097579
 51
180.0
  0
ARC
  5
52
100
AcDbEntity
  8
0
  6
CONTINUOUS
 62
               7
100
AcDbCircle
 10
46.878953801313401
 20
-0.0000000000000497
 30
0.0
 40
18.257573341331721
100
AcDbArc
 50
180.0
 51
197.41780330902418
  0
ARC
  5
53
100
AcDbEntity
  8
0
  6
CONTINUOUS
 62
               7
100
AcDbCircle
 10
33.531844042589313
 20
-8.2075862213493309
 30
0.0
 40
4.9104635826076235
100
AcDbArc
 50
146.04900106414055
 51
206.04900106413965
  0
ARC
  5
54
100
AcDbEntity
  8
0
  6
CONTINUOUS
 62
               7
100
AcDbCircle
 10
30.710916877374075
 20
8.2075862213492314
 30
0.0
 40
4.9104635826076235
100
AcDbArc
 50
326.04900106414055
 51
26.049001064140189
  0
ARC
  5
55
100
AcDbEntity
  8
0
  6
CONTINUOUS
 62
               7
100
AcDbCircle
 10
17.363807118649987
 20
-0.0000000000000497
 30
0.0
 40
18.257573341331721
100
AcDbArc
 50
0.0
 51
17.417803309024183
  0
ARC
  5
56
100
AcDbEntity
  8
0
  6
CONTINUOUS
 62
               7
100
AcDbCircle
 10
17.363807118649987
 20
-0.0000000000000497
 30
0.0
 40
18.257573341331721
100
AcDbArc
 50
342.58219669097582
 51
0.0
  0
ARC
  5
57
100
AcDbEntity
  8
0
  6
CONTINUOUS
 62
               7
100
AcDbCircle
 10
30.710916877374075
 20
-8.2075862213493309
 30
0.0
 40
4.9104635826076235
100
AcDbArc
 50
333.95099893586035
 51
33.950998935859438
  0
ARC
  5
58
100
AcDbEntity
  8
0
  6
CONTINUOUS
 62
               7
100
AcDbCircle
 10
40.531844042589313
 20
-8.2075862213493309
 30
0.0
 40
4.9104635826076235
100
AcDbArc
 50
146.04900106414055
 51
206.04900106413965
  0
ARC
  5
59
100
AcDbEntity
  8
0
  6
CONTINUOUS
 62
               7
100
AcDbCircle
 10
53.878953801313401
 20
-0.0000000000000497
 30
0.0
 40
18.257573341331721
100
AcDbArc
 50
180.0
 51
197.41780330902418
  0
ARC
  5
5A
100
AcDbEntity
  8
0
  6
CONTINUOUS
 62
               7
100
AcDbCircle
 10
53.878953801313401
 20
-0.0000000000000497
 30
0.0
 40
18.257573341331721
100
AcDbArc
 50
162.58219669097579
 51
180.0
  0
ARC
  5
5B
100
AcDbEntity
  8
0
  6
CONTINUOUS
 62
               7
100
AcDbCircle
 10
40.531844042589313
 20
8.2075862213492314
 30
0.0
 40
4.9104635826076235
100
AcDbArc
 50
153.95099893585979
 51
213.95099893585945
  0
ARC
  5
5C
100
AcDbEntity
  8
0
  6
CONTINUOUS
 62
               7
100
AcDbCircle
 10
37.710916877374075
 20
-8.2075862213493309
 30
0.0
 40
4.9104635826076235
100
AcDbArc
 50
333.95099893586035
 51
33.950998935859438
  0
ARC
  5
5D
100
AcDbEntity
  8
0
  6
CONTINUOUS
 62
               7
100
AcDbCircle
 10
24.363807118649987
 20
-0.0000000000000497
 30
0.0
 40
18.257573341331721
100
AcDbArc
 50
342.58219669097582
 51
0.0
  0
ARC
  5
5E
100
AcDbEntity
  8
0
  6
CONTINUOUS
 62
               7
100
AcDbCircle
 10
24.363807118649987
 20
-0.0000000000000497
 30
0.0
 40
18.257573341331721
100
AcDbArc
 50
0.0
 51
17.417803309024183
  0
LINE
  5
5F
100
AcDbEntity
  8
0
  6
CONTINUOUS
 62
               7
100
AcDbLine
 10
41.784222569656748
 20
-5.4651724426986164
 30
0.0
 11
36.45853835030664
 21
-5.4651724426986164
 31
0.0
  0
ARC
  5
60
100
AcDbEntity
  8
0
  6
CONTINUOUS
 62
               7
100
AcDbCircle
 10
37.710916877374075
 20
8.2075862213492314
 30
0.0
 40
4.9104635826076235
100
AcDbArc
 50
326.04900106414055
 51
26.049001064140189
  0
LINE
  5
61
100
AcDbEntity
  8
0
  6
CONTINUOUS
 62
               7
100
AcDbLine
 10
41.784222569656748
 20
5.4651724426985169
 30
0.0
 11
36.45853835030664
 21
5.4651724426985169
 31
0.0
  0
LINE
  5
62
100
AcDbEntity
  8
0
  6
CONTINUOUS
 62
               7
100
AcDbLine
 10
3.6928203230275756
 20
7.9999999999999503
 30
0.0
 11
3.6928203230275756
 21
-8.0000000000000497
 31
0.0
  0
LINE
  5
63
100
AcDbEntity
  8
0
  6
CONTINUOUS
 62
               7
100
AcDbLine
 10
3.0000000000000284
 20
-6.8000000000000469
 30
0.0
 11
3.6928203230275756
 21
-8.0000000000000497
 31
0.0
  0
LINE
  5
64
100
AcDbEntity
  8
0
  6
CONTINUOUS
 62
               7
100
AcDbLine
 10
3.0000000000000284
 20
6.7999999999999474
 30
0.0
 11
3.6928203230275756
 21
7.9999999999999503
 31
0.0
  0
LINE
  5
65
100
AcDbEntity
  8
0
  6
CONTINUOUS
 62
               7
100
AcDbLine
 10
3.6928203230275756
 20
-8.0000000000000497
 30
0.0
 11
28.62138045998168
 21
-8.0000000000000497
 31
0.0
  0
LINE
  5
66
100
AcDbEntity
  8
0
  6
CONTINUOUS
 62
               7
100
AcDbLine
 10
42.621380459981708
 20
-8.0000000000000497
 30
0.0
 11
65.422649730810406
 21
-8.0000000000000497
 31
0.0
  0
LINE
  5
67
100
AcDbEntity
  8
0
  6
CONTINUOUS
 62
               7
100
AcDbLine
 10
72.000000000000057
 20
-6.5000000000000568
 30
0.0
 11
72.000000000000057
 21
6.4999999999999432
 31
0.0
  0
LINE
  5
68
100
AcDbEntity
  8
0
  6
CONTINUOUS
 62
               7
100
AcDbLine
 10
0.3000000000000398
 20
6.7999999999999474
 30
0.0
 11
0.3000000000000398
 21
-6.8000000000000469
 31
0.0
  0
LINE
  5
69
100
AcDbEntity
  8
0
  6
CONTINUOUS
 62
               7
100
AcDbLine
 10
3.0000000000000284
 20
6.7999999999999474
 30
0.0
 11
3.0000000000000284
 21
-6.8000000000000469
 31
0.0
  0
LINE
  5
6A
100
AcDbEntity
  8
0
  6
CONTINUOUS
 62
               7
100
AcDbLine
 10
42.621380459981708
 20
7.9999999999999503
 30
0.0
 11
65.422649730810406
 21
7.9999999999999503
 31
0.0
  0
LINE
  5
6B
100
AcDbEntity
  8
0
  6
CONTINUOUS
 62
               7
100
AcDbLine
 10
3.6928203230275756
 20
7.9999999999999503
 30
0.0
 11
28.62138045998168
 21
7.9999999999999503
 31
0.0
  0
LINE
  5
6C
100
AcDbEntity
  8
0
  6
CONTINUOUS
 62
               7
100
AcDbLine
 10
0.0000000000000284
 20
-6.5000000000000497
 30
0.0
 11
0.0000000000000284
 21
6.4999999999999503
 31
0.0
  0
LINE
  5
6D
100
AcDbEntity
  8
0
  6
CONTINUOUS
 62
               7
100
AcDbLine
 10
1.0000000000000284
 20
6.7999999999999474
 30
0.0
 11
1.0000000000000284
 21
-6.8000000000000469
 31
0.0
  0
LINE
  5
6E
100
AcDbEntity
  8
0
  6
CONTINUOUS
 62
               7
100
AcDbLine
 10
0.3000000000000398
 20
6.7999999999999474
 30
0.0
 11
3.0000000000000284
 21
6.7999999999999474
 31
0.0
  0
LINE
  5
6F
100
AcDbEntity
  8
0
  6
CONTINUOUS
 62
               7
100
AcDbLine
 10
0.0000000000000284
 20
6.4999999999999503
 30
0.0
 11
0.3000000000000398
 21
6.7999999999999474
 31
0.0
  0
LINE
  5
70
100
AcDbEntity
  8
0
  6
CONTINUOUS
 62
               7
100
AcDbLine
 10
-14.249422577821633
 20
1.9999999999999503
 30
0.0
 11
0.0000000000000284
 21
1.9999999999999503
 31
0.0
  0
LINE
  5
71
100
AcDbEntity
  8
0
  6
CONTINUOUS
 62
               7
100
AcDbLine
 10
-14.999999999999972
 20
-1.6500000000000483
 30
0.0
 11
-14.999999999999972
 21
1.6499999999999488
 31
0.0
  0
LINE
  5
72
100
AcDbEntity
  8
0
  6
CONTINUOUS
 62
               7
100
AcDbLine
 10
-14.249422577821633
 20
-2.0000000000000497
 30
0.0
 11
0.0000000000000284
 21
-2.0000000000000497
 31
0.0
  0
LINE
  5
73
100
AcDbEntity
  8
0
  6
CONTINUOUS
 62
               7
100
AcDbLine
 10
-14.999999999999972
 20
-1.6500000000000483
 30
0.0
 11
-14.249422577821633
 21
-2.0000000000000497
 31
0.0
  0
LINE
  5
74
100
AcDbEntity
  8
0
  6
CONTINUOUS
 62
               7
100
AcDbLine
 10
0.0000000000000284
 20
-6.5000000000000497
 30
0.0
 11
0.3000000000000398
 21
-6.8000000000000469
 31
0.0
  0
LINE
  5
75
100
AcDbEntity
  8
0
  6
CONTINUOUS
 62
               7
100
AcDbLine
 10
0.3000000000000398
 20
-6.8000000000000469
 30
0.0
 11
3.0000000000000284
 21
-6.8000000000000469
 31
0.0
  0
LINE
  5
76
100
AcDbEntity
  8
0
  6
CONTINUOUS
 62
               7
100
AcDbLine
 10
-14.249422577821633
 20
-2.0000000000000497
 30
0.0
 11
-14.249422577821633
 21
1.9999999999999503
 31
0.0
  0
LINE
  5
77
100
AcDbEntity
  8
0
  6
CONTINUOUS
 62
               7
100
AcDbLine
 10
-14.999999999999972
 20
1.6499999999999488
 30
0.0
 11
-14.249422577821633
 21
1.9999999999999503
 31
0.0
  0
LINE
  5
79
100
AcDbEntity
  8
0
  6
CENTER
 62
               2
100
AcDbLine
 10
-18.999999999999972
 20
-0.0000000000000497
 30
0.0
 11
76.000000000000057
 21
-0.0000000000000497
 31
0.0
  0
ENDBLK
  5
7A
100
AcDbEntity
  8
0
100
AcDbBlockEnd
  0
BLOCK
  5
7B
100
AcDbEntity
  8
0
100
AcDbBlockBegin
  2
CS-KSHC11X15-2
 70
               0
 10
0.0
 20
0.0
 30
0.0
  3
CS-KSHC11X15-2
  1

  0
LINE
  5
7C
100
AcDbEntity
  8
0
  6
CONTINUOUS
 62
               7
100
AcDbLine
 10
-6.9999999999999716
 20
-3.872983346207441
 30
0.0
 11
-6.9999999999999716
 21
3.8729833462073415
 31
0.0
  0
LINE
  5
7D
100
AcDbEntity
  8
0
  6
CONTINUOUS
 62
               7
100
AcDbLine
 10
7.0000000000000213
 20
-3.872983346207441
 30
0.0
 11
7.0000000000000213
 21
3.8729833462073415
 31
0.0
  0
CIRCLE
  5
7E
100
AcDbEntity
  8
0
  6
CONTINUOUS
 62
               7
100
AcDbCircle
 10
0.0000000000000284
 20
-0.0000000000000497
 30
0.0
 40
7.0000000000000071
  0
CIRCLE
  5
7F
100
AcDbEntity
  8
0
  6
CONTINUOUS
 62
               7
100
AcDbCircle
 10
0.0000000000000284
 20
-0.0000000000000497
 30
0.0
 40
8.0
  0
CIRCLE
  5
80
100
AcDbEntity
  8
0
  6
CONTINUOUS
 62
               7
100
AcDbCircle
 10
0.0000000000000284
 20
-0.0000000000000497
 30
0.0
 40
9.5
  0
CIRCLE
  5
81
100
AcDbEntity
  8
0
  6
CONTINUOUS
 62
               2
100
AcDbCircle
 10
0.0000000000000284
 20
-0.0000000000000497
 30
0.0
 40
7.1880000000000024
  0
LINE
  5
82
100
AcDbEntity
  8
0
  6
CONTINUOUS
 62
               7
100
AcDbLine
 10
-9.4999999999999716
 20
-5.4848275207405734
 30
0.0
 11
-9.4999999999999716
 21
5.4848274949811611
 31
0.0
  0
LINE
  5
83
100
AcDbEntity
  8
0
  6
CONTINUOUS
 62
               7
100
AcDbLine
 10
9.5000000000000213
 20
5.4848275757903409
 30
0.0
 11
9.5000000000000213
 21
-5.4848275763578656
 31
0.0
  0
CIRCLE
  5
84
100
AcDbEntity
  8
0
  6
CONTINUOUS
 62
               7
100
AcDbCircle
 10
0.0000000000000284
 20
-0.0000000000000568
 30
0.0
 40
2.3500000000000001
  0
CIRCLE
  5
85
100
AcDbEntity
  8
0
  6
CONTINUOUS
 62
               7
100
AcDbCircle
 10
0.0000000000000284
 20
-0.0000000000000568
 30
0.0
 40
2.1237851090878976
  0
LINE
  5
86
100
AcDbEntity
  8
0
  6
CONTINUOUS
 62
               2
100
AcDbLine
 10
-1.0606601717797943
 20
-1.0606601717798725
 30
0.0
 11
1.0606601717798512
 21
1.060660171779773
 31
0.0
  0
LINE
  5
87
100
AcDbEntity
  8
0
  6
CONTINUOUS
 62
               2
100
AcDbLine
 10
1.0606601717798512
 20
-1.0606601717798725
 30
0.0
 11
-1.0606601717797943
 21
1.060660171779773
 31
0.0
  0
LINE
  5
88
100
AcDbEntity
  8
0
  6
CONTINUOUS
 62
               7
100
AcDbLine
 10
0.000000073975599
 20
10.969655081345991
 30
0.0
 11
9.5000000739755919
 21
5.4848275330805336
 31
0.0
  0
LINE
  5
89
100
AcDbEntity
  8
0
  6
CONTINUOUS
 62
               7
100
AcDbLine
 10
-9.499999926024401
 20
-5.4848275634503807
 30
0.0
 11
0.0000000553027633
 21
-10.969655109971072
 31
0.0
  0
LINE
  5
8A
100
AcDbEntity
  8
0
  6
CONTINUOUS
 62
               7
100
AcDbLine
 10
-9.4999999856290458
 20
5.4848275032782112
 30
0.0
 11
0.0000001335802438
 21
10.969655140950636
 31
0.0
  0
LINE
  5
8B
100
AcDbEntity
  8
0
  6
CONTINUOUS
 62
               7
100
AcDbLine
 10
0.0000000143709542
 20
-10.969655111715838
 30
0.0
 11
9.5000000739755919
 21
-5.4848275336480583
 31
0.0
  0
LINE
  5
8C
100
AcDbEntity
  8
0
  6
CENTER
 62
               2
100
AcDbLine
 10
0.0000000000000284
 20
14.969655140950636
 30
0.0
 11
0.0000000000000284
 21
-14.969655109971072
 31
0.0
  0
LINE
  5
8D
100
AcDbEntity
  8
0
  6
CENTER
 62
               2
100
AcDbLine
 10
-13.499999999999972
 20
-0.0000000000000497
 30
0.0
 11
13.500000000000021
 21
-0.0000000000000497
 31
0.0
  0
ENDBLK
  5
8E
100
AcDbEntity
  8
0
100
AcDbBlockEnd
  0
BLOCK
  5
8F
100
AcDbEntity
  8
0
100
AcDbBlockBegin
  2
CS-KSHC11X15-3
 70
               0
 10
0.0
 20
0.0
 30
0.0
  3
CS-KSHC11X15-3
  1

  0
LINE
  5
90
100
AcDbEntity
  8
0
  6
CONTINUOUS
 62
               7
100
AcDbLine
 10
36.469886233339338
 20
-10.969655109971015
 30
0.0
 11
41.772874686623965
 21
-10.969655109971015
 31
0.0
  0
LINE
  5
91
100
AcDbEntity
  8
0
  6
CONTINUOUS
 62
               7
100
AcDbLine
 10
29.46988620870718
 20
-10.969655109971015
 30
0.0
 11
34.772874678307858
 21
-10.969655109971015
 31
0.0
  0
LINE
  5
92
100
AcDbEntity
  8
0
  6
CONTINUOUS
 62
               7
100
AcDbLine
 10
71.499999999999972
 20
7.0000000000000071
 30
0.0
 11
71.499999999999972
 21
-7.0
 31
0.0
  0
LINE
  5
93
100
AcDbEntity
  8
0
  6
CONTINUOUS
 62
               7
100
AcDbLine
 10
71.499999999999972
 20
7.0000000000000071
 30
0.0
 11
71.999999999999972
 21
6.5000000000000213
 31
0.0
  0
LINE
  5
94
100
AcDbEntity
  8
0
  6
CONTINUOUS
 62
               7
100
AcDbLine
 10
71.499999999999972
 20
-7.0
 30
0.0
 11
71.999999999999972
 21
-6.5000000000000853
 31
0.0
  0
LINE
  5
95
100
AcDbEntity
  8
0
  6
CONTINUOUS
 62
               7
100
AcDbLine
 10
71.999999999999972
 20
-6.5000000000000853
 30
0.0
 11
71.999999999999972
 21
6.5000000000000213
 31
0.0
  0
LINE
  5
96
100
AcDbEntity
  8
0
  6
CONTINUOUS
 62
               7
100
AcDbLine
 10
71.499999999999972
 20
7.0000000000000071
 30
0.0
 11
65.999999999999972
 21
7.0000000000000071
 31
0.0
  0
LINE
  5
97
100
AcDbEntity
  8
0
  6
CONTINUOUS
 62
               7
100
AcDbLine
 10
71.499999999999972
 20
-7.0
 30
0.0
 11
65.999999999999972
 21
-7.0
 31
0.0
  0
LINE
  5
98
100
AcDbEntity
  8
0
  6
CONTINUOUS
 62
               7
100
AcDbLine
 10
65.999999999999972
 20
-7.0
 30
0.0
 11
65.999999999999972
 21
7.0000000000000071
 31
0.0
  0
LINE
  5
99
100
AcDbEntity
  8
0
  6
CONTINUOUS
 62
               7
100
AcDbLine
 10
65.999999999999972
 20
7.0000000000000071
 30
0.0
 11
65.422649730810377
 21
8.0
 31
0.0
  0
LINE
  5
9A
100
AcDbEntity
  8
0
  6
CONTINUOUS
 62
               7
100
AcDbLine
 10
65.999999999999972
 20
-7.0
 30
0.0
 11
65.422649730810377
 21
-8.0
 31
0.0
  0
LINE
  5
9B
100
AcDbEntity
  8
0
  6
CONTINUOUS
 62
               7
100
AcDbLine
 10
65.422649730810377
 20
8.0
 30
0.0
 11
65.422649730810377
 21
3.8729833462073913
 31
0.0
  0
LINE
  5
9C
100
AcDbEntity
  8
0
  6
CONTINUOUS
 62
               7
100
AcDbLine
 10
65.422649730810377
 20
3.8729833462073913
 30
0.0
 11
60.999999999999972
 21
3.8729833462073913
 31
0.0
  0
LINE
  5
9D
100
AcDbEntity
  8
0
  6
CONTINUOUS
 62
               7
100
AcDbLine
 10
65.422649730810377
 20
-3.8729833462073913
 30
0.0
 11
60.999999999999972
 21
-3.8729833462073913
 31
0.0
  0
LINE
  5
9E
100
AcDbEntity
  8
0
  6
CONTINUOUS
 62
               7
100
AcDbLine
 10
60.999999999999972
 20
-3.8729833462073913
 30
0.0
 11
60.999999999999972
 21
3.8729833462073913
 31
0.0
  0
LINE
  5
9F
100
AcDbEntity
  8
0
  6
CONTINUOUS
 62
               7
100
AcDbLine
 10
65.422649730810377
 20
-3.8729833462073913
 30
0.0
 11
65.422649730810377
 21
-8.0
 31
0.0
  0
ARC
  5
A0
100
AcDbEntity
  8
0
  6
CONTINUOUS
 62
               7
100
AcDbCircle
 10
68.000000000000028
 20
0.0
 30
0.0
 40
8.0
100
AcDbArc
 50
151.04497562814035
 51
208.95502437185965
  0
ARC
  5
A1
100
AcDbEntity
  8
0
  6
CONTINUOUS
 62
               7
100
AcDbCircle
 10
52.720943808638708
 20
0.0000000000000071
 30
0.0
 40
13.279056191361283
100
AcDbArc
 50
343.04257370582764
 51
16.957426294172315
  0
LINE
  5
A2
100
AcDbEntity
  8
0
  6
CONTINUOUS
 62
               2
100
AcDbLine
 10
60.999999999999972
 20
3.8729833462073913
 30
0.0
 11
65.422649730810377
 21
-3.8729833462073913
 31
0.0
  0
LINE
  5
A3
100
AcDbEntity
  8
0
  6
CONTINUOUS
 62
               2
100
AcDbLine
 10
65.422649730810377
 20
3.8729833462073913
 30
0.0
 11
60.999999999999972
 21
-3.8729833462073913
 31
0.0
  0
LINE
  5
A4
100
AcDbEntity
  8
0
  6
CONTINUOUS
 62
               2
100
AcDbLine
 10
42.621380459981651
 20
-7.1880000000000024
 30
0.0
 11
65.891458149392321
 21
-7.1880000000000024
 31
0.0
  0
LINE
  5
A5
100
AcDbEntity
  8
0
  6
CONTINUOUS
 62
               7
100
AcDbLine
 10
42.621380459981651
 20
-8.0
 30
0.0
 11
65.422649730810377
 21
-8.0
 31
0.0
  0
LINE
  5
A6
100
AcDbEntity
  8
0
  6
CONTINUOUS
 62
               2
100
AcDbLine
 10
42.621380459981651
 20
7.1880000000000024
 30
0.0
 11
65.891458149392321
 21
7.1880000000000024
 31
0.0
  0
LINE
  5
A7
100
AcDbEntity
  8
0
  6
CONTINUOUS
 62
               7
100
AcDbLine
 10
42.621380459981651
 20
8.0
 30
0.0
 11
65.422649730810377
 21
8.0
 31
0.0
  0
LINE
  5
A8
100
AcDbEntity
  8
0
  6
CONTINUOUS
 62
               7
100
AcDbLine
 10
28.621380459981651
 20
9.5000000000000071
 30
0.0
 11
29.469886251225432
 21
10.969655140950692
 31
0.0
  0
LINE
  5
A9
100
AcDbEntity
  8
0
  6
CONTINUOUS
 62
               7
100
AcDbLine
 10
35.621380459981651
 20
9.5000000000000071
 30
0.0
 11
36.469886251225432
 21
10.969655140950692
 31
0.0
  0
LINE
  5
AA
100
AcDbEntity
  8
0
  6
CONTINUOUS
 62
               7
100
AcDbLine
 10
35.621380459981651
 20
9.5000000000000071
 30
0.0
 11
34.772874668737842
 21
10.969655140950692
 31
0.0
  0
LINE
  5
AB
100
AcDbEntity
  8
0
  6
CONTINUOUS
 62
               7
100
AcDbLine
 10
42.62138045998168
 20
9.5
 30
0.0
 11
41.77287466873787
 21
10.969655140950692
 31
0.0
  0
LINE
  5
AC
100
AcDbEntity
  8
0
  6
CONTINUOUS
 62
               7
100
AcDbLine
 10
28.621380459981651
 20
-9.5
 30
0.0
 11
28.621380459981651
 21
9.5000000000000071
 31
0.0
  0
LINE
  5
AD
100
AcDbEntity
  8
0
  6
CONTINUOUS
 62
               7
100
AcDbLine
 10
35.621380459981651
 20
-9.5
 30
0.0
 11
35.621380459981651
 21
9.5000000000000071
 31
0.0
  0
LINE
  5
AE
100
AcDbEntity
  8
0
  6
CONTINUOUS
 62
               7
100
AcDbLine
 10
42.62138045998168
 20
-9.5
 30
0.0
 11
42.62138045998168
 21
9.5
 31
0.0
  0
LINE
  5
AF
100
AcDbEntity
  8
0
  6
CONTINUOUS
 62
               7
100
AcDbLine
 10
36.469886251225461
 20
10.969655140950692
 30
0.0
 11
41.772874668737842
 21
10.969655140950692
 31
0.0
  0
LINE
  5
B0
100
AcDbEntity
  8
0
  6
CONTINUOUS
 62
               7
100
AcDbLine
 10
29.469886268311825
 20
10.969655140950692
 30
0.0
 11
34.772874678307858
 21
10.969655140950692
 31
0.0
  0
LINE
  5
B1
100
AcDbEntity
  8
0
  6
CONTINUOUS
 62
               7
100
AcDbLine
 10
29.458538350306611
 20
5.4651724426985737
 30
0.0
 11
34.784222569656691
 21
5.4651724426985737
 31
0.0
  0
ARC
  5
B2
100
AcDbEntity
  8
0
  6
CONTINUOUS
 62
               7
100
AcDbCircle
 10
33.531844042589285
 20
8.2075862213492883
 30
0.0
 40
4.9104635826076235
100
AcDbArc
 50
153.95099893585979
 51
213.95099893585945
  0
LINE
  5
B3
100
AcDbEntity
  8
0
  6
CONTINUOUS
 62
               7
100
AcDbLine
 10
29.458538350306611
 20
-5.4651724426985595
 30
0.0
 11
34.78422256965672
 21
-5.4651724426985595
 31
0.0
  0
ARC
  5
B4
100
AcDbEntity
  8
0
  6
CONTINUOUS
 62
               7
100
AcDbCircle
 10
46.878953801313372
 20
0.0000000000000071
 30
0.0
 40
18.257573341331721
100
AcDbArc
 50
162.58219669097579
 51
180.0
  0
ARC
  5
B5
100
AcDbEntity
  8
0
  6
CONTINUOUS
 62
               7
100
AcDbCircle
 10
46.878953801313372
 20
0.0000000000000071
 30
0.0
 40
18.257573341331721
100
AcDbArc
 50
180.0
 51
197.41780330902418
  0
ARC
  5
B6
100
AcDbEntity
  8
0
  6
CONTINUOUS
 62
               7
100
AcDbCircle
 10
30.710916877374046
 20
8.2075862213492883
 30
0.0
 40
4.9104635826076235
100
AcDbArc
 50
326.04900106414055
 51
26.049001064140189
  0
ARC
  5
B7
100
AcDbEntity
  8
0
  6
CONTINUOUS
 62
               7
100
AcDbCircle
 10
17.363807118649959
 20
0.0000000000000071
 30
0.0
 40
18.257573341331721
100
AcDbArc
 50
0.0
 51
17.417803309024183
  0
ARC
  5
B8
100
AcDbEntity
  8
0
  6
CONTINUOUS
 62
               7
100
AcDbCircle
 10
17.363807118649959
 20
0.0000000000000071
 30
0.0
 40
18.257573341331721
100
AcDbArc
 50
342.58219669097582
 51
0.0
  0
ARC
  5
B9
100
AcDbEntity
  8
0
  6
CONTINUOUS
 62
               7
100
AcDbCircle
 10
53.878953801313372
 20
0.0000000000000071
 30
0.0
 40
18.257573341331721
100
AcDbArc
 50
180.0
 51
197.41780330902418
  0
ARC
  5
BA
100
AcDbEntity
  8
0
  6
CONTINUOUS
 62
               7
100
AcDbCircle
 10
53.878953801313372
 20
0.0000000000000071
 30
0.0
 40
18.257573341331721
100
AcDbArc
 50
162.58219669097579
 51
180.0
  0
ARC
  5
BB
100
AcDbEntity
  8
0
  6
CONTINUOUS
 62
               7
100
AcDbCircle
 10
40.531844042589285
 20
8.2075862213492883
 30
0.0
 40
4.9104635826076235
100
AcDbArc
 50
153.95099893585979
 51
213.95099893585945
  0
ARC
  5
BC
100
AcDbEntity
  8
0
  6
CONTINUOUS
 62
               7
100
AcDbCircle
 10
24.363807118649959
 20
0.0000000000000071
 30
0.0
 40
18.257573341331721
100
AcDbArc
 50
342.58219669097582
 51
0.0
  0
ARC
  5
BD
100
AcDbEntity
  8
0
  6
CONTINUOUS
 62
               7
100
AcDbCircle
 10
24.363807118649959
 20
0.0000000000000071
 30
0.0
 40
18.257573341331721
100
AcDbArc
 50
0.0
 51
17.417803309024183
  0
LINE
  5
BE
100
AcDbEntity
  8
0
  6
CONTINUOUS
 62
               7
100
AcDbLine
 10
41.784222569656691
 20
-5.4651724426985595
 30
0.0
 11
36.458538350306611
 21
-5.4651724426985595
 31
0.0
  0
ARC
  5
BF
100
AcDbEntity
  8
0
  6
CONTINUOUS
 62
               7
100
AcDbCircle
 10
37.710916877374046
 20
8.2075862213492883
 30
0.0
 40
4.9104635826076235
100
AcDbArc
 50
326.04900106414055
 51
26.049001064140189
  0
LINE
  5
C0
100
AcDbEntity
  8
0
  6
CONTINUOUS
 62
               7
100
AcDbLine
 10
41.784222569656691
 20
5.4651724426985737
 30
0.0
 11
36.458538350306611
 21
5.4651724426985737
 31
0.0
  0
LINE
  5
C1
100
AcDbEntity
  8
0
  6
CONTINUOUS
 62
               2
100
AcDbLine
 10
3.2240119044455753
 20
-7.1880000000000024
 30
0.0
 11
28.62138045998168
 21
-7.1880000000000024
 31
0.0
  0
LINE
  5
C2
100
AcDbEntity
  8
0
  6
CONTINUOUS
 62
               2
100
AcDbLine
 10
3.2240119044455753
 20
7.1880000000000024
 30
0.0
 11
28.62138045998168
 21
7.1880000000000024
 31
0.0
  0
LINE
  5
C3
100
AcDbEntity
  8
0
  6
CONTINUOUS
 62
               7
100
AcDbLine
 10
3.6928203230275471
 20
-8.0
 30
0.0
 11
28.62138045998168
 21
-8.0
 31
0.0
  0
LINE
  5
C4
100
AcDbEntity
  8
0
  6
CONTINUOUS
 62
               7
100
AcDbLine
 10
3.6928203230275471
 20
8.0
 30
0.0
 11
28.62138045998168
 21
8.0
 31
0.0
  0
LINE
  5
C5
100
AcDbEntity
  8
0
  6
CONTINUOUS
 62
               7
100
AcDbLine
 10
3.6928203230275471
 20
8.0
 30
0.0
 11
3.6928203230275471
 21
-8.0
 31
0.0
  0
LINE
  5
C6
100
AcDbEntity
  8
0
  6
CONTINUOUS
 62
               7
100
AcDbLine
 10
3.0
 20
-6.7999999999999972
 30
0.0
 11
3.6928203230275471
 21
-8.0
 31
0.0
  0
LINE
  5
C7
100
AcDbEntity
  8
0
  6
CONTINUOUS
 62
               7
100
AcDbLine
 10
3.0
 20
6.7999999999999972
 30
0.0
 11
3.6928203230275471
 21
8.0
 31
0.0
  0
LINE
  5
C8
100
AcDbEntity
  8
0
  6
CONTINUOUS
 62
               7
100
AcDbLine
 10
-21.454356057317852
 20
-5.5
 30
0.0
 11
-15.0
 21
-5.5
 31
0.0
  0
ARC
  5
C9
100
AcDbEntity
  8
0
  6
CONTINUOUS
 62
               7
100
AcDbCircle
 10
-21.454356057317852
 20
-2.5
 30
0.0
 40
3.0
100
AcDbArc
 50
204.62431835216407
 51
270.0
  0
ARC
  5
CA
100
AcDbEntity
  8
0
  6
CONTINUOUS
 62
               7
100
AcDbCircle
 10
-16.0
 20
0.0
 30
0.0
 40
9.0
100
AcDbArc
 50
155.3756816478359
 51
204.62431835216407
  0
LINE
  5
CB
100
AcDbEntity
  8
0
  6
CONTINUOUS
 62
               7
100
AcDbLine
 10
-21.454356057317852
 20
5.5
 30
0.0
 11
-15.0
 21
5.5
 31
0.0
  0
LINE
  5
CC
100
AcDbEntity
  8
0
  6
CONTINUOUS
 62
               7
100
AcDbLine
 10
-15.0
 20
-5.5
 30
0.0
 11
-15.0
 21
5.5
 31
0.0
  0
ARC
  5
CD
100
AcDbEntity
  8
0
  6
CONTINUOUS
 62
               7
100
AcDbCircle
 10
-21.454356057317852
 20
2.5
 30
0.0
 40
3.0
100
AcDbArc
 50
90.0
 51
155.3756816478359
  0
LINE
  5
CE
100
AcDbEntity
  8
0
  6
CONTINUOUS
 62
               7
100
AcDbLine
 10
0.3000000000000114
 20
-6.7999999999999972
 30
0.0
 11
3.0
 21
-6.7999999999999972
 31
0.0
  0
LINE
  5
CF
100
AcDbEntity
  8
0
  6
CONTINUOUS
 62
               7
100
AcDbLine
 10
0.0
 20
-6.5
 30
0.0
 11
0.3000000000000114
 21
-6.7999999999999972
 31
0.0
  0
LINE
  5
D0
100
AcDbEntity
  8
0
  6
CONTINUOUS
 62
               7
100
AcDbLine
 10
0.0
 20
6.5
 30
0.0
 11
0.3000000000000114
 21
6.7999999999999972
 31
0.0
  0
LINE
  5
D1
100
AcDbEntity
  8
0
  6
CONTINUOUS
 62
               7
100
AcDbLine
 10
0.3000000000000114
 20
6.7999999999999972
 30
0.0
 11
3.0
 21
6.7999999999999972
 31
0.0
  0
LINE
  5
D2
100
AcDbEntity
  8
0
  6
CONTINUOUS
 62
               7
100
AcDbLine
 10
1.0
 20
6.7999999999999972
 30
0.0
 11
1.0
 21
-6.7999999999999972
 31
0.0
  0
LINE
  5
D3
100
AcDbEntity
  8
0
  6
CONTINUOUS
 62
               7
100
AcDbLine
 10
0.0
 20
-6.5
 30
0.0
 11
0.0
 21
6.5
 31
0.0
  0
LINE
  5
D4
100
AcDbEntity
  8
0
  6
CONTINUOUS
 62
               7
100
AcDbLine
 10
3.0
 20
6.7999999999999972
 30
0.0
 11
3.0
 21
-6.7999999999999972
 31
0.0
  0
LINE
  5
D5
100
AcDbEntity
  8
0
  6
CONTINUOUS
 62
               7
100
AcDbLine
 10
0.3000000000000114
 20
6.7999999999999972
 30
0.0
 11
0.3000000000000114
 21
-6.7999999999999972
 31
0.0
  0
LINE
  5
D6
100
AcDbEntity
  8
0
  6
CONTINUOUS
 62
               7
100
AcDbLine
 10
-15.0
 20
-2.0
 30
0.0
 11
0.0
 21
-2.0
 31
0.0
  0
LINE
  5
D7
100
AcDbEntity
  8
0
  6
CONTINUOUS
 62
               7
100
AcDbLine
 10
-15.0
 20
2.0
 30
0.0
 11
0.0
 21
2.0
 31
0.0
  0
LINE
  5
D8
100
AcDbEntity
  8
0
  6
CENTER
 62
               2
100
AcDbLine
 10
-29.0
 20
0.0
 30
0.0
 11
75.999999999999972
 21
0.0
 31
0.0
  0
ARC
  5
D9
100
AcDbEntity
  8
0
  6
CONTINUOUS
 62
               7
100
AcDbCircle
 10
37.710916877374046
 20
-8.2075862213492741
 30
0.0
 40
4.9104635826076235
100
AcDbArc
 50
333.95099893586035
 51
33.950998935859438
  0
ARC
  5
DA
100
AcDbEntity
  8
0
  6
CONTINUOUS
 62
               7
100
AcDbCircle
 10
40.531844042589285
 20
-8.2075862213492741
 30
0.0
 40
4.9104635826076235
100
AcDbArc
 50
146.04900106414055
 51
206.04900106413965
  0
ARC
  5
DB
100
AcDbEntity
  8
0
  6
CONTINUOUS
 62
               7
100
AcDbCircle
 10
30.710916877374046
 20
-8.2075862213492741
 30
0.0
 40
4.9104635826076235
100
AcDbArc
 50
333.95099893586035
 51
33.950998935859438
  0
ARC
  5
DC
100
AcDbEntity
  8
0
  6
CONTINUOUS
 62
               7
100
AcDbCircle
 10
33.531844042589285
 20
-8.2075862213492741
 30
0.0
 40
4.9104635826076235
100
AcDbArc
 50
146.04900106414055
 51
206.04900106413965
  0
LINE
  5
DD
100
AcDbEntity
  8
0
  6
CONTINUOUS
 62
               7
100
AcDbLine
 10
35.621380459981651
 20
-9.5
 30
0.0
 11
34.772874686623965
 21
-10.969655109971015
 31
0.0
  0
LINE
  5
DE
100
AcDbEntity
  8
0
  6
CONTINUOUS
 62
               7
100
AcDbLine
 10
42.62138045998168
 20
-9.5
 30
0.0
 11
41.772874686623993
 21
-10.969655109971015
 31
0.0
  0
LINE
  5
DF
100
AcDbEntity
  8
0
  6
CONTINUOUS
 62
               7
100
AcDbLine
 10
35.621380459981651
 20
-9.5
 30
0.0
 11
36.469886233339309
 21
-10.969655109971015
 31
0.0
  0
LINE
  5
E0
100
AcDbEntity
  8
0
  6
CONTINUOUS
 62
               7
100
AcDbLine
 10
28.621380459981651
 20
-9.5
 30
0.0
 11
29.469886233339309
 21
-10.969655109971015
 31
0.0
  0
ENDBLK
  5
E1
100
AcDbEntity
  8
0
100
AcDbBlockEnd
  0
BLOCK
  5
E2
100
AcDbEntity
  8
0
100
AcDbBlockBegin
  2
CS-KSHC11X15-4
 70
               0
 10
0.0
 20
0.0
 30
0.0
  3
CS-KSHC11X15-4
  1

  0
LINE
  5
E3
100
AcDbEntity
  8
0
  6
CONTINUOUS
 62
               7
100
AcDbLine
 10
0.8485057912438023
 20
10.969655153830345
 30
0.0
 11
29.151494208756219
 21
10.969655153830345
 31
0.0
  0
LINE
  5
E4
100
AcDbEntity
  8
0
  6
CONTINUOUS
 62
               7
100
AcDbLine
 10
0.8485057733576866
 20
-10.969655097091362
 30
0.0
 11
29.151494226642328
 21
-10.969655097091362
 31
0.0
  0
LINE
  5
E5
100
AcDbEntity
  8
0
  6
CONTINUOUS
 62
               7
100
AcDbLine
 10
0.8485057912438023
 20
5.4848275078608637
 30
0.0
 11
29.151494208756219
 21
5.4848275078608637
 31
0.0
  0
LINE
  5
E6
100
AcDbEntity
  8
0
  6
CONTINUOUS
 62
               7
100
AcDbLine
 10
0.8485057912438023
 20
-5.4848275078608637
 30
0.0
 11
29.151494208756219
 21
-5.4848275078608637
 31
0.0
  0
LINE
  5
E7
100
AcDbEntity
  8
0
  6
CONTINUOUS
 62
               7
100
AcDbLine
 10
30.0
 20
-9.49999998712034
 30
0.0
 11
30.0
 21
9.50000001287966
 31
0.0
  0
LINE
  5
E8
100
AcDbEntity
  8
0
  6
CONTINUOUS
 62
               7
100
AcDbLine
 10
0.0
 20
-9.49999998712034
 30
0.0
 11
0.0
 21
9.50000001287966
 31
0.0
  0
LINE
  5
E9
100
AcDbEntity
  8
0
  6
CONTINUOUS
 62
               7
100
AcDbLine
 10
30.0
 20
9.50000001287966
 30
0.0
 11
29.151494208756219
 21
10.969655153830345
 31
0.0
  0
LINE
  5
EA
100
AcDbEntity
  8
0
  6
CONTINUOUS
 62
               7
100
AcDbLine
 10
-0.0000000119227792
 20
9.4999999922288012
 30
0.0
 11
0.8485057912438023
 21
10.969655153830345
 31
0.0
  0
LINE
  5
EB
100
AcDbEntity
  8
0
  6
CONTINUOUS
 62
               7
100
AcDbLine
 10
30.0
 20
-9.49999998712034
 30
0.0
 11
29.151494208756219
 21
-10.969655128071025
 31
0.0
  0
LINE
  5
EC
100
AcDbEntity
  8
0
  6
CONTINUOUS
 62
               7
100
AcDbLine
 10
-0.0000000119227792
 20
-9.4999999664694812
 30
0.0
 11
0.8485057912438023
 21
-10.969655128071025
 31
0.0
  0
ARC
  5
ED
100
AcDbEntity
  8
0
  6
CONTINUOUS
 62
               7
100
AcDbCircle
 10
25.193087383523491
 20
8.2119916592078255
 30
0.0
 40
4.8069126164765059
100
AcDbArc
 50
325.43490684358818
 51
29.999999999999577
  0
ARC
  5
EE
100
AcDbEntity
  8
0
  6
CONTINUOUS
 62
               7
100
AcDbCircle
 10
11.848506405826342
 20
0.0000000000000071
 30
0.0
 40
18.151493594173662
100
AcDbArc
 50
342.41204575955976
 51
17.587954240440229
  0
ARC
  5
EF
100
AcDbEntity
  8
0
  6
CONTINUOUS
 62
               7
100
AcDbCircle
 10
25.193087428006649
 20
-8.211991645367732
 30
0.0
 40
4.8069125719933448
100
AcDbArc
 50
330.0000000000004
 51
34.565093321378235
  0
ARC
  5
F0
100
AcDbEntity
  8
0
  6
CONTINUOUS
 62
               7
100
AcDbCircle
 10
4.8069126164763887
 20
8.2119916592078255
 30
0.0
 40
4.8069126164763922
100
AcDbArc
 50
149.99999999999974
 51
214.56509315641281
  0
ARC
  5
F1
100
AcDbEntity
  8
0
  6
CONTINUOUS
 62
               7
100
AcDbCircle
 10
18.151493594173203
 20
0.0
 30
0.0
 40
18.151493594173203
100
AcDbArc
 50
162.41204575955933
 51
197.58795424044067
  0
ARC
  5
F2
100
AcDbEntity
  8
0
  6
CONTINUOUS
 62
               7
100
AcDbCircle
 10
4.7495867996022483
 20
-8.2096147175299095
 30
0.0
 40
4.7584554607299845
100
AcDbArc
 50
145.06686433574845
 51
210.00000000000023
  0
LINE
  5
F3
100
AcDbEntity
  8
0
  6
CENTER
 62
               2
100
AcDbLine
 10
-4.0
 20
0.00000001287966
 30
0.0
 11
34.0
 21
0.00000001287966
 31
0.0
  0
ENDBLK
  5
F4
100
AcDbEntity
  8
0
100
AcDbBlockEnd
  0
BLOCK
  5
F5
100
AcDbEntity
  8
0
100
AcDbBlockBegin
  2
CS-KSHC11X15-5
 70
               0
 10
0.0
 20
0.0
 30
0.0
  3
CS-KSHC11X15-5
  1

  0
CIRCLE
  5
F6
100
AcDbEntity
  8
0
  6
CONTINUOUS
 62
               2
100
AcDbCircle
 10
-0.0000000074360713
 20
0.0
 30
0.0
 40
8.0
  0
LINE
  5
F7
100
AcDbEntity
  8
0
  6
CONTINUOUS
 62
               7
100
AcDbLine
 10
-9.4999999930651455
 20
5.484827503278261
 30
0.0
 11
0.000000126144144
 21
10.969655140950685
 31
0.0
  0
CIRCLE
  5
F8
100
AcDbEntity
  8
0
  6
CONTINUOUS
 62
               7
100
AcDbCircle
 10
-0.0000000074360713
 20
0.0
 30
0.0
 40
9.5
  0
LINE
  5
F9
100
AcDbEntity
  8
0
  6
CONTINUOUS
 62
               7
100
AcDbLine
 10
-9.5000000074360713
 20
-5.4848275207405237
 30
0.0
 11
-9.5000000074360713
 21
5.4848274949812108
 31
0.0
  0
LINE
  5
FA
100
AcDbEntity
  8
0
  6
CONTINUOUS
 62
               7
100
AcDbLine
 10
0.0000000665394992
 20
10.969655081346041
 30
0.0
 11
9.5000000665394992
 21
5.4848275330805834
 31
0.0
  0
CIRCLE
  5
FB
100
AcDbEntity
  8
0
  6
CONTINUOUS
 62
               7
100
AcDbCircle
 10
-0.0000000074360713
 20
0.0
 30
0.0
 40
7.1880000000000024
  0
LINE
  5
FC
100
AcDbEntity
  8
0
  6
CONTINUOUS
 62
               7
100
AcDbLine
 10
9.4999999925639287
 20
5.4848275757903906
 30
0.0
 11
9.4999999925639287
 21
-5.4848275763578158
 31
0.0
  0
LINE
  5
FD
100
AcDbEntity
  8
0
  6
CENTER
 62
               2
100
AcDbLine
 10
-0.0000000074360713
 20
14.969655140950685
 30
0.0
 11
-0.0000000074360713
 21
-14.969655109971015
 31
0.0
  0
LINE
  5
FE
100
AcDbEntity
  8
0
  6
CENTER
 62
               2
100
AcDbLine
 10
-13.500000007436071
 20
0.0
 30
0.0
 11
13.499999992563929
 21
0.0
 31
0.0
  0
LINE
  5
FF
100
AcDbEntity
  8
0
  6
CONTINUOUS
 62
               7
100
AcDbLine
 10
0.0000000069348545
 20
-10.969655111715788
 30
0.0
 11
9.5000000665394992
 21
-5.4848275336480086
 31
0.0
  0
LINE
  5
100
100
AcDbEntity
  8
0
  6
CONTINUOUS
 62
               7
100
AcDbLine
 10
-9.4999999334605008
 20
-5.484827563450331
 30
0.0
 11
0.0000000478666635
 21
-10.969655109971022
 31
0.0
  0
ENDBLK
  5
101
100
AcDbEntity
  8
0
100
AcDbBlockEnd
  0
BLOCK
  5
24
100
AcDbEntity
  8
0
  6
ByBlock
 62
               0
100
AcDbBlockBegin
  2
_OPEN30
 70
               2
 10
0.0
 20
0.0
 30
0.0
  3
_OPEN30
  1

  0
LINE
  5
25
100
AcDbEntity
  8
0
  6
ByBlock
 62
               0
100
AcDbLine
 10
-1.0
 20
0.267949
 30
0.0
 11
0.0
 21
0.0
 31
0.0
  0
LINE
  5
26
100
AcDbEntity
  8
0
  6
ByBlock
 62
               0
100
AcDbLine
 10
0.0
 20
0.0
 30
0.0
 11
-1.0
 21
-0.267949
 31
0.0
  0
LINE
  5
27
100
AcDbEntity
  8
0
  6
ByBlock
 62
               0
100
AcDbLine
 10
0.0
 20
0.0
 30
0.0
 11
-1.0
 21
0.0
 31
0.0
  0
ENDBLK
  5
28
100
AcDbEntity
  8
0
  6
ByBlock
 62
               0
100
AcDbBlockEnd
  0
ENDSEC
  0
SECTION
  2
ENTITIES
  0
INSERT
  5
102
100
AcDbEntity
  8
0
  6
ByBlock
100
AcDbBlockReference
  2
CS-KSHC11X15-5
 10
110.00000000743607
 20
-50.0
 30
0.0
  0
INSERT
  5
103
100
AcDbEntity
  8
0
  6
ByBlock
100
AcDbBlockReference
  2
CS-KSHC11X15-4
 10
45.0
 20
-50.0
 30
0.0
  0
INSERT
  5
104
100
AcDbEntity
  8
0
  6
ByBlock
100
AcDbBlockReference
  2
CS-KSHC11X15-3
 10
-80.0
 20
-50.0
 30
0.0
  0
INSERT
  5
105
100
AcDbEntity
  8
0
  6
ByBlock
100
AcDbBlockReference
  2
CS-KSHC11X15-2
 10
60.248167257937673
 20
40.000000000000043
 30
0.0
  0
INSERT
  5
106
100
AcDbEntity
  8
0
  6
ByBlock
100
AcDbBlockReference
  2
CS-KSHC11X15-1
 10
-70.000000000000028
 20
40.00000000000005
 30
0.0
  0
MTEXT
  5
107
100
AcDbEntity
  8
0
  6
CONTINUOUS
 62
               7
100
AcDbMText
 10
26.631011674439947
 20
-10.150001525878906
 30
0.0
 40
3.2000000476837158
 41
0.0
 71
               4
 72
               1
  1
\W1.089;\A1;STOPER NUT:-S
  0
LINE
  5
109
100
AcDbEntity
  8
0
  6
DASHED
 62
               2
100
AcDbLine
 10
20.0
 20
-94.650001525878906
 30
0.0
 11
20.0
 21
0.0
 31
0.0
  0
MTEXT
  5
10A
100
AcDbEntity
  8
0
  6
CONTINUOUS
 62
               7
100
AcDbMText
 10
-124.51817460808873
 20
88.599999904632568
 30
0.0
 40
3.1999998092651367
 41
0.0
 71
               1
 72
               1
  1
\W1.091;\A1;CS-KSHC11X15
  0
MTEXT
  5
10B
100
AcDbEntity
  8
0
  6
CONTINUOUS
 62
               7
100
AcDbMText
 10
-110.22856648722474
 20
-15.150001525878906
 30
0.0
 40
3.2000000476837158
 41
0.0
 71
               4
 72
               1
  1
\W1.071;\A1;CS-KSHC11*15C-P
  0
MTEXT
  5
10C
100
AcDbEntity
  8
0
  6
CONTINUOUS
 62
               7
100
AcDbMText
 10
-129.42068356894993
 20
-10.150001525878906
 30
0.0
 40
3.2000000476837158
 41
0.0
 71
               4
 72
               1
  1
\W1.086;\A1;MODEL:CS-KSHC11*15C-M
  0
LINE
  5
10D
100
AcDbEntity
  8
0
  6
CONTINUOUS
 62
               7
100
AcDbLine
 10
-138.39999389648437
 20
-0.1500015258789063
 30
0.0
 11
138.35000610351562
 21
-0.1500015258789063
 31
0.0
  0
MTEXT
  5
10E
100
AcDbEntity
  8
0
  6
CONTINUOUS
 62
               7
100
AcDbMText
 10
-110.22563608445124
 20
69.5
 30
0.0
 40
3.2000000476837158
 41
0.0
 71
               4
 72
               1
  1
\W1.077;\A1;CS-KSHC11*15-P
  0
LINE
  5
10F
100
AcDbEntity
  8
0
  6
CONTINUOUS
 62
               7
100
AcDbLine
 10
-138.39999389648437
 20
94.5
 30
0.0
 11
138.35000610351562
 21
94.5
 31
0.0
  0
LINE
  5
110
100
AcDbEntity
  8
0
  6
CONTINUOUS
 62
               7
100
AcDbLine
 10
138.35000610351562
 20
94.5
 30
0.0
 11
138.35000610351562
 21
-94.800003051757812
 31
0.0
  0
LINE
  5
111
100
AcDbEntity
  8
0
  6
CONTINUOUS
 62
               7
100
AcDbLine
 10
-138.39999389648437
 20
-94.800003051757812
 30
0.0
 11
138.35000610351562
 21
-94.800003051757812
 31
0.0
  0
LINE
  5
112
100
AcDbEntity
  8
0
  6
CONTINUOUS
 62
               7
100
AcDbLine
 10
-138.39999389648437
 20
94.5
 30
0.0
 11
-138.39999389648437
 21
-94.800003051757812
 31
0.0
  0
LINE
  5
113
100
AcDbEntity
  8
0
  6
CONTINUOUS
 62
               7
100
AcDbLine
 10
73.350006103515625
 20
-84.800003051757813
 30
0.0
 11
138.35000610351562
 21
-84.800003051757813
 31
0.0
  0
LINE
  5
114
100
AcDbEntity
  8
0
  6
CONTINUOUS
 62
               7
100
AcDbLine
 10
-138.39999389648437
 20
84.5
 30
0.0
 11
-73.399993896484375
 21
84.5
 31
0.0
  0
LINE
  5
115
100
AcDbEntity
  8
0
  6
CONTINUOUS
 62
               7
100
AcDbLine
 10
73.350006103515625
 20
84.5
 30
0.0
 11
138.35000610351562
 21
84.5
 31
0.0
  0
LINE
  5
116
100
AcDbEntity
  8
0
  6
CONTINUOUS
 62
               7
100
AcDbLine
 10
73.350006103515625
 20
-84.800003051757813
 30
0.0
 11
73.350006103515625
 21
-94.800003051757812
 31
0.0
  0
LINE
  5
117
100
AcDbEntity
  8
0
  6
CONTINUOUS
 62
               7
100
AcDbLine
 10
73.350006103515625
 20
94.5
 30
0.0
 11
73.350006103515625
 21
84.5
 31
0.0
  0
LINE
  5
118
100
AcDbEntity
  8
0
  6
CONTINUOUS
 62
               7
100
AcDbLine
 10
-73.399993896484375
 20
94.5
 30
0.0
 11
-73.399993896484375
 21
84.5
 31
0.0
  0
MTEXT
  5
119
100
AcDbEntity
  8
0
  6
CONTINUOUS
 62
               7
100
AcDbMText
 10
77.440523342735503
 20
-89.800003051757812
 30
0.0
 40
4.5
 41
0.0
 71
               4
 72
               1
  1
\W1.121;\A1;KOGANEI CORP.
  0
MTEXT
  5
11A
100
AcDbEntity
  8
0
  6
CONTINUOUS
 62
               7
100
AcDbMText
 10
93.749460369842424
 20
89.5
 30
0.0
 40
3.1999998092651367
 41
0.0
 71
               4
 72
               1
  1
\W1.311;\A1;Ver. 1.0
  0
MTEXT
  5
11B
100
AcDbEntity
  8
0
  6
CONTINUOUS
 62
               7
100
AcDbMText
 10
-127.75097298622131
 20
93.599999904632568
 30
0.0
 40
3.1999998092651367
 41
0.0
 71
               1
 72
               1
  1
\W1.029;\A1;SHOCK ABSORBER
  0
MTEXT
  5
11C
100
AcDbEntity
  8
0
  6
CONTINUOUS
 62
               7
100
AcDbMText
 10
-129.41817573204514
 20
74.5
 30
0.0
 40
3.2000000476837158
 41
0.0
 71
               4
 72
               1
  1
\W1.091;\A1;MODEL:CS-KSHC11*15-M
  0
ENDSEC
  0
SECTION
  2
OBJECTS
  0
DICTIONARY
  5
19
100
AcDbDictionary
  3
ACAD_GROUP
350
1A
  3
ACAD_MLINESTYLE
350
1B
  0
DICTIONARY
  5
1A
102
{ACAD_REACTORS
330
19
102
}
100
AcDbDictionary
  0
DICTIONARY
  5
1B
102
{ACAD_REACTORS
330
19
102
}
100
AcDbDictionary
  3
STANDARD
350
1C
  0
MLINESTYLE
  5
1C
102
{ACAD_REACTORS
330
1B
102
}
100
AcDbMlineStyle
  2
Standard
 70
               0
  3

 62
               0
 51
90.0
 52
90.0
 71
               2
 49
0.5
 62
             256
  6
ByLayer
 49
-0.5
 62
             256
  6
ByLayer
  0
ENDSEC
  0
EOF
