  0
SECTION
  2
HEADER
  9
$ACADVER
  1
AC1012
  9
$DWGCODEPAGE
  3
dos932
  9
$INSBASE
 10
0.0
 20
0.0
 30
0.0
  9
$EXTMIN
 10
-138.39999389648437
 20
-94.800003051757812
 30
0.0
  9
$EXTMAX
 10
138.35000610351562
 20
94.5
 30
0.0
  9
$LIMMIN
 10
-138.39999389648437
 20
-94.800003051757812
  9
$LIMMAX
 10
138.35000610351562
 20
94.5
  9
$ORTHOMODE
 70
               0
  9
$REGENMODE
 70
               1
  9
$FILLMODE
 70
               1
  9
$QTEXTMODE
 70
               0
  9
$MIRRTEXT
 70
               1
  9
$DRAGMODE
 70
               2
  9
$LTSCALE
 40
1.0
  9
$OSMODE
 70
               0
  9
$ATTMODE
 70
               1
  9
$TEXTSIZE
 40
3.2000000476837158
  9
$TRACEWID
 40
0.05
  9
$TEXTSTYLE
  7
MX_NOTE_STANDARD
  9
$CLAYER
  8
0
  9
$CELTYPE
  6
CONTINUOUS
  9
$CECOLOR
 62
             256
  9
$CELTSCALE
 40
1.0
  9
$DELOBJ
 70
               1
  9
$DISPSILH
 70
               0
  9
$DIMSCALE
 40
1.0
  9
$DIMASZ
 40
2.5
  9
$DIMEXO
 40
1.5
  9
$DIMDLI
 40
3.75
  9
$DIMRND
 40
0.0
  9
$DIMDLE
 40
0.0
  9
$DIMEXE
 40
1.5
  9
$DIMTP
 40
0.0
  9
$DIMTM
 40
0.0
  9
$DIMTXT
 40
3.2000000476837158
  9
$DIMCEN
 40
2.5
  9
$DIMTSZ
 40
0.0
  9
$DIMTOL
 70
               0
  9
$DIMLIM
 70
               0
  9
$DIMTIH
 70
               0
  9
$DIMTOH
 70
               0
  9
$DIMSE1
 70
               0
  9
$DIMSE2
 70
               0
  9
$DIMTAD
 70
               1
  9
$DIMZIN
 70
               8
  9
$DIMBLK
  1

  9
$DIMASO
 70
               1
  9
$DIMSHO
 70
               1
  9
$DIMPOST
  1

  9
$DIMAPOST
  1

  9
$DIMALT
 70
               0
  9
$DIMALTD
 70
               4
  9
$DIMALTF
 40
0.0394
  9
$DIMLFAC
 40
1.0
  9
$DIMTOFL
 70
               1
  9
$DIMTVP
 40
0.0
  9
$DIMTIX
 70
               0
  9
$DIMSOXD
 70
               0
  9
$DIMSAH
 70
               0
  9
$DIMBLK1
  1

  9
$DIMBLK2
  1

  9
$DIMSTYLE
  2
MXDIMSTYLE
  9
$DIMCLRD
 70
               0
  9
$DIMCLRE
 70
               0
  9
$DIMCLRT
 70
               0
  9
$DIMTFAC
 40
1.0
  9
$DIMGAP
 40
1.0
  9
$DIMJUST
 70
               0
  9
$DIMSD1
 70
               0
  9
$DIMSD2
 70
               0
  9
$DIMTOLJ
 70
               1
  9
$DIMTZIN
 70
               0
  9
$DIMALTZ
 70
               0
  9
$DIMALTTZ
 70
               0
  9
$DIMFIT
 70
               3
  9
$DIMUPT
 70
               1
  9
$DIMUNIT
 70
               2
  9
$DIMDEC
 70
               4
  9
$DIMTDEC
 70
               4
  9
$DIMALTU
 70
               8
  9
$DIMALTTD
 70
               4
  9
$DIMTXSTY
  7
MX_NOTE_STANDARD
  9
$DIMAUNIT
 70
               0
  9
$LUNITS
 70
               2
  9
$LUPREC
 70
               4
  9
$SKETCHINC
 40
0.1
  9
$FILLETRAD
 40
0.0
  9
$AUNITS
 70
               0
  9
$AUPREC
 70
               0
  9
$MENU
  1
acad
  9
$ELEVATION
 40
0.0
  9
$PELEVATION
 40
0.0
  9
$THICKNESS
 40
0.0
  9
$LIMCHECK
 70
               0
  9
$BLIPMODE
 70
               1
  9
$CHAMFERA
 40
0.0
  9
$CHAMFERB
 40
0.0
  9
$CHAMFERC
 40
0.0
  9
$CHAMFERD
 40
0.0
  9
$SKPOLY
 70
               0
  9
$TDCREATE
 40
2452209.493194445
  9
$TDUPDATE
 40
2452209.493194445
  9
$TDINDWG
 40
0.0000000000
  9
$TDUSRTIMER
 40
0.0000000000
  9
$USRTIMER
 70
               1
  9
$ANGBASE
 50
0.0
  9
$ANGDIR
 70
               0
  9
$PDMODE
 70
               0
  9
$PDSIZE
 40
0.0
  9
$PLINEWID
 40
0.0
  9
$COORDS
 70
               1
  9
$SPLFRAME
 70
               0
  9
$SPLINETYPE
 70
               6
  9
$SPLINESEGS
 70
               8
  9
$ATTDIA
 70
               0
  9
$ATTREQ
 70
               1
  9
$HANDLING
 70
               1
  9
$HANDSEED
  5
342
  9
$SURFTAB1
 70
               6
  9
$SURFTAB2
 70
               6
  9
$SURFTYPE
 70
               6
  9
$SURFU
 70
               6
  9
$SURFV
 70
               6
  9
$UCSNAME
  2

  9
$UCSORG
 10
0.0
 20
0.0
 30
0.0
  9
$UCSXDIR
 10
1.0
 20
0.0
 30
0.0
  9
$UCSYDIR
 10
0.0
 20
1.0
 30
0.0
  9
$PUCSNAME
  2

  9
$PUCSORG
 10
0.0
 20
0.0
 30
0.0
  9
$PUCSXDIR
 10
1.0
 20
0.0
 30
0.0
  9
$PUCSYDIR
 10
0.0
 20
1.0
 30
0.0
  9
$USERI1
 70
               0
  9
$USERI2
 70
               0
  9
$USERI3
 70
               0
  9
$USERI4
 70
               0
  9
$USERI5
 70
               0
  9
$USERR1
 40
0.0
  9
$USERR2
 40
0.0
  9
$USERR3
 40
0.0
  9
$USERR4
 40
0.0
  9
$USERR5
 40
0.0
  9
$WORLDVIEW
 70
               1
  9
$SHADEDGE
 70
               3
  9
$SHADEDIF
 70
              70
  9
$TILEMODE
 70
               1
  9
$MAXACTVP
 70
              16
  9
$PINSBASE
 10
0.0
 20
0.0
 30
0.0
  9
$PLIMCHECK
 70
               0
  9
$PEXTMIN
 10
1.0000000000000000E+20
 20
1.0000000000000000E+20
 30
1.0000000000000000E+20
  9
$PEXTMAX
 10
-1.0000000000000000E+20
 20
-1.0000000000000000E+20
 30
-1.0000000000000000E+20
  9
$PLIMMIN
 10
0.0
 20
0.0
  9
$PLIMMAX
 10
12.0
 20
9.0
  9
$UNITMODE
 70
               0
  9
$VISRETAIN
 70
               0
  9
$PLINEGEN
 70
               1
  9
$PSLTSCALE
 70
               0
  9
$TREEDEPTH
 70
            3020
  9
$PICKSTYLE
 70
               1
  9
$CMLSTYLE
  2
Standard
  9
$CMLJUST
 70
               0
  9
$CMLSCALE
 40
1.0
  9
$SAVEIMAGES
 70
               0
  0
ENDSEC
  0
SECTION
  2
CLASSES
  0
CLASS
  1
LWPOLYLINE
  2
AcDbPolyline
  3
"AutoCAD"
 90
        0
280
               0
281
               1
  0
CLASS
  1
IMAGE
  2
AcDbRasterImage
  3
ISM
 90
      127
280
               0
281
               1
  0
CLASS
  1
OLE2FRAME
  2
AcDbOle2Frame
  3
""
 90
        0
280
               0
281
               1
  0
CLASS
  1
HATCH
  2
AcDbHatch
  3
"ACAD_SEDONA"
 90
        0
280
               0
281
               1
  0
CLASS
  1
DICTIONARYVAR
  2
AcDbDictionaryVar
  3
"AutoCAD"
 90
        0
280
               0
281
               0
  0
CLASS
  1
RASTERVARIABLES
  2
AcDbRasterVariables
  3
ISM
 90
        0
280
               0
281
               0
  0
CLASS
  1
IMAGEDEF
  2
AcDbRasterImageDef
  3
ISM
 90
        0
280
               0
281
               0
  0
CLASS
  1
IMAGEDEF_REACTOR
  2
AcDbRasterImageDefReactor
  3
ISM
 90
        1
280
               0
281
               0
  0
CLASS
  1
IDBUFFER
  2
AcDbIdBuffer
  3
"Acad"
 90
        0
280
               0
281
               0
  0
CLASS
  1
SPATIAL_FILTER
  2
AcDbSpatialFilter
  3
"Acad"
 90
        0
280
               0
281
               0
  0
CLASS
  1
XRECORD
  2
AcDbXrecord
  3
"<Built In>"
 90
        0
280
               0
281
               0
  0
CLASS
  1
SORTENTSTABLE
  2
AcDbSortentsTable
  3
"AutoCAD"
 90
        0
280
               0
281
               0
  0
CLASS
  1
LAYER_INDEX
  2
AcDbLayerIndex
  3
"Acad"
 90
        0
280
               0
281
               0
  0
CLASS
  1
SPATIAL_INDEX
  2
AcDbSpatialIndex
  3
"Acad"
 90
        0
280
               0
281
               0
  0
CLASS
  1
OBJECT_PTR
  2
CAseDLPNTableRecord
  3
"ASE-LPNTableRecord"
 90
        1
280
               0
281
               0
  0
CLASS
  1
LAYOUT
  2
AcDbLayout
  3
"AutoCAD 2000"
 90
        1
280
               0
281
               0
  0
CLASS
  1
PLOTSETTINGS
  2
AcDbPlotSettings
  3
"AutoCAD 2000"
 90
        1
280
               0
281
               0
  0
CLASS
  1
ACDBDICTIONARYWDFLT
  2
AcDbDictionaryWithDefault
  3
"AutoCAD 2000"
 90
        1
280
               0
281
               0
  0
CLASS
  1
ACDBPLACEHOLDER
  2
AcDbPlaceHolder
  3
"AutoCAD 2000"
 90
        1
280
               0
281
               0
  0
CLASS
  1
VBA_PROJECT
  2
AcDbVbaProject
  3
"acadvba"
 90
        1
280
               0
281
               0
  0
CLASS
  1
WIPEOUT
  2
AcDbWipeout
  3
WipeOut|AutoCAD Express Tool|expresstools@autodesk.com
 90
      127
280
               0
281
               1
  0
CLASS
  1
WIPEOUTVARIABLES
  2
AcDbWipeoutVariables
  3
WipeOut|AutoCAD Express Tool|expresstools@autodesk.com
 90
        0
280
               0
281
               0
  0
CLASS
  1
RTEXT
  2
RText
  3
RText|AutoCAD Express Tool|expresstools@autodesk.com
 90
        0
280
               0
281
               1
  0
CLASS
  1
ARCALIGNEDTEXT
  2
AcDbArcAlignedText
  3
ATEXT|AutoCAD Express Tool|expresstools@autodesk.com
 90
        0
280
               0
281
               1
  0
ENDSEC
  0
SECTION
  2
TABLES
  0
TABLE
  2
VPORT
  5
7
100
AcDbSymbolTable
 70
               1
  0
VPORT
  5
15
100
AcDbSymbolTableRecord
100
AcDbViewportTableRecord
  2
*ACTIVE
 70
               0
 10
0.0
 20
0.0
 11
1.0
 21
1.0
 12
-0.024993896484375
 22
-0.1500015258789063
 13
0.0
 23
0.0
 14
1.0
 24
1.0
 15
0.0
 25
0.0
 16
0.0
 26
0.0
 36
1.0
 17
0.0
 27
0.0
 37
0.0
 40
191.1930030822754
 41
1.7320508075688772
 42
50.0
 43
0.0
 44
0.0
 50
0.0
 51
0.0
 71
               0
 72
             100
 73
               1
 74
               1
 75
               0
 76
               0
 77
               0
 78
               0
  0
ENDTAB
  0
TABLE
  2
LTYPE
  5
4
100
AcDbSymbolTable
 70
               6
  0
LTYPE
  5
11
100
AcDbSymbolTableRecord
100
AcDbLinetypeTableRecord
  2
BYBLOCK
 70
              64
  3

 72
              65
 73
               0
 40
0.0
  0
LTYPE
  5
12
100
AcDbSymbolTableRecord
100
AcDbLinetypeTableRecord
  2
BYLAYER
 70
              64
  3

 72
              65
 73
               0
 40
0.0
  0
LTYPE
  5
13
100
AcDbSymbolTableRecord
100
AcDbLinetypeTableRecord
  2
CONTINUOUS
 70
              64
  3
Solid line
 72
              65
 73
               0
 40
0.0
  0
LTYPE
  5
27
100
AcDbSymbolTableRecord
100
AcDbLinetypeTableRecord
  2
PHANTOM
 70
              64
  3
Phantom ______  __  __  ______  __  __  ______
 72
              65
 73
               6
 40
63.500000000000007
 49
31.75
 74
               0
 49
-6.3499999999999996
 74
               0
 49
6.3499999999999996
 74
               0
 49
-6.3499999999999996
 74
               0
 49
6.3499999999999996
 74
               0
 49
-6.3499999999999996
 74
               0
  0
LTYPE
  5
48
100
AcDbSymbolTableRecord
100
AcDbLinetypeTableRecord
  2
CENTER
 70
              64
  3
Center ____ _ ____ _ ____ _ ____ _ ____ _ ____
 72
              65
 73
               4
 40
50.800000000000004
 49
31.75
 74
               0
 49
-6.3499999999999996
 74
               0
 49
6.3499999999999996
 74
               0
 49
-6.3499999999999996
 74
               0
  0
LTYPE
  5
10C
100
AcDbSymbolTableRecord
100
AcDbLinetypeTableRecord
  2
DASHED
 70
              64
  3
Dashed __ __ __ __ __ __ __ __ __ __ __ __ __ _
 72
              65
 73
               2
 40
19.049999999999997
 49
12.699999999999999
 74
               0
 49
-6.3499999999999996
 74
               0
  0
ENDTAB
  0
TABLE
  2
LAYER
  5
2
100
AcDbSymbolTable
 70
               2
  0
LAYER
  5
14
100
AcDbSymbolTableRecord
100
AcDbLayerTableRecord
  2
0
 70
               0
 62
               7
  6
CONTINUOUS
  0
LAYER
  5
1D
100
AcDbSymbolTableRecord
100
AcDbLayerTableRecord
  2
DEFPOINTS
 70
               0
 62
               7
  6
CONTINUOUS
  0
ENDTAB
  0
TABLE
  2
STYLE
  5
3
100
AcDbSymbolTable
 70
               1
  0
STYLE
  5
17
100
AcDbSymbolTableRecord
100
AcDbTextStyleTableRecord
  2
MX_NOTE_STANDARD
 70
               0
 40
3.2000000476837158
 41
1.0
 50
0.0
 71
               0
 42
3.2000000476837158
  3
txt.shx
  4
extfont.shx
  0
ENDTAB
  0
TABLE
  2
VIEW
  5
5
100
AcDbSymbolTable
 70
               0
  0
ENDTAB
  0
TABLE
  2
UCS
  5
6
100
AcDbSymbolTable
 70
               0
  0
ENDTAB
  0
TABLE
  2
APPID
  5
8
100
AcDbSymbolTable
 70
               1
  0
APPID
  5
16
100
AcDbSymbolTableRecord
100
AcDbRegAppTableRecord
  2
ACAD
 70
               0
  0
ENDTAB
  0
TABLE
  2
DIMSTYLE
  5
9
100
AcDbSymbolTable
 70
               1
  0
DIMSTYLE
105
18
100
AcDbSymbolTableRecord
100
AcDbDimStyleTableRecord
  2
MXDIMSTYLE
 70
               0
  3

  4

  5

  6

  7

 40
1.0
 41
2.5
 42
1.5
 43
3.75
 44
1.5
 45
0.0
 46
0.0
 47
0.0
 48
0.0
 71
               0
 72
               0
 73
               0
 74
               0
 75
               0
 76
               0
 77
               1
 78
               8
140
3.2000000476837158
141
2.5
142
0.0
143
0.0394
144
1.0
145
0.0
146
1.0
147
1.0
170
               0
171
               4
172
               1
173
               0
174
               0
175
               0
176
               0
177
               0
178
               0
270
               2
271
               4
272
               4
273
               8
274
               4
275
               0
280
               0
281
               0
282
               0
283
               1
284
               0
285
               0
286
               0
287
               3
288
               1
340
17
  0
ENDTAB
  0
TABLE
  2
BLOCK_RECORD
  5
1
100
AcDbSymbolTable
 70
               9
  0
BLOCK_RECORD
  5
A
100
AcDbSymbolTableRecord
100
AcDbBlockTableRecord
  2
*MODEL_SPACE
  0
BLOCK_RECORD
  5
B
100
AcDbSymbolTableRecord
100
AcDbBlockTableRecord
  2
*PAPER_SPACE
  0
BLOCK_RECORD
  5
1E
100
AcDbSymbolTableRecord
100
AcDbBlockTableRecord
  2
MS_1
  0
BLOCK_RECORD
  5
1F
100
AcDbSymbolTableRecord
100
AcDbBlockTableRecord
  2
MS_2
  0
BLOCK_RECORD
  5
20
100
AcDbSymbolTableRecord
100
AcDbBlockTableRecord
  2
MS_3
  0
BLOCK_RECORD
  5
21
100
AcDbSymbolTableRecord
100
AcDbBlockTableRecord
  2
MS_4
  0
BLOCK_RECORD
  5
22
100
AcDbSymbolTableRecord
100
AcDbBlockTableRecord
  2
MS_5
  0
BLOCK_RECORD
  5
23
100
AcDbSymbolTableRecord
100
AcDbBlockTableRecord
  2
MS_6
  0
BLOCK_RECORD
  5
24
100
AcDbSymbolTableRecord
100
AcDbBlockTableRecord
  2
MS_7
  0
BLOCK_RECORD
  5
25
100
AcDbSymbolTableRecord
100
AcDbBlockTableRecord
  2
MS_8
  0
BLOCK_RECORD
  5
2FC
100
AcDbSymbolTableRecord
100
AcDbBlockTableRecord
  2
_OPEN30
  0
ENDTAB
  0
ENDSEC
  0
SECTION
  2
BLOCKS
  0
BLOCK
  5
D
100
AcDbEntity
  8
0
100
AcDbBlockBegin
  2
*MODEL_SPACE
 70
               0
 10
0.0
 20
0.0
 30
0.0
  3
*MODEL_SPACE
  1

  0
ENDBLK
  5
E
100
AcDbEntity
  8
0
100
AcDbBlockEnd
  0
BLOCK
  5
F
100
AcDbEntity
 67
               1
  8
0
100
AcDbBlockBegin
  2
*PAPER_SPACE
 70
               0
 10
0.0
 20
0.0
 30
0.0
  3
*PAPER_SPACE
  1

  0
ENDBLK
  5
10
100
AcDbEntity
 67
               1
  8
0
100
AcDbBlockEnd
  0
BLOCK
  5
26
100
AcDbEntity
  8
0
100
AcDbBlockBegin
  2
MS_1
 70
               0
 10
0.0
 20
0.0
 30
0.0
  3
MS_1
  1

  0
LINE
  5
28
100
AcDbEntity
  8
0
  6
PHANTOM
 62
               3
100
AcDbLine
 10
27.385228545586244
 20
3.2436797880251227
 30
0.0
 11
16.969068223852148
 21
3.2436797880251227
 31
0.0
  0
LINE
  5
29
100
AcDbEntity
  8
0
  6
PHANTOM
 62
               3
100
AcDbLine
 10
27.385228545586244
 20
34.0
 30
0.0
 11
27.385228545586244
 21
3.2436797880251227
 31
0.0
  0
LINE
  5
2A
100
AcDbEntity
  8
0
  6
PHANTOM
 62
               3
100
AcDbLine
 10
16.969068223852148
 20
3.2436797880251227
 30
0.0
 11
16.969068223852148
 21
-34.0
 31
0.0
  0
LINE
  5
2B
100
AcDbEntity
  8
0
  6
CONTINUOUS
 62
               4
100
AcDbLine
 10
8.9999999915627029
 20
9.7322330095558982
 30
0.0
 11
8.9999999915627029
 21
6.0219609517627362
 31
0.0
  0
LINE
  5
2C
100
AcDbEntity
  8
0
  6
CONTINUOUS
 62
               4
100
AcDbLine
 10
24.499999991562703
 20
9.7322330095558982
 30
0.0
 11
24.499999991562703
 21
7.4161354740104208
 31
0.0
  0
LINE
  5
2D
100
AcDbEntity
  8
0
  6
CONTINUOUS
 62
               4
100
AcDbLine
 10
35.0
 20
-4.7330951955757783
 30
0.0
 11
35.0
 21
-9.7322330095558485
 31
0.0
  0
LINE
  5
2E
100
AcDbEntity
  8
0
  6
CONTINUOUS
 62
               4
100
AcDbLine
 10
19.499999999999773
 20
-7.4161354740104208
 30
0.0
 11
19.499999999999773
 21
-9.7322330095558485
 31
0.0
  0
LINE
  5
2F
100
AcDbEntity
  8
0
  6
CONTINUOUS
 62
               4
100
AcDbLine
 10
34.000000019764684
 20
-4.7330951955757783
 30
0.0
 11
35.000000019764684
 21
-4.7330951955757783
 31
0.0
  0
LINE
  5
30
100
AcDbEntity
  8
0
  6
CONTINUOUS
 62
               4
100
AcDbLine
 10
34.0
 20
-6.479541816097715
 30
0.0
 11
35.0
 21
-6.479541816097715
 31
0.0
  0
LINE
  5
31
100
AcDbEntity
  8
0
  6
CONTINUOUS
 62
               4
100
AcDbLine
 10
8.9999999915627029
 20
6.4795418160978215
 30
0.0
 11
10.295279401172856
 21
6.4795418160978215
 31
0.0
  0
ELLIPSE
  5
32
100
AcDbEntity
  8
0
  6
CONTINUOUS
 62
               4
100
AcDbEllipse
 10
10.999999991562703
 20
8.6715728377760968
 30
0.0
 11
-1.25
 21
0.0000000000000002
 31
0.0
210
0.0
220
0.0
230
1.0
 40
0.7071067811865476
 41
0.0
 42
6.2831853071795862
  0
LINE
  5
33
100
AcDbEntity
  8
0
  6
CONTINUOUS
 62
               4
100
AcDbLine
 10
11.249999991562703
 20
9.5375982415605449
 30
0.0
 11
11.249999991562703
 21
7.8055474339916486
 31
0.0
  0
LINE
  5
34
100
AcDbEntity
  8
0
  6
CONTINUOUS
 62
               4
100
AcDbLine
 10
10.749999991562703
 20
9.5375982415605449
 30
0.0
 11
10.749999991562703
 21
7.8055474339916486
 31
0.0
  0
ELLIPSE
  5
35
100
AcDbEntity
  8
0
  6
CONTINUOUS
 62
               4
100
AcDbEllipse
 10
21.499999999999773
 20
-8.6715728377760186
 30
0.0
 11
-1.25
 21
0.0000000000000002
 31
0.0
210
0.0
220
0.0
230
1.0
 40
0.7071067811865476
 41
0.0
 42
6.2831853071795862
  0
LINE
  5
36
100
AcDbEntity
  8
0
  6
CONTINUOUS
 62
               4
100
AcDbLine
 10
21.749999999999773
 20
-9.5375982415604668
 30
0.0
 11
21.749999999999773
 21
-7.8055474339915705
 31
0.0
  0
LINE
  5
37
100
AcDbEntity
  8
0
  6
CONTINUOUS
 62
               4
100
AcDbLine
 10
21.249999999999773
 20
-9.5375982415604668
 30
0.0
 11
21.249999999999773
 21
-7.8055474339915705
 31
0.0
  0
LINE
  5
38
100
AcDbEntity
  8
0
  6
CONTINUOUS
 62
             200
100
AcDbLine
 10
44.304332834218329
 20
4.5196726260998616
 30
0.0
 11
45.71330172059659
 21
9.7780161546418753
 31
0.0
  0
LINE
  5
39
100
AcDbEntity
  8
0
  6
CONTINUOUS
 62
             200
100
AcDbLine
 10
44.304332834218258
 20
-9.7122032071986908
 30
0.0
 11
45.713301720596519
 21
-4.4538596786566771
 31
0.0
  0
LINE
  5
3A
100
AcDbEntity
  8
0
  6
CONTINUOUS
 62
               4
100
AcDbLine
 10
24.500000011327387
 20
8.4659379166493238
 30
0.0
 11
45.361731420217737
 21
8.4659379166493238
 31
0.0
  0
LINE
  5
3B
100
AcDbEntity
  8
0
  6
CONTINUOUS
 62
               4
100
AcDbLine
 10
34.0
 20
5.7659379166493352
 30
0.0
 11
44.638268608673869
 21
5.7659379166493352
 31
0.0
  0
LINE
  5
3C
100
AcDbEntity
  8
0
  6
CONTINUOUS
 62
               4
100
AcDbLine
 10
35.0
 20
-5.765937916649257
 30
0.0
 11
45.361731420217666
 21
-5.765937916649257
 31
0.0
  0
LINE
  5
3D
100
AcDbEntity
  8
0
  6
CONTINUOUS
 62
               4
100
AcDbLine
 10
35.0
 20
-8.4659379166492457
 30
0.0
 11
44.638268608673798
 21
-8.4659379166492457
 31
0.0
  0
LINE
  5
3E
100
AcDbEntity
  8
0
  6
CONTINUOUS
 62
               4
100
AcDbLine
 10
9.0000000084373255
 20
9.7322330095558982
 30
0.0
 11
24.499999991562703
 21
9.7322330095558982
 31
0.0
  0
LINE
  5
3F
100
AcDbEntity
  8
0
  6
CONTINUOUS
 62
               4
100
AcDbLine
 10
9.0000000084373255
 20
7.6109126659962953
 30
0.0
 11
24.500000008437326
 21
7.6109126659962953
 31
0.0
  0
LINE
  5
40
100
AcDbEntity
  8
0
  6
CONTINUOUS
 62
               4
100
AcDbLine
 10
19.500000016874395
 20
-7.6109126659961888
 30
0.0
 11
35.0
 21
-7.6109126659961888
 31
0.0
  0
LINE
  5
41
100
AcDbEntity
  8
0
  6
CONTINUOUS
 62
               4
100
AcDbLine
 10
19.500000016874395
 20
-9.7322330095558485
 30
0.0
 11
35.0
 21
-9.7322330095558485
 31
0.0
  0
LINE
  5
42
100
AcDbEntity
  8
0
  6
CONTINUOUS
 62
               2
100
AcDbLine
 10
-10.0
 20
1.7000000000000028
 30
0.0
 11
-6.8000000000000114
 21
1.7000000000000028
 31
0.0
  0
LINE
  5
43
100
AcDbEntity
  8
0
  6
CONTINUOUS
 62
               7
100
AcDbLine
 10
-9.7000000000000171
 20
2.0
 30
0.0
 11
-10.0
 21
1.7000000000000028
 31
0.0
  0
LINE
  5
44
100
AcDbEntity
  8
0
  6
CONTINUOUS
 62
               2
100
AcDbLine
 10
-1.0
 20
1.7000000000000028
 30
0.0
 11
-0.4803847577293539
 21
2.0
 31
0.0
  0
LINE
  5
45
100
AcDbEntity
  8
0
  6
CONTINUOUS
 62
               7
100
AcDbLine
 10
-9.7000000000000171
 20
-2.0
 30
0.0
 11
-9.7000000000000171
 21
2.0
 31
0.0
  0
LINE
  5
46
100
AcDbEntity
  8
0
  6
CONTINUOUS
 62
               7
100
AcDbLine
 10
-1.0
 20
-2.0
 30
0.0
 11
-1.0
 21
2.0
 31
0.0
  0
LINE
  5
47
100
AcDbEntity
  8
0
  6
CONTINUOUS
 62
               7
100
AcDbLine
 10
-10.0
 20
-1.7000000000000028
 30
0.0
 11
-10.0
 21
1.7000000000000028
 31
0.0
  0
LINE
  5
49
100
AcDbEntity
  8
0
  6
CENTER
 62
               2
100
AcDbLine
 10
9.0
 20
11.899999999999999
 30
0.0
 11
9.0
 21
5.1000000000000014
 31
0.0
  0
LINE
  5
4A
100
AcDbEntity
  8
0
  6
CENTER
 62
               2
100
AcDbLine
 10
5.5999999999999943
 20
8.5
 30
0.0
 11
12.400000000000006
 21
8.5
 31
0.0
  0
LINE
  5
4B
100
AcDbEntity
  8
0
  6
CONTINUOUS
 62
               7
100
AcDbLine
 10
34.0
 20
11.5
 30
0.0
 11
34.0
 21
8.4659379166493238
 31
0.0
  0
LINE
  5
4C
100
AcDbEntity
  8
0
  6
CONTINUOUS
 62
               7
100
AcDbLine
 10
-9.7000000000000171
 20
2.0
 30
0.0
 11
-6.8000000000000114
 21
2.0
 31
0.0
  0
LINE
  5
4D
100
AcDbEntity
  8
0
  6
CONTINUOUS
 62
               7
100
AcDbLine
 10
0.0
 20
11.5
 30
0.0
 11
0.0
 21
-11.5
 31
0.0
  0
LINE
  5
4E
100
AcDbEntity
  8
0
  6
CONTINUOUS
 62
               7
100
AcDbLine
 10
-0.0000000147648791
 20
11.5
 30
0.0
 11
34.0
 21
11.5
 31
0.0
  0
LINE
  5
4F
100
AcDbEntity
  8
0
  6
CENTER
 62
               2
100
AcDbLine
 10
-11.09698748603688
 20
0.0
 30
0.0
 11
35.239086512929219
 21
0.0
 31
0.0
  0
ARC
  5
50
100
AcDbEntity
  8
0
  6
CONTINUOUS
 62
               7
100
AcDbCircle
 10
9.0
 20
8.5
 30
0.0
 40
2.4000000000000004
100
AcDbArc
 50
30.892599712943213
 51
333.15295903779531
  0
ARC
  5
51
100
AcDbEntity
  8
0
  6
CONTINUOUS
 62
               7
100
AcDbCircle
 10
9.0
 20
8.5
 30
0.0
 40
1.3499999999999996
100
AcDbArc
 50
65.890322050681448
 51
269.99999964190937
  0
LINE
  5
52
100
AcDbEntity
  8
0
  6
CENTER
 62
               2
100
AcDbLine
 10
9.0
 20
-11.899999999999999
 30
0.0
 11
9.0
 21
-5.1000000000000014
 31
0.0
  0
CIRCLE
  5
53
100
AcDbEntity
  8
0
  6
CONTINUOUS
 62
               7
100
AcDbCircle
 10
9.0
 20
-8.5
 30
0.0
 40
2.4000000000000004
  0
CIRCLE
  5
54
100
AcDbEntity
  8
0
  6
CONTINUOUS
 62
               7
100
AcDbCircle
 10
9.0
 20
-8.5
 30
0.0
 40
1.3499999999999996
  0
LINE
  5
55
100
AcDbEntity
  8
0
  6
CENTER
 62
               2
100
AcDbLine
 10
5.5999999999999943
 20
-8.5
 30
0.0
 11
12.400000000000006
 21
-8.5
 31
0.0
  0
LINE
  5
56
100
AcDbEntity
  8
0
  6
CONTINUOUS
 62
               7
100
AcDbLine
 10
-9.7000000000000171
 20
-2.0
 30
0.0
 11
-6.8000000000000114
 21
-2.0
 31
0.0
  0
LINE
  5
57
100
AcDbEntity
  8
0
  6
CONTINUOUS
 62
               2
100
AcDbLine
 10
-1.0
 20
-1.7000000000000028
 30
0.0
 11
-0.4803847577293539
 21
-2.0
 31
0.0
  0
LINE
  5
58
100
AcDbEntity
  8
0
  6
CONTINUOUS
 62
               7
100
AcDbLine
 10
-9.7000000000000171
 20
-2.0
 30
0.0
 11
-10.0
 21
-1.7000000000000028
 31
0.0
  0
LINE
  5
59
100
AcDbEntity
  8
0
  6
CONTINUOUS
 62
               2
100
AcDbLine
 10
-10.0
 20
-1.7000000000000028
 30
0.0
 11
-6.8000000000000114
 21
-1.7000000000000028
 31
0.0
  0
LINE
  5
5A
100
AcDbEntity
  8
0
  6
CONTINUOUS
 62
               7
100
AcDbLine
 10
-0.0000000147648791
 20
-11.5
 30
0.0
 11
34.0
 21
-11.5
 31
0.0
  0
LINE
  5
5B
100
AcDbEntity
  8
0
  6
CONTINUOUS
 62
               7
100
AcDbLine
 10
0.0
 20
9.8029436876745386
 30
0.0
 11
6.9844758134050835
 21
9.8029436876745386
 31
0.0
  0
LINE
  5
5C
100
AcDbEntity
  8
0
  6
CONTINUOUS
 62
               7
100
AcDbLine
 10
0.0
 20
9.4493902970812869
 30
0.0
 11
6.7957636098167882
 21
9.4493902970812869
 31
0.0
  0
LINE
  5
5D
100
AcDbEntity
  8
0
  6
CONTINUOUS
 62
               7
100
AcDbLine
 10
0.0
 20
7.4161354740104208
 30
0.0
 11
6.8586831880122503
 21
7.4161354740104208
 31
0.0
  0
LINE
  5
5E
100
AcDbEntity
  8
0
  6
CONTINUOUS
 62
               7
100
AcDbLine
 10
0.0
 20
5.4999999300492668
 30
0.0
 11
34.0
 21
5.4999999300492668
 31
0.0
  0
LINE
  5
5F
100
AcDbEntity
  8
0
  6
CONTINUOUS
 62
               7
100
AcDbLine
 10
11.015524186594917
 20
9.8029436876745386
 30
0.0
 11
34.0
 21
9.8029436876745386
 31
0.0
  0
LINE
  5
60
100
AcDbEntity
  8
0
  6
CONTINUOUS
 62
               7
100
AcDbLine
 10
24.499999991562703
 20
9.4493902970812869
 30
0.0
 11
34.0
 21
9.4493902970812869
 31
0.0
  0
LINE
  5
61
100
AcDbEntity
  8
0
  6
CONTINUOUS
 62
               7
100
AcDbLine
 10
11.14131681198775
 20
7.4161354740104208
 30
0.0
 11
34.0
 21
7.4161354740104208
 31
0.0
  0
LINE
  5
62
100
AcDbEntity
  8
0
  6
CONTINUOUS
 62
               7
100
AcDbLine
 10
0.0
 20
-5.4999999300492668
 30
0.0
 11
34.0
 21
-5.4999999300492668
 31
0.0
  0
LINE
  5
63
100
AcDbEntity
  8
0
  6
CONTINUOUS
 62
               7
100
AcDbLine
 10
11.015524186594917
 20
-9.8029436876745386
 30
0.0
 11
34.0
 21
-9.8029436876745386
 31
0.0
  0
LINE
  5
64
100
AcDbEntity
  8
0
  6
CONTINUOUS
 62
               7
100
AcDbLine
 10
11.204236390183212
 20
-9.4493902970812869
 30
0.0
 11
19.499999999999773
 21
-9.4493902970812869
 31
0.0
  0
LINE
  5
65
100
AcDbEntity
  8
0
  6
CONTINUOUS
 62
               7
100
AcDbLine
 10
11.14131681198775
 20
-7.4161354740104208
 30
0.0
 11
34.0
 21
-7.4161354740104208
 31
0.0
  0
LINE
  5
66
100
AcDbEntity
  8
0
  6
CONTINUOUS
 62
               7
100
AcDbLine
 10
0.0
 20
-9.8029436876745386
 30
0.0
 11
6.9844758134050835
 21
-9.8029436876745386
 31
0.0
  0
LINE
  5
67
100
AcDbEntity
  8
0
  6
CONTINUOUS
 62
               7
100
AcDbLine
 10
0.0
 20
-9.4493902970812869
 30
0.0
 11
6.7957636098167882
 21
-9.4493902970812869
 31
0.0
  0
LINE
  5
68
100
AcDbEntity
  8
0
  6
CONTINUOUS
 62
               7
100
AcDbLine
 10
0.0
 20
-7.4161354740104208
 30
0.0
 11
6.8586831880122503
 21
-7.4161354740104208
 31
0.0
  0
LINE
  5
69
100
AcDbEntity
  8
0
  6
CENTER
 62
               2
100
AcDbLine
 10
14.0
 20
1.9547775518886965
 30
0.0
 11
14.0
 21
-1.9760956580291094
 31
0.0
  0
CIRCLE
  5
6A
100
AcDbEntity
  8
0
  6
CONTINUOUS
 62
               2
100
AcDbCircle
 10
14.0
 20
0.0000000000000142
 30
0.0
 40
1.5
  0
CIRCLE
  5
6B
100
AcDbEntity
  8
0
  6
CONTINUOUS
 62
               7
100
AcDbCircle
 10
14.0
 20
0.0000000000000142
 30
0.0
 40
1.1999999999999886
  0
LINE
  5
6C
100
AcDbEntity
  8
0
  6
CENTER
 62
               2
100
AcDbLine
 10
31.0
 20
1.9547775518886965
 30
0.0
 11
31.0
 21
-1.9760956580291094
 31
0.0
  0
CIRCLE
  5
6D
100
AcDbEntity
  8
0
  6
CONTINUOUS
 62
               2
100
AcDbCircle
 10
31.0
 20
0.0000000000000142
 30
0.0
 40
1.5
  0
CIRCLE
  5
6E
100
AcDbEntity
  8
0
  6
CONTINUOUS
 62
               7
100
AcDbCircle
 10
31.0
 20
0.0000000000000142
 30
0.0
 40
1.1999999999999886
  0
SPLINE
  5
6F
100
AcDbEntity
  8
0
  6
CONTINUOUS
 62
               7
100
AcDbSpline
210
0.0
220
0.0
230
1.0
 70
               0
 71
               3
 72
               0
 73
               0
 74
               5
 44
0.000001
 12
-0.5262037747144672
 22
-0.850358505264836
 32
0.0
 13
0.5262037632262534
 23
-0.8503585123737688
 33
0.0
 11
-4.0873925373957434
 21
4.0414519297817577
 31
0.0
 11
-4.3132616237683719
 21
3.5570844487105919
 31
0.0
 11
-4.4000000000000057
 21
3.0310889130591789
 31
0.0
 11
-4.3132616270737456
 21
2.5050933992850792
 31
0.0
 11
-4.0873925546021184
 21
2.0207259365011652
 31
0.0
  0
SPLINE
  5
70
100
AcDbEntity
  8
0
  6
CONTINUOUS
 62
               7
100
AcDbSpline
210
0.0
220
0.0
230
1.0
 70
               0
 71
               3
 72
               0
 73
               0
 74
               5
 44
0.000001
 12
0.5262037747144671
 22
-0.8503585052648361
 32
0.0
 13
-0.5262037632262535
 23
-0.8503585123737687
 33
0.0
 11
-2.3126074626042623
 21
4.0414519297817577
 31
0.0
 11
-2.0867383762316338
 21
3.5570844487105919
 31
0.0
 11
-2.0
 21
3.0310889130591789
 31
0.0
 11
-2.0867383729262601
 21
2.5050933992850792
 31
0.0
 11
-2.3126074453978873
 21
2.0207259365011652
 31
0.0
  0
SPLINE
  5
71
100
AcDbEntity
  8
0
  6
CONTINUOUS
 62
               7
100
AcDbSpline
210
0.0
220
0.0
230
1.0
 70
               0
 71
               3
 72
               0
 73
               0
 74
               5
 44
0.000001
 12
-0.5262037747144672
 22
0.850358505264836
 32
0.0
 13
0.5262037632262534
 23
0.8503585123737688
 33
0.0
 11
-4.0873925373957434
 21
-4.0414519297817577
 31
0.0
 11
-4.3132616237683719
 21
-3.5570844487105919
 31
0.0
 11
-4.4000000000000057
 21
-3.0310889130591789
 31
0.0
 11
-4.3132616270737456
 21
-2.5050933992850792
 31
0.0
 11
-4.0873925546021184
 21
-2.0207259365011652
 31
0.0
  0
SPLINE
  5
72
100
AcDbEntity
  8
0
  6
CONTINUOUS
 62
               7
100
AcDbSpline
210
0.0
220
0.0
230
1.0
 70
               0
 71
               3
 72
               0
 73
               0
 74
               5
 44
0.000001
 12
0.5262037747144671
 22
0.8503585052648361
 32
0.0
 13
-0.5262037632262535
 23
0.8503585123737687
 33
0.0
 11
-2.3126074626042623
 21
-4.0414519297817577
 31
0.0
 11
-2.0867383762316338
 21
-3.5570844487105919
 31
0.0
 11
-2.0
 21
-3.0310889130591789
 31
0.0
 11
-2.0867383729262601
 21
-2.5050933992850792
 31
0.0
 11
-2.3126074453978873
 21
-2.0207259365011652
 31
0.0
  0
SPLINE
  5
73
100
AcDbEntity
  8
0
  6
CONTINUOUS
 62
               7
100
AcDbSpline
210
0.0
220
0.0
230
1.0
 70
               0
 71
               3
 72
               0
 73
               0
 74
               5
 44
0.000001
 12
-0.295576775765892
 22
-0.9553189884158273
 32
0.0
 13
0.2955767757658919
 23
-0.9553189884158273
 33
0.0
 11
-4.0873925546021184
 21
2.0207259365011652
 31
0.0
 11
-4.3192443431715546
 21
1.0229863649462863
 31
0.0
 11
-4.4000000000000057
 21
0.0
 31
0.0
 11
-4.3192443431715546
 21
-1.0229863649462863
 31
0.0
 11
-4.0873925546021184
 21
-2.0207259365011652
 31
0.0
  0
SPLINE
  5
74
100
AcDbEntity
  8
0
  6
CONTINUOUS
 62
               7
100
AcDbSpline
210
0.0
220
0.0
230
1.0
 70
               0
 71
               3
 72
               0
 73
               0
 74
               5
 44
0.000001
 12
0.2955767757658921
 22
-0.9553189884158273
 32
0.0
 13
-0.295576775765892
 23
-0.9553189884158273
 33
0.0
 11
-2.3126074453978873
 21
2.0207259365011652
 31
0.0
 11
-2.0807556568284515
 21
1.0229863649462863
 31
0.0
 11
-2.0
 21
0.0
 31
0.0
 11
-2.0807556568284515
 21
-1.0229863649462863
 31
0.0
 11
-2.3126074453978873
 21
-2.0207259365011652
 31
0.0
  0
SPLINE
  5
75
100
AcDbEntity
  8
0
  6
CONTINUOUS
 62
               7
100
AcDbSpline
210
0.0
220
0.0
230
1.0
 70
               0
 71
               3
 72
               0
 73
               0
 74
               5
 44
0.000001
 12
-0.295576775765892
 22
-0.9553189884158273
 32
0.0
 13
0.2955767757658919
 23
-0.9553189884158273
 33
0.0
 11
-6.4873925546021241
 21
2.0207259365011652
 31
0.0
 11
-6.7192443431715603
 21
1.0229863649462863
 31
0.0
 11
-6.8000000000000114
 21
0.0
 31
0.0
 11
-6.7192443431715603
 21
-1.0229863649462863
 31
0.0
 11
-6.4873925546021241
 21
-2.0207259365011652
 31
0.0
  0
SPLINE
  5
76
100
AcDbEntity
  8
0
  6
CONTINUOUS
 62
               7
100
AcDbSpline
210
0.0
220
0.0
230
1.0
 70
               0
 71
               3
 72
               0
 73
               0
 74
               5
 44
0.000001
 12
0.2955767757658921
 22
-0.9553189884158273
 32
0.0
 13
-0.295576775765892
 23
-0.9553189884158273
 33
0.0
 11
-4.712607445397893
 21
2.0207259365011652
 31
0.0
 11
-4.4807556568284568
 21
1.0229863649462863
 31
0.0
 11
-4.4000000000000057
 21
0.0
 31
0.0
 11
-4.4807556568284568
 21
-1.0229863649462863
 31
0.0
 11
-4.712607445397893
 21
-2.0207259365011652
 31
0.0
  0
SPLINE
  5
77
100
AcDbEntity
  8
0
  6
CONTINUOUS
 62
               7
100
AcDbSpline
210
0.0
220
0.0
230
1.0
 70
               0
 71
               3
 72
               0
 73
               0
 74
               5
 44
0.000001
 12
-0.5262037747144672
 22
0.850358505264836
 32
0.0
 13
0.5262037632262534
 23
0.8503585123737688
 33
0.0
 11
-6.4873925373957491
 21
-4.0414519297817577
 31
0.0
 11
-6.7132616237683775
 21
-3.5570844487105919
 31
0.0
 11
-6.8000000000000114
 21
-3.0310889130591789
 31
0.0
 11
-6.7132616270737513
 21
-2.5050933992850792
 31
0.0
 11
-6.4873925546021241
 21
-2.0207259365011652
 31
0.0
  0
SPLINE
  5
78
100
AcDbEntity
  8
0
  6
CONTINUOUS
 62
               7
100
AcDbSpline
210
0.0
220
0.0
230
1.0
 70
               0
 71
               3
 72
               0
 73
               0
 74
               5
 44
0.000001
 12
0.5262037747144671
 22
0.8503585052648361
 32
0.0
 13
-0.5262037632262535
 23
0.8503585123737687
 33
0.0
 11
-4.712607462604268
 21
-4.0414519297817577
 31
0.0
 11
-4.4867383762316395
 21
-3.5570844487105919
 31
0.0
 11
-4.4000000000000057
 21
-3.0310889130591789
 31
0.0
 11
-4.4867383729262658
 21
-2.5050933992850792
 31
0.0
 11
-4.712607445397893
 21
-2.0207259365011652
 31
0.0
  0
SPLINE
  5
79
100
AcDbEntity
  8
0
  6
CONTINUOUS
 62
               7
100
AcDbSpline
210
0.0
220
0.0
230
1.0
 70
               0
 71
               3
 72
               0
 73
               0
 74
               5
 44
0.000001
 12
-0.5262037747144672
 22
-0.850358505264836
 32
0.0
 13
0.5262037632262534
 23
-0.8503585123737688
 33
0.0
 11
-6.4873925373957491
 21
4.0414519297817577
 31
0.0
 11
-6.7132616237683775
 21
3.5570844487105919
 31
0.0
 11
-6.8000000000000114
 21
3.0310889130591789
 31
0.0
 11
-6.7132616270737513
 21
2.5050933992850792
 31
0.0
 11
-6.4873925546021241
 21
2.0207259365011652
 31
0.0
  0
SPLINE
  5
7A
100
AcDbEntity
  8
0
  6
CONTINUOUS
 62
               7
100
AcDbSpline
210
0.0
220
0.0
230
1.0
 70
               0
 71
               3
 72
               0
 73
               0
 74
               5
 44
0.000001
 12
0.5262037747144671
 22
-0.8503585052648361
 32
0.0
 13
-0.5262037632262535
 23
-0.8503585123737687
 33
0.0
 11
-4.712607462604268
 21
4.0414519297817577
 31
0.0
 11
-4.4867383762316395
 21
3.5570844487105919
 31
0.0
 11
-4.4000000000000057
 21
3.0310889130591789
 31
0.0
 11
-4.4867383729262658
 21
2.5050933992850792
 31
0.0
 11
-4.712607445397893
 21
2.0207259365011652
 31
0.0
  0
LINE
  5
7B
100
AcDbEntity
  8
0
  6
CONTINUOUS
 62
               7
100
AcDbLine
 10
-4.4000000000000057
 20
-3.4999999714156758
 30
0.0
 11
-4.4000000000000057
 21
3.4999999689796795
 31
0.0
  0
LINE
  5
7C
100
AcDbEntity
  8
0
  6
CONTINUOUS
 62
               7
100
AcDbLine
 10
-4.0873925546021184
 20
4.0414519297817577
 30
0.0
 11
-2.3126074626042623
 21
4.0414519297817577
 31
0.0
  0
LINE
  5
7D
100
AcDbEntity
  8
0
  6
CONTINUOUS
 62
               7
100
AcDbLine
 10
-4.0873925546021184
 20
2.0207259365011652
 30
0.0
 11
-2.3126074453978873
 21
2.0207259365011652
 31
0.0
  0
LINE
  5
7E
100
AcDbEntity
  8
0
  6
CONTINUOUS
 62
               7
100
AcDbLine
 10
-4.3999999621720036
 20
3.5000000285843242
 30
0.0
 11
-4.0873925546021184
 21
4.0414518999794353
 31
0.0
  0
LINE
  5
7F
100
AcDbEntity
  8
0
  6
CONTINUOUS
 62
               7
100
AcDbLine
 10
-2.0000000378280021
 20
3.5000000285843242
 30
0.0
 11
-2.3126074453978873
 21
4.0414518999794353
 31
0.0
  0
LINE
  5
80
100
AcDbEntity
  8
0
  6
CONTINUOUS
 62
               7
100
AcDbLine
 10
-2.0
 20
-3.4999999714156758
 30
0.0
 11
-2.0
 21
3.4999999689796795
 31
0.0
  0
LINE
  5
81
100
AcDbEntity
  8
0
  6
CONTINUOUS
 62
               7
100
AcDbLine
 10
-4.0873925546021184
 20
-4.0414519297817577
 30
0.0
 11
-2.3126074626042623
 21
-4.0414519297817577
 31
0.0
  0
LINE
  5
82
100
AcDbEntity
  8
0
  6
CONTINUOUS
 62
               7
100
AcDbLine
 10
-4.3999999621720036
 20
-3.5000000285843242
 30
0.0
 11
-4.0873925546021184
 21
-4.0414518999794353
 31
0.0
  0
LINE
  5
83
100
AcDbEntity
  8
0
  6
CONTINUOUS
 62
               7
100
AcDbLine
 10
-2.0000000378280021
 20
-3.5000000285843242
 30
0.0
 11
-2.3126074453978873
 21
-4.0414518999794353
 31
0.0
  0
LINE
  5
84
100
AcDbEntity
  8
0
  6
CONTINUOUS
 62
               7
100
AcDbLine
 10
-4.0873925546021184
 20
-2.0207259365011652
 30
0.0
 11
-2.3126074453978873
 21
-2.0207259365011652
 31
0.0
  0
LINE
  5
85
100
AcDbEntity
  8
0
  6
CONTINUOUS
 62
               7
100
AcDbLine
 10
-4.712607445397893
 20
-2.0207259365011652
 30
0.0
 11
-6.4873925546021241
 21
-2.0207259365011652
 31
0.0
  0
LINE
  5
86
100
AcDbEntity
  8
0
  6
CONTINUOUS
 62
               7
100
AcDbLine
 10
-6.7999999621720093
 20
-3.5000000285843242
 30
0.0
 11
-6.4873925546021241
 21
-4.0414518999794353
 31
0.0
  0
LINE
  5
87
100
AcDbEntity
  8
0
  6
CONTINUOUS
 62
               7
100
AcDbLine
 10
-4.4000000378280077
 20
-3.5000000285843242
 30
0.0
 11
-4.712607445397893
 21
-4.0414518999794353
 31
0.0
  0
LINE
  5
88
100
AcDbEntity
  8
0
  6
CONTINUOUS
 62
               7
100
AcDbLine
 10
-4.712607445397893
 20
-4.0414519297817577
 30
0.0
 11
-6.4873925373957491
 21
-4.0414519297817577
 31
0.0
  0
LINE
  5
89
100
AcDbEntity
  8
0
  6
CONTINUOUS
 62
               7
100
AcDbLine
 10
-6.8000000000000114
 20
-3.4999999714156758
 30
0.0
 11
-6.8000000000000114
 21
3.4999999689796795
 31
0.0
  0
LINE
  5
8A
100
AcDbEntity
  8
0
  6
CONTINUOUS
 62
               7
100
AcDbLine
 10
-6.7999999621720093
 20
3.5000000285843242
 30
0.0
 11
-6.4873925546021241
 21
4.0414518999794353
 31
0.0
  0
LINE
  5
8B
100
AcDbEntity
  8
0
  6
CONTINUOUS
 62
               7
100
AcDbLine
 10
-4.4000000378280077
 20
3.5000000285843242
 30
0.0
 11
-4.712607445397893
 21
4.0414518999794353
 31
0.0
  0
LINE
  5
8C
100
AcDbEntity
  8
0
  6
CONTINUOUS
 62
               7
100
AcDbLine
 10
-4.712607445397893
 20
2.0207259365011652
 30
0.0
 11
-6.4873925546021241
 21
2.0207259365011652
 31
0.0
  0
LINE
  5
8D
100
AcDbEntity
  8
0
  6
CONTINUOUS
 62
               7
100
AcDbLine
 10
-4.712607445397893
 20
4.0414519297817577
 30
0.0
 11
-6.4873925373957491
 21
4.0414519297817577
 31
0.0
  0
LINE
  5
8E
100
AcDbEntity
  8
0
  6
CONTINUOUS
 62
               2
100
AcDbLine
 10
-2.0
 20
1.7000000000000028
 30
0.0
 11
-1.0
 21
1.7000000000000028
 31
0.0
  0
LINE
  5
8F
100
AcDbEntity
  8
0
  6
CONTINUOUS
 62
               7
100
AcDbLine
 10
-2.0
 20
2.0
 30
0.0
 11
0.0
 21
2.0
 31
0.0
  0
LINE
  5
90
100
AcDbEntity
  8
0
  6
CONTINUOUS
 62
               7
100
AcDbLine
 10
-2.0
 20
-2.0
 30
0.0
 11
0.0
 21
-2.0
 31
0.0
  0
LINE
  5
91
100
AcDbEntity
  8
0
  6
CONTINUOUS
 62
               2
100
AcDbLine
 10
-2.0
 20
-1.7000000000000028
 30
0.0
 11
-1.0
 21
-1.7000000000000028
 31
0.0
  0
LINE
  5
92
100
AcDbEntity
  8
0
  6
CENTER
 62
               2
100
AcDbLine
 10
3.5
 20
-2.5
 30
0.0
 11
3.5
 21
2.5
 31
0.0
  0
CIRCLE
  5
93
100
AcDbEntity
  8
0
  6
CONTINUOUS
 62
               2
100
AcDbCircle
 10
3.5
 20
0.0
 30
0.0
 40
1.5
  0
CIRCLE
  5
94
100
AcDbEntity
  8
0
  6
CONTINUOUS
 62
               7
100
AcDbCircle
 10
3.5
 20
0.0
 30
0.0
 40
1.2
  0
LINE
  5
95
100
AcDbEntity
  8
0
  6
CONTINUOUS
 62
               7
100
AcDbLine
 10
34.0
 20
7.4161354740104208
 30
0.0
 11
34.0
 21
-7.4161354740104208
 31
0.0
  0
LINE
  5
96
100
AcDbEntity
  8
0
  6
CONTINUOUS
 62
               7
100
AcDbLine
 10
34.0
 20
-9.7322330095558485
 30
0.0
 11
34.0
 21
-11.5
 31
0.0
  0
ENDBLK
  5
97
100
AcDbEntity
  8
0
100
AcDbBlockEnd
  0
BLOCK
  5
98
100
AcDbEntity
  8
0
100
AcDbBlockBegin
  2
MS_2
 70
               0
 10
0.0
 20
0.0
 30
0.0
  3
MS_2
  1

  0
LINE
  5
99
100
AcDbEntity
  8
0
  6
CONTINUOUS
 62
             200
100
AcDbLine
 10
11.734431886522984
 20
6.0926533915342915
 30
0.0
 11
10.674781867287706
 21
5.0330033722990422
 31
0.0
  0
LINE
  5
9A
100
AcDbEntity
  8
0
  6
CONTINUOUS
 62
               4
100
AcDbLine
 10
13.569879059974468
 20
6.5159073077016885
 30
0.0
 11
12.474873701679812
 21
5.4209019494070887
 31
0.0
  0
LINE
  5
9B
100
AcDbEntity
  8
0
  6
CONTINUOUS
 62
               4
100
AcDbLine
 10
11.874843090215776
 20
5.9522421878415273
 30
0.0
 11
10.955604274673291
 21
5.0330033722990422
 31
0.0
  0
LINE
  5
9C
100
AcDbEntity
  8
0
  6
CONTINUOUS
 62
               4
100
AcDbLine
 10
10.248497493486624
 20
5.0330033722990422
 30
0.0
 11
10.955604274673291
 21
5.0330033722990422
 31
0.0
  0
ARC
  5
9D
100
AcDbEntity
  8
0
  6
CONTINUOUS
 62
               4
100
AcDbCircle
 10
11.024293995039656
 20
6.8703972699012681
 30
0.0
 40
2.0506628609917015
100
AcDbArc
 50
225.05843089091513
 51
315.02142384112307
  0
LINE
  5
9E
100
AcDbEntity
  8
0
  6
CONTINUOUS
 62
               4
100
AcDbLine
 10
13.569879059974468
 20
6.5159073077016885
 30
0.0
 11
13.571899365063459
 21
7.2937247670068857
 31
0.0
  0
LINE
  5
9F
100
AcDbEntity
  8
0
  6
CONTINUOUS
 62
             200
100
AcDbLine
 10
10.249507646031347
 20
7.577577632026042
 30
0.0
 11
9.1878373217068514
 21
6.5159073077016885
 31
0.0
  0
LINE
  5
A0
100
AcDbEntity
  8
0
  6
CONTINUOUS
 62
               4
100
AcDbLine
 10
10.670741257109498
 20
9.4150451105665169
 30
0.0
 11
9.5757358988150685
 21
8.3200397522719172
 31
0.0
  0
LINE
  5
A1
100
AcDbEntity
  8
0
  6
CONTINUOUS
 62
               4
100
AcDbLine
 10
10.107076137249337
 20
7.7200091408079103
 30
0.0
 11
9.1878373217068514
 21
6.8007703252653968
 31
0.0
  0
LINE
  5
A2
100
AcDbEntity
  8
0
  6
CONTINUOUS
 62
               4
100
AcDbLine
 10
9.1878373217068514
 20
6.8007703252653968
 30
0.0
 11
9.1878373217068514
 21
6.0936635440788436
 31
0.0
  0
ARC
  5
A3
100
AcDbEntity
  8
0
  6
CONTINUOUS
 62
               4
100
AcDbCircle
 10
11.0271565691164
 20
6.8694606982949651
 30
0.0
 40
2.0520237703338058
100
AcDbArc
 50
135.01661649434493
 51
224.98338350565427
  0
LINE
  5
A4
100
AcDbEntity
  8
0
  6
CONTINUOUS
 62
               4
100
AcDbLine
 10
10.955604274673291
 20
5.0330033722990422
 30
0.0
 11
9.1878373217068514
 21
6.8007703252653968
 31
0.0
  0
LINE
  5
A5
100
AcDbEntity
  8
0
  6
CONTINUOUS
 62
               4
100
AcDbLine
 10
12.440528515164928
 20
5.3865567628923188
 30
0.0
 11
9.5413907123001849
 21
8.2856945657571472
 31
0.0
  0
LINE
  5
A6
100
AcDbEntity
  8
0
  6
CONTINUOUS
 62
               4
100
AcDbLine
 10
10.248497493486624
 20
5.0330033722990422
 30
0.0
 11
9.1878373217068514
 21
6.0936635440788436
 31
0.0
  0
LINE
  5
A7
100
AcDbEntity
  8
0
  6
CONTINUOUS
 62
               4
100
AcDbLine
 10
13.889087264052918
 20
7.6109126659962882
 30
0.0
 11
11.767766920493145
 21
9.7322330095559195
 31
0.0
  0
LINE
  5
A8
100
AcDbEntity
  8
0
  6
CONTINUOUS
 62
               4
100
AcDbLine
 10
11.767766920493145
 20
9.7322330095558911
 30
0.0
 11
11.450579021503913
 21
9.4150451105665169
 31
0.0
  0
LINE
  5
A9
100
AcDbEntity
  8
0
  6
CENTER
 62
             200
100
AcDbLine
 10
13.846924623313939
 20
9.6900703688170253
 30
0.0
 11
8.9334863489616367
 21
4.7766320944645813
 31
0.0
  0
LINE
  5
AA
100
AcDbEntity
  8
0
  6
CONTINUOUS
 62
               4
100
AcDbLine
 10
13.004193635025089
 20
5.9502218827524231
 30
0.0
 11
10.105055832160346
 21
8.84935968561728
 31
0.0
  0
LINE
  5
AB
100
AcDbEntity
  8
0
  6
CONTINUOUS
 62
               4
100
AcDbLine
 10
10.670741257109498
 20
9.4150451105665169
 30
0.0
 11
11.450579021503913
 21
9.4150451105665169
 31
0.0
  0
LINE
  5
AC
100
AcDbEntity
  8
0
  6
CONTINUOUS
 62
               4
100
AcDbLine
 10
13.889087264052918
 20
7.6109126659962314
 30
0.0
 11
13.571899365063459
 21
7.2937247670068857
 31
0.0
  0
ARC
  5
AD
100
AcDbEntity
  8
0
  6
CONTINUOUS
 62
               4
100
AcDbCircle
 10
11.024293995039585
 20
-6.8703972699012095
 30
0.0
 40
2.0506628609917015
100
AcDbArc
 50
44.978576158876109
 51
134.94156910908407
  0
ARC
  5
AE
100
AcDbEntity
  8
0
  6
CONTINUOUS
 62
               4
100
AcDbCircle
 10
11.027156569116329
 20
-6.869460698294878
 30
0.0
 40
2.0520237703338058
100
AcDbArc
 50
135.01661649434493
 51
224.98338350565427
  0
LINE
  5
AF
100
AcDbEntity
  8
0
  6
CONTINUOUS
 62
               4
100
AcDbLine
 10
12.440528515164857
 20
-5.3865567628922317
 30
0.0
 11
9.5413907123001138
 21
-8.2856945657570886
 31
0.0
  0
LINE
  5
B0
100
AcDbEntity
  8
0
  6
CENTER
 62
             200
100
AcDbLine
 10
13.846924623313868
 20
-9.6900703688169383
 30
0.0
 11
8.9334863489615657
 21
-4.7766320944645226
 31
0.0
  0
LINE
  5
B1
100
AcDbEntity
  8
0
  6
CONTINUOUS
 62
               4
100
AcDbLine
 10
13.004193635025018
 20
-5.9502218827523929
 30
0.0
 11
10.105055832160275
 21
-8.8493596856172214
 31
0.0
  0
LINE
  5
B2
100
AcDbEntity
  8
0
  6
CONTINUOUS
 62
               4
100
AcDbLine
 10
10.248497493486553
 20
-5.0330033722989551
 30
0.0
 11
9.1878373217067804
 21
-6.093663544078785
 31
0.0
  0
LINE
  5
B3
100
AcDbEntity
  8
0
  6
CONTINUOUS
 62
               4
100
AcDbLine
 10
10.95560427467322
 20
-5.0330033722989551
 30
0.0
 11
9.1878373217067804
 21
-6.8007703252653382
 31
0.0
  0
LINE
  5
B4
100
AcDbEntity
  8
0
  6
CONTINUOUS
 62
               4
100
AcDbLine
 10
9.1878373217067804
 20
-6.8007703252653382
 30
0.0
 11
9.1878373217067804
 21
-6.093663544078785
 31
0.0
  0
LINE
  5
B5
100
AcDbEntity
  8
0
  6
CONTINUOUS
 62
               4
100
AcDbLine
 10
10.107076137249265
 20
-7.7200091408078517
 30
0.0
 11
9.1878373217067804
 21
-6.8007703252653382
 31
0.0
  0
LINE
  5
B6
100
AcDbEntity
  8
0
  6
CONTINUOUS
 62
             200
100
AcDbLine
 10
10.249507646031276
 20
-7.5775776320259833
 30
0.0
 11
9.1878373217067804
 21
-6.5159073077016014
 31
0.0
  0
LINE
  5
B7
100
AcDbEntity
  8
0
  6
CONTINUOUS
 62
               4
100
AcDbLine
 10
10.248497493486553
 20
-5.0330033722989551
 30
0.0
 11
10.95560427467322
 21
-5.0330033722989551
 31
0.0
  0
LINE
  5
B8
100
AcDbEntity
  8
0
  6
CONTINUOUS
 62
               4
100
AcDbLine
 10
11.874843090215705
 20
-5.9522421878414971
 30
0.0
 11
10.95560427467322
 21
-5.0330033722989551
 31
0.0
  0
LINE
  5
B9
100
AcDbEntity
  8
0
  6
CONTINUOUS
 62
             200
100
AcDbLine
 10
11.734431886522913
 20
-6.0926533915342329
 30
0.0
 11
10.674781867287635
 21
-5.0330033722989551
 31
0.0
  0
LINE
  5
BA
100
AcDbEntity
  8
0
  6
CONTINUOUS
 62
               4
100
AcDbLine
 10
10.670741257109427
 20
-9.4150451105664583
 30
0.0
 11
9.5757358988149974
 21
-8.3200397522718585
 31
0.0
  0
LINE
  5
BB
100
AcDbEntity
  8
0
  6
CONTINUOUS
 62
               4
100
AcDbLine
 10
13.889087264052847
 20
-7.6109126659962012
 30
0.0
 11
13.571899365063388
 21
-7.293724767006827
 31
0.0
  0
LINE
  5
BC
100
AcDbEntity
  8
0
  6
CONTINUOUS
 62
               4
100
AcDbLine
 10
10.670741257109427
 20
-9.4150451105664583
 30
0.0
 11
11.450579021503842
 21
-9.4150451105664583
 31
0.0
  0
LINE
  5
BD
100
AcDbEntity
  8
0
  6
CONTINUOUS
 62
               4
100
AcDbLine
 10
11.767766920493074
 20
-9.7322330095558609
 30
0.0
 11
11.450579021503842
 21
-9.4150451105664583
 31
0.0
  0
LINE
  5
BE
100
AcDbEntity
  8
0
  6
CONTINUOUS
 62
               4
100
AcDbLine
 10
13.889087264052847
 20
-7.6109126659962012
 30
0.0
 11
11.767766920493074
 21
-9.7322330095558609
 31
0.0
  0
LINE
  5
BF
100
AcDbEntity
  8
0
  6
CONTINUOUS
 62
               4
100
AcDbLine
 10
13.569879059974397
 20
-6.5159073077016014
 30
0.0
 11
13.571899365063388
 21
-7.293724767006827
 31
0.0
  0
LINE
  5
C0
100
AcDbEntity
  8
0
  6
CONTINUOUS
 62
               4
100
AcDbLine
 10
13.569879059974397
 20
-6.5159073077016014
 30
0.0
 11
12.474873701679741
 21
-5.4209019494070017
 31
0.0
  0
LINE
  5
C1
100
AcDbEntity
  8
0
  6
CONTINUOUS
 62
               7
100
AcDbLine
 10
10.636396070594728
 20
-9.4493902970812851
 30
0.0
 11
9.505025220696254
 21
-8.3180194471828113
 31
0.0
  0
LINE
  5
C2
100
AcDbEntity
  8
0
  6
CONTINUOUS
 62
               7
100
AcDbLine
 10
11.517766968996384
 20
-9.9822329610527216
 30
0.0
 11
9.9999999300490856
 21
-11.499999999999998
 31
0.0
  0
LINE
  5
C3
100
AcDbEntity
  8
0
  6
CONTINUOUS
 62
               7
100
AcDbLine
 10
10.636396070594728
 20
-9.4493902970812851
 30
0.0
 11
11.343502851781281
 21
-9.4493902970812851
 31
0.0
  0
ARC
  5
C4
100
AcDbEntity
  8
0
  6
CONTINUOUS
 62
               7
100
AcDbCircle
 10
11.271803091776789
 20
-9.8029436876745475
 30
0.0
 40
0.3007001998472195
100
AcDbArc
 50
-44.866737929198983
 51
44.866737929198038
  0
LINE
  5
C5
100
AcDbEntity
  8
0
  6
CONTINUOUS
 62
               7
100
AcDbLine
 10
11.484924208018597
 20
-9.5908116533185872
 30
0.0
 11
11.343502851781281
 21
-9.4493902970812851
 31
0.0
  0
LINE
  5
C6
100
AcDbEntity
  8
0
  6
CONTINUOUS
 62
               7
100
AcDbLine
 10
13.606244551578229
 20
-6.4795418160977842
 30
0.0
 11
12.474873701679755
 21
-5.3481709661993104
 31
0.0
  0
LINE
  5
C7
100
AcDbEntity
  8
0
  6
CONTINUOUS
 62
               7
100
AcDbLine
 10
13.606244551578229
 20
-7.1866485972843233
 30
0.0
 11
13.606244551578229
 21
-6.4795418160977842
 31
0.0
  0
ARC
  5
C8
100
AcDbEntity
  8
0
  6
CONTINUOUS
 62
               7
100
AcDbCircle
 10
13.959797942171505
 20
-7.1166111221065389
 30
0.0
 40
0.2995243519038812
100
AcDbArc
 50
224.90894124989543
 51
315.09105875010232
  0
LINE
  5
C9
100
AcDbEntity
  8
0
  6
CONTINUOUS
 62
               7
100
AcDbLine
 10
13.747665907815545
 20
-7.3280699535216396
 30
0.0
 11
13.606244551578229
 21
-7.1866485972843233
 31
0.0
  0
LINE
  5
CA
100
AcDbEntity
  8
0
  6
CONTINUOUS
 62
               7
100
AcDbLine
 10
14.171929976527466
 20
-7.3280699535216396
 30
0.0
 11
16.0
 21
-5.4999999300492686
 31
0.0
  0
ARC
  5
CB
100
AcDbEntity
  8
0
  6
CONTINUOUS
 62
               7
100
AcDbCircle
 10
10.989949461188004
 20
-6.8330952066910466
 30
0.0
 40
2.1000000111152071
100
AcDbArc
 50
44.99999999999995
 51
224.99999999999955
  0
LINE
  5
CC
100
AcDbEntity
  8
0
  6
CONTINUOUS
 62
               7
100
AcDbLine
 10
0.4000000000000057
 20
-11.499999999999998
 30
0.0
 11
9.9999999300491993
 21
-11.499999999999998
 31
0.0
  0
LINE
  5
CD
100
AcDbEntity
  8
0
  6
CONTINUOUS
 62
               7
100
AcDbLine
 10
16.0
 20
5.499999930049416
 30
0.0
 11
16.0
 21
-5.4999999300492615
 31
0.0
  0
CIRCLE
  5
CE
100
AcDbEntity
  8
0
  6
CONTINUOUS
 62
               7
100
AcDbCircle
 10
6.0
 20
0.0
 30
0.0
 40
5.1499999999999844
  0
CIRCLE
  5
CF
100
AcDbEntity
  8
0
  6
CONTINUOUS
 62
               7
100
AcDbCircle
 10
6.0
 20
0.0
 30
0.0
 40
5.5499999999999901
  0
LINE
  5
D0
100
AcDbEntity
  8
0
  6
CONTINUOUS
 62
               7
100
AcDbLine
 10
14.171929976527466
 20
7.3280699535216414
 30
0.0
 11
16.0
 21
5.4999999300492668
 31
0.0
  0
LINE
  5
D1
100
AcDbEntity
  8
0
  6
CONTINUOUS
 62
               7
100
AcDbLine
 10
13.747665907815545
 20
7.3280699535216414
 30
0.0
 11
13.606244551578229
 21
7.186648597284325
 31
0.0
  0
ARC
  5
D2
100
AcDbEntity
  8
0
  6
CONTINUOUS
 62
               7
100
AcDbCircle
 10
13.959797942171505
 20
7.1166111221065407
 30
0.0
 40
0.2995243519038812
100
AcDbArc
 50
44.908941249896863
 51
135.09105875010374
  0
LINE
  5
D3
100
AcDbEntity
  8
0
  6
CONTINUOUS
 62
               7
100
AcDbLine
 10
13.606244551578229
 20
7.186648597284325
 30
0.0
 11
13.606244551578229
 21
6.479541816097786
 31
0.0
  0
LINE
  5
D4
100
AcDbEntity
  8
0
  6
CONTINUOUS
 62
               7
100
AcDbLine
 10
13.606244551578229
 20
6.479541816097786
 30
0.0
 11
12.474873701679755
 21
5.3481709661993122
 31
0.0
  0
ARC
  5
D5
100
AcDbEntity
  8
0
  6
CONTINUOUS
 62
               7
100
AcDbCircle
 10
10.989949461188004
 20
6.8330952066910484
 30
0.0
 40
2.1000000111152071
100
AcDbArc
 50
134.99999999999966
 51
314.99999999999926
  0
LINE
  5
D6
100
AcDbEntity
  8
0
  6
CONTINUOUS
 62
               7
100
AcDbLine
 10
11.484924208018597
 20
9.590811653318589
 30
0.0
 11
11.343502851781281
 21
9.4493902970812869
 31
0.0
  0
ARC
  5
D7
100
AcDbEntity
  8
0
  6
CONTINUOUS
 62
               7
100
AcDbCircle
 10
11.271803091776789
 20
9.8029436876745493
 30
0.0
 40
0.3007001998472195
100
AcDbArc
 50
315.13326207080115
 51
44.866737929199004
  0
LINE
  5
D8
100
AcDbEntity
  8
0
  6
CONTINUOUS
 62
               7
100
AcDbLine
 10
10.636396070594728
 20
9.4493902970812869
 30
0.0
 11
11.343502851781281
 21
9.4493902970812869
 31
0.0
  0
LINE
  5
D9
100
AcDbEntity
  8
0
  6
CONTINUOUS
 62
               7
100
AcDbLine
 10
11.517766968996384
 20
9.9822329610527234
 30
0.0
 11
9.9999999300490856
 21
11.5
 31
0.0
  0
LINE
  5
DA
100
AcDbEntity
  8
0
  6
CONTINUOUS
 62
               7
100
AcDbLine
 10
10.636396070594728
 20
9.4493902970812869
 30
0.0
 11
9.505025220696254
 21
8.3180194471828131
 31
0.0
  0
LINE
  5
DB
100
AcDbEntity
  8
0
  6
CONTINUOUS
 62
               7
100
AcDbLine
 10
0.4000000000000057
 20
11.5
 30
0.0
 11
9.9999999300491993
 21
11.5
 31
0.0
  0
LINE
  5
DC
100
AcDbEntity
  8
0
  6
CENTER
 62
               2
100
AcDbLine
 10
-1.0175191479551984
 20
0.0
 30
0.0
 11
17.240878655828027
 21
0.0000000000000018
 31
0.0
  0
LINE
  5
DD
100
AcDbEntity
  8
0
  6
CONTINUOUS
 62
               7
100
AcDbLine
 10
0.0
 20
11.100000000000001
 30
0.0
 11
0.0
 21
-11.1
 31
0.0
  0
LINE
  5
DE
100
AcDbEntity
  8
0
  6
CENTER
 62
               2
100
AcDbLine
 10
6.0
 20
-7.0499999999999883
 30
0.0
 11
6.0
 21
7.0499999999999901
 31
0.0
  0
CIRCLE
  5
DF
100
AcDbEntity
  8
0
  6
CONTINUOUS
 62
               2
100
AcDbCircle
 10
6.0
 20
0.0
 30
0.0
 40
1.7000000000000028
  0
CIRCLE
  5
E0
100
AcDbEntity
  8
0
  6
CONTINUOUS
 62
               7
100
AcDbCircle
 10
6.0
 20
0.0
 30
0.0
 40
2.0
  0
CIRCLE
  5
E1
100
AcDbEntity
  8
0
  6
CONTINUOUS
 62
               7
100
AcDbCircle
 10
6.0
 20
0.0
 30
0.0
 40
3.5
  0
LINE
  5
E2
100
AcDbEntity
  8
0
  6
CONTINUOUS
 62
               7
100
AcDbLine
 10
2.5000000147587116
 20
2.0207259559744557
 30
0.0
 11
6.000000069567065
 21
4.0414519297817577
 31
0.0
  0
LINE
  5
E3
100
AcDbEntity
  8
0
  6
CONTINUOUS
 62
               7
100
AcDbLine
 10
2.4999999954188752
 20
-2.0207259224768919
 30
0.0
 11
2.4999999954189036
 21
2.0207260251377193
 31
0.0
  0
LINE
  5
E4
100
AcDbEntity
  8
0
  6
CONTINUOUS
 62
               7
100
AcDbLine
 10
5.9999999806601778
 20
-4.0414518784513458
 30
0.0
 11
2.4999999258518244
 21
-2.0207259046440385
 31
0.0
  0
LINE
  5
E5
100
AcDbEntity
  8
0
  6
CONTINUOUS
 62
               7
100
AcDbLine
 10
9.4999999852413026
 20
-2.0207259559744628
 30
0.0
 11
5.9999999304329492
 21
-4.0414519297817559
 31
0.0
  0
LINE
  5
E6
100
AcDbEntity
  8
0
  6
CONTINUOUS
 62
               7
100
AcDbLine
 10
9.5000000045811248
 20
2.0207259224768848
 30
0.0
 11
9.5000000045811248
 21
-2.0207260251377193
 31
0.0
  0
LINE
  5
E7
100
AcDbEntity
  8
0
  6
CONTINUOUS
 62
               7
100
AcDbLine
 10
6.0000000193398364
 20
4.0414518784513405
 30
0.0
 11
9.5000000741481756
 21
2.0207259046440385
 31
0.0
  0
ARC
  5
E8
100
AcDbEntity
  8
0
  6
CONTINUOUS
 62
               7
100
AcDbCircle
 10
0.4000000000000057
 20
11.100000000000001
 30
0.0
 40
0.4
100
AcDbArc
 50
89.999999999999801
 51
179.9999999999996
  0
ARC
  5
E9
100
AcDbEntity
  8
0
  6
CONTINUOUS
 62
               7
100
AcDbCircle
 10
0.4000000000000057
 20
-11.1
 30
0.0
 40
0.4
100
AcDbArc
 50
179.9999999999996
 51
269.99999999999937
  0
LINE
  5
EA
100
AcDbEntity
  8
0
  6
CENTER
 62
               2
100
AcDbLine
 10
1.5
 20
8.5000000000000018
 30
0.0
 11
-1.5
 21
8.5000000000000018
 31
0.0
  0
LINE
  5
EB
100
AcDbEntity
  8
0
  6
CENTER
 62
               2
100
AcDbLine
 10
1.5
 20
-8.5000000000000018
 30
0.0
 11
-1.5
 21
-8.5000000000000018
 31
0.0
  0
ENDBLK
  5
EC
100
AcDbEntity
  8
0
100
AcDbBlockEnd
  0
BLOCK
  5
ED
100
AcDbEntity
  8
0
100
AcDbBlockBegin
  2
MS_3
 70
               0
 10
0.0
 20
0.0
 30
0.0
  3
MS_3
  1

  0
LINE
  5
EE
100
AcDbEntity
  8
0
  6
PHANTOM
 62
               3
100
AcDbLine
 10
27.385228538949463
 20
21.0
 30
0.0
 11
27.385228538949463
 21
-5.0
 31
0.0
  0
LINE
  5
EF
100
AcDbEntity
  8
0
  6
CONTINUOUS
 62
               4
100
AcDbLine
 10
10.75
 20
2.3055474890414374
 30
0.0
 11
10.75
 21
4.0375982966103336
 31
0.0
  0
LINE
  5
F0
100
AcDbEntity
  8
0
  6
CONTINUOUS
 62
               4
100
AcDbLine
 10
11.25
 20
2.3055474890414374
 30
0.0
 11
11.25
 21
4.0375982966103336
 31
0.0
  0
ELLIPSE
  5
F1
100
AcDbEntity
  8
0
  6
CONTINUOUS
 62
               4
100
AcDbEllipse
 10
11.0
 20
3.1715728928258855
 30
0.0
 11
-1.25
 21
0.0000000000000002
 31
0.0
210
0.0
220
0.0
230
1.0
 40
0.7071067811865476
 41
0.0
 42
6.2831853071795862
  0
LINE
  5
F2
100
AcDbEntity
  8
0
  6
CONTINUOUS
 62
               4
100
AcDbLine
 10
9.0
 20
4.4274967083759975
 30
0.0
 11
9.0
 21
2.1109127359471742
 31
0.0
  0
LINE
  5
F3
100
AcDbEntity
  8
0
  6
CONTINUOUS
 62
               4
100
AcDbLine
 10
24.500000000000227
 20
4.4274967083759975
 30
0.0
 11
24.500000000000227
 21
2.1109127359471742
 31
0.0
  0
LINE
  5
F4
100
AcDbEntity
  8
0
  6
CONTINUOUS
 62
               4
100
AcDbLine
 10
34.000000014764879
 20
5.9772078139526528
 30
0.0
 11
45.308141582325391
 21
5.9772078139526528
 31
0.0
  0
LINE
  5
F5
100
AcDbEntity
  8
0
  6
CONTINUOUS
 62
               4
100
AcDbLine
 10
24.500000000000227
 20
3.4772078139526528
 30
0.0
 11
44.638268608673869
 21
3.4772078139526528
 31
0.0
  0
LINE
  5
F6
100
AcDbEntity
  8
0
  6
CONTINUOUS
 62
               4
100
AcDbLine
 10
24.500000016874623
 20
4.2322330795069476
 30
0.0
 11
9.0000000168746226
 21
4.2322330795069476
 31
0.0
  0
LINE
  5
F7
100
AcDbEntity
  8
0
  6
CONTINUOUS
 62
               4
100
AcDbLine
 10
24.500000016874623
 20
2.1109127359471742
 30
0.0
 11
9.0000000168746226
 21
2.1109127359471742
 31
0.0
  0
LINE
  5
F8
100
AcDbEntity
  8
0
  6
CONTINUOUS
 62
               7
100
AcDbLine
 10
0.0
 20
6.0000000699508007
 30
0.0
 11
34.000000014764879
 21
6.0000000699508007
 31
0.0
  0
LINE
  5
F9
100
AcDbEntity
  8
0
  6
CONTINUOUS
 62
               7
100
AcDbLine
 10
0.0
 20
4.4274967083759975
 30
0.0
 11
34.000000014764879
 21
4.4274967083759975
 31
0.0
  0
LINE
  5
FA
100
AcDbEntity
  8
0
  6
CONTINUOUS
 62
               7
100
AcDbLine
 10
0.0
 20
2.3937554484217856
 30
0.0
 11
9.0
 21
2.3937554484217856
 31
0.0
  0
LINE
  5
FB
100
AcDbEntity
  8
0
  6
CONTINUOUS
 62
               7
100
AcDbLine
 10
0.0
 20
2.0402020578285089
 30
0.0
 11
34.000000014764879
 21
2.0402020578285089
 31
0.0
  0
LINE
  5
FC
100
AcDbEntity
  8
0
  6
CONTINUOUS
 62
               7
100
AcDbLine
 10
0.0
 20
0.0
 30
0.0
 11
34.000000014764879
 21
0.0
 31
0.0
  0
LINE
  5
FD
100
AcDbEntity
  8
0
  6
CONTINUOUS
 62
               2
100
AcDbLine
 10
-9.9999999852351209
 20
8.2999999999999972
 30
0.0
 11
-6.7999999852351323
 21
8.2999999999999972
 31
0.0
  0
LINE
  5
FE
100
AcDbEntity
  8
0
  6
CONTINUOUS
 62
               7
100
AcDbLine
 10
-9.699999985235138
 20
8.0
 30
0.0
 11
-9.9999999852351209
 21
8.2999999999999972
 31
0.0
  0
LINE
  5
FF
100
AcDbEntity
  8
0
  6
CONTINUOUS
 62
               2
100
AcDbLine
 10
-0.9999999852351209
 20
8.2999999999999972
 30
0.0
 11
-0.4803847429644748
 21
8.0
 31
0.0
  0
LINE
  5
100
100
AcDbEntity
  8
0
  6
CONTINUOUS
 62
               7
100
AcDbLine
 10
-9.699999985235138
 20
12.0
 30
0.0
 11
-9.699999985235138
 21
8.0
 31
0.0
  0
LINE
  5
101
100
AcDbEntity
  8
0
  6
CONTINUOUS
 62
               7
100
AcDbLine
 10
-0.9999999852351209
 20
12.0
 30
0.0
 11
-0.9999999852351209
 21
8.0
 31
0.0
  0
LINE
  5
102
100
AcDbEntity
  8
0
  6
CONTINUOUS
 62
               7
100
AcDbLine
 10
-9.9999999852351209
 20
11.700000000000003
 30
0.0
 11
-9.9999999852351209
 21
8.2999999999999972
 31
0.0
  0
LINE
  5
103
100
AcDbEntity
  8
0
  6
CONTINUOUS
 62
               2
100
AcDbLine
 10
-0.9999999852351209
 20
11.700000000000003
 30
0.0
 11
-0.4803847429644748
 21
12.0
 31
0.0
  0
LINE
  5
104
100
AcDbEntity
  8
0
  6
CONTINUOUS
 62
               7
100
AcDbLine
 10
-9.699999985235138
 20
12.0
 30
0.0
 11
-9.9999999852351209
 21
11.700000000000003
 31
0.0
  0
LINE
  5
105
100
AcDbEntity
  8
0
  6
CONTINUOUS
 62
               2
100
AcDbLine
 10
-9.9999999852351209
 20
11.700000000000003
 30
0.0
 11
-6.7999999852351323
 21
11.700000000000003
 31
0.0
  0
LINE
  5
106
100
AcDbEntity
  8
0
  6
CONTINUOUS
 62
               7
100
AcDbLine
 10
-9.699999985235138
 20
12.0
 30
0.0
 11
-6.7999999852351323
 21
12.0
 31
0.0
  0
LINE
  5
107
100
AcDbEntity
  8
0
  6
CENTER
 62
               2
100
AcDbLine
 10
-11.096987471272001
 20
10.0
 30
0.0
 11
35.239086527694099
 21
10.0
 31
0.0
  0
LINE
  5
108
100
AcDbEntity
  8
0
  6
CONTINUOUS
 62
               7
100
AcDbLine
 10
-9.699999985235138
 20
8.0
 30
0.0
 11
-6.7999999852351323
 21
8.0
 31
0.0
  0
LINE
  5
109
100
AcDbEntity
  8
0
  6
CONTINUOUS
 62
               7
100
AcDbLine
 10
0.0
 20
16.0
 30
0.0
 11
34.000000014764879
 21
16.0
 31
0.0
  0
LINE
  5
10A
100
AcDbEntity
  8
0
  6
CONTINUOUS
 62
               7
100
AcDbLine
 10
0.0
 20
16.0
 30
0.0
 11
0.0
 21
0.0
 31
0.0
  0
LINE
  5
10B
100
AcDbEntity
  8
0
  6
CONTINUOUS
 62
               7
100
AcDbLine
 10
34.000000014764879
 20
16.0
 30
0.0
 11
34.000000014764879
 21
4.4274967083759975
 31
0.0
  0
CIRCLE
  5
10D
100
AcDbEntity
  8
0
  6
DASHED
 62
               7
100
AcDbCircle
 10
14.000000014764879
 20
10.0
 30
0.0
 40
1.2
  0
CIRCLE
  5
10E
100
AcDbEntity
  8
0
  6
DASHED
 62
               2
100
AcDbCircle
 10
14.000000014764879
 20
10.0
 30
0.0
 40
1.5
  0
LINE
  5
10F
100
AcDbEntity
  8
0
  6
CENTER
 62
               2
100
AcDbLine
 10
14.000000014764879
 20
7.5
 30
0.0
 11
14.000000014764879
 21
12.5
 31
0.0
  0
CIRCLE
  5
110
100
AcDbEntity
  8
0
  6
DASHED
 62
               7
100
AcDbCircle
 10
31.000000014764879
 20
10.0
 30
0.0
 40
1.2
  0
CIRCLE
  5
111
100
AcDbEntity
  8
0
  6
DASHED
 62
               2
100
AcDbCircle
 10
31.000000014764879
 20
10.0
 30
0.0
 40
1.5
  0
LINE
  5
112
100
AcDbEntity
  8
0
  6
CENTER
 62
               2
100
AcDbLine
 10
31.000000014764879
 20
7.5
 30
0.0
 11
31.000000014764879
 21
12.5
 31
0.0
  0
SPLINE
  5
113
100
AcDbEntity
  8
0
  6
CONTINUOUS
 62
               7
100
AcDbSpline
210
0.0
220
0.0
230
1.0
 70
               0
 71
               3
 72
               0
 73
               0
 74
               5
 44
0.000001
 12
-0.3364389663850757
 22
-0.9417052733725887
 32
0.0
 13
0.3364389571584284
 23
-0.9417052766689529
 33
0.0
 11
-4.0873925226308643
 21
13.499999963064312
 31
0.0
 11
-4.318457268529202
 21
12.639236642840407
 31
0.0
 11
-4.3999999852351266
 21
11.749999981532156
 31
0.0
 11
-4.318457277020018
 21
10.860763320980631
 31
0.0
 11
-4.0873925398372393
 21
10.0
 31
0.0
  0
SPLINE
  5
114
100
AcDbEntity
  8
0
  6
CONTINUOUS
 62
               7
100
AcDbSpline
210
0.0
220
0.0
230
1.0
 70
               0
 71
               3
 72
               0
 73
               0
 74
               5
 44
0.000001
 12
0.3364389663850756
 22
-0.9417052733725887
 32
0.0
 13
-0.3364389571584283
 23
-0.941705276668953
 33
0.0
 11
-2.3126074478393832
 21
13.499999963064312
 31
0.0
 11
-2.081542701941046
 21
12.639236642840407
 31
0.0
 11
-1.9999999852351209
 21
11.749999981532156
 31
0.0
 11
-2.0815426934502295
 21
10.860763320980631
 31
0.0
 11
-2.3126074306330082
 21
10.0
 31
0.0
  0
SPLINE
  5
115
100
AcDbEntity
  8
0
  6
CONTINUOUS
 62
               7
100
AcDbSpline
210
0.0
220
0.0
230
1.0
 70
               0
 71
               3
 72
               0
 73
               0
 74
               5
 44
0.000001
 12
0.3364389663850756
 22
0.9417052733725887
 32
0.0
 13
-0.3364389571584283
 23
0.941705276668953
 33
0.0
 11
-2.3126074478393832
 21
6.5000000369356883
 31
0.0
 11
-2.081542701941046
 21
7.360763357159593
 31
0.0
 11
-1.9999999852351209
 21
8.2500000184678441
 31
0.0
 11
-2.0815426934502295
 21
9.1392366790193691
 31
0.0
 11
-2.3126074306330082
 21
10.0
 31
0.0
  0
SPLINE
  5
116
100
AcDbEntity
  8
0
  6
CONTINUOUS
 62
               7
100
AcDbSpline
210
0.0
220
0.0
230
1.0
 70
               0
 71
               3
 72
               0
 73
               0
 74
               5
 44
0.000001
 12
-0.3364389663850757
 22
0.9417052733725887
 32
0.0
 13
0.3364389571584284
 23
0.9417052766689529
 33
0.0
 11
-4.0873925226308643
 21
6.5000000369356883
 31
0.0
 11
-4.318457268529202
 21
7.360763357159593
 31
0.0
 11
-4.3999999852351266
 21
8.2500000184678441
 31
0.0
 11
-4.318457277020018
 21
9.1392366790193691
 31
0.0
 11
-4.0873925398372393
 21
10.0
 31
0.0
  0
SPLINE
  5
117
100
AcDbEntity
  8
0
  6
CONTINUOUS
 62
               7
100
AcDbSpline
210
0.0
220
0.0
230
1.0
 70
               0
 71
               3
 72
               0
 73
               0
 74
               5
 44
0.000001
 12
0.3364389663850756
 22
0.9417052733725887
 32
0.0
 13
-0.3364389571584283
 23
0.941705276668953
 33
0.0
 11
-4.7126074478393889
 21
6.5000000369356883
 31
0.0
 11
-4.4815427019410512
 21
7.360763357159593
 31
0.0
 11
-4.3999999852351266
 21
8.2500000184678441
 31
0.0
 11
-4.4815426934502351
 21
9.1392366790193691
 31
0.0
 11
-4.7126074306330139
 21
10.0
 31
0.0
  0
SPLINE
  5
118
100
AcDbEntity
  8
0
  6
CONTINUOUS
 62
               7
100
AcDbSpline
210
0.0
220
0.0
230
1.0
 70
               0
 71
               3
 72
               0
 73
               0
 74
               5
 44
0.000001
 12
-0.3364389663850757
 22
0.9417052733725887
 32
0.0
 13
0.3364389571584284
 23
0.9417052766689529
 33
0.0
 11
-6.48739252263087
 21
6.5000000369356883
 31
0.0
 11
-6.7184572685292077
 21
7.360763357159593
 31
0.0
 11
-6.7999999852351323
 21
8.2500000184678441
 31
0.0
 11
-6.7184572770200237
 21
9.1392366790193691
 31
0.0
 11
-6.487392539837245
 21
10.0
 31
0.0
  0
SPLINE
  5
119
100
AcDbEntity
  8
0
  6
CONTINUOUS
 62
               7
100
AcDbSpline
210
0.0
220
0.0
230
1.0
 70
               0
 71
               3
 72
               0
 73
               0
 74
               5
 44
0.000001
 12
-0.3364389663850757
 22
-0.9417052733725887
 32
0.0
 13
0.3364389571584284
 23
-0.9417052766689529
 33
0.0
 11
-6.48739252263087
 21
13.499999963064312
 31
0.0
 11
-6.7184572685292077
 21
12.639236642840407
 31
0.0
 11
-6.7999999852351323
 21
11.749999981532156
 31
0.0
 11
-6.7184572770200237
 21
10.860763320980631
 31
0.0
 11
-6.487392539837245
 21
10.0
 31
0.0
  0
SPLINE
  5
11A
100
AcDbEntity
  8
0
  6
CONTINUOUS
 62
               7
100
AcDbSpline
210
0.0
220
0.0
230
1.0
 70
               0
 71
               3
 72
               0
 73
               0
 74
               5
 44
0.000001
 12
0.3364389663850756
 22
-0.9417052733725887
 32
0.0
 13
-0.3364389571584283
 23
-0.941705276668953
 33
0.0
 11
-4.7126074478393889
 21
13.499999963064312
 31
0.0
 11
-4.4815427019410512
 21
12.639236642840407
 31
0.0
 11
-4.3999999852351266
 21
11.749999981532156
 31
0.0
 11
-4.4815426934502351
 21
10.860763320980631
 31
0.0
 11
-4.7126074306330139
 21
10.0
 31
0.0
  0
LINE
  5
11B
100
AcDbEntity
  8
0
  6
CONTINUOUS
 62
               7
100
AcDbLine
 10
-4.0873925398372393
 20
10.0
 30
0.0
 11
-2.3126074306330082
 21
10.0
 31
0.0
  0
LINE
  5
11C
100
AcDbEntity
  8
0
  6
CONTINUOUS
 62
               7
100
AcDbLine
 10
-1.9999999852351209
 20
6.5000000285843242
 30
0.0
 11
-1.9999999852351209
 21
13.499999968979679
 31
0.0
  0
LINE
  5
11D
100
AcDbEntity
  8
0
  6
CONTINUOUS
 62
               7
100
AcDbLine
 10
-4.3999999852351266
 20
6.5000000285843242
 30
0.0
 11
-4.3999999852351266
 21
13.499999968979679
 31
0.0
  0
LINE
  5
11E
100
AcDbEntity
  8
0
  6
CONTINUOUS
 62
               7
100
AcDbLine
 10
-4.3999999852351266
 20
13.499999963064312
 30
0.0
 11
-1.9999999852351209
 21
13.499999963064312
 31
0.0
  0
LINE
  5
11F
100
AcDbEntity
  8
0
  6
CONTINUOUS
 62
               7
100
AcDbLine
 10
-4.3999999852351266
 20
6.5000000369356883
 30
0.0
 11
-1.9999999852351209
 21
6.5000000369356883
 31
0.0
  0
LINE
  5
120
100
AcDbEntity
  8
0
  6
CONTINUOUS
 62
               7
100
AcDbLine
 10
-4.3999999852351266
 20
6.5000000369356883
 30
0.0
 11
-6.7999999852351323
 21
6.5000000369356883
 31
0.0
  0
LINE
  5
121
100
AcDbEntity
  8
0
  6
CONTINUOUS
 62
               7
100
AcDbLine
 10
-4.3999999852351266
 20
13.499999963064312
 30
0.0
 11
-6.7999999852351323
 21
13.499999963064312
 31
0.0
  0
LINE
  5
122
100
AcDbEntity
  8
0
  6
CONTINUOUS
 62
               7
100
AcDbLine
 10
-6.7999999852351323
 20
6.5000000285843242
 30
0.0
 11
-6.7999999852351323
 21
13.499999968979679
 31
0.0
  0
LINE
  5
123
100
AcDbEntity
  8
0
  6
CONTINUOUS
 62
               7
100
AcDbLine
 10
-4.7126074306330139
 20
10.0
 30
0.0
 11
-6.487392539837245
 21
10.0
 31
0.0
  0
LINE
  5
124
100
AcDbEntity
  8
0
  6
CONTINUOUS
 62
               2
100
AcDbLine
 10
-1.9999999852351209
 20
11.700000000000003
 30
0.0
 11
-0.9999999852351209
 21
11.700000000000003
 31
0.0
  0
LINE
  5
125
100
AcDbEntity
  8
0
  6
CONTINUOUS
 62
               7
100
AcDbLine
 10
-1.9999999852351209
 20
12.0
 30
0.0
 11
0.0
 21
12.0
 31
0.0
  0
LINE
  5
126
100
AcDbEntity
  8
0
  6
CONTINUOUS
 62
               2
100
AcDbLine
 10
-1.9999999852351209
 20
8.2999999999999972
 30
0.0
 11
-0.9999999852351209
 21
8.2999999999999972
 31
0.0
  0
LINE
  5
127
100
AcDbEntity
  8
0
  6
CONTINUOUS
 62
               7
100
AcDbLine
 10
-1.9999999852351209
 20
8.0
 30
0.0
 11
0.0
 21
8.0
 31
0.0
  0
LINE
  5
128
100
AcDbEntity
  8
0
  6
CENTER
 62
               2
100
AcDbLine
 10
3.5
 20
7.5
 30
0.0
 11
3.5
 21
12.5
 31
0.0
  0
CIRCLE
  5
129
100
AcDbEntity
  8
0
  6
DASHED
 62
               2
100
AcDbCircle
 10
3.5
 20
10.0
 30
0.0
 40
1.5
  0
CIRCLE
  5
12A
100
AcDbEntity
  8
0
  6
DASHED
 62
               7
100
AcDbCircle
 10
3.5
 20
10.0
 30
0.0
 40
1.2
  0
LINE
  5
12B
100
AcDbEntity
  8
0
  6
CONTINUOUS
 62
               7
100
AcDbLine
 10
34.000000014764879
 20
3.4772078139526528
 30
0.0
 11
34.000000014764879
 21
0.0
 31
0.0
  0
LINE
  5
12C
100
AcDbEntity
  8
0
  6
CONTINUOUS
 62
             200
100
AcDbLine
 10
44.277537915272191
 20
2.1309425234031849
 30
0.0
 11
45.686506801650452
 21
7.3892860519451986
 31
0.0
  0
LINE
  5
12D
100
AcDbEntity
  8
0
  6
CONTINUOUS
 62
               7
100
AcDbLine
 10
24.500000000000227
 20
2.3937554484217856
 30
0.0
 11
34.000000014764879
 21
2.3937554484217856
 31
0.0
  0
LINE
  5
12E
100
AcDbEntity
  8
0
  6
CENTER
 62
               2
100
AcDbLine
 10
8.9999999915627029
 20
14.5
 30
0.0
 11
8.9999999915627029
 21
17.5
 31
0.0
  0
ENDBLK
  5
12F
100
AcDbEntity
  8
0
100
AcDbBlockEnd
  0
BLOCK
  5
130
100
AcDbEntity
  8
0
100
AcDbBlockBegin
  2
MS_4
 70
               0
 10
0.0
 20
0.0
 30
0.0
  3
MS_4
  1

  0
LINE
  5
131
100
AcDbEntity
  8
0
  6
PHANTOM
 62
               3
100
AcDbLine
 10
16.969068217215366
 20
21.0
 30
0.0
 11
16.969068217215366
 21
-5.0
 31
0.0
  0
LINE
  5
132
100
AcDbEntity
  8
0
  6
CONTINUOUS
 62
               7
100
AcDbLine
 10
34.000000014764879
 20
0.0
 30
0.0
 11
34.000000014764879
 21
11.572503291624002
 31
0.0
  0
LINE
  5
133
100
AcDbEntity
  8
0
  6
CONTINUOUS
 62
               7
100
AcDbLine
 10
0.0
 20
0.0
 30
0.0
 11
0.0
 21
16.0
 31
0.0
  0
LINE
  5
134
100
AcDbEntity
  8
0
  6
CONTINUOUS
 62
               7
100
AcDbLine
 10
0.0
 20
0.0
 30
0.0
 11
34.000000014764879
 21
0.0
 31
0.0
  0
LINE
  5
135
100
AcDbEntity
  8
0
  6
CENTER
 62
               2
100
AcDbLine
 10
14.000000014764879
 20
3.5
 30
0.0
 11
14.000000014764879
 21
8.5
 31
0.0
  0
LINE
  5
136
100
AcDbEntity
  8
0
  6
CONTINUOUS
 62
               7
100
AcDbLine
 10
-9.699999985235138
 20
8.0
 30
0.0
 11
-6.7999999852351323
 21
8.0
 31
0.0
  0
LINE
  5
137
100
AcDbEntity
  8
0
  6
CENTER
 62
               2
100
AcDbLine
 10
-11.096987471272001
 20
6.0
 30
0.0
 11
35.239086527694099
 21
6.0
 31
0.0
  0
LINE
  5
138
100
AcDbEntity
  8
0
  6
CONTINUOUS
 62
               7
100
AcDbLine
 10
-9.699999985235138
 20
4.0
 30
0.0
 11
-6.7999999852351323
 21
4.0
 31
0.0
  0
LINE
  5
139
100
AcDbEntity
  8
0
  6
CONTINUOUS
 62
               2
100
AcDbLine
 10
-9.9999999852351209
 20
4.2999999999999972
 30
0.0
 11
-6.7999999852351323
 21
4.2999999999999972
 31
0.0
  0
LINE
  5
13A
100
AcDbEntity
  8
0
  6
CONTINUOUS
 62
               7
100
AcDbLine
 10
-9.699999985235138
 20
4.0
 30
0.0
 11
-9.9999999852351209
 21
4.2999999999999972
 31
0.0
  0
LINE
  5
13B
100
AcDbEntity
  8
0
  6
CONTINUOUS
 62
               2
100
AcDbLine
 10
-0.9999999852351209
 20
4.2999999999999972
 30
0.0
 11
-0.4803847429644748
 21
4.0
 31
0.0
  0
LINE
  5
13C
100
AcDbEntity
  8
0
  6
CONTINUOUS
 62
               7
100
AcDbLine
 10
-9.9999999852351209
 20
4.2999999999999972
 30
0.0
 11
-9.9999999852351209
 21
7.7000000000000028
 31
0.0
  0
LINE
  5
13D
100
AcDbEntity
  8
0
  6
CONTINUOUS
 62
               7
100
AcDbLine
 10
-0.9999999852351209
 20
4.0
 30
0.0
 11
-0.9999999852351209
 21
8.0
 31
0.0
  0
LINE
  5
13E
100
AcDbEntity
  8
0
  6
CONTINUOUS
 62
               7
100
AcDbLine
 10
-9.699999985235138
 20
4.0
 30
0.0
 11
-9.699999985235138
 21
8.0
 31
0.0
  0
LINE
  5
13F
100
AcDbEntity
  8
0
  6
CONTINUOUS
 62
               2
100
AcDbLine
 10
-0.9999999852351209
 20
7.7000000000000028
 30
0.0
 11
-0.4803847429644748
 21
8.0
 31
0.0
  0
LINE
  5
140
100
AcDbEntity
  8
0
  6
CONTINUOUS
 62
               7
100
AcDbLine
 10
-9.699999985235138
 20
8.0
 30
0.0
 11
-9.9999999852351209
 21
7.7000000000000028
 31
0.0
  0
LINE
  5
141
100
AcDbEntity
  8
0
  6
CONTINUOUS
 62
               2
100
AcDbLine
 10
-9.9999999852351209
 20
7.7000000000000028
 30
0.0
 11
-6.7999999852351323
 21
7.7000000000000028
 31
0.0
  0
LINE
  5
142
100
AcDbEntity
  8
0
  6
CONTINUOUS
 62
               7
100
AcDbLine
 10
0.0
 20
16.0
 30
0.0
 11
34.000000014764879
 21
16.0
 31
0.0
  0
LINE
  5
143
100
AcDbEntity
  8
0
  6
CONTINUOUS
 62
               7
100
AcDbLine
 10
0.0
 20
13.959797942171491
 30
0.0
 11
34.000000014764879
 21
13.959797942171491
 31
0.0
  0
LINE
  5
144
100
AcDbEntity
  8
0
  6
CONTINUOUS
 62
               7
100
AcDbLine
 10
0.0
 20
13.606244551578222
 30
0.0
 11
19.500000014764652
 21
13.606244551578222
 31
0.0
  0
LINE
  5
145
100
AcDbEntity
  8
0
  6
CONTINUOUS
 62
               7
100
AcDbLine
 10
0.0
 20
11.572503291624002
 30
0.0
 11
34.000000014764879
 21
11.572503291624002
 31
0.0
  0
LINE
  5
146
100
AcDbEntity
  8
0
  6
CONTINUOUS
 62
               7
100
AcDbLine
 10
0.0
 20
9.9999999300491993
 30
0.0
 11
34.000000014764879
 21
9.9999999300491993
 31
0.0
  0
CIRCLE
  5
147
100
AcDbEntity
  8
0
  6
DASHED
 62
               2
100
AcDbCircle
 10
14.000000014764879
 20
6.0
 30
0.0
 40
1.5
  0
CIRCLE
  5
148
100
AcDbEntity
  8
0
  6
DASHED
 62
               7
100
AcDbCircle
 10
14.000000014764879
 20
6.0
 30
0.0
 40
1.2
  0
CIRCLE
  5
149
100
AcDbEntity
  8
0
  6
DASHED
 62
               7
100
AcDbCircle
 10
31.000000014764879
 20
6.0
 30
0.0
 40
1.2
  0
CIRCLE
  5
14A
100
AcDbEntity
  8
0
  6
DASHED
 62
               2
100
AcDbCircle
 10
31.000000014764879
 20
6.0
 30
0.0
 40
1.5
  0
LINE
  5
14B
100
AcDbEntity
  8
0
  6
CENTER
 62
               2
100
AcDbLine
 10
31.000000014764879
 20
3.5
 30
0.0
 11
31.000000014764879
 21
8.5
 31
0.0
  0
SPLINE
  5
14C
100
AcDbEntity
  8
0
  6
CONTINUOUS
 62
               7
100
AcDbSpline
210
0.0
220
0.0
230
1.0
 70
               0
 71
               3
 72
               0
 73
               0
 74
               5
 44
0.000001
 12
-0.3364389663850757
 22
-0.9417052733725887
 32
0.0
 13
0.3364389571584284
 23
-0.9417052766689529
 33
0.0
 11
-4.0873925226308643
 21
9.4999999630643117
 31
0.0
 11
-4.318457268529202
 21
8.639236642840407
 31
0.0
 11
-4.3999999852351266
 21
7.7499999815321559
 31
0.0
 11
-4.318457277020018
 21
6.8607633209806309
 31
0.0
 11
-4.0873925398372393
 21
6.0
 31
0.0
  0
SPLINE
  5
14D
100
AcDbEntity
  8
0
  6
CONTINUOUS
 62
               7
100
AcDbSpline
210
0.0
220
0.0
230
1.0
 70
               0
 71
               3
 72
               0
 73
               0
 74
               5
 44
0.000001
 12
0.3364389663850756
 22
-0.9417052733725887
 32
0.0
 13
-0.3364389571584283
 23
-0.941705276668953
 33
0.0
 11
-2.3126074478393832
 21
9.4999999630643117
 31
0.0
 11
-2.081542701941046
 21
8.639236642840407
 31
0.0
 11
-1.9999999852351209
 21
7.7499999815321559
 31
0.0
 11
-2.0815426934502295
 21
6.8607633209806309
 31
0.0
 11
-2.3126074306330082
 21
6.0
 31
0.0
  0
SPLINE
  5
14E
100
AcDbEntity
  8
0
  6
CONTINUOUS
 62
               7
100
AcDbSpline
210
0.0
220
0.0
230
1.0
 70
               0
 71
               3
 72
               0
 73
               0
 74
               5
 44
0.000001
 12
0.3364389663850756
 22
0.9417052733725887
 32
0.0
 13
-0.3364389571584283
 23
0.941705276668953
 33
0.0
 11
-2.3126074478393832
 21
2.5000000369356883
 31
0.0
 11
-2.081542701941046
 21
3.3607633571595934
 31
0.0
 11
-1.9999999852351209
 21
4.2500000184678441
 31
0.0
 11
-2.0815426934502295
 21
5.1392366790193691
 31
0.0
 11
-2.3126074306330082
 21
6.0
 31
0.0
  0
SPLINE
  5
14F
100
AcDbEntity
  8
0
  6
CONTINUOUS
 62
               7
100
AcDbSpline
210
0.0
220
0.0
230
1.0
 70
               0
 71
               3
 72
               0
 73
               0
 74
               5
 44
0.000001
 12
-0.3364389663850757
 22
0.9417052733725887
 32
0.0
 13
0.3364389571584284
 23
0.9417052766689529
 33
0.0
 11
-4.0873925226308643
 21
2.5000000369356883
 31
0.0
 11
-4.318457268529202
 21
3.3607633571595934
 31
0.0
 11
-4.3999999852351266
 21
4.2500000184678441
 31
0.0
 11
-4.318457277020018
 21
5.1392366790193691
 31
0.0
 11
-4.0873925398372393
 21
6.0
 31
0.0
  0
SPLINE
  5
150
100
AcDbEntity
  8
0
  6
CONTINUOUS
 62
               7
100
AcDbSpline
210
0.0
220
0.0
230
1.0
 70
               0
 71
               3
 72
               0
 73
               0
 74
               5
 44
0.000001
 12
0.3364389663850756
 22
0.9417052733725887
 32
0.0
 13
-0.3364389571584283
 23
0.941705276668953
 33
0.0
 11
-4.7126074478393889
 21
2.5000000369356883
 31
0.0
 11
-4.4815427019410512
 21
3.3607633571595934
 31
0.0
 11
-4.3999999852351266
 21
4.2500000184678441
 31
0.0
 11
-4.4815426934502351
 21
5.1392366790193691
 31
0.0
 11
-4.7126074306330139
 21
6.0
 31
0.0
  0
SPLINE
  5
151
100
AcDbEntity
  8
0
  6
CONTINUOUS
 62
               7
100
AcDbSpline
210
0.0
220
0.0
230
1.0
 70
               0
 71
               3
 72
               0
 73
               0
 74
               5
 44
0.000001
 12
-0.3364389663850757
 22
0.9417052733725887
 32
0.0
 13
0.3364389571584284
 23
0.9417052766689529
 33
0.0
 11
-6.48739252263087
 21
2.5000000369356883
 31
0.0
 11
-6.7184572685292077
 21
3.3607633571595934
 31
0.0
 11
-6.7999999852351323
 21
4.2500000184678441
 31
0.0
 11
-6.7184572770200237
 21
5.1392366790193691
 31
0.0
 11
-6.487392539837245
 21
6.0
 31
0.0
  0
SPLINE
  5
152
100
AcDbEntity
  8
0
  6
CONTINUOUS
 62
               7
100
AcDbSpline
210
0.0
220
0.0
230
1.0
 70
               0
 71
               3
 72
               0
 73
               0
 74
               5
 44
0.000001
 12
-0.3364389663850757
 22
-0.9417052733725887
 32
0.0
 13
0.3364389571584284
 23
-0.9417052766689529
 33
0.0
 11
-6.48739252263087
 21
9.4999999630643117
 31
0.0
 11
-6.7184572685292077
 21
8.639236642840407
 31
0.0
 11
-6.7999999852351323
 21
7.7499999815321559
 31
0.0
 11
-6.7184572770200237
 21
6.8607633209806309
 31
0.0
 11
-6.487392539837245
 21
6.0
 31
0.0
  0
SPLINE
  5
153
100
AcDbEntity
  8
0
  6
CONTINUOUS
 62
               7
100
AcDbSpline
210
0.0
220
0.0
230
1.0
 70
               0
 71
               3
 72
               0
 73
               0
 74
               5
 44
0.000001
 12
0.3364389663850756
 22
-0.9417052733725887
 32
0.0
 13
-0.3364389571584283
 23
-0.941705276668953
 33
0.0
 11
-4.7126074478393889
 21
9.4999999630643117
 31
0.0
 11
-4.4815427019410512
 21
8.639236642840407
 31
0.0
 11
-4.3999999852351266
 21
7.7499999815321559
 31
0.0
 11
-4.4815426934502351
 21
6.8607633209806309
 31
0.0
 11
-4.7126074306330139
 21
6.0
 31
0.0
  0
LINE
  5
154
100
AcDbEntity
  8
0
  6
CONTINUOUS
 62
               7
100
AcDbLine
 10
-4.0873925398372393
 20
6.0
 30
0.0
 11
-2.3126074306330082
 21
6.0
 31
0.0
  0
LINE
  5
155
100
AcDbEntity
  8
0
  6
CONTINUOUS
 62
               7
100
AcDbLine
 10
-1.9999999852351209
 20
2.5000000285843242
 30
0.0
 11
-1.9999999852351209
 21
9.4999999689796795
 31
0.0
  0
LINE
  5
156
100
AcDbEntity
  8
0
  6
CONTINUOUS
 62
               7
100
AcDbLine
 10
-4.3999999852351266
 20
2.5000000285843242
 30
0.0
 11
-4.3999999852351266
 21
9.4999999689796795
 31
0.0
  0
LINE
  5
157
100
AcDbEntity
  8
0
  6
CONTINUOUS
 62
               7
100
AcDbLine
 10
-4.3999999852351266
 20
9.4999999630643117
 30
0.0
 11
-1.9999999852351209
 21
9.4999999630643117
 31
0.0
  0
LINE
  5
158
100
AcDbEntity
  8
0
  6
CONTINUOUS
 62
               7
100
AcDbLine
 10
-4.3999999852351266
 20
2.5000000369356883
 30
0.0
 11
-1.9999999852351209
 21
2.5000000369356883
 31
0.0
  0
LINE
  5
159
100
AcDbEntity
  8
0
  6
CONTINUOUS
 62
               7
100
AcDbLine
 10
-4.3999999852351266
 20
2.5000000369356883
 30
0.0
 11
-6.7999999852351323
 21
2.5000000369356883
 31
0.0
  0
LINE
  5
15A
100
AcDbEntity
  8
0
  6
CONTINUOUS
 62
               7
100
AcDbLine
 10
-4.3999999852351266
 20
9.4999999630643117
 30
0.0
 11
-6.7999999852351323
 21
9.4999999630643117
 31
0.0
  0
LINE
  5
15B
100
AcDbEntity
  8
0
  6
CONTINUOUS
 62
               7
100
AcDbLine
 10
-6.7999999852351323
 20
2.5000000285843242
 30
0.0
 11
-6.7999999852351323
 21
9.4999999689796795
 31
0.0
  0
LINE
  5
15C
100
AcDbEntity
  8
0
  6
CONTINUOUS
 62
               7
100
AcDbLine
 10
-4.7126074306330139
 20
6.0
 30
0.0
 11
-6.487392539837245
 21
6.0
 31
0.0
  0
LINE
  5
15D
100
AcDbEntity
  8
0
  6
CONTINUOUS
 62
               7
100
AcDbLine
 10
-1.9999999852351209
 20
8.0
 30
0.0
 11
0.0
 21
8.0
 31
0.0
  0
LINE
  5
15E
100
AcDbEntity
  8
0
  6
CONTINUOUS
 62
               2
100
AcDbLine
 10
-1.9999999852351209
 20
7.7000000000000028
 30
0.0
 11
-0.9999999852351209
 21
7.7000000000000028
 31
0.0
  0
LINE
  5
15F
100
AcDbEntity
  8
0
  6
CONTINUOUS
 62
               7
100
AcDbLine
 10
-1.9999999852351209
 20
4.0
 30
0.0
 11
0.0
 21
4.0
 31
0.0
  0
LINE
  5
160
100
AcDbEntity
  8
0
  6
CONTINUOUS
 62
               2
100
AcDbLine
 10
-1.9999999852351209
 20
4.2999999999999972
 30
0.0
 11
-0.9999999852351209
 21
4.2999999999999972
 31
0.0
  0
LINE
  5
161
100
AcDbEntity
  8
0
  6
CENTER
 62
               2
100
AcDbLine
 10
3.5
 20
3.5
 30
0.0
 11
3.5
 21
8.5
 31
0.0
  0
CIRCLE
  5
162
100
AcDbEntity
  8
0
  6
DASHED
 62
               2
100
AcDbCircle
 10
3.5
 20
6.0
 30
0.0
 40
1.5
  0
CIRCLE
  5
163
100
AcDbEntity
  8
0
  6
DASHED
 62
               7
100
AcDbCircle
 10
3.5
 20
6.0
 30
0.0
 40
1.2
  0
LINE
  5
164
100
AcDbEntity
  8
0
  6
CONTINUOUS
 62
               4
100
AcDbLine
 10
35.000000014764879
 20
8.8899494649738742
 30
0.0
 11
35.000000014764879
 21
13.889087264052826
 31
0.0
  0
LINE
  5
165
100
AcDbEntity
  8
0
  6
CONTINUOUS
 62
             200
100
AcDbLine
 10
44.277537915272276
 20
8.6765268954978794
 30
0.0
 11
45.686506801650538
 21
13.934870424039893
 31
0.0
  0
LINE
  5
166
100
AcDbEntity
  8
0
  6
CONTINUOUS
 62
               4
100
AcDbLine
 10
34.000000014764879
 20
10.636396085495839
 30
0.0
 11
35.000000014764879
 21
10.636396085495839
 31
0.0
  0
LINE
  5
167
100
AcDbEntity
  8
0
  6
CONTINUOUS
 62
               4
100
AcDbLine
 10
34.000000034529563
 20
8.8899494649738742
 30
0.0
 11
35.000000034529563
 21
8.8899494649738742
 31
0.0
  0
LINE
  5
168
100
AcDbEntity
  8
0
  6
CONTINUOUS
 62
               4
100
AcDbLine
 10
35.000000031639274
 20
11.767766920493052
 30
0.0
 11
19.500000031639274
 21
11.767766920493052
 31
0.0
  0
LINE
  5
169
100
AcDbEntity
  8
0
  6
CONTINUOUS
 62
               4
100
AcDbLine
 10
35.000000014764879
 20
10.022792186047347
 30
0.0
 11
44.638268608673869
 21
10.022792186047347
 31
0.0
  0
LINE
  5
16A
100
AcDbEntity
  8
0
  6
CONTINUOUS
 62
               4
100
AcDbLine
 10
35.000000014764879
 20
12.522792186047347
 30
0.0
 11
45.308141582325405
 21
12.522792186047347
 31
0.0
  0
LINE
  5
16B
100
AcDbEntity
  8
0
  6
CONTINUOUS
 62
               4
100
AcDbLine
 10
35.000000031639274
 20
13.889087264052826
 30
0.0
 11
19.500000031639274
 21
13.889087264052826
 31
0.0
  0
LINE
  5
16C
100
AcDbEntity
  8
0
  6
CONTINUOUS
 62
               4
100
AcDbLine
 10
21.250000014764652
 20
13.694452510958563
 30
0.0
 11
21.250000014764652
 21
11.962401703389666
 31
0.0
  0
LINE
  5
16D
100
AcDbEntity
  8
0
  6
CONTINUOUS
 62
               4
100
AcDbLine
 10
21.750000014764652
 20
13.694452510958563
 30
0.0
 11
21.750000014764652
 21
11.962401703389666
 31
0.0
  0
ELLIPSE
  5
16E
100
AcDbEntity
  8
0
  6
CONTINUOUS
 62
               4
100
AcDbEllipse
 10
21.500000014764652
 20
12.828427107174114
 30
0.0
 11
-1.25
 21
0.0000000000000002
 31
0.0
210
0.0
220
0.0
230
1.0
 40
0.7071067811865476
 41
0.0
 42
6.2831853071795862
  0
LINE
  5
16F
100
AcDbEntity
  8
0
  6
CONTINUOUS
 62
               4
100
AcDbLine
 10
19.500000014764652
 20
11.572503291624002
 30
0.0
 11
19.500000014764652
 21
13.889087264052826
 31
0.0
  0
LINE
  5
170
100
AcDbEntity
  8
0
  6
CONTINUOUS
 62
               7
100
AcDbLine
 10
34.000000014764879
 20
13.889087264052826
 30
0.0
 11
34.000000014764879
 21
16.0
 31
0.0
  0
LINE
  5
171
100
AcDbEntity
  8
0
  6
CENTER
 62
               2
100
AcDbLine
 10
8.9999999915627029
 20
1.5
 30
0.0
 11
8.9999999915627029
 21
-1.5
 31
0.0
  0
ENDBLK
  5
172
100
AcDbEntity
  8
0
100
AcDbBlockEnd
  0
BLOCK
  5
173
100
AcDbEntity
  8
0
100
AcDbBlockBegin
  2
MS_5
 70
               0
 10
0.0
 20
0.0
 30
0.0
  3
MS_5
  1

  0
LINE
  5
174
100
AcDbEntity
  8
0
  6
PHANTOM
 62
               3
100
AcDbLine
 10
15.969068209087272
 20
3.2436797880251227
 30
0.0
 11
15.969068209087272
 21
-20.622120343839541
 31
0.0
  0
LINE
  5
175
100
AcDbEntity
  8
0
  6
PHANTOM
 62
               3
100
AcDbLine
 10
27.385228530821365
 20
3.2436797880251227
 30
0.0
 11
15.969068209087272
 21
3.2436797880251227
 31
0.0
  0
LINE
  5
176
100
AcDbEntity
  8
0
  6
PHANTOM
 62
               3
100
AcDbLine
 10
27.385228530821365
 20
19.331919770773638
 30
0.0
 11
27.385228530821365
 21
3.2436797880251227
 31
0.0
  0
LINE
  5
177
100
AcDbEntity
  8
0
  6
CONTINUOUS
 62
               4
100
AcDbLine
 10
10.75
 20
9.5375982415605307
 30
0.0
 11
10.75
 21
7.8055474339916344
 31
0.0
  0
LINE
  5
178
100
AcDbEntity
  8
0
  6
CONTINUOUS
 62
               4
100
AcDbLine
 10
11.25
 20
9.5375982415605307
 30
0.0
 11
11.25
 21
7.8055474339916344
 31
0.0
  0
ELLIPSE
  5
179
100
AcDbEntity
  8
0
  6
CONTINUOUS
 62
               4
100
AcDbEllipse
 10
11.0
 20
8.671572837776111
 30
0.0
 11
-1.25
 21
0.0000000000000002
 31
0.0
210
0.0
220
0.0
230
1.0
 40
0.7071067811865476
 41
0.0
 42
6.2831853071795862
  0
LINE
  5
17A
100
AcDbEntity
  8
0
  6
CONTINUOUS
 62
               4
100
AcDbLine
 10
9.0
 20
6.4795418160978073
 30
0.0
 11
10.295279401172834
 21
6.4795418160978073
 31
0.0
  0
LINE
  5
17B
100
AcDbEntity
  8
0
  6
CONTINUOUS
 62
               4
100
AcDbLine
 10
9.0
 20
9.732233009555884
 30
0.0
 11
9.0
 21
6.0999999999999996
 31
0.0
  0
LINE
  5
17C
100
AcDbEntity
  8
0
  6
CONTINUOUS
 62
               4
100
AcDbLine
 10
24.0
 20
7.4161354740104208
 30
0.0
 11
24.0
 21
13.585964878603463
 31
0.0
  0
LINE
  5
17D
100
AcDbEntity
  8
0
  6
CONTINUOUS
 62
               4
100
AcDbLine
 10
21.5
 20
10.686827083631997
 30
0.0
 11
21.5
 21
11.393933884324483
 31
0.0
  0
LINE
  5
17E
100
AcDbEntity
  8
0
  6
CONTINUOUS
 62
               4
100
AcDbLine
 10
23.599999984001897
 20
12.136396004570358
 30
0.0
 11
23.599999984001897
 21
12.843502780004982
 31
0.0
  0
ELLIPSE
  5
17F
100
AcDbEntity
  8
0
  6
CONTINUOUS
 62
               4
100
AcDbEllipse
 10
21.5
 20
12.843502785756911
 30
0.0
 11
2.0999999999999943
 21
0.0
 31
0.0
210
0.0
220
0.0
230
1.0
 40
0.690270905444012
 41
2.2690212382307813
 42
0.8725714153590118
  0
LINE
  5
180
100
AcDbEntity
  8
0
  6
CONTINUOUS
 62
               4
100
AcDbLine
 10
21.5
 20
10.686827103137929
 30
0.0
 11
24.000000019764684
 21
10.686827103137929
 31
0.0
  0
LINE
  5
181
100
AcDbEntity
  8
0
  6
CONTINUOUS
 62
               4
100
AcDbLine
 10
23.303625126576208
 20
13.585964906002786
 30
0.0
 11
24.0
 21
13.585964906002786
 31
0.0
  0
LINE
  5
182
100
AcDbEntity
  8
0
  6
CONTINUOUS
 62
               4
100
AcDbLine
 10
19.400000000000091
 20
12.843502785756911
 30
0.0
 11
19.400000000000091
 21
8.671572837776111
 31
0.0
  0
ELLIPSE
  5
183
100
AcDbEntity
  8
0
  6
CONTINUOUS
 62
               4
100
AcDbEllipse
 10
21.5
 20
12.136396004570358
 30
0.0
 11
2.0999999840018688
 21
0.0
 31
0.0
210
0.0
220
0.0
230
1.0
 40
0.6902709107026028
 41
4.7123889803846897
 42
0.0
  0
LINE
  5
184
100
AcDbEntity
  8
0
  6
CONTINUOUS
 62
               4
100
AcDbLine
 10
20.030306154330219
 20
8.2826640440602972
 30
0.0
 11
24.0
 21
8.2826640440602972
 31
0.0
  0
LINE
  5
185
100
AcDbEntity
  8
0
  6
CONTINUOUS
 62
               4
100
AcDbLine
 10
20.030306154330219
 20
7.6109126659962882
 30
0.0
 11
20.030306154330219
 21
8.2826640210595173
 31
0.0
  0
ELLIPSE
  5
186
100
AcDbEntity
  8
0
  6
CONTINUOUS
 62
               4
100
AcDbEllipse
 10
21.500000019764684
 20
8.671572837776111
 30
0.0
 11
-2.10000001976465
 21
0.0000000000000003
 31
0.0
210
0.0
220
0.0
230
1.0
 40
0.6902708989473664
 41
0.0
 42
0.7956029495296795
  0
LINE
  5
187
100
AcDbEntity
  8
0
  6
CONTINUOUS
 62
               4
100
AcDbLine
 10
22.850000000000136
 20
12.843502780004982
 30
0.0
 11
22.850000000000136
 21
15.843502780004982
 31
0.0
  0
LINE
  5
188
100
AcDbEntity
  8
0
  6
CONTINUOUS
 62
               4
100
AcDbLine
 10
20.150000000000091
 20
12.843502780004982
 30
0.0
 11
20.150000000000091
 21
15.843502780004982
 31
0.0
  0
ELLIPSE
  5
189
100
AcDbEntity
  8
0
  6
CONTINUOUS
 62
               4
100
AcDbEllipse
 10
21.5
 20
12.843502785756911
 30
0.0
 11
1.3500000000000016
 21
0.0
 31
0.0
210
0.0
220
0.0
230
1.0
 40
0.713092870339449
 41
3.1415926535897931
 42
0.0
  0
ELLIPSE
  5
18A
100
AcDbEntity
  8
0
  6
CONTINUOUS
 62
               4
100
AcDbEllipse
 10
21.5
 20
15.843502785756911
 30
0.0
 11
1.3500000000000016
 21
0.0
 31
0.0
210
0.0
220
0.0
230
1.0
 40
0.713092870339449
 41
0.0
 42
6.2831853071795862
  0
LINE
  5
18B
100
AcDbEntity
  8
0
  6
CONTINUOUS
 62
               4
100
AcDbLine
 10
16.5
 20
-7.4161354740104208
 30
0.0
 11
16.5
 21
-13.585964878603747
 31
0.0
  0
LINE
  5
18C
100
AcDbEntity
  8
0
  6
CONTINUOUS
 62
               4
100
AcDbLine
 10
19.0
 20
-10.686827083632281
 30
0.0
 11
19.0
 21
-11.39393388432471
 31
0.0
  0
LINE
  5
18D
100
AcDbEntity
  8
0
  6
CONTINUOUS
 62
               4
100
AcDbLine
 10
21.100000000000136
 20
-12.843502785757138
 30
0.0
 11
21.100000000000136
 21
-8.6715728377763384
 31
0.0
  0
ELLIPSE
  5
18E
100
AcDbEntity
  8
0
  6
CONTINUOUS
 62
               4
100
AcDbEllipse
 10
19.0
 20
-12.136396004570585
 30
0.0
 11
-2.0999999840018688
 21
0.0000000000000003
 31
0.0
210
0.0
220
0.0
230
1.0
 40
0.6902709107026028
 41
4.7123889803846897
 42
0.0
  0
ELLIPSE
  5
18F
100
AcDbEntity
  8
0
  6
CONTINUOUS
 62
               4
100
AcDbEllipse
 10
19.0
 20
-15.843502785757138
 30
0.0
 11
-1.3500000000000016
 21
0.0000000000000002
 31
0.0
210
0.0
220
0.0
230
1.0
 40
0.713092870339449
 41
0.0
 42
6.2831853071795862
  0
ELLIPSE
  5
190
100
AcDbEntity
  8
0
  6
CONTINUOUS
 62
               4
100
AcDbEllipse
 10
19.0
 20
-12.843502785757138
 30
0.0
 11
-1.3500000000000016
 21
0.0000000000000002
 31
0.0
210
0.0
220
0.0
230
1.0
 40
0.713092870339449
 41
3.1415926535897931
 42
0.0
  0
LINE
  5
191
100
AcDbEntity
  8
0
  6
CONTINUOUS
 62
               4
100
AcDbLine
 10
20.350000000000136
 20
-12.843502780005267
 30
0.0
 11
20.350000000000136
 21
-15.843502780005267
 31
0.0
  0
LINE
  5
192
100
AcDbEntity
  8
0
  6
CONTINUOUS
 62
               4
100
AcDbLine
 10
17.650000000000091
 20
-12.843502780005267
 30
0.0
 11
17.650000000000091
 21
-15.843502780005267
 31
0.0
  0
LINE
  5
193
100
AcDbEntity
  8
0
  6
CONTINUOUS
 62
               4
100
AcDbLine
 10
17.19637487342402
 20
-13.585964906003014
 30
0.0
 11
16.5
 21
-13.585964906003014
 31
0.0
  0
ELLIPSE
  5
194
100
AcDbEntity
  8
0
  6
CONTINUOUS
 62
               4
100
AcDbEllipse
 10
19.0
 20
-12.843502785757138
 30
0.0
 11
-2.0999999999999943
 21
0.0000000000000003
 31
0.0
210
0.0
220
0.0
230
1.0
 40
0.690270905444012
 41
2.2690212382307813
 42
0.8725714153590118
  0
LINE
  5
195
100
AcDbEntity
  8
0
  6
CONTINUOUS
 62
               4
100
AcDbLine
 10
16.90000001599833
 20
-12.136396004570585
 30
0.0
 11
16.90000001599833
 21
-12.843502780005267
 31
0.0
  0
LINE
  5
196
100
AcDbEntity
  8
0
  6
CONTINUOUS
 62
               4
100
AcDbLine
 10
19.0
 20
-10.686827103138214
 30
0.0
 11
16.499999980235543
 21
-10.686827103138214
 31
0.0
  0
LINE
  5
197
100
AcDbEntity
  8
0
  6
CONTINUOUS
 62
               4
100
AcDbLine
 10
20.469693845670008
 20
-8.2826640440605246
 30
0.0
 11
16.5
 21
-8.2826640440605246
 31
0.0
  0
LINE
  5
198
100
AcDbEntity
  8
0
  6
CONTINUOUS
 62
               4
100
AcDbLine
 10
20.469693845670008
 20
-7.6109126659961603
 30
0.0
 11
20.469693845670008
 21
-8.2826640210598015
 31
0.0
  0
ELLIPSE
  5
199
100
AcDbEntity
  8
0
  6
CONTINUOUS
 62
               4
100
AcDbEllipse
 10
18.999999980235543
 20
-8.6715728377763384
 30
0.0
 11
2.10000001976465
 21
0.0
 31
0.0
210
0.0
220
0.0
230
1.0
 40
0.6902708989473664
 41
0.0
 42
0.7956029495296795
  0
LINE
  5
19A
100
AcDbEntity
  8
0
  6
CONTINUOUS
 62
               4
100
AcDbLine
 10
29.75
 20
-9.5375982415607581
 30
0.0
 11
29.75
 21
-7.8055474339919186
 31
0.0
  0
LINE
  5
19B
100
AcDbEntity
  8
0
  6
CONTINUOUS
 62
               4
100
AcDbLine
 10
29.25
 20
-9.5375982415607581
 30
0.0
 11
29.25
 21
-7.8055474339919186
 31
0.0
  0
ELLIPSE
  5
19C
100
AcDbEntity
  8
0
  6
CONTINUOUS
 62
               4
100
AcDbEllipse
 10
29.5
 20
-8.6715728377763384
 30
0.0
 11
1.25
 21
0.0
 31
0.0
210
0.0
220
0.0
230
1.0
 40
0.7071067811865476
 41
0.0
 42
6.2831853071795862
  0
LINE
  5
19D
100
AcDbEntity
  8
0
  6
CONTINUOUS
 62
               4
100
AcDbLine
 10
31.5
 20
-9.7322330095558627
 30
0.0
 11
31.5
 21
-7.4161354740104208
 31
0.0
  0
LINE
  5
19E
100
AcDbEntity
  8
0
  6
CONTINUOUS
 62
               4
100
AcDbLine
 10
9.0000000168746226
 20
9.732233009555884
 30
0.0
 11
19.400000000000091
 21
9.732233009555884
 31
0.0
  0
LINE
  5
19F
100
AcDbEntity
  8
0
  6
CONTINUOUS
 62
               4
100
AcDbLine
 10
9.0000000168746226
 20
7.6109126659962882
 30
0.0
 11
24.000000016874623
 21
7.6109126659962882
 31
0.0
  0
LINE
  5
1A0
100
AcDbEntity
  8
0
  6
CONTINUOUS
 62
               4
100
AcDbLine
 10
16.500000016874623
 20
-7.6109126659961603
 30
0.0
 11
31.5
 21
-7.6109126659961603
 31
0.0
  0
LINE
  5
1A1
100
AcDbEntity
  8
0
  6
CONTINUOUS
 62
               4
100
AcDbLine
 10
21.099999981111836
 20
-9.7322330095558627
 30
0.0
 11
31.500000016874623
 21
-9.7322330095558627
 31
0.0
  0
CIRCLE
  5
1A2
100
AcDbEntity
  8
0
  6
CONTINUOUS
 62
               7
100
AcDbCircle
 10
3.5
 20
0.0
 30
0.0
 40
1.2
  0
CIRCLE
  5
1A3
100
AcDbEntity
  8
0
  6
CONTINUOUS
 62
               2
100
AcDbCircle
 10
3.5
 20
0.0
 30
0.0
 40
1.5
  0
LINE
  5
1A4
100
AcDbEntity
  8
0
  6
CENTER
 62
               2
100
AcDbLine
 10
3.5
 20
-2.5
 30
0.0
 11
3.5
 21
2.5
 31
0.0
  0
LINE
  5
1A5
100
AcDbEntity
  8
0
  6
CONTINUOUS
 62
               2
100
AcDbLine
 10
-2.0
 20
-1.7000000000000028
 30
0.0
 11
-1.0
 21
-1.7000000000000028
 31
0.0
  0
LINE
  5
1A6
100
AcDbEntity
  8
0
  6
CONTINUOUS
 62
               7
100
AcDbLine
 10
-2.0
 20
-2.0
 30
0.0
 11
0.0
 21
-2.0
 31
0.0
  0
LINE
  5
1A7
100
AcDbEntity
  8
0
  6
CONTINUOUS
 62
               7
100
AcDbLine
 10
-2.0
 20
2.0
 30
0.0
 11
0.0
 21
2.0
 31
0.0
  0
LINE
  5
1A8
100
AcDbEntity
  8
0
  6
CONTINUOUS
 62
               2
100
AcDbLine
 10
-2.0
 20
1.7000000000000028
 30
0.0
 11
-1.0
 21
1.7000000000000028
 31
0.0
  0
LINE
  5
1A9
100
AcDbEntity
  8
0
  6
CONTINUOUS
 62
               7
100
AcDbLine
 10
-4.712607445397893
 20
4.0414519297817577
 30
0.0
 11
-6.4873925373957491
 21
4.0414519297817577
 31
0.0
  0
LINE
  5
1AA
100
AcDbEntity
  8
0
  6
CONTINUOUS
 62
               7
100
AcDbLine
 10
-4.712607445397893
 20
2.0207259365011652
 30
0.0
 11
-6.4873925546021241
 21
2.0207259365011652
 31
0.0
  0
LINE
  5
1AB
100
AcDbEntity
  8
0
  6
CONTINUOUS
 62
               7
100
AcDbLine
 10
-4.4000000378280077
 20
3.5000000285843242
 30
0.0
 11
-4.712607445397893
 21
4.0414518999794353
 31
0.0
  0
LINE
  5
1AC
100
AcDbEntity
  8
0
  6
CONTINUOUS
 62
               7
100
AcDbLine
 10
-6.7999999621720093
 20
3.5000000285843242
 30
0.0
 11
-6.4873925546021241
 21
4.0414518999794353
 31
0.0
  0
LINE
  5
1AD
100
AcDbEntity
  8
0
  6
CONTINUOUS
 62
               7
100
AcDbLine
 10
-6.8000000000000114
 20
-3.4999999714156758
 30
0.0
 11
-6.8000000000000114
 21
3.4999999689796795
 31
0.0
  0
LINE
  5
1AE
100
AcDbEntity
  8
0
  6
CONTINUOUS
 62
               7
100
AcDbLine
 10
-4.712607445397893
 20
-4.0414519297817577
 30
0.0
 11
-6.4873925373957491
 21
-4.0414519297817577
 31
0.0
  0
LINE
  5
1AF
100
AcDbEntity
  8
0
  6
CONTINUOUS
 62
               7
100
AcDbLine
 10
-4.4000000378280077
 20
-3.5000000285843242
 30
0.0
 11
-4.712607445397893
 21
-4.0414518999794353
 31
0.0
  0
LINE
  5
1B0
100
AcDbEntity
  8
0
  6
CONTINUOUS
 62
               7
100
AcDbLine
 10
-6.7999999621720093
 20
-3.5000000285843242
 30
0.0
 11
-6.4873925546021241
 21
-4.0414518999794353
 31
0.0
  0
LINE
  5
1B1
100
AcDbEntity
  8
0
  6
CONTINUOUS
 62
               7
100
AcDbLine
 10
-4.712607445397893
 20
-2.0207259365011652
 30
0.0
 11
-6.4873925546021241
 21
-2.0207259365011652
 31
0.0
  0
LINE
  5
1B2
100
AcDbEntity
  8
0
  6
CONTINUOUS
 62
               7
100
AcDbLine
 10
-4.0873925546021184
 20
-2.0207259365011652
 30
0.0
 11
-2.3126074453978873
 21
-2.0207259365011652
 31
0.0
  0
LINE
  5
1B3
100
AcDbEntity
  8
0
  6
CONTINUOUS
 62
               7
100
AcDbLine
 10
-2.0000000378280021
 20
-3.5000000285843242
 30
0.0
 11
-2.3126074453978873
 21
-4.0414518999794353
 31
0.0
  0
LINE
  5
1B4
100
AcDbEntity
  8
0
  6
CONTINUOUS
 62
               7
100
AcDbLine
 10
-4.3999999621720036
 20
-3.5000000285843242
 30
0.0
 11
-4.0873925546021184
 21
-4.0414518999794353
 31
0.0
  0
LINE
  5
1B5
100
AcDbEntity
  8
0
  6
CONTINUOUS
 62
               7
100
AcDbLine
 10
-4.0873925546021184
 20
-4.0414519297817577
 30
0.0
 11
-2.3126074626042623
 21
-4.0414519297817577
 31
0.0
  0
LINE
  5
1B6
100
AcDbEntity
  8
0
  6
CONTINUOUS
 62
               7
100
AcDbLine
 10
-2.0
 20
-3.4999999714156758
 30
0.0
 11
-2.0
 21
3.4999999689796795
 31
0.0
  0
LINE
  5
1B7
100
AcDbEntity
  8
0
  6
CONTINUOUS
 62
               7
100
AcDbLine
 10
-2.0000000378280021
 20
3.5000000285843242
 30
0.0
 11
-2.3126074453978873
 21
4.0414518999794353
 31
0.0
  0
LINE
  5
1B8
100
AcDbEntity
  8
0
  6
CONTINUOUS
 62
               7
100
AcDbLine
 10
-4.3999999621720036
 20
3.5000000285843242
 30
0.0
 11
-4.0873925546021184
 21
4.0414518999794353
 31
0.0
  0
LINE
  5
1B9
100
AcDbEntity
  8
0
  6
CONTINUOUS
 62
               7
100
AcDbLine
 10
-4.0873925546021184
 20
2.0207259365011652
 30
0.0
 11
-2.3126074453978873
 21
2.0207259365011652
 31
0.0
  0
LINE
  5
1BA
100
AcDbEntity
  8
0
  6
CONTINUOUS
 62
               7
100
AcDbLine
 10
-4.0873925546021184
 20
4.0414519297817577
 30
0.0
 11
-2.3126074626042623
 21
4.0414519297817577
 31
0.0
  0
LINE
  5
1BB
100
AcDbEntity
  8
0
  6
CONTINUOUS
 62
               7
100
AcDbLine
 10
-4.4000000000000057
 20
-3.4999999714156758
 30
0.0
 11
-4.4000000000000057
 21
3.4999999689796795
 31
0.0
  0
SPLINE
  5
1BC
100
AcDbEntity
  8
0
  6
CONTINUOUS
 62
               7
100
AcDbSpline
210
0.0
220
0.0
230
1.0
 70
               0
 71
               3
 72
               0
 73
               0
 74
               5
 44
0.000001
 12
0.5262037747144671
 22
-0.8503585052648361
 32
0.0
 13
-0.5262037632262535
 23
-0.8503585123737687
 33
0.0
 11
-4.712607462604268
 21
4.0414519297817577
 31
0.0
 11
-4.4867383762316395
 21
3.5570844487105919
 31
0.0
 11
-4.4000000000000057
 21
3.0310889130591789
 31
0.0
 11
-4.4867383729262658
 21
2.5050933992850792
 31
0.0
 11
-4.712607445397893
 21
2.0207259365011652
 31
0.0
  0
SPLINE
  5
1BD
100
AcDbEntity
  8
0
  6
CONTINUOUS
 62
               7
100
AcDbSpline
210
0.0
220
0.0
230
1.0
 70
               0
 71
               3
 72
               0
 73
               0
 74
               5
 44
0.000001
 12
-0.5262037747144672
 22
-0.850358505264836
 32
0.0
 13
0.5262037632262534
 23
-0.8503585123737688
 33
0.0
 11
-6.4873925373957491
 21
4.0414519297817577
 31
0.0
 11
-6.7132616237683775
 21
3.5570844487105919
 31
0.0
 11
-6.8000000000000114
 21
3.0310889130591789
 31
0.0
 11
-6.7132616270737513
 21
2.5050933992850792
 31
0.0
 11
-6.4873925546021241
 21
2.0207259365011652
 31
0.0
  0
SPLINE
  5
1BE
100
AcDbEntity
  8
0
  6
CONTINUOUS
 62
               7
100
AcDbSpline
210
0.0
220
0.0
230
1.0
 70
               0
 71
               3
 72
               0
 73
               0
 74
               5
 44
0.000001
 12
0.5262037747144671
 22
0.8503585052648361
 32
0.0
 13
-0.5262037632262535
 23
0.8503585123737687
 33
0.0
 11
-4.712607462604268
 21
-4.0414519297817577
 31
0.0
 11
-4.4867383762316395
 21
-3.5570844487105919
 31
0.0
 11
-4.4000000000000057
 21
-3.0310889130591789
 31
0.0
 11
-4.4867383729262658
 21
-2.5050933992850792
 31
0.0
 11
-4.712607445397893
 21
-2.0207259365011652
 31
0.0
  0
SPLINE
  5
1BF
100
AcDbEntity
  8
0
  6
CONTINUOUS
 62
               7
100
AcDbSpline
210
0.0
220
0.0
230
1.0
 70
               0
 71
               3
 72
               0
 73
               0
 74
               5
 44
0.000001
 12
-0.5262037747144672
 22
0.850358505264836
 32
0.0
 13
0.5262037632262534
 23
0.8503585123737688
 33
0.0
 11
-6.4873925373957491
 21
-4.0414519297817577
 31
0.0
 11
-6.7132616237683775
 21
-3.5570844487105919
 31
0.0
 11
-6.8000000000000114
 21
-3.0310889130591789
 31
0.0
 11
-6.7132616270737513
 21
-2.5050933992850792
 31
0.0
 11
-6.4873925546021241
 21
-2.0207259365011652
 31
0.0
  0
SPLINE
  5
1C0
100
AcDbEntity
  8
0
  6
CONTINUOUS
 62
               7
100
AcDbSpline
210
0.0
220
0.0
230
1.0
 70
               0
 71
               3
 72
               0
 73
               0
 74
               5
 44
0.000001
 12
0.2955767757658921
 22
-0.9553189884158273
 32
0.0
 13
-0.295576775765892
 23
-0.9553189884158273
 33
0.0
 11
-4.712607445397893
 21
2.0207259365011652
 31
0.0
 11
-4.4807556568284568
 21
1.0229863649462863
 31
0.0
 11
-4.4000000000000057
 21
0.0
 31
0.0
 11
-4.4807556568284568
 21
-1.0229863649462863
 31
0.0
 11
-4.712607445397893
 21
-2.0207259365011652
 31
0.0
  0
SPLINE
  5
1C1
100
AcDbEntity
  8
0
  6
CONTINUOUS
 62
               7
100
AcDbSpline
210
0.0
220
0.0
230
1.0
 70
               0
 71
               3
 72
               0
 73
               0
 74
               5
 44
0.000001
 12
-0.295576775765892
 22
-0.9553189884158273
 32
0.0
 13
0.2955767757658919
 23
-0.9553189884158273
 33
0.0
 11
-6.4873925546021241
 21
2.0207259365011652
 31
0.0
 11
-6.7192443431715603
 21
1.0229863649462863
 31
0.0
 11
-6.8000000000000114
 21
0.0
 31
0.0
 11
-6.7192443431715603
 21
-1.0229863649462863
 31
0.0
 11
-6.4873925546021241
 21
-2.0207259365011652
 31
0.0
  0
SPLINE
  5
1C2
100
AcDbEntity
  8
0
  6
CONTINUOUS
 62
               7
100
AcDbSpline
210
0.0
220
0.0
230
1.0
 70
               0
 71
               3
 72
               0
 73
               0
 74
               5
 44
0.000001
 12
0.2955767757658921
 22
-0.9553189884158273
 32
0.0
 13
-0.295576775765892
 23
-0.9553189884158273
 33
0.0
 11
-2.3126074453978873
 21
2.0207259365011652
 31
0.0
 11
-2.0807556568284515
 21
1.0229863649462863
 31
0.0
 11
-2.0
 21
0.0
 31
0.0
 11
-2.0807556568284515
 21
-1.0229863649462863
 31
0.0
 11
-2.3126074453978873
 21
-2.0207259365011652
 31
0.0
  0
SPLINE
  5
1C3
100
AcDbEntity
  8
0
  6
CONTINUOUS
 62
               7
100
AcDbSpline
210
0.0
220
0.0
230
1.0
 70
               0
 71
               3
 72
               0
 73
               0
 74
               5
 44
0.000001
 12
-0.295576775765892
 22
-0.9553189884158273
 32
0.0
 13
0.2955767757658919
 23
-0.9553189884158273
 33
0.0
 11
-4.0873925546021184
 21
2.0207259365011652
 31
0.0
 11
-4.3192443431715546
 21
1.0229863649462863
 31
0.0
 11
-4.4000000000000057
 21
0.0
 31
0.0
 11
-4.3192443431715546
 21
-1.0229863649462863
 31
0.0
 11
-4.0873925546021184
 21
-2.0207259365011652
 31
0.0
  0
SPLINE
  5
1C4
100
AcDbEntity
  8
0
  6
CONTINUOUS
 62
               7
100
AcDbSpline
210
0.0
220
0.0
230
1.0
 70
               0
 71
               3
 72
               0
 73
               0
 74
               5
 44
0.000001
 12
0.5262037747144671
 22
0.8503585052648361
 32
0.0
 13
-0.5262037632262535
 23
0.8503585123737687
 33
0.0
 11
-2.3126074626042623
 21
-4.0414519297817577
 31
0.0
 11
-2.0867383762316338
 21
-3.5570844487105919
 31
0.0
 11
-2.0
 21
-3.0310889130591789
 31
0.0
 11
-2.0867383729262601
 21
-2.5050933992850792
 31
0.0
 11
-2.3126074453978873
 21
-2.0207259365011652
 31
0.0
  0
SPLINE
  5
1C5
100
AcDbEntity
  8
0
  6
CONTINUOUS
 62
               7
100
AcDbSpline
210
0.0
220
0.0
230
1.0
 70
               0
 71
               3
 72
               0
 73
               0
 74
               5
 44
0.000001
 12
-0.5262037747144672
 22
0.850358505264836
 32
0.0
 13
0.5262037632262534
 23
0.8503585123737688
 33
0.0
 11
-4.0873925373957434
 21
-4.0414519297817577
 31
0.0
 11
-4.3132616237683719
 21
-3.5570844487105919
 31
0.0
 11
-4.4000000000000057
 21
-3.0310889130591789
 31
0.0
 11
-4.3132616270737456
 21
-2.5050933992850792
 31
0.0
 11
-4.0873925546021184
 21
-2.0207259365011652
 31
0.0
  0
SPLINE
  5
1C6
100
AcDbEntity
  8
0
  6
CONTINUOUS
 62
               7
100
AcDbSpline
210
0.0
220
0.0
230
1.0
 70
               0
 71
               3
 72
               0
 73
               0
 74
               5
 44
0.000001
 12
0.5262037747144671
 22
-0.8503585052648361
 32
0.0
 13
-0.5262037632262535
 23
-0.8503585123737687
 33
0.0
 11
-2.3126074626042623
 21
4.0414519297817577
 31
0.0
 11
-2.0867383762316338
 21
3.5570844487105919
 31
0.0
 11
-2.0
 21
3.0310889130591789
 31
0.0
 11
-2.0867383729262601
 21
2.5050933992850792
 31
0.0
 11
-2.3126074453978873
 21
2.0207259365011652
 31
0.0
  0
SPLINE
  5
1C7
100
AcDbEntity
  8
0
  6
CONTINUOUS
 62
               7
100
AcDbSpline
210
0.0
220
0.0
230
1.0
 70
               0
 71
               3
 72
               0
 73
               0
 74
               5
 44
0.000001
 12
-0.5262037747144672
 22
-0.850358505264836
 32
0.0
 13
0.5262037632262534
 23
-0.8503585123737688
 33
0.0
 11
-4.0873925373957434
 21
4.0414519297817577
 31
0.0
 11
-4.3132616237683719
 21
3.5570844487105919
 31
0.0
 11
-4.4000000000000057
 21
3.0310889130591789
 31
0.0
 11
-4.3132616270737456
 21
2.5050933992850792
 31
0.0
 11
-4.0873925546021184
 21
2.0207259365011652
 31
0.0
  0
CIRCLE
  5
1C8
100
AcDbEntity
  8
0
  6
CONTINUOUS
 62
               7
100
AcDbCircle
 10
31.0
 20
0.0000000000000142
 30
0.0
 40
1.1999999999999886
  0
CIRCLE
  5
1C9
100
AcDbEntity
  8
0
  6
CONTINUOUS
 62
               2
100
AcDbCircle
 10
31.0
 20
0.0000000000000142
 30
0.0
 40
1.5
  0
LINE
  5
1CA
100
AcDbEntity
  8
0
  6
CENTER
 62
               2
100
AcDbLine
 10
31.0
 20
1.9547775518886965
 30
0.0
 11
31.0
 21
-1.9760956580291094
 31
0.0
  0
CIRCLE
  5
1CB
100
AcDbEntity
  8
0
  6
CONTINUOUS
 62
               7
100
AcDbCircle
 10
14.0
 20
0.0000000000000142
 30
0.0
 40
1.1999999999999886
  0
CIRCLE
  5
1CC
100
AcDbEntity
  8
0
  6
CONTINUOUS
 62
               2
100
AcDbCircle
 10
14.0
 20
0.0000000000000142
 30
0.0
 40
1.5
  0
LINE
  5
1CD
100
AcDbEntity
  8
0
  6
CENTER
 62
               2
100
AcDbLine
 10
14.0
 20
1.9547775518886965
 30
0.0
 11
14.0
 21
-1.9760956580291094
 31
0.0
  0
LINE
  5
1CE
100
AcDbEntity
  8
0
  6
CONTINUOUS
 62
               7
100
AcDbLine
 10
0.0
 20
-7.4161354740104208
 30
0.0
 11
6.8586831880122503
 21
-7.4161354740104208
 31
0.0
  0
LINE
  5
1CF
100
AcDbEntity
  8
0
  6
CONTINUOUS
 62
               7
100
AcDbLine
 10
0.0
 20
-9.4493902970812869
 30
0.0
 11
6.7957636098167882
 21
-9.4493902970812869
 31
0.0
  0
LINE
  5
1D0
100
AcDbEntity
  8
0
  6
CONTINUOUS
 62
               7
100
AcDbLine
 10
0.0
 20
-9.8029436876745386
 30
0.0
 11
6.9844758134050835
 21
-9.8029436876745386
 31
0.0
  0
LINE
  5
1D1
100
AcDbEntity
  8
0
  6
CONTINUOUS
 62
               7
100
AcDbLine
 10
11.14131681198775
 20
-7.4161354740104208
 30
0.0
 11
34.0
 21
-7.4161354740104208
 31
0.0
  0
LINE
  5
1D2
100
AcDbEntity
  8
0
  6
CONTINUOUS
 62
               7
100
AcDbLine
 10
11.204236390183212
 20
-9.4493902970812869
 30
0.0
 11
16.5
 21
-9.4493902970812869
 31
0.0
  0
LINE
  5
1D3
100
AcDbEntity
  8
0
  6
CONTINUOUS
 62
               7
100
AcDbLine
 10
11.015524186594917
 20
-9.8029436876745386
 30
0.0
 11
16.5
 21
-9.8029436876745386
 31
0.0
  0
LINE
  5
1D4
100
AcDbEntity
  8
0
  6
CONTINUOUS
 62
               7
100
AcDbLine
 10
0.0
 20
-5.4999999300492668
 30
0.0
 11
34.0
 21
-5.4999999300492668
 31
0.0
  0
LINE
  5
1D5
100
AcDbEntity
  8
0
  6
CONTINUOUS
 62
               7
100
AcDbLine
 10
11.14131681198775
 20
7.4161354740104208
 30
0.0
 11
34.0
 21
7.4161354740104208
 31
0.0
  0
LINE
  5
1D6
100
AcDbEntity
  8
0
  6
CONTINUOUS
 62
               7
100
AcDbLine
 10
24.0
 20
9.4493902970812869
 30
0.0
 11
34.0
 21
9.4493902970812869
 31
0.0
  0
LINE
  5
1D7
100
AcDbEntity
  8
0
  6
CONTINUOUS
 62
               7
100
AcDbLine
 10
11.015524186594917
 20
9.8029436876745386
 30
0.0
 11
19.400000000000091
 21
9.8029436876745386
 31
0.0
  0
LINE
  5
1D8
100
AcDbEntity
  8
0
  6
CONTINUOUS
 62
               7
100
AcDbLine
 10
0.0
 20
5.4999999300492668
 30
0.0
 11
34.0
 21
5.4999999300492668
 31
0.0
  0
LINE
  5
1D9
100
AcDbEntity
  8
0
  6
CONTINUOUS
 62
               7
100
AcDbLine
 10
0.0
 20
7.4161354740104208
 30
0.0
 11
6.8586831880122503
 21
7.4161354740104208
 31
0.0
  0
LINE
  5
1DA
100
AcDbEntity
  8
0
  6
CONTINUOUS
 62
               7
100
AcDbLine
 10
0.0
 20
9.4493902970812869
 30
0.0
 11
6.7957636098167882
 21
9.4493902970812869
 31
0.0
  0
LINE
  5
1DB
100
AcDbEntity
  8
0
  6
CONTINUOUS
 62
               7
100
AcDbLine
 10
0.0
 20
9.8029436876745386
 30
0.0
 11
6.9844758134050835
 21
9.8029436876745386
 31
0.0
  0
LINE
  5
1DC
100
AcDbEntity
  8
0
  6
CONTINUOUS
 62
               7
100
AcDbLine
 10
-0.0000000147648791
 20
-11.5
 30
0.0
 11
16.5
 21
-11.5
 31
0.0
  0
LINE
  5
1DD
100
AcDbEntity
  8
0
  6
CONTINUOUS
 62
               2
100
AcDbLine
 10
-10.0
 20
-1.7000000000000028
 30
0.0
 11
-6.8000000000000114
 21
-1.7000000000000028
 31
0.0
  0
LINE
  5
1DE
100
AcDbEntity
  8
0
  6
CONTINUOUS
 62
               7
100
AcDbLine
 10
-9.7000000000000171
 20
-2.0
 30
0.0
 11
-10.0
 21
-1.7000000000000028
 31
0.0
  0
LINE
  5
1DF
100
AcDbEntity
  8
0
  6
CONTINUOUS
 62
               2
100
AcDbLine
 10
-1.0
 20
-1.7000000000000028
 30
0.0
 11
-0.4803847577293539
 21
-2.0
 31
0.0
  0
LINE
  5
1E0
100
AcDbEntity
  8
0
  6
CONTINUOUS
 62
               7
100
AcDbLine
 10
-9.7000000000000171
 20
-2.0
 30
0.0
 11
-6.8000000000000114
 21
-2.0
 31
0.0
  0
LINE
  5
1E1
100
AcDbEntity
  8
0
  6
CENTER
 62
               2
100
AcDbLine
 10
5.5999999999999943
 20
-8.5
 30
0.0
 11
12.400000000000006
 21
-8.5
 31
0.0
  0
CIRCLE
  5
1E2
100
AcDbEntity
  8
0
  6
CONTINUOUS
 62
               7
100
AcDbCircle
 10
9.0
 20
-8.5
 30
0.0
 40
1.3499999999999996
  0
CIRCLE
  5
1E3
100
AcDbEntity
  8
0
  6
CONTINUOUS
 62
               7
100
AcDbCircle
 10
9.0
 20
-8.5
 30
0.0
 40
2.4000000000000004
  0
LINE
  5
1E4
100
AcDbEntity
  8
0
  6
CENTER
 62
               2
100
AcDbLine
 10
9.0
 20
-11.899999999999999
 30
0.0
 11
9.0
 21
-5.1000000000000014
 31
0.0
  0
ARC
  5
1E5
100
AcDbEntity
  8
0
  6
CONTINUOUS
 62
               7
100
AcDbCircle
 10
9.0
 20
8.5
 30
0.0
 40
1.3499999999999996
100
AcDbArc
 50
65.890322050679814
 51
269.99999999999937
  0
ARC
  5
1E6
100
AcDbEntity
  8
0
  6
CONTINUOUS
 62
               7
100
AcDbCircle
 10
9.0
 20
8.5
 30
0.0
 40
2.4000000000000004
100
AcDbArc
 50
30.892599712942918
 51
333.15295903779531
  0
LINE
  5
1E7
100
AcDbEntity
  8
0
  6
CENTER
 62
               2
100
AcDbLine
 10
-11.09698748603688
 20
0.0
 30
0.0
 11
35.239086512929219
 21
0.0
 31
0.0
  0
LINE
  5
1E8
100
AcDbEntity
  8
0
  6
CONTINUOUS
 62
               7
100
AcDbLine
 10
-0.0000000147648791
 20
11.5
 30
0.0
 11
19.400000000000091
 21
11.5
 31
0.0
  0
LINE
  5
1E9
100
AcDbEntity
  8
0
  6
CONTINUOUS
 62
               7
100
AcDbLine
 10
0.0
 20
11.5
 30
0.0
 11
0.0
 21
-11.5
 31
0.0
  0
LINE
  5
1EA
100
AcDbEntity
  8
0
  6
CONTINUOUS
 62
               7
100
AcDbLine
 10
-9.7000000000000171
 20
2.0
 30
0.0
 11
-6.8000000000000114
 21
2.0
 31
0.0
  0
LINE
  5
1EB
100
AcDbEntity
  8
0
  6
CONTINUOUS
 62
               7
100
AcDbLine
 10
34.0
 20
11.5
 30
0.0
 11
34.0
 21
-11.5
 31
0.0
  0
LINE
  5
1EC
100
AcDbEntity
  8
0
  6
CENTER
 62
               2
100
AcDbLine
 10
5.5999999999999943
 20
8.5
 30
0.0
 11
12.400000000000006
 21
8.5
 31
0.0
  0
LINE
  5
1ED
100
AcDbEntity
  8
0
  6
CENTER
 62
               2
100
AcDbLine
 10
9.0
 20
11.899999999999999
 30
0.0
 11
9.0
 21
5.1000000000000014
 31
0.0
  0
LINE
  5
1EE
100
AcDbEntity
  8
0
  6
CONTINUOUS
 62
               7
100
AcDbLine
 10
-10.0
 20
-1.7000000000000028
 30
0.0
 11
-10.0
 21
1.7000000000000028
 31
0.0
  0
LINE
  5
1EF
100
AcDbEntity
  8
0
  6
CONTINUOUS
 62
               7
100
AcDbLine
 10
-1.0
 20
-2.0
 30
0.0
 11
-1.0
 21
2.0
 31
0.0
  0
LINE
  5
1F0
100
AcDbEntity
  8
0
  6
CONTINUOUS
 62
               7
100
AcDbLine
 10
-9.7000000000000171
 20
-2.0
 30
0.0
 11
-9.7000000000000171
 21
2.0
 31
0.0
  0
LINE
  5
1F1
100
AcDbEntity
  8
0
  6
CONTINUOUS
 62
               2
100
AcDbLine
 10
-1.0
 20
1.7000000000000028
 30
0.0
 11
-0.4803847577293539
 21
2.0
 31
0.0
  0
LINE
  5
1F2
100
AcDbEntity
  8
0
  6
CONTINUOUS
 62
               7
100
AcDbLine
 10
-9.7000000000000171
 20
2.0
 30
0.0
 11
-10.0
 21
1.7000000000000028
 31
0.0
  0
LINE
  5
1F3
100
AcDbEntity
  8
0
  6
CONTINUOUS
 62
               2
100
AcDbLine
 10
-10.0
 20
1.7000000000000028
 30
0.0
 11
-6.8000000000000114
 21
1.7000000000000028
 31
0.0
  0
LINE
  5
1F4
100
AcDbEntity
  8
0
  6
CONTINUOUS
 62
               7
100
AcDbLine
 10
31.5
 20
-9.4493902970812869
 30
0.0
 11
34.0
 21
-9.4493902970812869
 31
0.0
  0
LINE
  5
1F5
100
AcDbEntity
  8
0
  6
CONTINUOUS
 62
               7
100
AcDbLine
 10
21.100000000000136
 20
-9.8029436876745386
 30
0.0
 11
34.0
 21
-9.8029436876745386
 31
0.0
  0
LINE
  5
1F6
100
AcDbEntity
  8
0
  6
CONTINUOUS
 62
               7
100
AcDbLine
 10
21.100000000000136
 20
-11.5
 30
0.0
 11
34.0
 21
-11.5
 31
0.0
  0
LINE
  5
1F7
100
AcDbEntity
  8
0
  6
CONTINUOUS
 62
               7
100
AcDbLine
 10
24.0
 20
9.8029436876745386
 30
0.0
 11
34.0
 21
9.8029436876745386
 31
0.0
  0
LINE
  5
1F8
100
AcDbEntity
  8
0
  6
CONTINUOUS
 62
               7
100
AcDbLine
 10
24.0
 20
11.5
 30
0.0
 11
34.0
 21
11.5
 31
0.0
  0
ENDBLK
  5
1F9
100
AcDbEntity
  8
0
100
AcDbBlockEnd
  0
BLOCK
  5
1FA
100
AcDbEntity
  8
0
100
AcDbBlockBegin
  2
MS_6
 70
               0
 10
0.0
 20
0.0
 30
0.0
  3
MS_6
  1

  0
LINE
  5
1FB
100
AcDbEntity
  8
0
  6
CONTINUOUS
 62
               4
100
AcDbLine
 10
16.053844106008597
 20
-13.790015720002584
 30
0.0
 11
18.42569083773256
 21
-16.161862451726435
 31
0.0
  0
LINE
  5
1FC
100
AcDbEntity
  8
0
  6
CONTINUOUS
 62
               4
100
AcDbLine
 10
17.963032415212325
 20
-11.880827410798913
 30
0.0
 11
20.059021427381737
 21
-13.976816422968211
 31
0.0
  0
LINE
  5
1FD
100
AcDbEntity
  8
0
  6
PHANTOM
 62
             200
100
AcDbLine
 10
20.694789254669473
 20
-12.921254070476136
 30
0.0
 11
17.679204220149273
 21
-17.227955826687534
 31
0.0
  0
LINE
  5
1FE
100
AcDbEntity
  8
0
  6
CONTINUOUS
 62
               4
100
AcDbLine
 10
18.449925947466596
 20
-11.393933878544585
 30
0.0
 11
15.550788138821559
 21
-14.293071687189565
 31
0.0
  0
LINE
  5
1FF
100
AcDbEntity
  8
0
  6
CONTINUOUS
 62
               4
100
AcDbLine
 10
15.338656112982477
 20
-8.2826640440605228
 30
0.0
 11
14.560838648860596
 21
-8.2826640440605228
 31
0.0
  0
LINE
  5
200
100
AcDbEntity
  8
0
  6
CONTINUOUS
 62
               4
100
AcDbLine
 10
12.439518293258878
 20
-10.403984375578188
 30
0.0
 11
12.439518305301043
 21
-11.181801851742177
 31
0.0
  0
LINE
  5
201
100
AcDbEntity
  8
0
  6
CONTINUOUS
 62
               4
100
AcDbLine
 10
18.44992594168653
 20
-11.393933884324708
 30
0.0
 11
15.338656104465741
 21
-8.2826640471039195
 31
0.0
  0
LINE
  5
202
100
AcDbEntity
  8
0
  6
CONTINUOUS
 62
               4
100
AcDbLine
 10
15.550788138821559
 20
-14.293071687189565
 30
0.0
 11
12.439518301600764
 21
-11.181801849968776
 31
0.0
  0
LINE
  5
203
100
AcDbEntity
  8
0
  6
CONTINUOUS
 62
               4
100
AcDbLine
 10
13.569879059974618
 20
-6.515907307701907
 30
0.0
 11
13.571899365063608
 21
-7.2937247670071041
 31
0.0
  0
LINE
  5
204
100
AcDbEntity
  8
0
  6
CONTINUOUS
 62
               4
100
AcDbLine
 10
14.560838642117147
 20
-8.2826640440605228
 30
0.0
 11
13.571899365063608
 21
-7.2937247670071041
 31
0.0
  0
LINE
  5
205
100
AcDbEntity
  8
0
  6
CONTINUOUS
 62
               4
100
AcDbLine
 10
12.439518305301043
 20
-10.403984394363688
 30
0.0
 11
11.450579021504062
 21
-9.4150451105667639
 31
0.0
  0
LINE
  5
206
100
AcDbEntity
  8
0
  6
CONTINUOUS
 62
               4
100
AcDbLine
 10
10.670741257109647
 20
-9.4150451105667639
 30
0.0
 11
11.450579021504062
 21
-9.4150451105667639
 31
0.0
  0
LINE
  5
207
100
AcDbEntity
  8
0
  6
CONTINUOUS
 62
               4
100
AcDbLine
 10
10.670741257109647
 20
-9.4150451105667639
 30
0.0
 11
9.5757358988152177
 21
-8.3200397522721641
 31
0.0
  0
ARC
  5
208
100
AcDbEntity
  8
0
  6
CONTINUOUS
 62
               4
100
AcDbCircle
 10
11.024293995039805
 20
-6.8703972699014866
 30
0.0
 40
2.0506628609917015
100
AcDbArc
 50
44.978576158876109
 51
134.94156910908407
  0
ARC
  5
209
100
AcDbEntity
  8
0
  6
CONTINUOUS
 62
               4
100
AcDbCircle
 10
11.027156569116549
 20
-6.8694606982951836
 30
0.0
 40
2.0520237703338058
100
AcDbArc
 50
135.01661649434493
 51
224.98338350565427
  0
LINE
  5
20A
100
AcDbEntity
  8
0
  6
CENTER
 62
             200
100
AcDbLine
 10
20.236884088575749
 20
-16.080029834078843
 30
0.0
 11
8.9334863489617859
 21
-4.7766320944648282
 31
0.0
  0
LINE
  5
20B
100
AcDbEntity
  8
0
  6
CONTINUOUS
 62
               4
100
AcDbLine
 10
17.742819166280157
 20
-10.686827097358032
 30
0.0
 11
14.84368135763512
 21
-13.585964906003012
 31
0.0
  0
LINE
  5
20C
100
AcDbEntity
  8
0
  6
CONTINUOUS
 62
               4
100
AcDbLine
 10
14.560838642116892
 20
8.2826640440602972
 30
0.0
 11
13.571899365063359
 21
7.2937247670068786
 31
0.0
  0
LINE
  5
20D
100
AcDbEntity
  8
0
  6
CONTINUOUS
 62
               4
100
AcDbLine
 10
10.670741257109398
 20
9.4150451105665383
 30
0.0
 11
11.450579021503813
 21
9.4150451105665383
 31
0.0
  0
LINE
  5
20E
100
AcDbEntity
  8
0
  6
CONTINUOUS
 62
               4
100
AcDbLine
 10
13.00419363502499
 20
5.950221882752416
 30
0.0
 11
10.105055832160247
 21
8.8493596856172729
 31
0.0
  0
LINE
  5
20F
100
AcDbEntity
  8
0
  6
CENTER
 62
             200
100
AcDbLine
 10
20.236884088575493
 20
16.080029834078559
 30
0.0
 11
8.9334863489615373
 21
4.7766320944646026
 31
0.0
  0
LINE
  5
210
100
AcDbEntity
  8
0
  6
CONTINUOUS
 62
               4
100
AcDbLine
 10
12.439518305300794
 20
10.403984394363405
 30
0.0
 11
11.450579021503813
 21
9.4150451105665383
 31
0.0
  0
LINE
  5
211
100
AcDbEntity
  8
0
  6
CONTINUOUS
 62
               4
100
AcDbLine
 10
13.889087264052819
 20
7.6109126659962811
 30
0.0
 11
11.767766920493273
 21
9.732233009555884
 31
0.0
  0
LINE
  5
212
100
AcDbEntity
  8
0
  6
CONTINUOUS
 62
               4
100
AcDbLine
 10
15.550788138821304
 20
14.293071687189283
 30
0.0
 11
12.439518301600515
 21
11.181801849968494
 31
0.0
  0
LINE
  5
213
100
AcDbEntity
  8
0
  6
CONTINUOUS
 62
               4
100
AcDbLine
 10
18.449925941686274
 20
11.393933884324483
 30
0.0
 11
15.338656104465485
 21
8.282664047103637
 31
0.0
  0
LINE
  5
214
100
AcDbEntity
  8
0
  6
CONTINUOUS
 62
               4
100
AcDbLine
 10
12.439518293258629
 20
10.403984375577963
 30
0.0
 11
12.439518305300794
 21
11.181801851741895
 31
0.0
  0
LINE
  5
215
100
AcDbEntity
  8
0
  6
CONTINUOUS
 62
               4
100
AcDbLine
 10
15.338656112982221
 20
8.2826640440602972
 30
0.0
 11
14.56083864886034
 21
8.2826640440602972
 31
0.0
  0
LINE
  5
216
100
AcDbEntity
  8
0
  6
CONTINUOUS
 62
               4
100
AcDbLine
 10
18.44992594746634
 20
11.393933878544303
 30
0.0
 11
15.550788138821304
 21
14.293071687189283
 31
0.0
  0
LINE
  5
217
100
AcDbEntity
  8
0
  6
PHANTOM
 62
             200
100
AcDbLine
 10
20.694789254669217
 20
12.921254070475854
 30
0.0
 11
17.679204220149018
 21
17.227955826687307
 31
0.0
  0
LINE
  5
218
100
AcDbEntity
  8
0
  6
CONTINUOUS
 62
               4
100
AcDbLine
 10
17.963032415212069
 20
11.880827410798631
 30
0.0
 11
20.059021427381481
 21
13.976816422967929
 31
0.0
  0
LINE
  5
219
100
AcDbEntity
  8
0
  6
CONTINUOUS
 62
               4
100
AcDbLine
 10
16.053844106008341
 20
13.790015720002302
 30
0.0
 11
18.425690837732304
 21
16.161862451726151
 31
0.0
  0
LINE
  5
21A
100
AcDbEntity
  8
0
  6
CONTINUOUS
 62
               4
100
AcDbLine
 10
10.248497493486752
 20
5.033003372299035
 30
0.0
 11
9.1878373217067519
 21
6.0936635440788649
 31
0.0
  0
LINE
  5
21B
100
AcDbEntity
  8
0
  6
CONTINUOUS
 62
               4
100
AcDbLine
 10
12.440134558600619
 20
5.3869507194567419
 30
0.0
 11
9.5413907123000854
 21
8.2856945657571686
 31
0.0
  0
LINE
  5
21C
100
AcDbEntity
  8
0
  6
CONTINUOUS
 62
               4
100
AcDbLine
 10
10.955604274673192
 20
5.033003372299035
 30
0.0
 11
9.1878373217067519
 21
6.8007703252653613
 31
0.0
  0
ARC
  5
21D
100
AcDbEntity
  8
0
  6
CONTINUOUS
 62
               4
100
AcDbCircle
 10
11.0271565691163
 20
6.869460698294958
 30
0.0
 40
2.0520237703338058
100
AcDbArc
 50
135.01661649434493
 51
224.98338350565427
  0
LINE
  5
21E
100
AcDbEntity
  8
0
  6
CONTINUOUS
 62
               4
100
AcDbLine
 10
9.1878373217067519
 20
6.8007703252653613
 30
0.0
 11
9.1878373217067519
 21
6.0936635440788649
 31
0.0
  0
LINE
  5
21F
100
AcDbEntity
  8
0
  6
CONTINUOUS
 62
               4
100
AcDbLine
 10
10.107076137249237
 20
7.7200091408079032
 30
0.0
 11
9.1878373217067519
 21
6.8007703252653613
 31
0.0
  0
LINE
  5
220
100
AcDbEntity
  8
0
  6
CONTINUOUS
 62
               4
100
AcDbLine
 10
10.670741257109398
 20
9.4150451105665383
 30
0.0
 11
9.575735898814969
 21
8.3200397522719385
 31
0.0
  0
LINE
  5
221
100
AcDbEntity
  8
0
  6
CONTINUOUS
 62
             200
100
AcDbLine
 10
10.249507646031248
 20
7.5775776320260633
 30
0.0
 11
9.1878373217067519
 21
6.5159073077016814
 31
0.0
  0
LINE
  5
222
100
AcDbEntity
  8
0
  6
CONTINUOUS
 62
               4
100
AcDbLine
 10
13.569879059974369
 20
6.5159073077016814
 30
0.0
 11
13.571899365063359
 21
7.2937247670068786
 31
0.0
  0
ARC
  5
223
100
AcDbEntity
  8
0
  6
CONTINUOUS
 62
               4
100
AcDbCircle
 10
11.024293995039557
 20
6.870397269901261
 30
0.0
 40
2.0506628609917015
100
AcDbArc
 50
225.05843089091513
 51
315.02142384112307
  0
LINE
  5
224
100
AcDbEntity
  8
0
  6
CONTINUOUS
 62
               4
100
AcDbLine
 10
10.248497493486752
 20
5.033003372299035
 30
0.0
 11
10.955604274673192
 21
5.033003372299035
 31
0.0
  0
LINE
  5
225
100
AcDbEntity
  8
0
  6
CONTINUOUS
 62
               4
100
AcDbLine
 10
11.874843090215677
 20
5.9522421878415201
 30
0.0
 11
10.955604274673192
 21
5.033003372299035
 31
0.0
  0
LINE
  5
226
100
AcDbEntity
  8
0
  6
CONTINUOUS
 62
               4
100
AcDbLine
 10
13.569879059974369
 20
6.5159073077016814
 30
0.0
 11
12.474873701679712
 21
5.4209019494070816
 31
0.0
  0
LINE
  5
227
100
AcDbEntity
  8
0
  6
CONTINUOUS
 62
             200
100
AcDbLine
 10
11.734431886522884
 20
6.0926533915343128
 30
0.0
 11
10.674781867287606
 21
5.033003372299035
 31
0.0
  0
LINE
  5
228
100
AcDbEntity
  8
0
  6
CONTINUOUS
 62
               4
100
AcDbLine
 10
13.571899365063608
 20
-6.5138870026128028
 30
0.0
 11
12.476894006769179
 21
-5.4188816443182031
 31
0.0
  0
ARC
  5
229
100
AcDbEntity
  8
0
  6
CONTINUOUS
 62
               7
100
AcDbCircle
 10
0.3999999999999986
 20
-11.1
 30
0.0
 40
0.4
100
AcDbArc
 50
179.9999999999996
 51
269.99999999999937
  0
ARC
  5
22A
100
AcDbEntity
  8
0
  6
CONTINUOUS
 62
               7
100
AcDbCircle
 10
0.3999999999999986
 20
11.100000000000001
 30
0.0
 40
0.4
100
AcDbArc
 50
89.999999999999801
 51
179.9999999999996
  0
LINE
  5
22B
100
AcDbEntity
  8
0
  6
CONTINUOUS
 62
               7
100
AcDbLine
 10
6.0000000193398293
 20
4.0414518784513405
 30
0.0
 11
9.5000000741481756
 21
2.0207259046440385
 31
0.0
  0
LINE
  5
22C
100
AcDbEntity
  8
0
  6
CONTINUOUS
 62
               7
100
AcDbLine
 10
9.5000000045811248
 20
2.0207259224768848
 30
0.0
 11
9.5000000045811106
 21
-2.0207260251377193
 31
0.0
  0
LINE
  5
22D
100
AcDbEntity
  8
0
  6
CONTINUOUS
 62
               7
100
AcDbLine
 10
9.4999999852412884
 20
-2.0207259559744628
 30
0.0
 11
5.9999999304329421
 21
-4.0414519297817559
 31
0.0
  0
LINE
  5
22E
100
AcDbEntity
  8
0
  6
CONTINUOUS
 62
               7
100
AcDbLine
 10
5.9999999806601707
 20
-4.0414518784513458
 30
0.0
 11
2.4999999258518244
 21
-2.0207259046440385
 31
0.0
  0
LINE
  5
22F
100
AcDbEntity
  8
0
  6
CONTINUOUS
 62
               7
100
AcDbLine
 10
2.4999999954188752
 20
-2.0207259224768919
 30
0.0
 11
2.4999999954188894
 21
2.0207260251377193
 31
0.0
  0
LINE
  5
230
100
AcDbEntity
  8
0
  6
CONTINUOUS
 62
               7
100
AcDbLine
 10
2.5000000147587116
 20
2.0207259559744557
 30
0.0
 11
6.0000000695670579
 21
4.0414519297817577
 31
0.0
  0
CIRCLE
  5
231
100
AcDbEntity
  8
0
  6
CONTINUOUS
 62
               7
100
AcDbCircle
 10
6.0
 20
0.0
 30
0.0
 40
3.5
  0
CIRCLE
  5
232
100
AcDbEntity
  8
0
  6
CONTINUOUS
 62
               7
100
AcDbCircle
 10
6.0
 20
0.0
 30
0.0
 40
2.0
  0
CIRCLE
  5
233
100
AcDbEntity
  8
0
  6
CONTINUOUS
 62
               2
100
AcDbCircle
 10
6.0
 20
0.0
 30
0.0
 40
1.7000000000000028
  0
LINE
  5
234
100
AcDbEntity
  8
0
  6
CENTER
 62
               2
100
AcDbLine
 10
6.0
 20
-7.0499999999999883
 30
0.0
 11
6.0
 21
7.0499999999999901
 31
0.0
  0
LINE
  5
235
100
AcDbEntity
  8
0
  6
CONTINUOUS
 62
               7
100
AcDbLine
 10
0.0
 20
11.100000000000001
 30
0.0
 11
0.0
 21
-11.1
 31
0.0
  0
LINE
  5
236
100
AcDbEntity
  8
0
  6
CENTER
 62
               2
100
AcDbLine
 10
-1.0175191479551984
 20
0.0
 30
0.0
 11
17.240878655828027
 21
0.0000000000000018
 31
0.0
  0
LINE
  5
237
100
AcDbEntity
  8
0
  6
CONTINUOUS
 62
               7
100
AcDbLine
 10
0.3999999999999986
 20
11.5
 30
0.0
 11
9.9999999300491993
 21
11.5
 31
0.0
  0
LINE
  5
238
100
AcDbEntity
  8
0
  6
CONTINUOUS
 62
               7
100
AcDbLine
 10
10.636396070594721
 20
9.4493902970812869
 30
0.0
 11
9.5050252206962469
 21
8.3180194471828131
 31
0.0
  0
LINE
  5
239
100
AcDbEntity
  8
0
  6
CONTINUOUS
 62
               7
100
AcDbLine
 10
11.517766968996376
 20
9.9822329610527234
 30
0.0
 11
9.9999999300490714
 21
11.5
 31
0.0
  0
LINE
  5
23A
100
AcDbEntity
  8
0
  6
CONTINUOUS
 62
               7
100
AcDbLine
 10
10.636396070594721
 20
9.4493902970812869
 30
0.0
 11
11.343502851781274
 21
9.4493902970812869
 31
0.0
  0
ARC
  5
23B
100
AcDbEntity
  8
0
  6
CONTINUOUS
 62
               7
100
AcDbCircle
 10
11.271803091776782
 20
9.8029436876745493
 30
0.0
 40
0.3007001998472195
100
AcDbArc
 50
315.13326207080115
 51
44.866737929199004
  0
LINE
  5
23C
100
AcDbEntity
  8
0
  6
CONTINUOUS
 62
               7
100
AcDbLine
 10
11.48492420801859
 20
9.590811653318589
 30
0.0
 11
11.343502851781274
 21
9.4493902970812869
 31
0.0
  0
ARC
  5
23D
100
AcDbEntity
  8
0
  6
CONTINUOUS
 62
               7
100
AcDbCircle
 10
10.989949461187997
 20
6.8330952066910484
 30
0.0
 40
2.1000000111152071
100
AcDbArc
 50
134.99999999999966
 51
314.99999999999926
  0
LINE
  5
23E
100
AcDbEntity
  8
0
  6
CONTINUOUS
 62
               7
100
AcDbLine
 10
13.606244551578222
 20
6.479541816097786
 30
0.0
 11
12.474873701679748
 21
5.3481709661993122
 31
0.0
  0
LINE
  5
23F
100
AcDbEntity
  8
0
  6
CONTINUOUS
 62
               7
100
AcDbLine
 10
13.606244551578222
 20
7.186648597284325
 30
0.0
 11
13.606244551578222
 21
6.479541816097786
 31
0.0
  0
ARC
  5
240
100
AcDbEntity
  8
0
  6
CONTINUOUS
 62
               7
100
AcDbCircle
 10
13.959797942171491
 20
7.1166111221065407
 30
0.0
 40
0.2995243519038812
100
AcDbArc
 50
44.908941249896863
 51
135.09105875010374
  0
LINE
  5
241
100
AcDbEntity
  8
0
  6
CONTINUOUS
 62
               7
100
AcDbLine
 10
13.747665907815538
 20
7.3280699535216414
 30
0.0
 11
13.606244551578222
 21
7.186648597284325
 31
0.0
  0
LINE
  5
242
100
AcDbEntity
  8
0
  6
CONTINUOUS
 62
               7
100
AcDbLine
 10
14.171929976527451
 20
7.3280699535216414
 30
0.0
 11
16.0
 21
5.4999999300492668
 31
0.0
  0
CIRCLE
  5
243
100
AcDbEntity
  8
0
  6
CONTINUOUS
 62
               7
100
AcDbCircle
 10
6.0
 20
0.0
 30
0.0
 40
5.5499999999999901
  0
CIRCLE
  5
244
100
AcDbEntity
  8
0
  6
CONTINUOUS
 62
               7
100
AcDbCircle
 10
6.0
 20
0.0
 30
0.0
 40
5.1499999999999844
  0
LINE
  5
245
100
AcDbEntity
  8
0
  6
CONTINUOUS
 62
               7
100
AcDbLine
 10
16.0
 20
5.499999930049416
 30
0.0
 11
16.0
 21
-5.4999999300492615
 31
0.0
  0
LINE
  5
246
100
AcDbEntity
  8
0
  6
CONTINUOUS
 62
               7
100
AcDbLine
 10
0.3999999999999986
 20
-11.499999999999998
 30
0.0
 11
9.9999999300491993
 21
-11.499999999999998
 31
0.0
  0
ARC
  5
247
100
AcDbEntity
  8
0
  6
CONTINUOUS
 62
               7
100
AcDbCircle
 10
10.989949461187997
 20
-6.8330952066910466
 30
0.0
 40
2.1000000111152071
100
AcDbArc
 50
44.99999999999995
 51
224.99999999999955
  0
LINE
  5
248
100
AcDbEntity
  8
0
  6
CONTINUOUS
 62
               7
100
AcDbLine
 10
14.171929976527451
 20
-7.3280699535216396
 30
0.0
 11
16.0
 21
-5.4999999300492686
 31
0.0
  0
LINE
  5
249
100
AcDbEntity
  8
0
  6
CONTINUOUS
 62
               7
100
AcDbLine
 10
13.747665907815538
 20
-7.3280699535216396
 30
0.0
 11
13.606244551578222
 21
-7.1866485972843233
 31
0.0
  0
ARC
  5
24A
100
AcDbEntity
  8
0
  6
CONTINUOUS
 62
               7
100
AcDbCircle
 10
13.959797942171491
 20
-7.1166111221065389
 30
0.0
 40
0.2995243519038812
100
AcDbArc
 50
224.90894124989543
 51
315.09105875010232
  0
LINE
  5
24B
100
AcDbEntity
  8
0
  6
CONTINUOUS
 62
               7
100
AcDbLine
 10
13.606244551578222
 20
-7.1866485972843233
 30
0.0
 11
13.606244551578222
 21
-6.4795418160977842
 31
0.0
  0
LINE
  5
24C
100
AcDbEntity
  8
0
  6
CONTINUOUS
 62
               7
100
AcDbLine
 10
13.606244551578222
 20
-6.4795418160977842
 30
0.0
 11
12.474873701679748
 21
-5.3481709661993104
 31
0.0
  0
LINE
  5
24D
100
AcDbEntity
  8
0
  6
CONTINUOUS
 62
               7
100
AcDbLine
 10
11.48492420801859
 20
-9.5908116533185872
 30
0.0
 11
11.343502851781274
 21
-9.4493902970812851
 31
0.0
  0
ARC
  5
24E
100
AcDbEntity
  8
0
  6
CONTINUOUS
 62
               7
100
AcDbCircle
 10
11.271803091776782
 20
-9.8029436876745475
 30
0.0
 40
0.3007001998472195
100
AcDbArc
 50
-44.866737929198983
 51
44.866737929198038
  0
LINE
  5
24F
100
AcDbEntity
  8
0
  6
CONTINUOUS
 62
               7
100
AcDbLine
 10
10.636396070594721
 20
-9.4493902970812851
 30
0.0
 11
11.343502851781274
 21
-9.4493902970812851
 31
0.0
  0
LINE
  5
250
100
AcDbEntity
  8
0
  6
CONTINUOUS
 62
               7
100
AcDbLine
 10
11.517766968996376
 20
-9.9822329610527216
 30
0.0
 11
9.9999999300490714
 21
-11.499999999999998
 31
0.0
  0
LINE
  5
251
100
AcDbEntity
  8
0
  6
CONTINUOUS
 62
               7
100
AcDbLine
 10
10.636396070594721
 20
-9.4493902970812851
 30
0.0
 11
9.5050252206962469
 21
-8.3180194471828113
 31
0.0
  0
LINE
  5
252
100
AcDbEntity
  8
0
  6
CENTER
 62
               2
100
AcDbLine
 10
1.5
 20
8.5000000000000018
 30
0.0
 11
-1.5
 21
8.5000000000000018
 31
0.0
  0
LINE
  5
253
100
AcDbEntity
  8
0
  6
CENTER
 62
               2
100
AcDbLine
 10
1.5
 20
-8.5000000000000018
 30
0.0
 11
-1.5
 21
-8.5000000000000018
 31
0.0
  0
ENDBLK
  5
254
100
AcDbEntity
  8
0
100
AcDbBlockEnd
  0
BLOCK
  5
255
100
AcDbEntity
  8
0
100
AcDbBlockBegin
  2
MS_7
 70
               0
 10
0.0
 20
0.0
 30
0.0
  3
MS_7
  1

  0
CIRCLE
  5
256
100
AcDbEntity
  8
0
  6
DASHED
 62
               7
100
AcDbCircle
 10
3.5
 20
10.0
 30
0.0
 40
1.2
  0
CIRCLE
  5
257
100
AcDbEntity
  8
0
  6
DASHED
 62
               2
100
AcDbCircle
 10
3.5
 20
10.0
 30
0.0
 40
1.5
  0
LINE
  5
258
100
AcDbEntity
  8
0
  6
CENTER
 62
               2
100
AcDbLine
 10
3.5
 20
7.5
 30
0.0
 11
3.5
 21
12.5
 31
0.0
  0
LINE
  5
259
100
AcDbEntity
  8
0
  6
CONTINUOUS
 62
               7
100
AcDbLine
 10
-1.9999999852351209
 20
8.0
 30
0.0
 11
0.0
 21
8.0
 31
0.0
  0
LINE
  5
25A
100
AcDbEntity
  8
0
  6
CONTINUOUS
 62
               2
100
AcDbLine
 10
-1.9999999852351209
 20
8.2999999999999972
 30
0.0
 11
-0.9999999852351209
 21
8.2999999999999972
 31
0.0
  0
LINE
  5
25B
100
AcDbEntity
  8
0
  6
CONTINUOUS
 62
               7
100
AcDbLine
 10
-1.9999999852351209
 20
12.0
 30
0.0
 11
0.0
 21
12.0
 31
0.0
  0
LINE
  5
25C
100
AcDbEntity
  8
0
  6
CONTINUOUS
 62
               2
100
AcDbLine
 10
-1.9999999852351209
 20
11.700000000000003
 30
0.0
 11
-0.9999999852351209
 21
11.700000000000003
 31
0.0
  0
LINE
  5
25D
100
AcDbEntity
  8
0
  6
CONTINUOUS
 62
               7
100
AcDbLine
 10
-4.7126074306330139
 20
10.0
 30
0.0
 11
-6.487392539837245
 21
10.0
 31
0.0
  0
LINE
  5
25E
100
AcDbEntity
  8
0
  6
CONTINUOUS
 62
               7
100
AcDbLine
 10
-6.7999999852351323
 20
6.5000000285843242
 30
0.0
 11
-6.7999999852351323
 21
13.499999968979679
 31
0.0
  0
LINE
  5
25F
100
AcDbEntity
  8
0
  6
CONTINUOUS
 62
               7
100
AcDbLine
 10
-4.3999999852351266
 20
13.499999963064312
 30
0.0
 11
-6.7999999852351323
 21
13.499999963064312
 31
0.0
  0
LINE
  5
260
100
AcDbEntity
  8
0
  6
CONTINUOUS
 62
               7
100
AcDbLine
 10
-4.3999999852351266
 20
6.5000000369356883
 30
0.0
 11
-6.7999999852351323
 21
6.5000000369356883
 31
0.0
  0
LINE
  5
261
100
AcDbEntity
  8
0
  6
CONTINUOUS
 62
               7
100
AcDbLine
 10
-4.3999999852351266
 20
6.5000000369356883
 30
0.0
 11
-1.9999999852351209
 21
6.5000000369356883
 31
0.0
  0
LINE
  5
262
100
AcDbEntity
  8
0
  6
CONTINUOUS
 62
               7
100
AcDbLine
 10
-4.3999999852351266
 20
13.499999963064312
 30
0.0
 11
-1.9999999852351209
 21
13.499999963064312
 31
0.0
  0
LINE
  5
263
100
AcDbEntity
  8
0
  6
CONTINUOUS
 62
               7
100
AcDbLine
 10
-4.3999999852351266
 20
6.5000000285843242
 30
0.0
 11
-4.3999999852351266
 21
13.499999968979679
 31
0.0
  0
LINE
  5
264
100
AcDbEntity
  8
0
  6
CONTINUOUS
 62
               7
100
AcDbLine
 10
-1.9999999852351209
 20
6.5000000285843242
 30
0.0
 11
-1.9999999852351209
 21
13.499999968979679
 31
0.0
  0
LINE
  5
265
100
AcDbEntity
  8
0
  6
CONTINUOUS
 62
               7
100
AcDbLine
 10
-4.0873925398372393
 20
10.0
 30
0.0
 11
-2.3126074306330082
 21
10.0
 31
0.0
  0
SPLINE
  5
266
100
AcDbEntity
  8
0
  6
CONTINUOUS
 62
               7
100
AcDbSpline
210
0.0
220
0.0
230
1.0
 70
               0
 71
               3
 72
               0
 73
               0
 74
               5
 44
0.000001
 12
0.3364389663850756
 22
-0.9417052733725887
 32
0.0
 13
-0.3364389571584283
 23
-0.941705276668953
 33
0.0
 11
-4.7126074478393889
 21
13.499999963064312
 31
0.0
 11
-4.4815427019410512
 21
12.639236642840407
 31
0.0
 11
-4.3999999852351266
 21
11.749999981532156
 31
0.0
 11
-4.4815426934502351
 21
10.860763320980631
 31
0.0
 11
-4.7126074306330139
 21
10.0
 31
0.0
  0
SPLINE
  5
267
100
AcDbEntity
  8
0
  6
CONTINUOUS
 62
               7
100
AcDbSpline
210
0.0
220
0.0
230
1.0
 70
               0
 71
               3
 72
               0
 73
               0
 74
               5
 44
0.000001
 12
-0.3364389663850757
 22
-0.9417052733725887
 32
0.0
 13
0.3364389571584284
 23
-0.9417052766689529
 33
0.0
 11
-6.48739252263087
 21
13.499999963064312
 31
0.0
 11
-6.7184572685292077
 21
12.639236642840407
 31
0.0
 11
-6.7999999852351323
 21
11.749999981532156
 31
0.0
 11
-6.7184572770200237
 21
10.860763320980631
 31
0.0
 11
-6.487392539837245
 21
10.0
 31
0.0
  0
SPLINE
  5
268
100
AcDbEntity
  8
0
  6
CONTINUOUS
 62
               7
100
AcDbSpline
210
0.0
220
0.0
230
1.0
 70
               0
 71
               3
 72
               0
 73
               0
 74
               5
 44
0.000001
 12
-0.3364389663850757
 22
0.9417052733725887
 32
0.0
 13
0.3364389571584284
 23
0.9417052766689529
 33
0.0
 11
-6.48739252263087
 21
6.5000000369356883
 31
0.0
 11
-6.7184572685292077
 21
7.360763357159593
 31
0.0
 11
-6.7999999852351323
 21
8.2500000184678441
 31
0.0
 11
-6.7184572770200237
 21
9.1392366790193691
 31
0.0
 11
-6.487392539837245
 21
10.0
 31
0.0
  0
SPLINE
  5
269
100
AcDbEntity
  8
0
  6
CONTINUOUS
 62
               7
100
AcDbSpline
210
0.0
220
0.0
230
1.0
 70
               0
 71
               3
 72
               0
 73
               0
 74
               5
 44
0.000001
 12
0.3364389663850756
 22
0.9417052733725887
 32
0.0
 13
-0.3364389571584283
 23
0.941705276668953
 33
0.0
 11
-4.7126074478393889
 21
6.5000000369356883
 31
0.0
 11
-4.4815427019410512
 21
7.360763357159593
 31
0.0
 11
-4.3999999852351266
 21
8.2500000184678441
 31
0.0
 11
-4.4815426934502351
 21
9.1392366790193691
 31
0.0
 11
-4.7126074306330139
 21
10.0
 31
0.0
  0
SPLINE
  5
26A
100
AcDbEntity
  8
0
  6
CONTINUOUS
 62
               7
100
AcDbSpline
210
0.0
220
0.0
230
1.0
 70
               0
 71
               3
 72
               0
 73
               0
 74
               5
 44
0.000001
 12
-0.3364389663850757
 22
0.9417052733725887
 32
0.0
 13
0.3364389571584284
 23
0.9417052766689529
 33
0.0
 11
-4.0873925226308643
 21
6.5000000369356883
 31
0.0
 11
-4.318457268529202
 21
7.360763357159593
 31
0.0
 11
-4.3999999852351266
 21
8.2500000184678441
 31
0.0
 11
-4.318457277020018
 21
9.1392366790193691
 31
0.0
 11
-4.0873925398372393
 21
10.0
 31
0.0
  0
SPLINE
  5
26B
100
AcDbEntity
  8
0
  6
CONTINUOUS
 62
               7
100
AcDbSpline
210
0.0
220
0.0
230
1.0
 70
               0
 71
               3
 72
               0
 73
               0
 74
               5
 44
0.000001
 12
0.3364389663850756
 22
0.9417052733725887
 32
0.0
 13
-0.3364389571584283
 23
0.941705276668953
 33
0.0
 11
-2.3126074478393832
 21
6.5000000369356883
 31
0.0
 11
-2.081542701941046
 21
7.360763357159593
 31
0.0
 11
-1.9999999852351209
 21
8.2500000184678441
 31
0.0
 11
-2.0815426934502295
 21
9.1392366790193691
 31
0.0
 11
-2.3126074306330082
 21
10.0
 31
0.0
  0
SPLINE
  5
26C
100
AcDbEntity
  8
0
  6
CONTINUOUS
 62
               7
100
AcDbSpline
210
0.0
220
0.0
230
1.0
 70
               0
 71
               3
 72
               0
 73
               0
 74
               5
 44
0.000001
 12
0.3364389663850756
 22
-0.9417052733725887
 32
0.0
 13
-0.3364389571584283
 23
-0.941705276668953
 33
0.0
 11
-2.3126074478393832
 21
13.499999963064312
 31
0.0
 11
-2.081542701941046
 21
12.639236642840407
 31
0.0
 11
-1.9999999852351209
 21
11.749999981532156
 31
0.0
 11
-2.0815426934502295
 21
10.860763320980631
 31
0.0
 11
-2.3126074306330082
 21
10.0
 31
0.0
  0
SPLINE
  5
26D
100
AcDbEntity
  8
0
  6
CONTINUOUS
 62
               7
100
AcDbSpline
210
0.0
220
0.0
230
1.0
 70
               0
 71
               3
 72
               0
 73
               0
 74
               5
 44
0.000001
 12
-0.3364389663850757
 22
-0.9417052733725887
 32
0.0
 13
0.3364389571584284
 23
-0.9417052766689529
 33
0.0
 11
-4.0873925226308643
 21
13.499999963064312
 31
0.0
 11
-4.318457268529202
 21
12.639236642840407
 31
0.0
 11
-4.3999999852351266
 21
11.749999981532156
 31
0.0
 11
-4.318457277020018
 21
10.860763320980631
 31
0.0
 11
-4.0873925398372393
 21
10.0
 31
0.0
  0
LINE
  5
26E
100
AcDbEntity
  8
0
  6
CENTER
 62
               2
100
AcDbLine
 10
31.000000014764879
 20
7.5
 30
0.0
 11
31.000000014764879
 21
12.5
 31
0.0
  0
CIRCLE
  5
26F
100
AcDbEntity
  8
0
  6
DASHED
 62
               2
100
AcDbCircle
 10
31.000000014764879
 20
10.0
 30
0.0
 40
1.5
  0
CIRCLE
  5
270
100
AcDbEntity
  8
0
  6
DASHED
 62
               7
100
AcDbCircle
 10
31.000000014764879
 20
10.0
 30
0.0
 40
1.2
  0
LINE
  5
271
100
AcDbEntity
  8
0
  6
CENTER
 62
               2
100
AcDbLine
 10
14.000000014764879
 20
7.5
 30
0.0
 11
14.000000014764879
 21
12.5
 31
0.0
  0
CIRCLE
  5
272
100
AcDbEntity
  8
0
  6
DASHED
 62
               2
100
AcDbCircle
 10
14.000000014764879
 20
10.0
 30
0.0
 40
1.5
  0
CIRCLE
  5
273
100
AcDbEntity
  8
0
  6
DASHED
 62
               7
100
AcDbCircle
 10
14.000000014764879
 20
10.0
 30
0.0
 40
1.2
  0
LINE
  5
274
100
AcDbEntity
  8
0
  6
CONTINUOUS
 62
               7
100
AcDbLine
 10
34.000000014764879
 20
16.0
 30
0.0
 11
34.000000014764879
 21
0.0
 31
0.0
  0
LINE
  5
275
100
AcDbEntity
  8
0
  6
CONTINUOUS
 62
               7
100
AcDbLine
 10
0.0
 20
16.0
 30
0.0
 11
0.0
 21
0.0
 31
0.0
  0
LINE
  5
276
100
AcDbEntity
  8
0
  6
CONTINUOUS
 62
               7
100
AcDbLine
 10
0.0
 20
16.0
 30
0.0
 11
34.000000014764879
 21
16.0
 31
0.0
  0
LINE
  5
277
100
AcDbEntity
  8
0
  6
CONTINUOUS
 62
               7
100
AcDbLine
 10
-9.699999985235138
 20
8.0
 30
0.0
 11
-6.7999999852351323
 21
8.0
 31
0.0
  0
LINE
  5
278
100
AcDbEntity
  8
0
  6
CENTER
 62
               2
100
AcDbLine
 10
-11.096987471272001
 20
10.0
 30
0.0
 11
35.239086527694099
 21
10.0
 31
0.0
  0
LINE
  5
279
100
AcDbEntity
  8
0
  6
CONTINUOUS
 62
               7
100
AcDbLine
 10
-9.699999985235138
 20
12.0
 30
0.0
 11
-6.7999999852351323
 21
12.0
 31
0.0
  0
LINE
  5
27A
100
AcDbEntity
  8
0
  6
CONTINUOUS
 62
               2
100
AcDbLine
 10
-9.9999999852351209
 20
11.700000000000003
 30
0.0
 11
-6.7999999852351323
 21
11.700000000000003
 31
0.0
  0
LINE
  5
27B
100
AcDbEntity
  8
0
  6
CONTINUOUS
 62
               7
100
AcDbLine
 10
-9.699999985235138
 20
12.0
 30
0.0
 11
-9.9999999852351209
 21
11.700000000000003
 31
0.0
  0
LINE
  5
27C
100
AcDbEntity
  8
0
  6
CONTINUOUS
 62
               2
100
AcDbLine
 10
-0.9999999852351209
 20
11.700000000000003
 30
0.0
 11
-0.4803847429644748
 21
12.0
 31
0.0
  0
LINE
  5
27D
100
AcDbEntity
  8
0
  6
CONTINUOUS
 62
               7
100
AcDbLine
 10
-9.9999999852351209
 20
11.700000000000003
 30
0.0
 11
-9.9999999852351209
 21
8.2999999999999972
 31
0.0
  0
LINE
  5
27E
100
AcDbEntity
  8
0
  6
CONTINUOUS
 62
               7
100
AcDbLine
 10
-0.9999999852351209
 20
12.0
 30
0.0
 11
-0.9999999852351209
 21
8.0
 31
0.0
  0
LINE
  5
27F
100
AcDbEntity
  8
0
  6
CONTINUOUS
 62
               7
100
AcDbLine
 10
-9.699999985235138
 20
12.0
 30
0.0
 11
-9.699999985235138
 21
8.0
 31
0.0
  0
LINE
  5
280
100
AcDbEntity
  8
0
  6
CONTINUOUS
 62
               2
100
AcDbLine
 10
-0.9999999852351209
 20
8.2999999999999972
 30
0.0
 11
-0.4803847429644748
 21
8.0
 31
0.0
  0
LINE
  5
281
100
AcDbEntity
  8
0
  6
CONTINUOUS
 62
               7
100
AcDbLine
 10
-9.699999985235138
 20
8.0
 30
0.0
 11
-9.9999999852351209
 21
8.2999999999999972
 31
0.0
  0
LINE
  5
282
100
AcDbEntity
  8
0
  6
CONTINUOUS
 62
               2
100
AcDbLine
 10
-9.9999999852351209
 20
8.2999999999999972
 30
0.0
 11
-6.7999999852351323
 21
8.2999999999999972
 31
0.0
  0
LINE
  5
283
100
AcDbEntity
  8
0
  6
CONTINUOUS
 62
               7
100
AcDbLine
 10
0.0
 20
0.0
 30
0.0
 11
19.399999999999864
 21
0.0
 31
0.0
  0
LINE
  5
284
100
AcDbEntity
  8
0
  6
CONTINUOUS
 62
               7
100
AcDbLine
 10
0.0
 20
2.0402020578285089
 30
0.0
 11
19.399999999999864
 21
2.0402020578285089
 31
0.0
  0
LINE
  5
285
100
AcDbEntity
  8
0
  6
CONTINUOUS
 62
               7
100
AcDbLine
 10
0.0
 20
2.3937554484217856
 30
0.0
 11
9.0
 21
2.3937554484217856
 31
0.0
  0
LINE
  5
286
100
AcDbEntity
  8
0
  6
CONTINUOUS
 62
               7
100
AcDbLine
 10
0.0
 20
4.4274967083759975
 30
0.0
 11
34.000000014764879
 21
4.4274967083759975
 31
0.0
  0
LINE
  5
287
100
AcDbEntity
  8
0
  6
CONTINUOUS
 62
               7
100
AcDbLine
 10
0.0
 20
6.0000000699508007
 30
0.0
 11
34.000000014764879
 21
6.0000000699508007
 31
0.0
  0
LINE
  5
288
100
AcDbEntity
  8
0
  6
CONTINUOUS
 62
               4
100
AcDbLine
 10
24.0
 20
4.4274967083759975
 30
0.0
 11
24.0
 21
-1.7428191331003617
 31
0.0
  0
LINE
  5
289
100
AcDbEntity
  8
0
  6
CONTINUOUS
 62
               4
100
AcDbLine
 10
19.399999999999864
 20
-1.0003570402538102
 30
0.0
 11
19.399999999999864
 21
3.1715729077269899
 31
0.0
  0
ELLIPSE
  5
28A
100
AcDbEntity
  8
0
  6
CONTINUOUS
 62
               4
100
AcDbEllipse
 10
21.5
 20
-1.0003570402538102
 30
0.0
 11
2.0999999999999943
 21
0.0
 31
0.0
210
0.0
220
0.0
230
1.0
 40
0.690270905444012
 41
-0.8725714153590118
 42
4.014164068948805
  0
ELLIPSE
  5
28B
100
AcDbEntity
  8
0
  6
CONTINUOUS
 62
               4
100
AcDbEllipse
 10
21.5
 20
-1.0003570402538102
 30
0.0
 11
1.3500000000000016
 21
0.0
 31
0.0
210
0.0
220
0.0
230
1.0
 40
0.713092870339449
 41
0.0
 42
3.1415926535897931
  0
LINE
  5
28C
100
AcDbEntity
  8
0
  6
CONTINUOUS
 62
               4
100
AcDbLine
 10
23.59999998400167
 20
-0.293250259067257
 30
0.0
 11
23.59999998400167
 21
-1.0003570345018815
 31
0.0
  0
LINE
  5
28D
100
AcDbEntity
  8
0
  6
CONTINUOUS
 62
               4
100
AcDbLine
 10
16.5
 20
0.0
 30
0.0
 11
16.5
 21
-1.7428191331003617
 31
0.0
  0
ELLIPSE
  5
28E
100
AcDbEntity
  8
0
  6
CONTINUOUS
 62
               4
100
AcDbEllipse
 10
19.0
 20
-1.0003570402538102
 30
0.0
 11
-2.0999999999999943
 21
0.0000000000000003
 31
0.0
210
0.0
220
0.0
230
1.0
 40
0.690270905444012
 41
0.5377386764774563
 42
2.1503123541906759
  0
ELLIPSE
  5
28F
100
AcDbEntity
  8
0
  6
CONTINUOUS
 62
               4
100
AcDbEllipse
 10
19.0
 20
-4.0003570402538102
 30
0.0
 11
-1.3500000000000016
 21
0.0000000000000002
 31
0.0
210
0.0
220
0.0
230
1.0
 40
0.713092870339449
 41
0.0
 42
2.7542760527011381
  0
LINE
  5
290
100
AcDbEntity
  8
0
  6
CONTINUOUS
 62
               4
100
AcDbLine
 10
17.650000000000091
 20
-2.1107066588471213
 30
0.0
 11
17.650000000000091
 21
-4.0003570345018815
 31
0.0
  0
LINE
  5
291
100
AcDbEntity
  8
0
  6
CONTINUOUS
 62
               4
100
AcDbLine
 10
19.0
 20
-1.7428191604996854
 30
0.0
 11
16.5
 21
-1.7428191604996854
 31
0.0
  0
LINE
  5
292
100
AcDbEntity
  8
0
  6
CONTINUOUS
 62
               4
100
AcDbLine
 10
19.0
 20
-2.4499259416862316
 30
0.0
 11
19.0
 21
-1.7428191604996854
 31
0.0
  0
LINE
  5
293
100
AcDbEntity
  8
0
  6
CONTINUOUS
 62
               4
100
AcDbLine
 10
23.30362512657598
 20
-1.7428191604996854
 30
0.0
 11
24.0
 21
-1.7428191604996854
 31
0.0
  0
LINE
  5
294
100
AcDbEntity
  8
0
  6
CONTINUOUS
 62
               4
100
AcDbLine
 10
22.849999999999909
 20
-1.0003570345018815
 30
0.0
 11
22.849999999999909
 21
-4.0003570345018815
 31
0.0
  0
LINE
  5
295
100
AcDbEntity
  8
0
  6
CONTINUOUS
 62
               4
100
AcDbLine
 10
20.149999999999864
 20
-1.0003570345018815
 30
0.0
 11
20.149999999999864
 21
-4.0003570345018815
 31
0.0
  0
ELLIPSE
  5
296
100
AcDbEntity
  8
0
  6
CONTINUOUS
 62
               4
100
AcDbEllipse
 10
21.5
 20
-4.0003570402538102
 30
0.0
 11
1.3500000000000016
 21
0.0
 31
0.0
210
0.0
220
0.0
230
1.0
 40
0.713092870339449
 41
0.0
 42
6.2831853071795862
  0
ELLIPSE
  5
297
100
AcDbEntity
  8
0
  6
CONTINUOUS
 62
               4
100
AcDbEllipse
 10
21.5
 20
-0.293250259067257
 30
0.0
 11
2.0999999840018688
 21
0.0
 31
0.0
210
0.0
220
0.0
230
1.0
 40
0.6902709107026028
 41
0.0
 42
1.5707963267948966
  0
LINE
  5
298
100
AcDbEntity
  8
0
  6
CONTINUOUS
 62
               4
100
AcDbLine
 10
21.5
 20
1.1563186618711043
 30
0.0
 11
21.5
 21
0.4492118611786182
 31
0.0
  0
LINE
  5
299
100
AcDbEntity
  8
0
  6
CONTINUOUS
 62
               4
100
AcDbLine
 10
21.5
 20
1.1563186423651715
 30
0.0
 11
24.000000019764457
 21
1.1563186423651715
 31
0.0
  0
LINE
  5
29A
100
AcDbEntity
  8
0
  6
CONTINUOUS
 62
               4
100
AcDbLine
 10
9.0
 20
2.1109127359469397
 30
0.0
 11
9.0
 21
4.4274967083759975
 31
0.0
  0
LINE
  5
29B
100
AcDbEntity
  8
0
  6
CONTINUOUS
 62
               4
100
AcDbLine
 10
10.75
 20
2.3055475039425701
 30
0.0
 11
10.75
 21
4.0375983115114664
 31
0.0
  0
LINE
  5
29C
100
AcDbEntity
  8
0
  6
CONTINUOUS
 62
               4
100
AcDbLine
 10
11.25
 20
2.3055475039425701
 30
0.0
 11
11.25
 21
4.0375983115114664
 31
0.0
  0
ELLIPSE
  5
29D
100
AcDbEntity
  8
0
  6
CONTINUOUS
 62
               4
100
AcDbEllipse
 10
11.0
 20
3.1715729077269899
 30
0.0
 11
-1.25
 21
0.0000000000000002
 31
0.0
210
0.0
220
0.0
230
1.0
 40
0.7071067811865476
 41
0.0
 42
6.2831853071795862
  0
LINE
  5
29E
100
AcDbEntity
  8
0
  6
CONTINUOUS
 62
               4
100
AcDbLine
 10
20.030306154329992
 20
4.2322330795064786
 30
0.0
 11
20.030306154329992
 21
3.5604817244435836
 31
0.0
  0
ELLIPSE
  5
29F
100
AcDbEntity
  8
0
  6
CONTINUOUS
 62
               4
100
AcDbEllipse
 10
21.500000019764457
 20
3.1715729077269899
 30
0.0
 11
-2.10000001976465
 21
0.0000000000000003
 31
0.0
210
0.0
220
0.0
230
1.0
 40
0.6902708989473664
 41
5.4875823576499068
 42
0.0
  0
LINE
  5
2A0
100
AcDbEntity
  8
0
  6
CONTINUOUS
 62
               4
100
AcDbLine
 10
20.030306154329992
 20
3.5604817014428036
 30
0.0
 11
24.0
 21
3.5604817014428036
 31
0.0
  0
LINE
  5
2A1
100
AcDbEntity
  8
0
  6
CONTINUOUS
 62
               4
100
AcDbLine
 10
8.9999999831253774
 20
4.2322330795064786
 30
0.0
 11
24.0
 21
4.2322330795064786
 31
0.0
  0
LINE
  5
2A2
100
AcDbEntity
  8
0
  6
CONTINUOUS
 62
               4
100
AcDbLine
 10
8.9999999831253774
 20
2.1109127359469397
 30
0.0
 11
19.399999999999864
 21
2.1109127359469397
 31
0.0
  0
LINE
  5
2A3
100
AcDbEntity
  8
0
  6
CONTINUOUS
 62
               7
100
AcDbLine
 10
24.0
 20
2.3937554484217856
 30
0.0
 11
34.000000014764879
 21
2.3937554484217856
 31
0.0
  0
LINE
  5
2A4
100
AcDbEntity
  8
0
  6
CONTINUOUS
 62
               7
100
AcDbLine
 10
24.0
 20
2.0402020578285089
 30
0.0
 11
34.000000014764879
 21
2.0402020578285089
 31
0.0
  0
LINE
  5
2A5
100
AcDbEntity
  8
0
  6
CONTINUOUS
 62
               7
100
AcDbLine
 10
24.0
 20
0.0
 30
0.0
 11
34.000000014764879
 21
0.0
 31
0.0
  0
LINE
  5
2A6
100
AcDbEntity
  8
0
  6
CENTER
 62
               2
100
AcDbLine
 10
8.9999999915627029
 20
14.5
 30
0.0
 11
8.9999999915627029
 21
17.5
 31
0.0
  0
ENDBLK
  5
2A7
100
AcDbEntity
  8
0
100
AcDbBlockEnd
  0
BLOCK
  5
2A8
100
AcDbEntity
  8
0
100
AcDbBlockBegin
  2
MS_8
 70
               0
 10
0.0
 20
0.0
 30
0.0
  3
MS_8
  1

  0
LINE
  5
2A9
100
AcDbEntity
  8
0
  6
CONTINUOUS
 62
               4
100
AcDbLine
 10
31.500000014764879
 20
13.88908726405306
 30
0.0
 11
31.500000014764879
 21
11.572503291624002
 31
0.0
  0
LINE
  5
2AA
100
AcDbEntity
  8
0
  6
CONTINUOUS
 62
               4
100
AcDbLine
 10
29.750000014764879
 20
13.69445249605743
 30
0.0
 11
29.750000014764879
 21
11.962401688488534
 31
0.0
  0
LINE
  5
2AB
100
AcDbEntity
  8
0
  6
CONTINUOUS
 62
               4
100
AcDbLine
 10
29.250000014764879
 20
13.69445249605743
 30
0.0
 11
29.250000014764879
 21
11.962401688488534
 31
0.0
  0
ELLIPSE
  5
2AC
100
AcDbEntity
  8
0
  6
CONTINUOUS
 62
               4
100
AcDbEllipse
 10
29.500000014764879
 20
12.82842709227301
 30
0.0
 11
1.25
 21
0.0
 31
0.0
210
0.0
220
0.0
230
1.0
 40
0.7071067811865476
 41
0.0
 42
6.2831853071795862
  0
LINE
  5
2AD
100
AcDbEntity
  8
0
  6
CONTINUOUS
 62
               4
100
AcDbLine
 10
16.500000014764879
 20
11.572503291624002
 30
0.0
 11
16.500000014764879
 21
17.742819133100362
 31
0.0
  0
LINE
  5
2AE
100
AcDbEntity
  8
0
  6
CONTINUOUS
 62
               4
100
AcDbLine
 10
21.100000014765016
 20
17.00035704025381
 30
0.0
 11
21.100000014765016
 21
12.82842709227301
 31
0.0
  0
LINE
  5
2AF
100
AcDbEntity
  8
0
  6
CONTINUOUS
 62
               4
100
AcDbLine
 10
20.469693860434887
 20
11.767766920493521
 30
0.0
 11
20.469693860434887
 21
12.439518275556416
 31
0.0
  0
ELLIPSE
  5
2B0
100
AcDbEntity
  8
0
  6
CONTINUOUS
 62
               4
100
AcDbEllipse
 10
18.999999995000422
 20
12.82842709227301
 30
0.0
 11
2.10000001976465
 21
0.0
 31
0.0
210
0.0
220
0.0
230
1.0
 40
0.6902708989473664
 41
5.4875823576499068
 42
0.0
  0
LINE
  5
2B1
100
AcDbEntity
  8
0
  6
CONTINUOUS
 62
               4
100
AcDbLine
 10
20.469693860434887
 20
12.439518298557196
 30
0.0
 11
16.500000014764879
 21
12.439518298557196
 31
0.0
  0
ELLIPSE
  5
2B2
100
AcDbEntity
  8
0
  6
CONTINUOUS
 62
               4
100
AcDbEllipse
 10
19.000000014764879
 20
17.00035704025381
 30
0.0
 11
-2.0999999999999943
 21
0.0000000000000003
 31
0.0
210
0.0
220
0.0
230
1.0
 40
0.690270905444012
 41
-0.8725714153590118
 42
4.014164068948805
  0
ELLIPSE
  5
2B3
100
AcDbEntity
  8
0
  6
CONTINUOUS
 62
               4
100
AcDbEllipse
 10
19.000000014764879
 20
16.293250259067257
 30
0.0
 11
-2.0999999840018688
 21
0.0000000000000003
 31
0.0
210
0.0
220
0.0
230
1.0
 40
0.6902709107026028
 41
0.0
 42
1.5707963267948966
  0
ELLIPSE
  5
2B4
100
AcDbEntity
  8
0
  6
CONTINUOUS
 62
               4
100
AcDbEllipse
 10
19.000000014764879
 20
20.00035704025381
 30
0.0
 11
-1.3500000000000016
 21
0.0000000000000002
 31
0.0
210
0.0
220
0.0
230
1.0
 40
0.713092870339449
 41
0.0
 42
6.2831853071795862
  0
ELLIPSE
  5
2B5
100
AcDbEntity
  8
0
  6
CONTINUOUS
 62
               4
100
AcDbEllipse
 10
19.000000014764879
 20
17.00035704025381
 30
0.0
 11
-1.3500000000000016
 21
0.0000000000000002
 31
0.0
210
0.0
220
0.0
230
1.0
 40
0.713092870339449
 41
0.0
 42
3.1415926535897931
  0
LINE
  5
2B6
100
AcDbEntity
  8
0
  6
CONTINUOUS
 62
               4
100
AcDbLine
 10
20.350000014765016
 20
17.000357034501882
 30
0.0
 11
20.350000014765016
 21
20.000357034501882
 31
0.0
  0
LINE
  5
2B7
100
AcDbEntity
  8
0
  6
CONTINUOUS
 62
               4
100
AcDbLine
 10
17.65000001476497
 20
17.000357034501882
 30
0.0
 11
17.65000001476497
 21
20.000357034501882
 31
0.0
  0
LINE
  5
2B8
100
AcDbEntity
  8
0
  6
CONTINUOUS
 62
               4
100
AcDbLine
 10
17.196374888188899
 20
17.742819160499685
 30
0.0
 11
16.500000014764879
 21
17.742819160499685
 31
0.0
  0
LINE
  5
2B9
100
AcDbEntity
  8
0
  6
CONTINUOUS
 62
               4
100
AcDbLine
 10
16.900000030763209
 20
16.293250259067257
 30
0.0
 11
16.900000030763209
 21
17.000357034501882
 31
0.0
  0
LINE
  5
2BA
100
AcDbEntity
  8
0
  6
CONTINUOUS
 62
               4
100
AcDbLine
 10
19.000000014764879
 20
14.843681357634829
 30
0.0
 11
16.499999995000422
 21
14.843681357634829
 31
0.0
  0
LINE
  5
2BB
100
AcDbEntity
  8
0
  6
CONTINUOUS
 62
               4
100
AcDbLine
 10
19.000000014764879
 20
14.843681338128896
 30
0.0
 11
19.000000014764879
 21
15.550788138821382
 31
0.0
  0
LINE
  5
2BC
100
AcDbEntity
  8
0
  6
CONTINUOUS
 62
               4
100
AcDbLine
 10
31.500000031639502
 20
11.767766920493521
 30
0.0
 11
16.500000014764879
 21
11.767766920493521
 31
0.0
  0
LINE
  5
2BD
100
AcDbEntity
  8
0
  6
CONTINUOUS
 62
               4
100
AcDbLine
 10
31.500000031639502
 20
13.88908726405306
 30
0.0
 11
21.100000014765016
 21
13.88908726405306
 31
0.0
  0
LINE
  5
2BE
100
AcDbEntity
  8
0
  6
CONTINUOUS
 62
               4
100
AcDbLine
 10
24.0
 20
16.0
 30
0.0
 11
24.0
 21
17.742819133100362
 31
0.0
  0
LINE
  5
2BF
100
AcDbEntity
  8
0
  6
CONTINUOUS
 62
               4
100
AcDbLine
 10
21.5
 20
18.449925941686232
 30
0.0
 11
21.5
 21
17.742819160499685
 31
0.0
  0
LINE
  5
2C0
100
AcDbEntity
  8
0
  6
CONTINUOUS
 62
               4
100
AcDbLine
 10
21.5
 20
17.742819160499685
 30
0.0
 11
24.0
 21
17.742819160499685
 31
0.0
  0
LINE
  5
2C1
100
AcDbEntity
  8
0
  6
CONTINUOUS
 62
               4
100
AcDbLine
 10
22.849999999999909
 20
18.110706658847121
 30
0.0
 11
22.849999999999909
 21
20.000357034501882
 31
0.0
  0
ELLIPSE
  5
2C2
100
AcDbEntity
  8
0
  6
CONTINUOUS
 62
               4
100
AcDbEllipse
 10
21.5
 20
20.00035704025381
 30
0.0
 11
1.3500000000000016
 21
0.0
 31
0.0
210
0.0
220
0.0
230
1.0
 40
0.713092870339449
 41
0.0
 42
2.7542760382229798
  0
ELLIPSE
  5
2C3
100
AcDbEntity
  8
0
  6
CONTINUOUS
 62
               4
100
AcDbEllipse
 10
21.5
 20
17.00035704025381
 30
0.0
 11
2.0999999999999943
 21
0.0
 31
0.0
210
0.0
220
0.0
230
1.0
 40
0.690270905444012
 41
0.5377386764774563
 42
2.1503123457878295
  0
CIRCLE
  5
2C4
100
AcDbEntity
  8
0
  6
DASHED
 62
               7
100
AcDbCircle
 10
3.5
 20
6.0
 30
0.0
 40
1.2
  0
CIRCLE
  5
2C5
100
AcDbEntity
  8
0
  6
DASHED
 62
               2
100
AcDbCircle
 10
3.5
 20
6.0
 30
0.0
 40
1.5
  0
LINE
  5
2C6
100
AcDbEntity
  8
0
  6
CENTER
 62
               2
100
AcDbLine
 10
3.5
 20
3.5
 30
0.0
 11
3.5
 21
8.5
 31
0.0
  0
LINE
  5
2C7
100
AcDbEntity
  8
0
  6
CONTINUOUS
 62
               2
100
AcDbLine
 10
-1.9999999852351209
 20
4.2999999999999972
 30
0.0
 11
-0.9999999852351209
 21
4.2999999999999972
 31
0.0
  0
LINE
  5
2C8
100
AcDbEntity
  8
0
  6
CONTINUOUS
 62
               7
100
AcDbLine
 10
-1.9999999852351209
 20
4.0
 30
0.0
 11
0.0
 21
4.0
 31
0.0
  0
LINE
  5
2C9
100
AcDbEntity
  8
0
  6
CONTINUOUS
 62
               2
100
AcDbLine
 10
-1.9999999852351209
 20
7.7000000000000028
 30
0.0
 11
-0.9999999852351209
 21
7.7000000000000028
 31
0.0
  0
LINE
  5
2CA
100
AcDbEntity
  8
0
  6
CONTINUOUS
 62
               7
100
AcDbLine
 10
-1.9999999852351209
 20
8.0
 30
0.0
 11
0.0
 21
8.0
 31
0.0
  0
LINE
  5
2CB
100
AcDbEntity
  8
0
  6
CONTINUOUS
 62
               7
100
AcDbLine
 10
-4.7126074306330139
 20
6.0
 30
0.0
 11
-6.487392539837245
 21
6.0
 31
0.0
  0
LINE
  5
2CC
100
AcDbEntity
  8
0
  6
CONTINUOUS
 62
               7
100
AcDbLine
 10
-6.7999999852351323
 20
2.5000000285843242
 30
0.0
 11
-6.7999999852351323
 21
9.4999999689796795
 31
0.0
  0
LINE
  5
2CD
100
AcDbEntity
  8
0
  6
CONTINUOUS
 62
               7
100
AcDbLine
 10
-4.3999999852351266
 20
9.4999999630643117
 30
0.0
 11
-6.7999999852351323
 21
9.4999999630643117
 31
0.0
  0
LINE
  5
2CE
100
AcDbEntity
  8
0
  6
CONTINUOUS
 62
               7
100
AcDbLine
 10
-4.3999999852351266
 20
2.5000000369356883
 30
0.0
 11
-6.7999999852351323
 21
2.5000000369356883
 31
0.0
  0
LINE
  5
2CF
100
AcDbEntity
  8
0
  6
CONTINUOUS
 62
               7
100
AcDbLine
 10
-4.3999999852351266
 20
2.5000000369356883
 30
0.0
 11
-1.9999999852351209
 21
2.5000000369356883
 31
0.0
  0
LINE
  5
2D0
100
AcDbEntity
  8
0
  6
CONTINUOUS
 62
               7
100
AcDbLine
 10
-4.3999999852351266
 20
9.4999999630643117
 30
0.0
 11
-1.9999999852351209
 21
9.4999999630643117
 31
0.0
  0
LINE
  5
2D1
100
AcDbEntity
  8
0
  6
CONTINUOUS
 62
               7
100
AcDbLine
 10
-4.3999999852351266
 20
2.5000000285843242
 30
0.0
 11
-4.3999999852351266
 21
9.4999999689796795
 31
0.0
  0
LINE
  5
2D2
100
AcDbEntity
  8
0
  6
CONTINUOUS
 62
               7
100
AcDbLine
 10
-1.9999999852351209
 20
2.5000000285843242
 30
0.0
 11
-1.9999999852351209
 21
9.4999999689796795
 31
0.0
  0
LINE
  5
2D3
100
AcDbEntity
  8
0
  6
CONTINUOUS
 62
               7
100
AcDbLine
 10
-4.0873925398372393
 20
6.0
 30
0.0
 11
-2.3126074306330082
 21
6.0
 31
0.0
  0
SPLINE
  5
2D4
100
AcDbEntity
  8
0
  6
CONTINUOUS
 62
               7
100
AcDbSpline
210
0.0
220
0.0
230
1.0
 70
               0
 71
               3
 72
               0
 73
               0
 74
               5
 44
0.000001
 12
0.3364389663850756
 22
-0.9417052733725887
 32
0.0
 13
-0.3364389571584283
 23
-0.941705276668953
 33
0.0
 11
-4.7126074478393889
 21
9.4999999630643117
 31
0.0
 11
-4.4815427019410512
 21
8.639236642840407
 31
0.0
 11
-4.3999999852351266
 21
7.7499999815321559
 31
0.0
 11
-4.4815426934502351
 21
6.8607633209806309
 31
0.0
 11
-4.7126074306330139
 21
6.0
 31
0.0
  0
SPLINE
  5
2D5
100
AcDbEntity
  8
0
  6
CONTINUOUS
 62
               7
100
AcDbSpline
210
0.0
220
0.0
230
1.0
 70
               0
 71
               3
 72
               0
 73
               0
 74
               5
 44
0.000001
 12
-0.3364389663850757
 22
-0.9417052733725887
 32
0.0
 13
0.3364389571584284
 23
-0.9417052766689529
 33
0.0
 11
-6.48739252263087
 21
9.4999999630643117
 31
0.0
 11
-6.7184572685292077
 21
8.639236642840407
 31
0.0
 11
-6.7999999852351323
 21
7.7499999815321559
 31
0.0
 11
-6.7184572770200237
 21
6.8607633209806309
 31
0.0
 11
-6.487392539837245
 21
6.0
 31
0.0
  0
SPLINE
  5
2D6
100
AcDbEntity
  8
0
  6
CONTINUOUS
 62
               7
100
AcDbSpline
210
0.0
220
0.0
230
1.0
 70
               0
 71
               3
 72
               0
 73
               0
 74
               5
 44
0.000001
 12
-0.3364389663850757
 22
0.9417052733725887
 32
0.0
 13
0.3364389571584284
 23
0.9417052766689529
 33
0.0
 11
-6.48739252263087
 21
2.5000000369356883
 31
0.0
 11
-6.7184572685292077
 21
3.3607633571595934
 31
0.0
 11
-6.7999999852351323
 21
4.2500000184678441
 31
0.0
 11
-6.7184572770200237
 21
5.1392366790193691
 31
0.0
 11
-6.487392539837245
 21
6.0
 31
0.0
  0
SPLINE
  5
2D7
100
AcDbEntity
  8
0
  6
CONTINUOUS
 62
               7
100
AcDbSpline
210
0.0
220
0.0
230
1.0
 70
               0
 71
               3
 72
               0
 73
               0
 74
               5
 44
0.000001
 12
0.3364389663850756
 22
0.9417052733725887
 32
0.0
 13
-0.3364389571584283
 23
0.941705276668953
 33
0.0
 11
-4.7126074478393889
 21
2.5000000369356883
 31
0.0
 11
-4.4815427019410512
 21
3.3607633571595934
 31
0.0
 11
-4.3999999852351266
 21
4.2500000184678441
 31
0.0
 11
-4.4815426934502351
 21
5.1392366790193691
 31
0.0
 11
-4.7126074306330139
 21
6.0
 31
0.0
  0
SPLINE
  5
2D8
100
AcDbEntity
  8
0
  6
CONTINUOUS
 62
               7
100
AcDbSpline
210
0.0
220
0.0
230
1.0
 70
               0
 71
               3
 72
               0
 73
               0
 74
               5
 44
0.000001
 12
-0.3364389663850757
 22
0.9417052733725887
 32
0.0
 13
0.3364389571584284
 23
0.9417052766689529
 33
0.0
 11
-4.0873925226308643
 21
2.5000000369356883
 31
0.0
 11
-4.318457268529202
 21
3.3607633571595934
 31
0.0
 11
-4.3999999852351266
 21
4.2500000184678441
 31
0.0
 11
-4.318457277020018
 21
5.1392366790193691
 31
0.0
 11
-4.0873925398372393
 21
6.0
 31
0.0
  0
SPLINE
  5
2D9
100
AcDbEntity
  8
0
  6
CONTINUOUS
 62
               7
100
AcDbSpline
210
0.0
220
0.0
230
1.0
 70
               0
 71
               3
 72
               0
 73
               0
 74
               5
 44
0.000001
 12
0.3364389663850756
 22
0.9417052733725887
 32
0.0
 13
-0.3364389571584283
 23
0.941705276668953
 33
0.0
 11
-2.3126074478393832
 21
2.5000000369356883
 31
0.0
 11
-2.081542701941046
 21
3.3607633571595934
 31
0.0
 11
-1.9999999852351209
 21
4.2500000184678441
 31
0.0
 11
-2.0815426934502295
 21
5.1392366790193691
 31
0.0
 11
-2.3126074306330082
 21
6.0
 31
0.0
  0
SPLINE
  5
2DA
100
AcDbEntity
  8
0
  6
CONTINUOUS
 62
               7
100
AcDbSpline
210
0.0
220
0.0
230
1.0
 70
               0
 71
               3
 72
               0
 73
               0
 74
               5
 44
0.000001
 12
0.3364389663850756
 22
-0.9417052733725887
 32
0.0
 13
-0.3364389571584283
 23
-0.941705276668953
 33
0.0
 11
-2.3126074478393832
 21
9.4999999630643117
 31
0.0
 11
-2.081542701941046
 21
8.639236642840407
 31
0.0
 11
-1.9999999852351209
 21
7.7499999815321559
 31
0.0
 11
-2.0815426934502295
 21
6.8607633209806309
 31
0.0
 11
-2.3126074306330082
 21
6.0
 31
0.0
  0
SPLINE
  5
2DB
100
AcDbEntity
  8
0
  6
CONTINUOUS
 62
               7
100
AcDbSpline
210
0.0
220
0.0
230
1.0
 70
               0
 71
               3
 72
               0
 73
               0
 74
               5
 44
0.000001
 12
-0.3364389663850757
 22
-0.9417052733725887
 32
0.0
 13
0.3364389571584284
 23
-0.9417052766689529
 33
0.0
 11
-4.0873925226308643
 21
9.4999999630643117
 31
0.0
 11
-4.318457268529202
 21
8.639236642840407
 31
0.0
 11
-4.3999999852351266
 21
7.7499999815321559
 31
0.0
 11
-4.318457277020018
 21
6.8607633209806309
 31
0.0
 11
-4.0873925398372393
 21
6.0
 31
0.0
  0
LINE
  5
2DC
100
AcDbEntity
  8
0
  6
CENTER
 62
               2
100
AcDbLine
 10
31.000000014764879
 20
3.5
 30
0.0
 11
31.000000014764879
 21
8.5
 31
0.0
  0
CIRCLE
  5
2DD
100
AcDbEntity
  8
0
  6
DASHED
 62
               2
100
AcDbCircle
 10
31.000000014764879
 20
6.0
 30
0.0
 40
1.5
  0
CIRCLE
  5
2DE
100
AcDbEntity
  8
0
  6
DASHED
 62
               7
100
AcDbCircle
 10
31.000000014764879
 20
6.0
 30
0.0
 40
1.2
  0
CIRCLE
  5
2DF
100
AcDbEntity
  8
0
  6
DASHED
 62
               7
100
AcDbCircle
 10
14.000000014764879
 20
6.0
 30
0.0
 40
1.2
  0
CIRCLE
  5
2E0
100
AcDbEntity
  8
0
  6
DASHED
 62
               2
100
AcDbCircle
 10
14.000000014764879
 20
6.0
 30
0.0
 40
1.5
  0
LINE
  5
2E1
100
AcDbEntity
  8
0
  6
CONTINUOUS
 62
               7
100
AcDbLine
 10
0.0
 20
9.9999999300491993
 30
0.0
 11
34.000000014764879
 21
9.9999999300491993
 31
0.0
  0
LINE
  5
2E2
100
AcDbEntity
  8
0
  6
CONTINUOUS
 62
               7
100
AcDbLine
 10
0.0
 20
11.572503291624002
 30
0.0
 11
34.000000014764879
 21
11.572503291624002
 31
0.0
  0
LINE
  5
2E3
100
AcDbEntity
  8
0
  6
CONTINUOUS
 62
               7
100
AcDbLine
 10
0.0
 20
13.606244551578222
 30
0.0
 11
16.500000014764879
 21
13.606244551578222
 31
0.0
  0
LINE
  5
2E4
100
AcDbEntity
  8
0
  6
CONTINUOUS
 62
               7
100
AcDbLine
 10
0.0
 20
13.959797942171491
 30
0.0
 11
16.500000014764879
 21
13.959797942171491
 31
0.0
  0
LINE
  5
2E5
100
AcDbEntity
  8
0
  6
CONTINUOUS
 62
               7
100
AcDbLine
 10
0.0
 20
16.0
 30
0.0
 11
16.500000014764879
 21
16.0
 31
0.0
  0
LINE
  5
2E6
100
AcDbEntity
  8
0
  6
CONTINUOUS
 62
               2
100
AcDbLine
 10
-9.9999999852351209
 20
7.7000000000000028
 30
0.0
 11
-6.7999999852351323
 21
7.7000000000000028
 31
0.0
  0
LINE
  5
2E7
100
AcDbEntity
  8
0
  6
CONTINUOUS
 62
               7
100
AcDbLine
 10
-9.699999985235138
 20
8.0
 30
0.0
 11
-9.9999999852351209
 21
7.7000000000000028
 31
0.0
  0
LINE
  5
2E8
100
AcDbEntity
  8
0
  6
CONTINUOUS
 62
               2
100
AcDbLine
 10
-0.9999999852351209
 20
7.7000000000000028
 30
0.0
 11
-0.4803847429644748
 21
8.0
 31
0.0
  0
LINE
  5
2E9
100
AcDbEntity
  8
0
  6
CONTINUOUS
 62
               7
100
AcDbLine
 10
-9.699999985235138
 20
4.0
 30
0.0
 11
-9.699999985235138
 21
8.0
 31
0.0
  0
LINE
  5
2EA
100
AcDbEntity
  8
0
  6
CONTINUOUS
 62
               7
100
AcDbLine
 10
-0.9999999852351209
 20
4.0
 30
0.0
 11
-0.9999999852351209
 21
8.0
 31
0.0
  0
LINE
  5
2EB
100
AcDbEntity
  8
0
  6
CONTINUOUS
 62
               7
100
AcDbLine
 10
-9.9999999852351209
 20
4.2999999999999972
 30
0.0
 11
-9.9999999852351209
 21
7.7000000000000028
 31
0.0
  0
LINE
  5
2EC
100
AcDbEntity
  8
0
  6
CONTINUOUS
 62
               2
100
AcDbLine
 10
-0.9999999852351209
 20
4.2999999999999972
 30
0.0
 11
-0.4803847429644748
 21
4.0
 31
0.0
  0
LINE
  5
2ED
100
AcDbEntity
  8
0
  6
CONTINUOUS
 62
               7
100
AcDbLine
 10
-9.699999985235138
 20
4.0
 30
0.0
 11
-9.9999999852351209
 21
4.2999999999999972
 31
0.0
  0
LINE
  5
2EE
100
AcDbEntity
  8
0
  6
CONTINUOUS
 62
               2
100
AcDbLine
 10
-9.9999999852351209
 20
4.2999999999999972
 30
0.0
 11
-6.7999999852351323
 21
4.2999999999999972
 31
0.0
  0
LINE
  5
2EF
100
AcDbEntity
  8
0
  6
CONTINUOUS
 62
               7
100
AcDbLine
 10
-9.699999985235138
 20
4.0
 30
0.0
 11
-6.7999999852351323
 21
4.0
 31
0.0
  0
LINE
  5
2F0
100
AcDbEntity
  8
0
  6
CENTER
 62
               2
100
AcDbLine
 10
-11.096987471272001
 20
6.0
 30
0.0
 11
35.239086527694099
 21
6.0
 31
0.0
  0
LINE
  5
2F1
100
AcDbEntity
  8
0
  6
CONTINUOUS
 62
               7
100
AcDbLine
 10
-9.699999985235138
 20
8.0
 30
0.0
 11
-6.7999999852351323
 21
8.0
 31
0.0
  0
LINE
  5
2F2
100
AcDbEntity
  8
0
  6
CENTER
 62
               2
100
AcDbLine
 10
14.000000014764879
 20
3.5
 30
0.0
 11
14.000000014764879
 21
8.5
 31
0.0
  0
LINE
  5
2F3
100
AcDbEntity
  8
0
  6
CONTINUOUS
 62
               7
100
AcDbLine
 10
0.0
 20
0.0
 30
0.0
 11
34.000000014764879
 21
0.0
 31
0.0
  0
LINE
  5
2F4
100
AcDbEntity
  8
0
  6
CONTINUOUS
 62
               7
100
AcDbLine
 10
0.0
 20
0.0
 30
0.0
 11
0.0
 21
16.0
 31
0.0
  0
LINE
  5
2F5
100
AcDbEntity
  8
0
  6
CONTINUOUS
 62
               7
100
AcDbLine
 10
34.000000014764879
 20
0.0
 30
0.0
 11
34.000000014764879
 21
16.0
 31
0.0
  0
LINE
  5
2F6
100
AcDbEntity
  8
0
  6
CONTINUOUS
 62
               7
100
AcDbLine
 10
31.500000014764879
 20
13.606244551578222
 30
0.0
 11
34.000000014764879
 21
13.606244551578222
 31
0.0
  0
LINE
  5
2F7
100
AcDbEntity
  8
0
  6
CONTINUOUS
 62
               7
100
AcDbLine
 10
21.100000014765016
 20
16.0
 30
0.0
 11
34.000000014764879
 21
16.0
 31
0.0
  0
LINE
  5
2F8
100
AcDbEntity
  8
0
  6
CONTINUOUS
 62
               7
100
AcDbLine
 10
21.100000014765016
 20
13.959797942171491
 30
0.0
 11
34.000000014764879
 21
13.959797942171491
 31
0.0
  0
LINE
  5
2F9
100
AcDbEntity
  8
0
  6
CENTER
 62
               2
100
AcDbLine
 10
8.9999999915627029
 20
1.5
 30
0.0
 11
8.9999999915627029
 21
-1.5
 31
0.0
  0
ENDBLK
  5
2FA
100
AcDbEntity
  8
0
100
AcDbBlockEnd
  0
BLOCK
  5
2FD
100
AcDbEntity
  8
0
  6
ByBlock
 62
               0
100
AcDbBlockBegin
  2
_OPEN30
 70
               2
 10
0.0
 20
0.0
 30
0.0
  3
_OPEN30
  1

  0
LINE
  5
2FE
100
AcDbEntity
  8
0
  6
ByBlock
 62
               0
100
AcDbLine
 10
-1.0
 20
0.267949
 30
0.0
 11
0.0
 21
0.0
 31
0.0
  0
LINE
  5
2FF
100
AcDbEntity
  8
0
  6
ByBlock
 62
               0
100
AcDbLine
 10
0.0
 20
0.0
 30
0.0
 11
-1.0
 21
-0.267949
 31
0.0
  0
LINE
  5
300
100
AcDbEntity
  8
0
  6
ByBlock
 62
               0
100
AcDbLine
 10
0.0
 20
0.0
 30
0.0
 11
-1.0
 21
0.0
 31
0.0
  0
ENDBLK
  5
301
100
AcDbEntity
  8
0
  6
ByBlock
 62
               0
100
AcDbBlockEnd
  0
ENDSEC
  0
SECTION
  2
ENTITIES
  0
LEADER
  5
2FB
100
AcDbEntity
  8
0
 62
               2
100
AcDbLeader
  3
MXDIMSTYLE
 73
               3
 74
               0
 75
               0
 40
0.0
 76
               3
 10
75.982694643057016
 20
-53.55131470331213
 30
0.0
 10
71.227628357930399
 20
-45.315298304115004
 30
0.0
 10
66.11071945749066
 20
-45.315298304115004
 30
0.0
 77
               2
1001
ACAD
1000
DSTYLE
1002
{
1070
               6
1000
_OPEN30
1070
               7
1000
_OPEN30
1070
              41
1040
2.77
1070
             173
1070
               1
1002
}
  0
MTEXT
  5
302
100
AcDbEntity
  8
0
 62
               2
100
AcDbMText
 10
66.11071945749066
 20
-42.284048304115004
 30
0.0
 40
2.5
 41
0.0
 71
               4
 72
               1
  1
\A1;-R
  7
MX_NOTE_STANDARD
  0
LEADER
  5
303
100
AcDbEntity
  8
0
 62
               2
100
AcDbLeader
  3
MXDIMSTYLE
 73
               3
 74
               0
 75
               0
 40
0.0
 76
               3
 10
75.982694643057016
 20
44.44868529668787
 30
0.0
 10
71.227628357930399
 20
52.684701695884996
 30
0.0
 10
66.11071945749066
 20
52.684701695884996
 30
0.0
 77
               2
1001
ACAD
1000
DSTYLE
1002
{
1070
               6
1000
_OPEN30
1070
               7
1000
_OPEN30
1070
              41
1040
2.77
1070
             173
1070
               1
1002
}
  0
MTEXT
  5
304
100
AcDbEntity
  8
0
 62
               2
100
AcDbMText
 10
66.11071945749066
 20
55.715951695884996
 30
0.0
 40
2.5
 41
0.0
 71
               4
 72
               1
  1
\A1;-L
  7
MX_NOTE_STANDARD
  0
LINE
  5
305
100
AcDbEntity
  8
0
  6
CONTINUOUS
 62
               7
100
AcDbLine
 10
-0.024993896484375
 20
84.5
 30
0.0
 11
-0.024993896484375
 21
-84.800003051757813
 31
0.0
  0
MTEXT
  5
306
100
AcDbEntity
  8
0
  6
CONTINUOUS
 62
               3
100
AcDbMText
 10
80.133366772954346
 20
20.964310124344252
 30
0.0
 40
3.2000000476837158
 41
0.0
 71
               4
 72
               1
  1
\W1.065;\A1;STRETCH LINE
  7
MX_NOTE_STANDARD
  0
LEADER
  5
307
100
AcDbEntity
  8
0
 62
               2
100
AcDbLeader
  3
MXDIMSTYLE
 73
               3
 74
               0
 75
               0
 40
0.0
 76
               3
 10
-61.017305356942984
 20
-53.55131470331213
 30
0.0
 10
-65.772371642069601
 20
-45.315298304115004
 30
0.0
 10
-70.88928054250934
 20
-45.315298304115004
 30
0.0
 77
               2
1001
ACAD
1000
DSTYLE
1002
{
1070
               6
1000
_OPEN30
1070
               7
1000
_OPEN30
1070
              41
1040
2.77
1070
             173
1070
               1
1002
}
  0
MTEXT
  5
308
100
AcDbEntity
  8
0
 62
               2
100
AcDbMText
 10
-70.88928054250934
 20
-42.284048304115004
 30
0.0
 40
2.5
 41
0.0
 71
               4
 72
               1
  1
\A1;-R
  7
MX_NOTE_STANDARD
  0
LEADER
  5
309
100
AcDbEntity
  8
0
 62
               2
100
AcDbLeader
  3
MXDIMSTYLE
 73
               3
 74
               0
 75
               0
 40
0.0
 76
               3
 10
-61.017305356942984
 20
44.44868529668787
 30
0.0
 10
-65.772371642069601
 20
52.684701695884996
 30
0.0
 10
-70.88928054250934
 20
52.684701695884996
 30
0.0
 77
               2
1001
ACAD
1000
DSTYLE
1002
{
1070
               6
1000
_OPEN30
1070
               7
1000
_OPEN30
1070
              41
1040
2.77
1070
             173
1070
               1
1002
}
  0
MTEXT
  5
30A
100
AcDbEntity
  8
0
 62
               2
100
AcDbMText
 10
-70.88928054250934
 20
55.715951695884996
 30
0.0
 40
2.5
 41
0.0
 71
               4
 72
               1
  1
\A1;-L
  7
MX_NOTE_STANDARD
  0
INSERT
  5
30B
100
AcDbEntity
  8
0
100
AcDbBlockReference
  2
MS_4
 10
-63.767305356942984
 20
-60.850352808988788
 30
0.0
  0
INSERT
  5
30C
100
AcDbEntity
  8
0
100
AcDbBlockReference
  2
MS_8
 10
73.232694643057016
 20
-60.850352808988788
 30
0.0
  0
INSERT
  5
30D
100
AcDbEntity
  8
0
100
AcDbBlockReference
  2
MS_7
 10
73.232694643057016
 20
33.149647191011212
 30
0.0
  0
INSERT
  5
30E
100
AcDbEntity
  8
0
100
AcDbBlockReference
  2
MS_6
 10
27.232694629783452
 20
-5.850352785998302
 30
0.0
  0
INSERT
  5
30F
100
AcDbEntity
  8
0
100
AcDbBlockReference
  2
MS_5
 10
73.232694629783452
 20
-5.8503527859983002
 30
0.0
  0
INSERT
  5
310
100
AcDbEntity
  8
0
100
AcDbBlockReference
  2
MS_3
 10
-63.767305356942984
 20
33.149647191011212
 30
0.0
  0
INSERT
  5
311
100
AcDbEntity
  8
0
100
AcDbBlockReference
  2
MS_2
 10
-109.76730536357977
 20
-5.8503527974935476
 30
0.0
  0
INSERT
  5
312
100
AcDbEntity
  8
0
100
AcDbBlockReference
  2
MS_1
 10
-63.767305363579766
 20
-5.8503527974935459
 30
0.0
  0
MTEXT
  5
313
100
AcDbEntity
  8
0
  6
CONTINUOUS
 62
               7
100
AcDbMText
 10
-57.755549510761583
 20
-80.800003051757813
 30
0.0
 40
3.2000000476837158
 41
0.0
 71
               4
 72
               1
  1
\W0.833;\A1;２０
  7
MX_NOTE_STANDARD
  0
LINE
  5
314
100
AcDbEntity
  8
0
  6
CONTINUOUS
 62
               7
100
AcDbLine
 10
-59.799993896484395
 20
-77.800003051757812
 30
0.0
 11
-59.799993896484395
 21
-89.800003051757812
 31
0.0
  0
MTEXT
  5
315
100
AcDbEntity
  8
0
  6
CONTINUOUS
 62
               7
100
AcDbMText
 10
-57.488882822460639
 20
-86.800003051757813
 30
0.0
 40
3.2000000476837158
 41
0.0
 71
               4
 72
               1
  1
\W1.333;\A1;10
  7
MX_NOTE_STANDARD
  0
MTEXT
  5
316
100
AcDbEntity
  8
0
  6
CONTINUOUS
 62
               7
100
AcDbMText
 10
-67.355549510761577
 20
-80.800003051757813
 30
0.0
 40
3.2000000476837158
 41
0.0
 71
               4
 72
               1
  1
\W0.833;\A1;１５
  7
MX_NOTE_STANDARD
  0
LINE
  5
317
100
AcDbEntity
  8
0
  6
CONTINUOUS
 62
               7
100
AcDbLine
 10
-69.399993896484389
 20
-77.800003051757812
 30
0.0
 11
-69.399993896484389
 21
-89.800003051757812
 31
0.0
  0
MTEXT
  5
318
100
AcDbEntity
  8
0
  6
CONTINUOUS
 62
               7
100
AcDbMText
 10
-65.755549486919719
 20
-86.800003051757813
 30
0.0
 40
3.2000000476837158
 41
0.0
 71
               4
 72
               1
  1
\W0.833;\A1;５
  7
MX_NOTE_STANDARD
  0
MTEXT
  5
319
100
AcDbEntity
  8
0
  6
CONTINUOUS
 62
               3
100
AcDbMText
 10
-56.866633205643993
 20
61.632390330580122
 30
0.0
 40
3.2000000476837158
 41
0.0
 71
               4
 72
               1
  1
\W1.065;\A1;STRETCH LINE
  7
MX_NOTE_STANDARD
  0
LINE
  5
31A
100
AcDbEntity
  8
0
  6
CONTINUOUS
 62
               7
100
AcDbLine
 10
-133.39999389648437
 20
-89.800003051757812
 30
0.0
 11
-50.199993896484372
 21
-89.800003051757812
 31
0.0
  0
LINE
  5
31B
100
AcDbEntity
  8
0
  6
CONTINUOUS
 62
               7
100
AcDbLine
 10
-133.39999389648437
 20
-77.800003051757812
 30
0.0
 11
-133.39999389648437
 21
-89.800003051757812
 31
0.0
  0
LINE
  5
31C
100
AcDbEntity
  8
0
  6
CONTINUOUS
 62
               7
100
AcDbLine
 10
-133.39999389648437
 20
-83.800003051757813
 30
0.0
 11
-50.199993896484372
 21
-83.800003051757813
 31
0.0
  0
LINE
  5
31D
100
AcDbEntity
  8
0
  6
CONTINUOUS
 62
               7
100
AcDbLine
 10
-133.39999389648437
 20
-77.800003051757812
 30
0.0
 11
-50.199993896484372
 21
-77.800003051757812
 31
0.0
  0
MTEXT
  5
31E
100
AcDbEntity
  8
0
  6
CONTINUOUS
 62
               7
100
AcDbMText
 10
-129.6666606982549
 20
-80.800003051757813
 30
0.0
 40
3.2000000476837158
 41
0.0
 71
               4
 72
               1
  1
\A1;STROKE
  7
MX_NOTE_STANDARD
  0
MTEXT
  5
31F
100
AcDbEntity
  8
0
  6
CONTINUOUS
 62
               7
100
AcDbMText
 10
-131.26666072209676
 20
-86.800003051757813
 30
0.0
 40
3.2000000476837158
 41
0.0
 71
               4
 72
               1
  1
\A1;STRETCH
  7
MX_NOTE_STANDARD
  0
LINE
  5
320
100
AcDbEntity
  8
0
  6
CONTINUOUS
 62
               7
100
AcDbLine
 10
-107.79999389648438
 20
-77.800003051757812
 30
0.0
 11
-107.79999389648438
 21
-89.800003051757812
 31
0.0
  0
LINE
  5
321
100
AcDbEntity
  8
0
  6
CONTINUOUS
 62
               7
100
AcDbLine
 10
-98.199993896484386
 20
-77.800003051757812
 30
0.0
 11
-98.199993896484386
 21
-89.800003051757812
 31
0.0
  0
LINE
  5
322
100
AcDbEntity
  8
0
  6
CONTINUOUS
 62
               7
100
AcDbLine
 10
-88.599993896484378
 20
-77.800003051757812
 30
0.0
 11
-88.599993896484378
 21
-89.800003051757812
 31
0.0
  0
LINE
  5
323
100
AcDbEntity
  8
0
  6
CONTINUOUS
 62
               7
100
AcDbLine
 10
-78.999993896484384
 20
-77.800003051757812
 30
0.0
 11
-78.999993896484384
 21
-89.800003051757812
 31
0.0
  0
LINE
  5
324
100
AcDbEntity
  8
0
  6
CONTINUOUS
 62
               7
100
AcDbLine
 10
-50.199993896484372
 20
-77.800003051757812
 30
0.0
 11
-50.199993896484372
 21
-89.800003051757812
 31
0.0
  0
MTEXT
  5
325
100
AcDbEntity
  8
0
  6
CONTINUOUS
 62
               7
100
AcDbMText
 10
-104.06666057904562
 20
-80.800003051757813
 30
0.0
 40
3.2000000476837158
 41
0.0
 71
               4
 72
               1
  1
\A1;4
  7
MX_NOTE_STANDARD
  0
MTEXT
  5
326
100
AcDbEntity
  8
0
  6
CONTINUOUS
 62
               7
100
AcDbMText
 10
-94.466660579045623
 20
-80.800003051757813
 30
0.0
 40
3.2000000476837158
 41
0.0
 71
               4
 72
               1
  1
\A1;6
  7
MX_NOTE_STANDARD
  0
MTEXT
  5
327
100
AcDbEntity
  8
0
  6
CONTINUOUS
 62
               7
100
AcDbMText
 10
-84.866660579045629
 20
-80.800003051757813
 30
0.0
 40
3.2000000476837158
 41
0.0
 71
               4
 72
               1
  1
\A1;8
  7
MX_NOTE_STANDARD
  0
MTEXT
  5
328
100
AcDbEntity
  8
0
  6
CONTINUOUS
 62
               7
100
AcDbMText
 10
-76.688882822460627
 20
-80.800003051757813
 30
0.0
 40
3.2000000476837158
 41
0.0
 71
               4
 72
               1
  1
\W1.333;\A1;10
  7
MX_NOTE_STANDARD
  0
MTEXT
  5
329
100
AcDbEntity
  8
0
  6
CONTINUOUS
 62
               7
100
AcDbMText
 10
-75.159993895530732
 20
-86.800003051757813
 30
0.0
 40
3.2000000476837158
 41
0.0
 71
               4
 72
               1
  1
\W1.200;\A1;0
  7
MX_NOTE_STANDARD
  0
MTEXT
  5
32A
100
AcDbEntity
  8
0
  6
CONTINUOUS
 62
               7
100
AcDbMText
 10
-86.466660602887487
 20
-86.800003051757813
 30
0.0
 40
3.2000000476837158
 41
0.0
 71
               4
 72
               1
  1
\A1;-2
  7
MX_NOTE_STANDARD
  0
MTEXT
  5
32B
100
AcDbEntity
  8
0
  6
CONTINUOUS
 62
               7
100
AcDbMText
 10
-96.066660602887481
 20
-86.800003051757813
 30
0.0
 40
3.2000000476837158
 41
0.0
 71
               4
 72
               1
  1
\A1;-4
  7
MX_NOTE_STANDARD
  0
MTEXT
  5
32C
100
AcDbEntity
  8
0
  6
CONTINUOUS
 62
               7
100
AcDbMText
 10
-105.66666060288748
 20
-86.800003051757813
 30
0.0
 40
3.2000000476837158
 41
0.0
 71
               4
 72
               1
  1
\A1;-6
  7
MX_NOTE_STANDARD
  0
MTEXT
  5
32D
100
AcDbEntity
  8
0
  6
CONTINUOUS
 62
               7
100
AcDbMText
 10
-110.43194683784573
 20
-74.800003051757813
 30
0.0
 40
3.2000000476837158
 41
0.0
 71
               4
 72
               1
  1
\W1.065;\A1;STRETCH LIST
  7
MX_NOTE_STANDARD
  0
MTEXT
  5
32E
100
AcDbEntity
  8
0
  6
CONTINUOUS
 62
               7
100
AcDbMText
 10
-59.223993985366832
 20
-75.800003051757813
 30
0.0
 40
3.2000000476837158
 41
0.0
 71
               4
 72
               1
  1
\W1.200;\A1;(mm)
  7
MX_NOTE_STANDARD
  0
MTEXT
  5
32F
100
AcDbEntity
  8
0
  6
CONTINUOUS
 62
               7
100
AcDbMText
 10
85.708335494995126
 20
68.5
 30
0.0
 40
3.1999998092651367
 41
0.0
 71
               4
 72
               1
  1
\A1;ZE255
  7
MX_NOTE_STANDARD
  0
MTEXT
  5
330
100
AcDbEntity
  8
0
  6
CONTINUOUS
 62
               7
100
AcDbMText
 10
-52.628569271613124
 20
68.5
 30
0.0
 40
3.1999998092651367
 41
0.0
 71
               4
 72
               1
  1
\W1.071;\A1;ZE155
  7
MX_NOTE_STANDARD
  0
MTEXT
  5
331
100
AcDbEntity
  8
0
  6
CONTINUOUS
 62
               7
100
AcDbMText
 10
-130.90186156846724
 20
91.099999904632568
 30
0.0
 40
3.1999998092651367
 41
0.0
 71
               1
 72
               1
  1
\W1.121;\A1;MINIBIT CYLINDER
  7
MX_NOTE_STANDARD
  0
MTEXT
  5
332
100
AcDbEntity
  8
0
  6
CONTINUOUS
 62
               7
100
AcDbMText
 10
8.9550061632320279
 20
74.5
 30
0.0
 40
3.1999998092651367
 41
0.0
 71
               4
 72
               1
  1
\W1.087;\A1;MODEL:CS-MBDAS10*ST(10)-ZE235
  7
MX_NOTE_STANDARD
  0
MTEXT
  5
333
100
AcDbEntity
  8
0
  6
CONTINUOUS
 62
               7
100
AcDbMText
 10
-129.41265206552436
 20
74.5
 30
0.0
 40
3.1999998092651367
 41
0.0
 71
               4
 72
               1
  1
\W1.101;\A1;MODEL:CS-MBDAS10*ST(10)-ZE135
  7
MX_NOTE_STANDARD
  0
LINE
  5
334
100
AcDbEntity
  8
0
  6
CONTINUOUS
 62
               7
100
AcDbLine
 10
-138.39999389648437
 20
94.5
 30
0.0
 11
138.35000610351562
 21
94.5
 31
0.0
  0
LINE
  5
335
100
AcDbEntity
  8
0
  6
CONTINUOUS
 62
               7
100
AcDbLine
 10
138.35000610351562
 20
94.5
 30
0.0
 11
138.35000610351562
 21
-94.800003051757812
 31
0.0
  0
LINE
  5
336
100
AcDbEntity
  8
0
  6
CONTINUOUS
 62
               7
100
AcDbLine
 10
-138.39999389648437
 20
-94.800003051757812
 30
0.0
 11
138.35000610351562
 21
-94.800003051757812
 31
0.0
  0
LINE
  5
337
100
AcDbEntity
  8
0
  6
CONTINUOUS
 62
               7
100
AcDbLine
 10
-138.39999389648437
 20
94.5
 30
0.0
 11
-138.39999389648437
 21
-94.800003051757812
 31
0.0
  0
LINE
  5
338
100
AcDbEntity
  8
0
  6
CONTINUOUS
 62
               7
100
AcDbLine
 10
73.350006103515625
 20
-84.800003051757813
 30
0.0
 11
138.35000610351562
 21
-84.800003051757813
 31
0.0
  0
LINE
  5
339
100
AcDbEntity
  8
0
  6
CONTINUOUS
 62
               7
100
AcDbLine
 10
-138.39999389648437
 20
84.5
 30
0.0
 11
-73.399993896484375
 21
84.5
 31
0.0
  0
LINE
  5
33A
100
AcDbEntity
  8
0
  6
CONTINUOUS
 62
               7
100
AcDbLine
 10
73.350006103515625
 20
84.5
 30
0.0
 11
138.35000610351562
 21
84.5
 31
0.0
  0
LINE
  5
33B
100
AcDbEntity
  8
0
  6
CONTINUOUS
 62
               7
100
AcDbLine
 10
73.350006103515625
 20
-84.800003051757813
 30
0.0
 11
73.350006103515625
 21
-94.800003051757812
 31
0.0
  0
LINE
  5
33C
100
AcDbEntity
  8
0
  6
CONTINUOUS
 62
               7
100
AcDbLine
 10
73.350006103515625
 20
94.5
 30
0.0
 11
73.350006103515625
 21
84.5
 31
0.0
  0
LINE
  5
33D
100
AcDbEntity
  8
0
  6
CONTINUOUS
 62
               7
100
AcDbLine
 10
-73.399993896484375
 20
94.5
 30
0.0
 11
-73.399993896484375
 21
84.5
 31
0.0
  0
MTEXT
  5
33E
100
AcDbEntity
  8
0
  6
CONTINUOUS
 62
               7
100
AcDbMText
 10
77.440529363489745
 20
-89.800003051757812
 30
0.0
 40
4.5
 41
0.0
 71
               4
 72
               1
  1
\W1.121;\A1;KOGANEI CORP.
  7
MX_NOTE_STANDARD
  0
MTEXT
  5
33F
100
AcDbEntity
  8
0
  6
CONTINUOUS
 62
               7
100
AcDbMText
 10
93.749460369842424
 20
89.5
 30
0.0
 40
3.1999998092651367
 41
0.0
 71
               4
 72
               1
  1
\W1.311;\A1;Ver. 1.0
  7
MX_NOTE_STANDARD
  0
ENDSEC
  0
SECTION
  2
OBJECTS
  0
DICTIONARY
  5
19
100
AcDbDictionary
  3
ACAD_GROUP
350
1A
  3
ACAD_MLINESTYLE
350
1B
  0
DICTIONARY
  5
1A
102
{ACAD_REACTORS
330
19
102
}
100
AcDbDictionary
  0
DICTIONARY
  5
1B
102
{ACAD_REACTORS
330
19
102
}
100
AcDbDictionary
  3
STANDARD
350
1C
  0
MLINESTYLE
  5
1C
102
{ACAD_REACTORS
330
1B
102
}
100
AcDbMlineStyle
  2
Standard
 70
               0
  3

 62
               0
 51
90.0
 52
90.0
 71
               2
 49
0.5
 62
             256
  6
ByLayer
 49
-0.5
 62
             256
  6
ByLayer
  0
ENDSEC
  0
EOF
