  0
SECTION
  2
HEADER
  9
$ACADVER
  1
AC1012
  9
$DWGCODEPAGE
  3
dos932
  9
$INSBASE
 10
0.0
 20
0.0
 30
0.0
  9
$EXTMIN
 10
-820.5
 20
-574.5
 30
0.0
  9
$EXTMAX
 10
820.5
 20
575.5
 30
0.0
  9
$LIMMIN
 10
-820.5
 20
-574.5
  9
$LIMMAX
 10
820.5
 20
575.5
  9
$ORTHOMODE
 70
               0
  9
$REGENMODE
 70
               1
  9
$FILLMODE
 70
               1
  9
$QTEXTMODE
 70
               0
  9
$MIRRTEXT
 70
               1
  9
$DRAGMODE
 70
               2
  9
$LTSCALE
 40
1.0
  9
$OSMODE
 70
               0
  9
$ATTMODE
 70
               1
  9
$TEXTSIZE
 40
3.2000000476837158
  9
$TRACEWID
 40
0.05
  9
$TEXTSTYLE
  7
MX_NOTE_STANDARD
  9
$CLAYER
  8
0
  9
$CELTYPE
  6
CONTINUOUS
  9
$CECOLOR
 62
             256
  9
$CELTSCALE
 40
1.0
  9
$DELOBJ
 70
               1
  9
$DISPSILH
 70
               0
  9
$DIMSCALE
 40
1.0
  9
$DIMASZ
 40
2.5
  9
$DIMEXO
 40
1.5
  9
$DIMDLI
 40
3.75
  9
$DIMRND
 40
0.0
  9
$DIMDLE
 40
0.0
  9
$DIMEXE
 40
1.5
  9
$DIMTP
 40
0.0
  9
$DIMTM
 40
0.0
  9
$DIMTXT
 40
3.2000000476837158
  9
$DIMCEN
 40
2.5
  9
$DIMTSZ
 40
0.0
  9
$DIMTOL
 70
               0
  9
$DIMLIM
 70
               0
  9
$DIMTIH
 70
               0
  9
$DIMTOH
 70
               0
  9
$DIMSE1
 70
               0
  9
$DIMSE2
 70
               0
  9
$DIMTAD
 70
               1
  9
$DIMZIN
 70
               8
  9
$DIMBLK
  1

  9
$DIMASO
 70
               1
  9
$DIMSHO
 70
               1
  9
$DIMPOST
  1

  9
$DIMAPOST
  1

  9
$DIMALT
 70
               0
  9
$DIMALTD
 70
               4
  9
$DIMALTF
 40
0.03937007874016
  9
$DIMLFAC
 40
1.0
  9
$DIMTOFL
 70
               1
  9
$DIMTVP
 40
0.0
  9
$DIMTIX
 70
               0
  9
$DIMSOXD
 70
               0
  9
$DIMSAH
 70
               0
  9
$DIMBLK1
  1

  9
$DIMBLK2
  1

  9
$DIMSTYLE
  2
MXDIMSTYLE
  9
$DIMCLRD
 70
               0
  9
$DIMCLRE
 70
               0
  9
$DIMCLRT
 70
               0
  9
$DIMTFAC
 40
1.0
  9
$DIMGAP
 40
1.0
  9
$DIMJUST
 70
               0
  9
$DIMSD1
 70
               0
  9
$DIMSD2
 70
               0
  9
$DIMTOLJ
 70
               1
  9
$DIMTZIN
 70
               0
  9
$DIMALTZ
 70
               0
  9
$DIMALTTZ
 70
               0
  9
$DIMFIT
 70
               3
  9
$DIMUPT
 70
               1
  9
$DIMUNIT
 70
               2
  9
$DIMDEC
 70
               4
  9
$DIMTDEC
 70
               4
  9
$DIMALTU
 70
               2
  9
$DIMALTTD
 70
               4
  9
$DIMTXSTY
  7
MX_NOTE_STANDARD
  9
$DIMAUNIT
 70
               0
  9
$LUNITS
 70
               2
  9
$LUPREC
 70
               4
  9
$SKETCHINC
 40
0.1
  9
$FILLETRAD
 40
0.0
  9
$AUNITS
 70
               0
  9
$AUPREC
 70
               0
  9
$MENU
  1
acad
  9
$ELEVATION
 40
0.0
  9
$PELEVATION
 40
0.0
  9
$THICKNESS
 40
0.0
  9
$LIMCHECK
 70
               0
  9
$BLIPMODE
 70
               1
  9
$CHAMFERA
 40
0.0
  9
$CHAMFERB
 40
0.0
  9
$CHAMFERC
 40
0.0
  9
$CHAMFERD
 40
0.0
  9
$SKPOLY
 70
               0
  9
$TDCREATE
 40
2453661.569166667
  9
$TDUPDATE
 40
2453661.569166667
  9
$TDINDWG
 40
0.0000000000
  9
$TDUSRTIMER
 40
0.0000000000
  9
$USRTIMER
 70
               1
  9
$ANGBASE
 50
0.0
  9
$ANGDIR
 70
               0
  9
$PDMODE
 70
               0
  9
$PDSIZE
 40
0.0
  9
$PLINEWID
 40
0.0
  9
$COORDS
 70
               1
  9
$SPLFRAME
 70
               0
  9
$SPLINETYPE
 70
               6
  9
$SPLINESEGS
 70
               8
  9
$ATTDIA
 70
               0
  9
$ATTREQ
 70
               1
  9
$HANDLING
 70
               1
  9
$HANDSEED
  5
87A
  9
$SURFTAB1
 70
               6
  9
$SURFTAB2
 70
               6
  9
$SURFTYPE
 70
               6
  9
$SURFU
 70
               6
  9
$SURFV
 70
               6
  9
$UCSNAME
  2

  9
$UCSORG
 10
0.0
 20
0.0
 30
0.0
  9
$UCSXDIR
 10
1.0
 20
0.0
 30
0.0
  9
$UCSYDIR
 10
0.0
 20
1.0
 30
0.0
  9
$PUCSNAME
  2

  9
$PUCSORG
 10
0.0
 20
0.0
 30
0.0
  9
$PUCSXDIR
 10
1.0
 20
0.0
 30
0.0
  9
$PUCSYDIR
 10
0.0
 20
1.0
 30
0.0
  9
$USERI1
 70
               0
  9
$USERI2
 70
               0
  9
$USERI3
 70
               0
  9
$USERI4
 70
               0
  9
$USERI5
 70
               0
  9
$USERR1
 40
0.0
  9
$USERR2
 40
0.0
  9
$USERR3
 40
0.0
  9
$USERR4
 40
0.0
  9
$USERR5
 40
0.0
  9
$WORLDVIEW
 70
               1
  9
$SHADEDGE
 70
               3
  9
$SHADEDIF
 70
              70
  9
$TILEMODE
 70
               1
  9
$MAXACTVP
 70
              16
  9
$PINSBASE
 10
0.0
 20
0.0
 30
0.0
  9
$PLIMCHECK
 70
               0
  9
$PEXTMIN
 10
1.0000000000000000E+20
 20
1.0000000000000000E+20
 30
1.0000000000000000E+20
  9
$PEXTMAX
 10
-1.0000000000000000E+20
 20
-1.0000000000000000E+20
 30
-1.0000000000000000E+20
  9
$PLIMMIN
 10
0.0
 20
0.0
  9
$PLIMMAX
 10
12.0
 20
9.0
  9
$UNITMODE
 70
               0
  9
$VISRETAIN
 70
               0
  9
$PLINEGEN
 70
               1
  9
$PSLTSCALE
 70
               0
  9
$TREEDEPTH
 70
            3020
  9
$PICKSTYLE
 70
               1
  9
$CMLSTYLE
  2
Standard
  9
$CMLJUST
 70
               0
  9
$CMLSCALE
 40
1.0
  9
$SAVEIMAGES
 70
               0
  0
ENDSEC
  0
SECTION
  2
CLASSES
  0
CLASS
  1
LWPOLYLINE
  2
AcDbPolyline
  3
"AutoCAD"
 90
        0
280
               0
281
               1
  0
CLASS
  1
IMAGE
  2
AcDbRasterImage
  3
ISM
 90
      127
280
               0
281
               1
  0
CLASS
  1
OLE2FRAME
  2
AcDbOle2Frame
  3
""
 90
        0
280
               0
281
               1
  0
CLASS
  1
HATCH
  2
AcDbHatch
  3
"ACAD_SEDONA"
 90
        0
280
               0
281
               1
  0
CLASS
  1
DICTIONARYVAR
  2
AcDbDictionaryVar
  3
"AutoCAD"
 90
        0
280
               0
281
               0
  0
CLASS
  1
RASTERVARIABLES
  2
AcDbRasterVariables
  3
ISM
 90
        0
280
               0
281
               0
  0
CLASS
  1
IMAGEDEF
  2
AcDbRasterImageDef
  3
ISM
 90
        0
280
               0
281
               0
  0
CLASS
  1
IMAGEDEF_REACTOR
  2
AcDbRasterImageDefReactor
  3
ISM
 90
        1
280
               0
281
               0
  0
CLASS
  1
IDBUFFER
  2
AcDbIdBuffer
  3
"Acad"
 90
        0
280
               0
281
               0
  0
CLASS
  1
SPATIAL_FILTER
  2
AcDbSpatialFilter
  3
"Acad"
 90
        0
280
               0
281
               0
  0
CLASS
  1
XRECORD
  2
AcDbXrecord
  3
"<Built In>"
 90
        0
280
               0
281
               0
  0
CLASS
  1
SORTENTSTABLE
  2
AcDbSortentsTable
  3
"AutoCAD"
 90
        0
280
               0
281
               0
  0
CLASS
  1
LAYER_INDEX
  2
AcDbLayerIndex
  3
"Acad"
 90
        0
280
               0
281
               0
  0
CLASS
  1
SPATIAL_INDEX
  2
AcDbSpatialIndex
  3
"Acad"
 90
        0
280
               0
281
               0
  0
CLASS
  1
OBJECT_PTR
  2
CAseDLPNTableRecord
  3
"ASE-LPNTableRecord"
 90
        1
280
               0
281
               0
  0
CLASS
  1
LAYOUT
  2
AcDbLayout
  3
"AutoCAD 2000"
 90
        1
280
               0
281
               0
  0
CLASS
  1
PLOTSETTINGS
  2
AcDbPlotSettings
  3
"AutoCAD 2000"
 90
        1
280
               0
281
               0
  0
CLASS
  1
ACDBDICTIONARYWDFLT
  2
AcDbDictionaryWithDefault
  3
"AutoCAD 2000"
 90
        1
280
               0
281
               0
  0
CLASS
  1
ACDBPLACEHOLDER
  2
AcDbPlaceHolder
  3
"AutoCAD 2000"
 90
        1
280
               0
281
               0
  0
ENDSEC
  0
SECTION
  2
TABLES
  0
TABLE
  2
VPORT
  5
7
100
AcDbSymbolTable
 70
               1
  0
VPORT
  5
15
100
AcDbSymbolTableRecord
100
AcDbViewportTableRecord
  2
*ACTIVE
 70
               0
 10
0.0
 20
0.0
 11
1.0
 21
1.0
 12
0.0
 22
0.5
 13
0.0
 23
0.0
 14
1.0
 24
1.0
 15
0.0
 25
0.0
 16
0.0
 26
0.0
 36
1.0
 17
0.0
 27
0.0
 37
0.0
 40
1161.5
 41
1.7320508075688772
 42
50.0
 43
0.0
 44
0.0
 50
0.0
 51
0.0
 71
               0
 72
             100
 73
               1
 74
               1
 75
               0
 76
               0
 77
               0
 78
               0
  0
ENDTAB
  0
TABLE
  2
LTYPE
  5
4
100
AcDbSymbolTable
 70
               6
  0
LTYPE
  5
11
100
AcDbSymbolTableRecord
100
AcDbLinetypeTableRecord
  2
BYBLOCK
 70
              64
  3

 72
              65
 73
               0
 40
0.0
  0
LTYPE
  5
12
100
AcDbSymbolTableRecord
100
AcDbLinetypeTableRecord
  2
BYLAYER
 70
              64
  3

 72
              65
 73
               0
 40
0.0
  0
LTYPE
  5
13
100
AcDbSymbolTableRecord
100
AcDbLinetypeTableRecord
  2
CONTINUOUS
 70
              64
  3
Solid line
 72
              65
 73
               0
 40
0.0
  0
LTYPE
  5
4C
100
AcDbSymbolTableRecord
100
AcDbLinetypeTableRecord
  2
CENTER
 70
              64
  3
Center ____ _ ____ _ ____ _ ____ _ ____ _ ____
 72
              65
 73
               4
 40
26.0
 49
20.0
 74
               0
 49
-2.0
 74
               0
 49
2.0
 74
               0
 49
-2.0
 74
               0
  0
LTYPE
  5
8B
100
AcDbSymbolTableRecord
100
AcDbLinetypeTableRecord
  2
PHANTOM
 70
              64
  3
Phantom ______  __  __  ______  __  __  ______
 72
              65
 73
               6
 40
30.0
 49
20.0
 74
               0
 49
-2.0
 74
               0
 49
2.0
 74
               0
 49
-2.0
 74
               0
 49
2.0
 74
               0
 49
-2.0
 74
               0
  0
LTYPE
  5
83C
100
AcDbSymbolTableRecord
100
AcDbLinetypeTableRecord
  2
DASHED
 70
              64
  3
Dashed __ __ __ __ __ __ __ __ __ __ __ __ __ _
 72
              65
 73
               2
 40
4.0
 49
2.0
 74
               0
 49
-2.0
 74
               0
  0
ENDTAB
  0
TABLE
  2
LAYER
  5
2
100
AcDbSymbolTable
 70
               2
  0
LAYER
  5
14
100
AcDbSymbolTableRecord
100
AcDbLayerTableRecord
  2
0
 70
               0
 62
               7
  6
CONTINUOUS
  0
LAYER
  5
1D
100
AcDbSymbolTableRecord
100
AcDbLayerTableRecord
  2
DEFPOINTS
 70
               0
 62
               7
  6
CONTINUOUS
  0
ENDTAB
  0
TABLE
  2
STYLE
  5
3
100
AcDbSymbolTable
 70
               1
  0
STYLE
  5
17
100
AcDbSymbolTableRecord
100
AcDbTextStyleTableRecord
  2
MX_NOTE_STANDARD
 70
               0
 40
0.0
 41
1.0
 50
0.0
 71
               0
 42
3.2000000476837158
  3
txt.shx
  4
extfont.shx
  0
ENDTAB
  0
TABLE
  2
VIEW
  5
5
100
AcDbSymbolTable
 70
               0
  0
ENDTAB
  0
TABLE
  2
UCS
  5
6
100
AcDbSymbolTable
 70
               0
  0
ENDTAB
  0
TABLE
  2
APPID
  5
8
100
AcDbSymbolTable
 70
               1
  0
APPID
  5
16
100
AcDbSymbolTableRecord
100
AcDbRegAppTableRecord
  2
ACAD
 70
               0
  0
ENDTAB
  0
TABLE
  2
DIMSTYLE
  5
9
100
AcDbSymbolTable
 70
               1
  0
DIMSTYLE
105
18
100
AcDbSymbolTableRecord
100
AcDbDimStyleTableRecord
  2
MXDIMSTYLE
 70
               0
  3

  4

  5

  6

  7

 40
1.0
 41
2.5
 42
1.5
 43
3.75
 44
1.5
 45
0.0
 46
0.0
 47
0.0
 48
0.0
 71
               0
 72
               0
 73
               0
 74
               0
 75
               0
 76
               0
 77
               1
 78
               8
140
3.2000000476837158
141
2.5
142
0.0
143
0.03937007874016
144
1.0
145
0.0
146
1.0
147
1.0
170
               0
171
               4
172
               1
173
               0
174
               0
175
               0
176
               0
177
               0
178
               0
270
               2
271
               4
272
               4
273
               2
274
               4
275
               0
280
               0
281
               0
282
               0
283
               1
284
               0
285
               0
286
               0
287
               3
288
               1
340
17
  0
ENDTAB
  0
TABLE
  2
BLOCK_RECORD
  5
1
100
AcDbSymbolTable
 70
              24
  0
BLOCK_RECORD
  5
A
100
AcDbSymbolTableRecord
100
AcDbBlockTableRecord
  2
*MODEL_SPACE
  0
BLOCK_RECORD
  5
B
100
AcDbSymbolTableRecord
100
AcDbBlockTableRecord
  2
*PAPER_SPACE
  0
BLOCK_RECORD
  5
1E
100
AcDbSymbolTableRecord
100
AcDbBlockTableRecord
  2
CS-MGA16-1
  0
BLOCK_RECORD
  5
1F
100
AcDbSymbolTableRecord
100
AcDbBlockTableRecord
  2
CS-MGA16-2
  0
BLOCK_RECORD
  5
20
100
AcDbSymbolTableRecord
100
AcDbBlockTableRecord
  2
CS-MGA16-3
  0
BLOCK_RECORD
  5
21
100
AcDbSymbolTableRecord
100
AcDbBlockTableRecord
  2
CS-MGA16-4
  0
BLOCK_RECORD
  5
22
100
AcDbSymbolTableRecord
100
AcDbBlockTableRecord
  2
CS-MGA16-5
  0
BLOCK_RECORD
  5
23
100
AcDbSymbolTableRecord
100
AcDbBlockTableRecord
  2
CS-MGA16-6
  0
BLOCK_RECORD
  5
24
100
AcDbSymbolTableRecord
100
AcDbBlockTableRecord
  2
CS-MGA16-7
  0
BLOCK_RECORD
  5
25
100
AcDbSymbolTableRecord
100
AcDbBlockTableRecord
  2
CS-MGA16-8
  0
BLOCK_RECORD
  5
26
100
AcDbSymbolTableRecord
100
AcDbBlockTableRecord
  2
CS-MGA16-9
  0
BLOCK_RECORD
  5
27
100
AcDbSymbolTableRecord
100
AcDbBlockTableRecord
  2
CS-MGA16-10
  0
BLOCK_RECORD
  5
28
100
AcDbSymbolTableRecord
100
AcDbBlockTableRecord
  2
CS-MGA16-11
  0
BLOCK_RECORD
  5
29
100
AcDbSymbolTableRecord
100
AcDbBlockTableRecord
  2
CS-MGA16-12
  0
BLOCK_RECORD
  5
2A
100
AcDbSymbolTableRecord
100
AcDbBlockTableRecord
  2
CS-MGA16-13
  0
BLOCK_RECORD
  5
2B
100
AcDbSymbolTableRecord
100
AcDbBlockTableRecord
  2
CS-MGA16-14
  0
BLOCK_RECORD
  5
2C
100
AcDbSymbolTableRecord
100
AcDbBlockTableRecord
  2
CS-MGA16-15
  0
BLOCK_RECORD
  5
2D
100
AcDbSymbolTableRecord
100
AcDbBlockTableRecord
  2
CS-MGA16-16
  0
BLOCK_RECORD
  5
2E
100
AcDbSymbolTableRecord
100
AcDbBlockTableRecord
  2
CS-MGA16-17
  0
BLOCK_RECORD
  5
2F
100
AcDbSymbolTableRecord
100
AcDbBlockTableRecord
  2
CS-MGA16-18
  0
BLOCK_RECORD
  5
30
100
AcDbSymbolTableRecord
100
AcDbBlockTableRecord
  2
CS-MGA16-19
  0
BLOCK_RECORD
  5
31
100
AcDbSymbolTableRecord
100
AcDbBlockTableRecord
  2
CS-MGA16-20
  0
BLOCK_RECORD
  5
32
100
AcDbSymbolTableRecord
100
AcDbBlockTableRecord
  2
CS-MGA16-21
  0
BLOCK_RECORD
  5
33
100
AcDbSymbolTableRecord
100
AcDbBlockTableRecord
  2
CS-MGA16-22
  0
BLOCK_RECORD
  5
34
100
AcDbSymbolTableRecord
100
AcDbBlockTableRecord
  2
CS-MGA16-23
  0
BLOCK_RECORD
  5
35
100
AcDbSymbolTableRecord
100
AcDbBlockTableRecord
  2
CS-MGA16-24
  0
ENDTAB
  0
ENDSEC
  0
SECTION
  2
BLOCKS
  0
BLOCK
  5
D
100
AcDbEntity
  8
0
100
AcDbBlockBegin
  2
*MODEL_SPACE
 70
               0
 10
0.0
 20
0.0
 30
0.0
  3
*MODEL_SPACE
  1

  0
ENDBLK
  5
E
100
AcDbEntity
  8
0
100
AcDbBlockEnd
  0
BLOCK
  5
F
100
AcDbEntity
 67
               1
  8
0
100
AcDbBlockBegin
  2
*PAPER_SPACE
 70
               0
 10
0.0
 20
0.0
 30
0.0
  3
*PAPER_SPACE
  1

  0
ENDBLK
  5
10
100
AcDbEntity
 67
               1
  8
0
100
AcDbBlockEnd
  0
BLOCK
  5
36
100
AcDbEntity
  8
0
100
AcDbBlockBegin
  2
CS-MGA16-1
 70
               0
 10
0.0
 20
0.0
 30
0.0
  3
CS-MGA16-1
  1

  0
LINE
  5
37
100
AcDbEntity
  8
0
  6
CONTINUOUS
 62
               2
100
AcDbLine
 10
77.5
 20
-14.0
 30
0.0
 11
82.5
 21
-14.0
 31
0.0
  0
LINE
  5
38
100
AcDbEntity
  8
0
  6
CONTINUOUS
 62
               2
100
AcDbLine
 10
77.5
 20
14.0
 30
0.0
 11
82.5
 21
14.0
 31
0.0
  0
LINE
  5
39
100
AcDbEntity
  8
0
  6
CONTINUOUS
 62
               2
100
AcDbLine
 10
-2.5
 20
-14.0
 30
0.0
 11
2.5
 21
-14.0
 31
0.0
  0
LINE
  5
3A
100
AcDbEntity
  8
0
  6
CONTINUOUS
 62
               2
100
AcDbLine
 10
-2.5
 20
14.0
 30
0.0
 11
2.5
 21
14.0
 31
0.0
  0
LINE
  5
3B
100
AcDbEntity
  8
0
  6
CONTINUOUS
 62
               2
100
AcDbLine
 10
56.0
 20
-15.5
 30
0.0
 11
70.75
 21
-15.5
 31
0.0
  0
ARC
  5
3C
100
AcDbEntity
  8
0
  6
CONTINUOUS
 62
               7
100
AcDbCircle
 10
61.0
 20
-15.5
 30
0.0
 40
2.1000000000000001
100
AcDbArc
 50
316.95630088933575
 51
43.043699110664235
  0
ARC
  5
3D
100
AcDbEntity
  8
0
  6
CONTINUOUS
 62
               7
100
AcDbCircle
 10
61.0
 20
-15.5
 30
0.0
 40
4.0
100
AcDbArc
 50
0.0
 51
47.667069661316575
  0
LINE
  5
3E
100
AcDbEntity
  8
0
  6
CONTINUOUS
 62
               2
100
AcDbLine
 10
66.0
 20
-20.25
 30
0.0
 11
66.0
 21
-10.75
 31
0.0
  0
CIRCLE
  5
3F
100
AcDbEntity
  8
0
  6
CONTINUOUS
 62
               7
100
AcDbCircle
 10
66.0
 20
-15.5
 30
0.0
 40
3.75
  0
LINE
  5
40
100
AcDbEntity
  8
0
  6
CONTINUOUS
 62
               7
100
AcDbLine
 10
65.0
 20
-15.5
 30
0.0
 11
65.0
 21
-19.11420807370024
 31
0.0
  0
LINE
  5
41
100
AcDbEntity
  8
0
  6
CONTINUOUS
 62
               2
100
AcDbLine
 10
61.0
 20
-20.800000000000011
 30
0.0
 11
61.0
 21
-10.5
 31
0.0
  0
LINE
  5
42
100
AcDbEntity
  8
0
  6
CONTINUOUS
 62
               7
100
AcDbLine
 10
53.499999987179194
 20
-2.0
 30
0.0
 11
54.499999987179194
 21
-2.0
 31
0.0
  0
LINE
  5
43
100
AcDbEntity
  8
0
  6
CONTINUOUS
 62
               7
100
AcDbLine
 10
53.499999974358502
 20
2.0
 30
0.0
 11
54.499999974358502
 21
2.0
 31
0.0
  0
ARC
  5
44
100
AcDbEntity
  8
0
  6
CONTINUOUS
 62
               7
100
AcDbCircle
 10
54.499999987179194
 20
0.0
 30
0.0
 40
2.0
100
AcDbArc
 50
270.0
 51
90.0
  0
ARC
  5
45
100
AcDbEntity
  8
0
  6
CONTINUOUS
 62
               7
100
AcDbCircle
 10
53.499999987179194
 20
0.0
 30
0.0
 40
2.0
100
AcDbArc
 50
90.0
 51
270.0
  0
LINE
  5
46
100
AcDbEntity
  8
0
  6
CONTINUOUS
 62
               2
100
AcDbLine
 10
53.999999987179194
 20
3.0
 30
0.0
 11
53.999999987179194
 21
-3.0
 31
0.0
  0
LINE
  5
47
100
AcDbEntity
  8
0
  6
CONTINUOUS
 62
               7
100
AcDbLine
 10
0.0
 20
-19.499999999100169
 30
0.0
 11
78.0
 21
-19.499999999100169
 31
0.0
  0
LINE
  5
48
100
AcDbEntity
  8
0
  6
CONTINUOUS
 62
               7
100
AcDbLine
 10
0.0
 20
19.5
 30
0.0
 11
78.0
 21
19.5
 31
0.0
  0
LINE
  5
49
100
AcDbEntity
  8
0
  6
CONTINUOUS
 62
               7
100
AcDbLine
 10
0.0
 20
20.0
 30
0.0
 11
78.0
 21
20.0
 31
0.0
  0
LINE
  5
4A
100
AcDbEntity
  8
0
  6
CONTINUOUS
 62
               7
100
AcDbLine
 10
0.0
 20
-19.999999999100169
 30
0.0
 11
78.0
 21
-19.999999999100169
 31
0.0
  0
LINE
  5
4B
100
AcDbEntity
  8
0
  6
CONTINUOUS
 62
               7
100
AcDbLine
 10
80.0
 20
-19.5
 30
0.0
 11
80.0
 21
19.5
 31
0.0
  0
LINE
  5
4D
100
AcDbEntity
  8
0
  6
CENTER
 62
               2
100
AcDbLine
 10
-3.5964301101943192
 20
0.0
 30
0.0
 11
81.821186235216487
 21
0.0
 31
0.0
  0
LINE
  5
4E
100
AcDbEntity
  8
0
  6
CONTINUOUS
 62
               7
100
AcDbLine
 10
78.0
 20
-19.999999999100169
 30
0.0
 11
78.0
 21
20.0
 31
0.0
  0
LINE
  5
4F
100
AcDbEntity
  8
0
  6
CONTINUOUS
 62
               7
100
AcDbLine
 10
78.0
 20
19.5
 30
0.0
 11
80.0
 21
19.5
 31
0.0
  0
LINE
  5
50
100
AcDbEntity
  8
0
  6
CONTINUOUS
 62
               7
100
AcDbLine
 10
78.0
 20
-19.5
 30
0.0
 11
80.0
 21
-19.5
 31
0.0
  0
LINE
  5
51
100
AcDbEntity
  8
0
  6
CONTINUOUS
 62
               7
100
AcDbLine
 10
14.999999987179194
 20
-19.999999999100169
 30
0.0
 11
14.999999987179194
 21
20.0
 31
0.0
  0
LINE
  5
52
100
AcDbEntity
  8
0
  6
CONTINUOUS
 62
               2
100
AcDbLine
 10
41.0
 20
-20.25
 30
0.0
 11
41.0
 21
-10.75
 31
0.0
  0
CIRCLE
  5
53
100
AcDbEntity
  8
0
  6
CONTINUOUS
 62
               7
100
AcDbCircle
 10
41.0
 20
-15.5
 30
0.0
 40
3.75
  0
LINE
  5
54
100
AcDbEntity
  8
0
  6
CONTINUOUS
 62
               7
100
AcDbLine
 10
78.799999999999955
 20
-16.0
 30
0.0
 11
78.799999999999955
 21
16.0
 31
0.0
  0
LINE
  5
55
100
AcDbEntity
  8
0
  6
CONTINUOUS
 62
               7
100
AcDbLine
 10
79.399999999999977
 20
12.0
 30
0.0
 11
79.399999999999977
 21
14.0
 31
0.0
  0
LINE
  5
56
100
AcDbEntity
  8
0
  6
CONTINUOUS
 62
               7
100
AcDbLine
 10
78.899999999999977
 20
14.5
 30
0.0
 11
78.799999999999955
 21
14.5
 31
0.0
  0
ARC
  5
57
100
AcDbEntity
  8
0
  6
CONTINUOUS
 62
               7
100
AcDbCircle
 10
78.899999999999977
 20
14.0
 30
0.0
 40
0.5
100
AcDbArc
 50
0.0
 51
90.0
  0
ARC
  5
58
100
AcDbEntity
  8
0
  6
CONTINUOUS
 62
               7
100
AcDbCircle
 10
78.899999999999977
 20
12.0
 30
0.0
 40
0.5
100
AcDbArc
 50
270.0
 51
0.0
  0
LINE
  5
59
100
AcDbEntity
  8
0
  6
CONTINUOUS
 62
               7
100
AcDbLine
 10
78.899999999999977
 20
11.5
 30
0.0
 11
78.799999999999955
 21
11.5
 31
0.0
  0
LINE
  5
5A
100
AcDbEntity
  8
0
  6
CONTINUOUS
 62
               7
100
AcDbLine
 10
78.799999999999955
 20
16.0
 30
0.0
 11
78.0
 21
16.0
 31
0.0
  0
LINE
  5
5B
100
AcDbEntity
  8
0
  6
CONTINUOUS
 62
               7
100
AcDbLine
 10
78.799999999999955
 20
-16.0
 30
0.0
 11
78.0
 21
-16.0
 31
0.0
  0
LINE
  5
5C
100
AcDbEntity
  8
0
  6
CONTINUOUS
 62
               7
100
AcDbLine
 10
78.899999999999977
 20
-11.5
 30
0.0
 11
78.799999999999955
 21
-11.5
 31
0.0
  0
ARC
  5
5D
100
AcDbEntity
  8
0
  6
CONTINUOUS
 62
               7
100
AcDbCircle
 10
78.899999999999977
 20
-12.0
 30
0.0
 40
0.5
100
AcDbArc
 50
0.0
 51
90.0
  0
ARC
  5
5E
100
AcDbEntity
  8
0
  6
CONTINUOUS
 62
               7
100
AcDbCircle
 10
78.899999999999977
 20
-14.0
 30
0.0
 40
0.5
100
AcDbArc
 50
270.0
 51
0.0
  0
LINE
  5
5F
100
AcDbEntity
  8
0
  6
CONTINUOUS
 62
               7
100
AcDbLine
 10
78.899999999999977
 20
-14.5
 30
0.0
 11
78.799999999999955
 21
-14.5
 31
0.0
  0
LINE
  5
60
100
AcDbEntity
  8
0
  6
CONTINUOUS
 62
               7
100
AcDbLine
 10
79.399999999999977
 20
-12.0
 30
0.0
 11
79.399999999999977
 21
-14.0
 31
0.0
  0
LINE
  5
61
100
AcDbEntity
  8
0
  6
CONTINUOUS
 62
               2
100
AcDbLine
 10
41.0
 20
20.25
 30
0.0
 11
41.0
 21
10.75
 31
0.0
  0
CIRCLE
  5
62
100
AcDbEntity
  8
0
  6
CONTINUOUS
 62
               7
100
AcDbCircle
 10
41.0
 20
15.5
 30
0.0
 40
3.75
  0
LINE
  5
63
100
AcDbEntity
  8
0
  6
CONTINUOUS
 62
               2
100
AcDbLine
 10
66.0
 20
20.25
 30
0.0
 11
66.0
 21
10.75
 31
0.0
  0
CIRCLE
  5
64
100
AcDbEntity
  8
0
  6
CONTINUOUS
 62
               7
100
AcDbCircle
 10
66.0
 20
15.5
 30
0.0
 40
3.75
  0
CIRCLE
  5
65
100
AcDbEntity
  8
0
  6
CONTINUOUS
 62
               7
100
AcDbCircle
 10
25.999999987179194
 20
0.0
 30
0.0
 40
2.0
  0
LINE
  5
66
100
AcDbEntity
  8
0
  6
CONTINUOUS
 62
               2
100
AcDbLine
 10
25.999999987179194
 20
-3.0
 30
0.0
 11
25.999999987179194
 21
3.0
 31
0.0
  0
LINE
  5
67
100
AcDbEntity
  8
0
  6
CONTINUOUS
 62
               7
100
AcDbLine
 10
80.0
 20
11.0
 30
0.0
 11
78.799999999999955
 21
11.0
 31
0.0
  0
LINE
  5
68
100
AcDbEntity
  8
0
  6
CONTINUOUS
 62
               7
100
AcDbLine
 10
80.0
 20
-11.0
 30
0.0
 11
78.799999999999955
 21
-11.0
 31
0.0
  0
LINE
  5
69
100
AcDbEntity
  8
0
  6
CONTINUOUS
 62
               7
100
AcDbLine
 10
78.799999999999955
 20
9.0
 30
0.0
 11
80.0
 21
9.0
 31
0.0
  0
LINE
  5
6A
100
AcDbEntity
  8
0
  6
CONTINUOUS
 62
               7
100
AcDbLine
 10
78.799999999999955
 20
-9.0
 30
0.0
 11
80.0
 21
-9.0
 31
0.0
  0
ARC
  5
6B
100
AcDbEntity
  8
0
  6
CONTINUOUS
 62
               7
100
AcDbCircle
 10
36.0
 20
15.5
 30
0.0
 40
2.1000000000000001
100
AcDbArc
 50
316.95630088933575
 51
43.043699110664235
  0
LINE
  5
6C
100
AcDbEntity
  8
0
  6
CONTINUOUS
 62
               7
100
AcDbLine
 10
40.0
 20
15.5
 30
0.0
 11
40.0
 21
19.11420807370024
 31
0.0
  0
ARC
  5
6D
100
AcDbEntity
  8
0
  6
CONTINUOUS
 62
               7
100
AcDbCircle
 10
61.0
 20
15.5
 30
0.0
 40
4.0
100
AcDbArc
 50
312.33293033868341
 51
0.0
  0
LINE
  5
6E
100
AcDbEntity
  8
0
  6
CONTINUOUS
 62
               7
100
AcDbLine
 10
65.0
 20
15.5
 30
0.0
 11
65.0
 21
19.11420807370024
 31
0.0
  0
LINE
  5
6F
100
AcDbEntity
  8
0
  6
CONTINUOUS
 62
               2
100
AcDbLine
 10
61.0
 20
20.800000000000011
 30
0.0
 11
61.0
 21
10.5
 31
0.0
  0
ARC
  5
70
100
AcDbEntity
  8
0
  6
CONTINUOUS
 62
               7
100
AcDbCircle
 10
36.0
 20
15.5
 30
0.0
 40
4.0
100
AcDbArc
 50
312.33293033868341
 51
0.0
  0
LINE
  5
71
100
AcDbEntity
  8
0
  6
CONTINUOUS
 62
               2
100
AcDbLine
 10
36.0
 20
20.800000000000011
 30
0.0
 11
36.0
 21
10.5
 31
0.0
  0
LINE
  5
72
100
AcDbEntity
  8
0
  6
CONTINUOUS
 62
               7
100
AcDbLine
 10
40.0
 20
-15.5
 30
0.0
 11
40.0
 21
-19.11420807370024
 31
0.0
  0
ARC
  5
73
100
AcDbEntity
  8
0
  6
CONTINUOUS
 62
               7
100
AcDbCircle
 10
36.0
 20
-15.5
 30
0.0
 40
4.0
100
AcDbArc
 50
0.0
 51
47.667069661316575
  0
LINE
  5
74
100
AcDbEntity
  8
0
  6
CONTINUOUS
 62
               2
100
AcDbLine
 10
36.0
 20
-20.5
 30
0.0
 11
36.0
 21
-10.5
 31
0.0
  0
ARC
  5
75
100
AcDbEntity
  8
0
  6
CONTINUOUS
 62
               7
100
AcDbCircle
 10
61.0
 20
15.5
 30
0.0
 40
2.1000000000000001
100
AcDbArc
 50
316.95630088933575
 51
43.043699110664235
  0
ARC
  5
76
100
AcDbEntity
  8
0
  6
CONTINUOUS
 62
               7
100
AcDbCircle
 10
36.0
 20
-15.5
 30
0.0
 40
2.1000000000000001
100
AcDbArc
 50
316.95630088933575
 51
43.043699110664235
  0
CIRCLE
  5
77
100
AcDbEntity
  8
0
  6
CONTINUOUS
 62
               7
100
AcDbCircle
 10
25.999999987179194
 20
-14.0
 30
0.0
 40
1.6499999999999999
  0
CIRCLE
  5
78
100
AcDbEntity
  8
0
  6
CONTINUOUS
 62
               2
100
AcDbCircle
 10
25.999999987179194
 20
-14.0
 30
0.0
 40
2.0
  0
LINE
  5
79
100
AcDbEntity
  8
0
  6
CONTINUOUS
 62
               2
100
AcDbLine
 10
25.999999987179194
 20
-17.0
 30
0.0
 11
25.999999987179194
 21
-11.0
 31
0.0
  0
LINE
  5
7A
100
AcDbEntity
  8
0
  6
CONTINUOUS
 62
               2
100
AcDbLine
 10
22.999999987179194
 20
-14.0
 30
0.0
 11
28.999999987179194
 21
-14.0
 31
0.0
  0
CIRCLE
  5
7B
100
AcDbEntity
  8
0
  6
CONTINUOUS
 62
               7
100
AcDbCircle
 10
25.999999987179194
 20
14.0
 30
0.0
 40
1.6499999999999999
  0
CIRCLE
  5
7C
100
AcDbEntity
  8
0
  6
CONTINUOUS
 62
               2
100
AcDbCircle
 10
25.999999987179194
 20
14.0
 30
0.0
 40
2.0
  0
LINE
  5
7D
100
AcDbEntity
  8
0
  6
CONTINUOUS
 62
               2
100
AcDbLine
 10
25.999999987179194
 20
17.0
 30
0.0
 11
25.999999987179194
 21
11.0
 31
0.0
  0
LINE
  5
7E
100
AcDbEntity
  8
0
  6
CONTINUOUS
 62
               2
100
AcDbLine
 10
22.999999987179194
 20
14.0
 30
0.0
 11
28.999999987179194
 21
14.0
 31
0.0
  0
CIRCLE
  5
7F
100
AcDbEntity
  8
0
  6
CONTINUOUS
 62
               7
100
AcDbCircle
 10
53.999999987179194
 20
-14.0
 30
0.0
 40
1.6499999999999999
  0
CIRCLE
  5
80
100
AcDbEntity
  8
0
  6
CONTINUOUS
 62
               2
100
AcDbCircle
 10
53.999999987179194
 20
-14.0
 30
0.0
 40
2.0
  0
LINE
  5
81
100
AcDbEntity
  8
0
  6
CONTINUOUS
 62
               2
100
AcDbLine
 10
53.999999987179194
 20
-17.0
 30
0.0
 11
53.999999987179194
 21
-11.0
 31
0.0
  0
LINE
  5
82
100
AcDbEntity
  8
0
  6
CONTINUOUS
 62
               2
100
AcDbLine
 10
50.999999987179194
 20
-14.0
 30
0.0
 11
56.999999987179194
 21
-14.0
 31
0.0
  0
CIRCLE
  5
83
100
AcDbEntity
  8
0
  6
CONTINUOUS
 62
               7
100
AcDbCircle
 10
53.999999987179194
 20
14.0
 30
0.0
 40
1.6499999999999999
  0
CIRCLE
  5
84
100
AcDbEntity
  8
0
  6
CONTINUOUS
 62
               2
100
AcDbCircle
 10
53.999999987179194
 20
14.0
 30
0.0
 40
2.0
  0
LINE
  5
85
100
AcDbEntity
  8
0
  6
CONTINUOUS
 62
               2
100
AcDbLine
 10
53.999999987179194
 20
17.0
 30
0.0
 11
53.999999987179194
 21
11.0
 31
0.0
  0
LINE
  5
86
100
AcDbEntity
  8
0
  6
CONTINUOUS
 62
               2
100
AcDbLine
 10
50.999999987179194
 20
14.0
 30
0.0
 11
56.999999987179194
 21
14.0
 31
0.0
  0
LINE
  5
87
100
AcDbEntity
  8
0
  6
CONTINUOUS
 62
               2
100
AcDbLine
 10
31.0
 20
-15.5
 30
0.0
 11
45.75
 21
-15.5
 31
0.0
  0
LINE
  5
88
100
AcDbEntity
  8
0
  6
CONTINUOUS
 62
               2
100
AcDbLine
 10
56.0
 20
15.5
 30
0.0
 11
70.75
 21
15.5
 31
0.0
  0
LINE
  5
89
100
AcDbEntity
  8
0
  6
CONTINUOUS
 62
               2
100
AcDbLine
 10
31.0
 20
15.5
 30
0.0
 11
45.75
 21
15.5
 31
0.0
  0
LINE
  5
8A
100
AcDbEntity
  8
0
  6
CONTINUOUS
 62
               7
100
AcDbLine
 10
0.0
 20
-19.999999999100169
 30
0.0
 11
0.0
 21
20.0
 31
0.0
  0
LINE
  5
8C
100
AcDbEntity
  8
0
  6
PHANTOM
 62
               3
100
AcDbLine
 10
48.872021663177975
 20
30.0
 30
0.0
 11
48.872021663177975
 21
-29.999999999100169
 31
0.0
  0
ENDBLK
  5
8D
100
AcDbEntity
  8
0
100
AcDbBlockEnd
  0
BLOCK
  5
8E
100
AcDbEntity
  8
0
100
AcDbBlockBegin
  2
CS-MGA16-2
 70
               0
 10
0.0
 20
0.0
 30
0.0
  3
CS-MGA16-2
  1

  0
LINE
  5
8F
100
AcDbEntity
  8
0
  6
CONTINUOUS
 62
               7
100
AcDbLine
 10
22.799999999999955
 20
19.699999999999903
 30
0.0
 11
22.799999999999955
 21
-19.699999999999932
 31
0.0
  0
LINE
  5
90
100
AcDbEntity
  8
0
  6
CENTER
 62
               2
100
AcDbLine
 10
-2.5260440989142126
 20
0.0
 30
0.0
 11
24.910904413760022
 21
0.0
 31
0.0
  0
LINE
  5
91
100
AcDbEntity
  8
0
  6
CENTER
 62
               2
100
AcDbLine
 10
9.5
 20
-9.0
 30
0.0
 11
9.5
 21
9.0
 31
0.0
  0
LINE
  5
92
100
AcDbEntity
  8
0
  6
CONTINUOUS
 62
               7
100
AcDbLine
 10
23.0
 20
19.5
 30
0.0
 11
23.0
 21
-19.5
 31
0.0
  0
LINE
  5
93
100
AcDbEntity
  8
0
  6
CONTINUOUS
 62
               7
100
AcDbLine
 10
1.5
 20
-20.0
 30
0.0
 11
22.499999999999773
 21
-20.0
 31
0.0
  0
LINE
  5
94
100
AcDbEntity
  8
0
  6
CONTINUOUS
 62
               7
100
AcDbLine
 10
23.0
 20
-19.5
 30
0.0
 11
22.499999999999773
 21
-20.0
 31
0.0
  0
LINE
  5
95
100
AcDbEntity
  8
0
  6
CONTINUOUS
 62
               7
100
AcDbLine
 10
0.0
 20
-19.5
 30
0.0
 11
1.5
 21
-19.5
 31
0.0
  0
LINE
  5
96
100
AcDbEntity
  8
0
  6
CONTINUOUS
 62
               7
100
AcDbLine
 10
1.5
 20
20.0
 30
0.0
 11
22.499999999999773
 21
20.0
 31
0.0
  0
LINE
  5
97
100
AcDbEntity
  8
0
  6
CONTINUOUS
 62
               7
100
AcDbLine
 10
23.0
 20
19.5
 30
0.0
 11
22.499999999999773
 21
20.0
 31
0.0
  0
LINE
  5
98
100
AcDbEntity
  8
0
  6
CONTINUOUS
 62
               7
100
AcDbLine
 10
-0.0000000000001137
 20
19.5
 30
0.0
 11
1.5
 21
19.5
 31
0.0
  0
CIRCLE
  5
99
100
AcDbEntity
  8
0
  6
CONTINUOUS
 62
               7
100
AcDbCircle
 10
18.0
 20
14.0
 30
0.0
 40
4.0
  0
CIRCLE
  5
9A
100
AcDbEntity
  8
0
  6
CONTINUOUS
 62
               7
100
AcDbCircle
 10
18.00000011920929
 20
14.0
 30
0.0
 40
2.9803848266601563
  0
CIRCLE
  5
9B
100
AcDbEntity
  8
0
  6
CONTINUOUS
 62
               7
100
AcDbCircle
 10
18.0
 20
14.0
 30
0.0
 40
3.5
  0
LINE
  5
9C
100
AcDbEntity
  8
0
  6
CONTINUOUS
 62
               7
100
AcDbLine
 10
17.133974738953953
 20
15.500000399862074
 30
0.0
 11
16.267949394346715
 21
14.000000247230219
 31
0.0
  0
LINE
  5
9D
100
AcDbEntity
  8
0
  6
CONTINUOUS
 62
               7
100
AcDbLine
 10
19.732050018165523
 20
14.000000642559996
 30
0.0
 11
18.8660246735584
 21
12.500000489928141
 31
0.0
  0
LINE
  5
9E
100
AcDbEntity
  8
0
  6
CONTINUOUS
 62
               7
100
AcDbLine
 10
16.267949981834477
 20
14.000000642559996
 30
0.0
 11
17.1339753264416
 21
12.500000489928141
 31
0.0
  0
LINE
  5
9F
100
AcDbEntity
  8
0
  6
CONTINUOUS
 62
               7
100
AcDbLine
 10
18.866025261046047
 20
15.500000399862074
 30
0.0
 11
19.732050605653171
 21
14.000000247230219
 31
0.0
  0
LINE
  5
A0
100
AcDbEntity
  8
0
  6
CONTINUOUS
 62
               7
100
AcDbLine
 10
18.866025388240814
 20
12.5
 30
0.0
 11
17.133974611759186
 21
12.5
 31
0.0
  0
LINE
  5
A1
100
AcDbEntity
  8
0
  6
CONTINUOUS
 62
               7
100
AcDbLine
 10
18.866025686264038
 20
15.5
 30
0.0
 11
17.133974313735962
 21
15.5
 31
0.0
  0
CIRCLE
  5
A2
100
AcDbEntity
  8
0
  6
CONTINUOUS
 62
               7
100
AcDbCircle
 10
18.0
 20
-14.0
 30
0.0
 40
4.0
  0
CIRCLE
  5
A3
100
AcDbEntity
  8
0
  6
CONTINUOUS
 62
               7
100
AcDbCircle
 10
18.00000011920929
 20
-14.0
 30
0.0
 40
2.9803848266601563
  0
CIRCLE
  5
A4
100
AcDbEntity
  8
0
  6
CONTINUOUS
 62
               7
100
AcDbCircle
 10
18.0
 20
-14.0
 30
0.0
 40
3.5
  0
LINE
  5
A5
100
AcDbEntity
  8
0
  6
CONTINUOUS
 62
               7
100
AcDbLine
 10
17.133974738953953
 20
-15.500000399862074
 30
0.0
 11
16.267949394346715
 21
-14.000000247230219
 31
0.0
  0
LINE
  5
A6
100
AcDbEntity
  8
0
  6
CONTINUOUS
 62
               7
100
AcDbLine
 10
16.267949981834477
 20
-14.000000642559996
 30
0.0
 11
17.1339753264416
 21
-12.500000489928141
 31
0.0
  0
LINE
  5
A7
100
AcDbEntity
  8
0
  6
CONTINUOUS
 62
               7
100
AcDbLine
 10
18.866025686264038
 20
-15.5
 30
0.0
 11
17.133974313735962
 21
-15.5
 31
0.0
  0
LINE
  5
A8
100
AcDbEntity
  8
0
  6
CONTINUOUS
 62
               7
100
AcDbLine
 10
18.866025388240814
 20
-12.5
 30
0.0
 11
17.133974611759186
 21
-12.5
 31
0.0
  0
LINE
  5
A9
100
AcDbEntity
  8
0
  6
CONTINUOUS
 62
               7
100
AcDbLine
 10
18.866025261046047
 20
-15.500000399862074
 30
0.0
 11
19.732050605653171
 21
-14.000000247230219
 31
0.0
  0
LINE
  5
AA
100
AcDbEntity
  8
0
  6
CONTINUOUS
 62
               7
100
AcDbLine
 10
19.732050018165523
 20
-14.000000642559996
 30
0.0
 11
18.8660246735584
 21
-12.500000489928141
 31
0.0
  0
CIRCLE
  5
AB
100
AcDbEntity
  8
0
  6
CONTINUOUS
 62
               7
100
AcDbCircle
 10
9.5
 20
0.0
 30
0.0
 40
3.0
  0
CIRCLE
  5
AC
100
AcDbEntity
  8
0
  6
CONTINUOUS
 62
               2
100
AcDbCircle
 10
9.5
 20
0.0
 30
0.0
 40
2.6499999999999915
  0
CIRCLE
  5
AD
100
AcDbEntity
  8
0
  6
CONTINUOUS
 62
               7
100
AcDbCircle
 10
10.0
 20
14.0
 30
0.0
 40
1.6499999999999999
  0
CIRCLE
  5
AE
100
AcDbEntity
  8
0
  6
CONTINUOUS
 62
               2
100
AcDbCircle
 10
10.0
 20
14.0
 30
0.0
 40
2.0
  0
LINE
  5
AF
100
AcDbEntity
  8
0
  6
CONTINUOUS
 62
               2
100
AcDbLine
 10
10.0
 20
11.0
 30
0.0
 11
10.0
 21
17.0
 31
0.0
  0
LINE
  5
B0
100
AcDbEntity
  8
0
  6
CONTINUOUS
 62
               2
100
AcDbLine
 10
7.0
 20
14.0
 30
0.0
 11
13.0
 21
14.0
 31
0.0
  0
CIRCLE
  5
B1
100
AcDbEntity
  8
0
  6
CONTINUOUS
 62
               7
100
AcDbCircle
 10
10.0
 20
-14.0
 30
0.0
 40
1.6499999999999999
  0
CIRCLE
  5
B2
100
AcDbEntity
  8
0
  6
CONTINUOUS
 62
               2
100
AcDbCircle
 10
10.0
 20
-14.0
 30
0.0
 40
2.0
  0
LINE
  5
B3
100
AcDbEntity
  8
0
  6
CONTINUOUS
 62
               2
100
AcDbLine
 10
10.0
 20
-17.0
 30
0.0
 11
10.0
 21
-11.0
 31
0.0
  0
LINE
  5
B4
100
AcDbEntity
  8
0
  6
CONTINUOUS
 62
               2
100
AcDbLine
 10
7.0
 20
-14.0
 30
0.0
 11
13.0
 21
-14.0
 31
0.0
  0
LINE
  5
B5
100
AcDbEntity
  8
0
  6
CONTINUOUS
 62
               7
100
AcDbLine
 10
1.5
 20
4.4000000000000057
 30
0.0
 11
3.426286144375922
 21
4.4000000000000057
 31
0.0
  0
LINE
  5
B6
100
AcDbEntity
  8
0
  6
CONTINUOUS
 62
               7
100
AcDbLine
 10
1.5
 20
-4.4000000000000057
 30
0.0
 11
3.426286144375922
 21
-4.4000000000000057
 31
0.0
  0
ARC
  5
B7
100
AcDbEntity
  8
0
  6
CONTINUOUS
 62
               7
100
AcDbCircle
 10
9.6999999999999318
 20
0.0
 30
0.0
 40
8.0
100
AcDbArc
 50
270.0
 51
90.0
  0
ARC
  5
B8
100
AcDbEntity
  8
0
  6
CONTINUOUS
 62
               7
100
AcDbCircle
 10
9.5
 20
0.0
 30
0.0
 40
7.5
100
AcDbArc
 50
111.03946978131725
 51
248.96053021868272
  0
ARC
  5
B9
100
AcDbEntity
  8
0
  6
CONTINUOUS
 62
               7
100
AcDbCircle
 10
9.5
 20
0.0
 30
0.0
 40
7.5
100
AcDbArc
 50
291.03946978131722
 51
68.960530218682777
  0
LINE
  5
BA
100
AcDbEntity
  8
0
  6
CONTINUOUS
 62
               7
100
AcDbLine
 10
9.6999999999999318
 20
8.0
 30
0.0
 11
1.5
 21
8.0
 31
0.0
  0
LINE
  5
BB
100
AcDbEntity
  8
0
  6
CONTINUOUS
 62
               7
100
AcDbLine
 10
9.6999999999999318
 20
-8.0
 30
0.0
 11
1.5
 21
-8.0
 31
0.0
  0
LINE
  5
BC
100
AcDbEntity
  8
0
  6
CONTINUOUS
 62
               7
100
AcDbLine
 10
1.5
 20
20.000000012820749
 30
0.0
 11
1.5
 21
4.4000000000000057
 31
0.0
  0
LINE
  5
BD
100
AcDbEntity
  8
0
  6
CONTINUOUS
 62
               7
100
AcDbLine
 10
1.5
 20
-4.4000000000000057
 30
0.0
 11
1.5
 21
-19.999999987179251
 31
0.0
  0
LINE
  5
BE
100
AcDbEntity
  8
0
  6
CONTINUOUS
 62
               7
100
AcDbLine
 10
6.8074175964327424
 20
7.0
 30
0.0
 11
12.192582403567258
 21
7.0
 31
0.0
  0
LINE
  5
BF
100
AcDbEntity
  8
0
  6
CONTINUOUS
 62
               7
100
AcDbLine
 10
6.8074175964327424
 20
-7.0
 30
0.0
 11
12.192582403567258
 21
-7.0
 31
0.0
  0
LINE
  5
C0
100
AcDbEntity
  8
0
  6
CONTINUOUS
 62
               7
100
AcDbLine
 10
0.0
 20
4.1999999999999886
 30
0.0
 11
0.0
 21
-4.1999999999999886
 31
0.0
  0
LINE
  5
C1
100
AcDbEntity
  8
0
  6
CONTINUOUS
 62
               7
100
AcDbLine
 10
0.0
 20
10.799999999999983
 30
0.0
 11
0.0
 21
19.5
 31
0.0
  0
LINE
  5
C2
100
AcDbEntity
  8
0
  6
CONTINUOUS
 62
               7
100
AcDbLine
 10
0.2999999999999545
 20
4.5
 30
0.0
 11
0.2999999999999545
 21
10.5
 31
0.0
  0
LINE
  5
C3
100
AcDbEntity
  8
0
  6
CONTINUOUS
 62
               7
100
AcDbLine
 10
0.2999999999999545
 20
10.5
 30
0.0
 11
0.0
 21
10.799999999999983
 31
0.0
  0
LINE
  5
C4
100
AcDbEntity
  8
0
  6
CONTINUOUS
 62
               7
100
AcDbLine
 10
0.2999999999999545
 20
4.5
 30
0.0
 11
0.0
 21
4.1999999999999886
 31
0.0
  0
LINE
  5
C5
100
AcDbEntity
  8
0
  6
CONTINUOUS
 62
               7
100
AcDbLine
 10
0.0
 20
-10.799999999999983
 30
0.0
 11
0.0
 21
-19.5
 31
0.0
  0
LINE
  5
C6
100
AcDbEntity
  8
0
  6
CONTINUOUS
 62
               7
100
AcDbLine
 10
0.2999999999999545
 20
-4.5
 30
0.0
 11
0.0
 21
-4.1999999999999886
 31
0.0
  0
LINE
  5
C7
100
AcDbEntity
  8
0
  6
CONTINUOUS
 62
               7
100
AcDbLine
 10
0.2999999999999545
 20
-10.5
 30
0.0
 11
0.0
 21
-10.799999999999983
 31
0.0
  0
LINE
  5
C8
100
AcDbEntity
  8
0
  6
CONTINUOUS
 62
               7
100
AcDbLine
 10
0.2999999999999545
 20
-4.5
 30
0.0
 11
0.2999999999999545
 21
-10.5
 31
0.0
  0
LINE
  5
C9
100
AcDbEntity
  8
0
  6
CONTINUOUS
 62
               2
100
AcDbLine
 10
-2.5
 20
15.5
 30
0.0
 11
2.5
 21
15.5
 31
0.0
  0
LINE
  5
CA
100
AcDbEntity
  8
0
  6
CONTINUOUS
 62
               2
100
AcDbLine
 10
-2.5
 20
-15.5
 30
0.0
 11
2.5
 21
-15.5
 31
0.0
  0
ENDBLK
  5
CB
100
AcDbEntity
  8
0
100
AcDbBlockEnd
  0
BLOCK
  5
CC
100
AcDbEntity
  8
0
100
AcDbBlockBegin
  2
CS-MGA16-3
 70
               0
 10
0.0
 20
0.0
 30
0.0
  3
CS-MGA16-3
  1

  0
LINE
  5
CD
100
AcDbEntity
  8
0
  6
CONTINUOUS
 62
               7
100
AcDbLine
 10
0.0
 20
19.5
 30
0.0
 11
-12.0
 21
19.5
 31
0.0
  0
LINE
  5
CE
100
AcDbEntity
  8
0
  6
CONTINUOUS
 62
               7
100
AcDbLine
 10
-23.0
 20
19.5
 30
0.0
 11
-22.499999999999773
 21
20.0
 31
0.0
  0
LINE
  5
CF
100
AcDbEntity
  8
0
  6
CONTINUOUS
 62
               7
100
AcDbLine
 10
-1.5
 20
20.0
 30
0.0
 11
-22.499999999999773
 21
20.0
 31
0.0
  0
LINE
  5
D0
100
AcDbEntity
  8
0
  6
CONTINUOUS
 62
               7
100
AcDbLine
 10
0.0
 20
-19.5
 30
0.0
 11
-12.0
 21
-19.5
 31
0.0
  0
LINE
  5
D1
100
AcDbEntity
  8
0
  6
CONTINUOUS
 62
               7
100
AcDbLine
 10
-14.5
 20
-9.1999999999999886
 30
0.0
 11
-14.5
 21
-20.0
 31
0.0
  0
LINE
  5
D2
100
AcDbEntity
  8
0
  6
CONTINUOUS
 62
               7
100
AcDbLine
 10
-23.0
 20
-19.5
 30
0.0
 11
-22.499999999999773
 21
-20.0
 31
0.0
  0
LINE
  5
D3
100
AcDbEntity
  8
0
  6
CONTINUOUS
 62
               7
100
AcDbLine
 10
-1.5
 20
-20.0
 30
0.0
 11
-22.499999999999773
 21
-20.0
 31
0.0
  0
LINE
  5
D4
100
AcDbEntity
  8
0
  6
CONTINUOUS
 62
               7
100
AcDbLine
 10
-18.699999999999932
 20
-9.0
 30
0.0
 11
-17.945643923738999
 21
-9.0
 31
0.0
  0
ARC
  5
D5
100
AcDbEntity
  8
0
  6
CONTINUOUS
 62
               7
100
AcDbCircle
 10
-16.799999999999955
 20
-9.4999999999999716
 30
0.0
 40
1.25
100
AcDbArc
 50
13.886540362627525
 51
166.11345963737247
  0
LINE
  5
D6
100
AcDbEntity
  8
0
  6
CONTINUOUS
 62
               7
100
AcDbLine
 10
-15.654356076261024
 20
-9.0
 30
0.0
 11
-14.0
 21
-9.0
 31
0.0
  0
LINE
  5
D7
100
AcDbEntity
  8
0
  6
CONTINUOUS
 62
               7
100
AcDbLine
 10
-23.0
 20
19.5
 30
0.0
 11
-23.0
 21
-19.5
 31
0.0
  0
LINE
  5
D8
100
AcDbEntity
  8
0
  6
CONTINUOUS
 62
               7
100
AcDbLine
 10
-19.299999999999955
 20
9.1999999999999886
 30
0.0
 11
-19.299999999999955
 21
-9.1999999999999886
 31
0.0
  0
LINE
  5
D9
100
AcDbEntity
  8
0
  6
CENTER
 62
               2
100
AcDbLine
 10
-9.5
 20
-10.0
 30
0.0
 11
-9.5
 21
10.0
 31
0.0
  0
LINE
  5
DA
100
AcDbEntity
  8
0
  6
CONTINUOUS
 62
               7
100
AcDbLine
 10
-18.899999999999977
 20
8.8000000000000114
 30
0.0
 11
-18.899999999999977
 21
-8.8000000000000114
 31
0.0
  0
LINE
  5
DB
100
AcDbEntity
  8
0
  6
CENTER
 62
               2
100
AcDbLine
 10
2.5260440989142126
 20
0.0
 30
0.0
 11
-24.910904413760022
 21
0.0
 31
0.0
  0
LINE
  5
DC
100
AcDbEntity
  8
0
  6
CONTINUOUS
 62
               7
100
AcDbLine
 10
-18.899999999999977
 20
-8.8000000000000114
 30
0.0
 11
-18.699999999999932
 21
-9.0
 31
0.0
  0
ARC
  5
DD
100
AcDbEntity
  8
0
  6
CONTINUOUS
 62
               7
100
AcDbCircle
 10
-16.799999999999955
 20
9.4999999999999716
 30
0.0
 40
1.25
100
AcDbArc
 50
193.88654036262753
 51
346.1134596373725
  0
LINE
  5
DE
100
AcDbEntity
  8
0
  6
CONTINUOUS
 62
               7
100
AcDbLine
 10
-18.899999999999977
 20
8.8000000000000114
 30
0.0
 11
-18.699999999999932
 21
9.0
 31
0.0
  0
LINE
  5
DF
100
AcDbEntity
  8
0
  6
CONTINUOUS
 62
               7
100
AcDbLine
 10
-18.699999999999932
 20
9.0
 30
0.0
 11
-17.945643923738999
 21
9.0
 31
0.0
  0
LINE
  5
E0
100
AcDbEntity
  8
0
  6
CONTINUOUS
 62
               7
100
AcDbLine
 10
-14.5
 20
9.1999999999999886
 30
0.0
 11
-14.5
 21
20.0
 31
0.0
  0
LINE
  5
E1
100
AcDbEntity
  8
0
  6
CONTINUOUS
 62
               7
100
AcDbLine
 10
-14.5
 20
-16.0
 30
0.0
 11
-22.5
 21
-16.0
 31
0.0
  0
CIRCLE
  5
E2
100
AcDbEntity
  8
0
  6
CONTINUOUS
 62
               7
100
AcDbCircle
 10
-17.0
 20
-13.0
 30
0.0
 40
1.5
  0
LINE
  5
E3
100
AcDbEntity
  8
0
  6
CONTINUOUS
 62
               7
100
AcDbLine
 10
-17.707106781186553
 20
-13.707106781186553
 30
0.0
 11
-16.292893218813447
 21
-12.292893218813447
 31
0.0
  0
LINE
  5
E4
100
AcDbEntity
  8
0
  6
CONTINUOUS
 62
               7
100
AcDbLine
 10
-17.707106781186553
 20
-12.292893218813447
 30
0.0
 11
-16.292893218813447
 21
-13.707106781186553
 31
0.0
  0
LINE
  5
E5
100
AcDbEntity
  8
0
  6
CONTINUOUS
 62
               7
100
AcDbLine
 10
-22.5
 20
16.0
 30
0.0
 11
-22.5
 21
-16.0
 31
0.0
  0
LINE
  5
E6
100
AcDbEntity
  8
0
  6
CONTINUOUS
 62
               7
100
AcDbLine
 10
-19.299999999999955
 20
-9.1999999999999886
 30
0.0
 11
-14.5
 21
-9.1999999999999886
 31
0.0
  0
LINE
  5
E7
100
AcDbEntity
  8
0
  6
CONTINUOUS
 62
               7
100
AcDbLine
 10
-14.5
 20
16.0
 30
0.0
 11
-22.5
 21
16.0
 31
0.0
  0
LINE
  5
E8
100
AcDbEntity
  8
0
  6
CONTINUOUS
 62
               7
100
AcDbLine
 10
-17.707106781186553
 20
12.292893218813447
 30
0.0
 11
-16.292893218813447
 21
13.707106781186553
 31
0.0
  0
LINE
  5
E9
100
AcDbEntity
  8
0
  6
CONTINUOUS
 62
               7
100
AcDbLine
 10
-17.707106781186553
 20
13.707106781186553
 30
0.0
 11
-16.292893218813447
 21
12.292893218813447
 31
0.0
  0
CIRCLE
  5
EA
100
AcDbEntity
  8
0
  6
CONTINUOUS
 62
               7
100
AcDbCircle
 10
-17.0
 20
13.0
 30
0.0
 40
1.5
  0
LINE
  5
EB
100
AcDbEntity
  8
0
  6
CONTINUOUS
 62
               7
100
AcDbLine
 10
-19.299999999999955
 20
9.1999999999999886
 30
0.0
 11
-14.5
 21
9.1999999999999886
 31
0.0
  0
LINE
  5
EC
100
AcDbEntity
  8
0
  6
CONTINUOUS
 62
               2
100
AcDbLine
 10
-4.5
 20
14.0
 30
0.0
 11
-11.5
 21
14.0
 31
0.0
  0
LINE
  5
ED
100
AcDbEntity
  8
0
  6
CONTINUOUS
 62
               2
100
AcDbLine
 10
-8.0
 20
17.5
 30
0.0
 11
-8.0
 21
10.5
 31
0.0
  0
CIRCLE
  5
EE
100
AcDbEntity
  8
0
  6
CONTINUOUS
 62
               2
100
AcDbCircle
 10
-8.0
 20
14.0
 30
0.0
 40
2.5
  0
CIRCLE
  5
EF
100
AcDbEntity
  8
0
  6
CONTINUOUS
 62
               7
100
AcDbCircle
 10
-8.0
 20
14.0
 30
0.0
 40
2.1000000000000001
  0
LINE
  5
F0
100
AcDbEntity
  8
0
  6
CONTINUOUS
 62
               2
100
AcDbLine
 10
-4.5
 20
-14.0
 30
0.0
 11
-11.5
 21
-14.0
 31
0.0
  0
LINE
  5
F1
100
AcDbEntity
  8
0
  6
CONTINUOUS
 62
               2
100
AcDbLine
 10
-8.0
 20
-17.5
 30
0.0
 11
-8.0
 21
-10.5
 31
0.0
  0
CIRCLE
  5
F2
100
AcDbEntity
  8
0
  6
CONTINUOUS
 62
               2
100
AcDbCircle
 10
-8.0
 20
-14.0
 30
0.0
 40
2.5
  0
CIRCLE
  5
F3
100
AcDbEntity
  8
0
  6
CONTINUOUS
 62
               7
100
AcDbCircle
 10
-8.0
 20
-14.0
 30
0.0
 40
2.1000000000000001
  0
LINE
  5
F4
100
AcDbEntity
  8
0
  6
CONTINUOUS
 62
               7
100
AcDbLine
 10
-12.0
 20
-11.0
 30
0.0
 11
-12.0
 21
-19.5
 31
0.0
  0
LINE
  5
F5
100
AcDbEntity
  8
0
  6
CONTINUOUS
 62
               7
100
AcDbLine
 10
-14.0
 20
-9.0
 30
0.0
 11
-12.0
 21
-11.0
 31
0.0
  0
LINE
  5
F6
100
AcDbEntity
  8
0
  6
CONTINUOUS
 62
               7
100
AcDbLine
 10
-12.0
 20
11.0
 30
0.0
 11
-12.0
 21
19.5
 31
0.0
  0
LINE
  5
F7
100
AcDbEntity
  8
0
  6
CONTINUOUS
 62
               7
100
AcDbLine
 10
-15.654356076261024
 20
9.0
 30
0.0
 11
-14.0
 21
9.0
 31
0.0
  0
LINE
  5
F8
100
AcDbEntity
  8
0
  6
CONTINUOUS
 62
               7
100
AcDbLine
 10
-14.0
 20
9.0
 30
0.0
 11
-12.0
 21
11.0
 31
0.0
  0
CIRCLE
  5
F9
100
AcDbEntity
  8
0
  6
CONTINUOUS
 62
               7
100
AcDbCircle
 10
-9.5
 20
0.0
 30
0.0
 40
8.0
  0
CIRCLE
  5
FA
100
AcDbEntity
  8
0
  6
CONTINUOUS
 62
               7
100
AcDbCircle
 10
-9.5
 20
0.0
 30
0.0
 40
7.25
  0
LINE
  5
FB
100
AcDbEntity
  8
0
  6
CONTINUOUS
 62
               7
100
AcDbLine
 10
0.0
 20
-4.1999999999999886
 30
0.0
 11
0.0
 21
4.1999999999999886
 31
0.0
  0
LINE
  5
FC
100
AcDbEntity
  8
0
  6
CONTINUOUS
 62
               7
100
AcDbLine
 10
0.0
 20
-10.799999999999983
 30
0.0
 11
0.0
 21
-19.5
 31
0.0
  0
LINE
  5
FD
100
AcDbEntity
  8
0
  6
CONTINUOUS
 62
               7
100
AcDbLine
 10
-0.2999999999999545
 20
-4.5
 30
0.0
 11
-0.2999999999999545
 21
-10.5
 31
0.0
  0
LINE
  5
FE
100
AcDbEntity
  8
0
  6
CONTINUOUS
 62
               7
100
AcDbLine
 10
-0.2999999999999545
 20
-10.5
 30
0.0
 11
0.0
 21
-10.799999999999983
 31
0.0
  0
LINE
  5
FF
100
AcDbEntity
  8
0
  6
CONTINUOUS
 62
               7
100
AcDbLine
 10
-0.2999999999999545
 20
-4.5
 30
0.0
 11
0.0
 21
-4.1999999999999886
 31
0.0
  0
LINE
  5
100
100
AcDbEntity
  8
0
  6
CONTINUOUS
 62
               7
100
AcDbLine
 10
0.0
 20
10.799999999999983
 30
0.0
 11
0.0
 21
19.5
 31
0.0
  0
LINE
  5
101
100
AcDbEntity
  8
0
  6
CONTINUOUS
 62
               7
100
AcDbLine
 10
-0.2999999999999545
 20
4.5
 30
0.0
 11
0.0
 21
4.1999999999999886
 31
0.0
  0
LINE
  5
102
100
AcDbEntity
  8
0
  6
CONTINUOUS
 62
               7
100
AcDbLine
 10
-0.2999999999999545
 20
10.5
 30
0.0
 11
0.0
 21
10.799999999999983
 31
0.0
  0
LINE
  5
103
100
AcDbEntity
  8
0
  6
CONTINUOUS
 62
               7
100
AcDbLine
 10
-0.2999999999999545
 20
4.5
 30
0.0
 11
-0.2999999999999545
 21
10.5
 31
0.0
  0
LINE
  5
104
100
AcDbEntity
  8
0
  6
CONTINUOUS
 62
               7
100
AcDbLine
 10
-1.5
 20
19.5
 30
0.0
 11
-1.5
 21
20.0
 31
0.0
  0
LINE
  5
105
100
AcDbEntity
  8
0
  6
CONTINUOUS
 62
               7
100
AcDbLine
 10
-1.5
 20
-19.5
 30
0.0
 11
-1.5
 21
-20.0
 31
0.0
  0
LINE
  5
106
100
AcDbEntity
  8
0
  6
CONTINUOUS
 62
               2
100
AcDbLine
 10
-2.5
 20
15.5
 30
0.0
 11
2.5
 21
15.5
 31
0.0
  0
LINE
  5
107
100
AcDbEntity
  8
0
  6
CONTINUOUS
 62
               2
100
AcDbLine
 10
-2.5
 20
-15.5
 30
0.0
 11
2.5
 21
-15.5
 31
0.0
  0
ENDBLK
  5
108
100
AcDbEntity
  8
0
100
AcDbBlockEnd
  0
BLOCK
  5
109
100
AcDbEntity
  8
0
100
AcDbBlockBegin
  2
CS-MGA16-4
 70
               0
 10
0.0
 20
0.0
 30
0.0
  3
CS-MGA16-4
  1

  0
CIRCLE
  5
10A
100
AcDbEntity
  8
0
  6
CONTINUOUS
 62
               2
100
AcDbCircle
 10
70.0
 20
-5.9999999999999432
 30
0.0
 40
2.1000000000000001
  0
CIRCLE
  5
10B
100
AcDbEntity
  8
0
  6
CONTINUOUS
 62
               7
100
AcDbCircle
 10
70.0
 20
-5.9999999999999432
 30
0.0
 40
2.5
  0
LINE
  5
10C
100
AcDbEntity
  8
0
  6
CONTINUOUS
 62
               7
100
AcDbLine
 10
68.749999945050718
 20
-5.2783122360706329
 30
0.0
 11
70.000000064260007
 21
-4.5566243231296539
 31
0.0
  0
LINE
  5
10D
100
AcDbEntity
  8
0
  6
CONTINUOUS
 62
               7
100
AcDbLine
 10
69.99999990968854
 20
-4.5566243157172721
 30
0.0
 11
71.250000035504286
 21
-5.2783122172156141
 31
0.0
  0
LINE
  5
10E
100
AcDbEntity
  8
0
  6
CONTINUOUS
 62
               7
100
AcDbLine
 10
71.250000054949282
 20
-6.7216877639292534
 30
0.0
 11
69.999999935739993
 21
-7.4433756768702324
 31
0.0
  0
LINE
  5
10F
100
AcDbEntity
  8
0
  6
CONTINUOUS
 62
               7
100
AcDbLine
 10
71.249999964637823
 20
-5.2783120796465823
 30
0.0
 11
71.249999971244165
 21
-6.7216878940859033
 31
0.0
  0
LINE
  5
110
100
AcDbEntity
  8
0
  6
CONTINUOUS
 62
               7
100
AcDbLine
 10
68.750000035362177
 20
-6.721687920353304
 30
0.0
 11
68.750000028755835
 21
-5.2783121059140115
 31
0.0
  0
LINE
  5
111
100
AcDbEntity
  8
0
  6
CONTINUOUS
 62
               7
100
AcDbLine
 10
70.00000009031146
 20
-7.4433756842826142
 30
0.0
 11
68.749999964495714
 21
-6.7216877827843007
 31
0.0
  0
CIRCLE
  5
112
100
AcDbEntity
  8
0
  6
CONTINUOUS
 62
               2
100
AcDbCircle
 10
43.0
 20
-5.9999999999999432
 30
0.0
 40
2.1000000000000001
  0
CIRCLE
  5
113
100
AcDbEntity
  8
0
  6
CONTINUOUS
 62
               7
100
AcDbCircle
 10
43.0
 20
-5.9999999999999432
 30
0.0
 40
2.5
  0
LINE
  5
114
100
AcDbEntity
  8
0
  6
CONTINUOUS
 62
               7
100
AcDbLine
 10
41.749999945050718
 20
-5.2783122360706329
 30
0.0
 11
43.000000064260007
 21
-4.5566243231296539
 31
0.0
  0
LINE
  5
115
100
AcDbEntity
  8
0
  6
CONTINUOUS
 62
               7
100
AcDbLine
 10
42.99999990968854
 20
-4.5566243157172721
 30
0.0
 11
44.250000035504286
 21
-5.2783122172156141
 31
0.0
  0
LINE
  5
116
100
AcDbEntity
  8
0
  6
CONTINUOUS
 62
               7
100
AcDbLine
 10
44.250000054949282
 20
-6.7216877639292534
 30
0.0
 11
42.999999935739993
 21
-7.4433756768702324
 31
0.0
  0
LINE
  5
117
100
AcDbEntity
  8
0
  6
CONTINUOUS
 62
               7
100
AcDbLine
 10
44.249999964637823
 20
-5.2783120796465823
 30
0.0
 11
44.249999971244165
 21
-6.7216878940859033
 31
0.0
  0
LINE
  5
118
100
AcDbEntity
  8
0
  6
CONTINUOUS
 62
               7
100
AcDbLine
 10
41.750000035362177
 20
-6.721687920353304
 30
0.0
 11
41.750000028755835
 21
-5.2783121059140115
 31
0.0
  0
LINE
  5
119
100
AcDbEntity
  8
0
  6
CONTINUOUS
 62
               7
100
AcDbLine
 10
43.00000009031146
 20
-7.4433756842826142
 30
0.0
 11
41.749999964495714
 21
-6.7216877827843007
 31
0.0
  0
CIRCLE
  5
11A
100
AcDbEntity
  8
0
  6
CONTINUOUS
 62
               2
100
AcDbCircle
 10
16.0
 20
-5.9999999999999147
 30
0.0
 40
2.1000000000000001
  0
CIRCLE
  5
11B
100
AcDbEntity
  8
0
  6
CONTINUOUS
 62
               7
100
AcDbCircle
 10
16.0
 20
-5.9999999999999147
 30
0.0
 40
2.5
  0
LINE
  5
11C
100
AcDbEntity
  8
0
  6
CONTINUOUS
 62
               7
100
AcDbLine
 10
14.749999945050718
 20
-5.2783122360706045
 30
0.0
 11
16.000000064260007
 21
-4.5566243231296255
 31
0.0
  0
LINE
  5
11D
100
AcDbEntity
  8
0
  6
CONTINUOUS
 62
               7
100
AcDbLine
 10
15.99999990968854
 20
-4.5566243157172437
 30
0.0
 11
17.250000035504286
 21
-5.2783122172155856
 31
0.0
  0
LINE
  5
11E
100
AcDbEntity
  8
0
  6
CONTINUOUS
 62
               7
100
AcDbLine
 10
17.250000054949282
 20
-6.721687763929225
 30
0.0
 11
15.999999935739993
 21
-7.443375676870204
 31
0.0
  0
LINE
  5
11F
100
AcDbEntity
  8
0
  6
CONTINUOUS
 62
               7
100
AcDbLine
 10
17.249999964637823
 20
-5.2783120796465539
 30
0.0
 11
17.249999971244165
 21
-6.7216878940858749
 31
0.0
  0
LINE
  5
120
100
AcDbEntity
  8
0
  6
CONTINUOUS
 62
               7
100
AcDbLine
 10
14.750000035362177
 20
-6.7216879203532756
 30
0.0
 11
14.750000028755835
 21
-5.278312105913983
 31
0.0
  0
LINE
  5
121
100
AcDbEntity
  8
0
  6
CONTINUOUS
 62
               7
100
AcDbLine
 10
16.00000009031146
 20
-7.4433756842825858
 30
0.0
 11
14.749999964495714
 21
-6.7216877827842723
 31
0.0
  0
LINE
  5
122
100
AcDbEntity
  8
0
  6
CONTINUOUS
 62
               7
100
AcDbLine
 10
20.0
 20
-14.0
 30
0.0
 11
80.0
 21
-14.0
 31
0.0
  0
LINE
  5
123
100
AcDbEntity
  8
0
  6
CONTINUOUS
 62
               7
100
AcDbLine
 10
0.0
 20
-22.800000000000011
 30
0.0
 11
0.0
 21
-1.5
 31
0.0
  0
LINE
  5
124
100
AcDbEntity
  8
0
  6
CONTINUOUS
 62
               7
100
AcDbLine
 10
8.0
 20
-1.5
 30
0.0
 11
8.0
 21
-13.5
 31
0.0
  0
LINE
  5
125
100
AcDbEntity
  8
0
  6
CONTINUOUS
 62
               7
100
AcDbLine
 10
12.0
 20
-0.1999999999999886
 30
0.0
 11
12.0
 21
-13.5
 31
0.0
  0
LINE
  5
126
100
AcDbEntity
  8
0
  6
CONTINUOUS
 62
               7
100
AcDbLine
 10
10.199999999999932
 20
-1.9999999999999716
 30
0.0
 11
10.199999999999932
 21
-7.5025015644561677
 31
0.0
  0
LINE
  5
127
100
AcDbEntity
  8
0
  6
CONTINUOUS
 62
               7
100
AcDbLine
 10
10.199999999999932
 20
-2.6999999999999886
 30
0.0
 11
12.0
 21
-2.6999999999999886
 31
0.0
  0
LINE
  5
128
100
AcDbEntity
  8
0
  6
CONTINUOUS
 62
               7
100
AcDbLine
 10
8.0
 20
-1.9999999999999716
 30
0.0
 11
10.199999999999932
 21
-1.9999999999999716
 31
0.0
  0
LINE
  5
129
100
AcDbEntity
  8
0
  6
CONTINUOUS
 62
               7
100
AcDbLine
 10
7.9999999871791942
 20
-1.5
 30
0.0
 11
0.0
 21
-1.5
 31
0.0
  0
LINE
  5
12A
100
AcDbEntity
  8
0
  6
CONTINUOUS
 62
               7
100
AcDbLine
 10
20.0
 20
-0.1999999999999886
 30
0.0
 11
12.0
 21
-0.1999999999999886
 31
0.0
  0
LINE
  5
12B
100
AcDbEntity
  8
0
  6
CONTINUOUS
 62
               2
100
AcDbLine
 10
5.0
 20
-9.4999999999999716
 30
0.0
 11
21.213298307512446
 21
-9.4999999999999716
 31
0.0
  0
LINE
  5
12C
100
AcDbEntity
  8
0
  6
CONTINUOUS
 62
               7
100
AcDbLine
 10
12.0
 20
-12.5
 30
0.0
 11
20.0
 21
-12.5
 31
0.0
  0
LINE
  5
12D
100
AcDbEntity
  8
0
  6
CONTINUOUS
 62
               7
100
AcDbLine
 10
15.999999987179194
 20
-13.5
 30
0.0
 11
15.999999987179194
 21
-14.5
 31
0.0
  0
LINE
  5
12E
100
AcDbEntity
  8
0
  6
CONTINUOUS
 62
               7
100
AcDbLine
 10
8.0
 20
-5.7583426132260342
 30
0.0
 11
10.199999999999932
 21
-5.7583426132260342
 31
0.0
  0
LINE
  5
12F
100
AcDbEntity
  8
0
  6
CONTINUOUS
 62
               7
100
AcDbLine
 10
10.199999999999932
 20
-7.5025015644561677
 30
0.0
 11
12.0
 21
-7.5025015644561677
 31
0.0
  0
LINE
  5
130
100
AcDbEntity
  8
0
  6
CONTINUOUS
 62
               2
100
AcDbLine
 10
10.199999999999932
 20
-5.7583426132260342
 30
0.0
 11
8.0
 21
-13.241657386773909
 31
0.0
  0
LINE
  5
131
100
AcDbEntity
  8
0
  6
CONTINUOUS
 62
               2
100
AcDbLine
 10
10.199999999999932
 20
-13.241657386773909
 30
0.0
 11
8.0
 21
-5.7583426132260342
 31
0.0
  0
LINE
  5
132
100
AcDbEntity
  8
0
  6
CONTINUOUS
 62
               7
100
AcDbLine
 10
10.199999999999932
 20
-11.497498435543775
 30
0.0
 11
10.199999999999932
 21
-13.5
 31
0.0
  0
LINE
  5
133
100
AcDbEntity
  8
0
  6
CONTINUOUS
 62
               7
100
AcDbLine
 10
8.0
 20
-13.241657386773909
 30
0.0
 11
10.199999999999932
 21
-13.241657386773909
 31
0.0
  0
LINE
  5
134
100
AcDbEntity
  8
0
  6
CONTINUOUS
 62
               7
100
AcDbLine
 10
10.199999999999932
 20
-11.497498435543775
 30
0.0
 11
12.0
 21
-11.497498435543775
 31
0.0
  0
LINE
  5
135
100
AcDbEntity
  8
0
  6
CONTINUOUS
 62
               7
100
AcDbLine
 10
8.0
 20
-13.5
 30
0.0
 11
15.999999987179194
 21
-13.5
 31
0.0
  0
LINE
  5
136
100
AcDbEntity
  8
0
  6
CONTINUOUS
 62
               7
100
AcDbLine
 10
13.0
 20
-12.499999999999943
 30
0.0
 11
13.0
 21
-13.5
 31
0.0
  0
LINE
  5
137
100
AcDbEntity
  8
0
  6
CONTINUOUS
 62
               7
100
AcDbLine
 10
14.999999987179194
 20
-22.300000000000011
 30
0.0
 11
0.0
 21
-22.300000000000011
 31
0.0
  0
LINE
  5
138
100
AcDbEntity
  8
0
  6
CONTINUOUS
 62
               7
100
AcDbLine
 10
0.0
 20
-22.800000000000011
 30
0.0
 11
14.999999987179194
 21
-22.800000000000011
 31
0.0
  0
CIRCLE
  5
139
100
AcDbEntity
  8
0
  6
CONTINUOUS
 62
               7
100
AcDbCircle
 10
48.5
 20
-18.0
 30
0.0
 40
1.6499999999999999
  0
CIRCLE
  5
13A
100
AcDbEntity
  8
0
  6
CONTINUOUS
 62
               2
100
AcDbCircle
 10
48.5
 20
-18.0
 30
0.0
 40
2.0
  0
LINE
  5
13B
100
AcDbEntity
  8
0
  6
CONTINUOUS
 62
               2
100
AcDbLine
 10
48.5
 20
-15.0
 30
0.0
 11
48.5
 21
-21.0
 31
0.0
  0
LINE
  5
13C
100
AcDbEntity
  8
0
  6
CONTINUOUS
 62
               2
100
AcDbLine
 10
45.5
 20
-18.0
 30
0.0
 11
51.5
 21
-18.0
 31
0.0
  0
LINE
  5
13D
100
AcDbEntity
  8
0
  6
CONTINUOUS
 62
               2
100
AcDbLine
 10
62.949999999999932
 20
-4.5
 30
0.0
 11
67.049999999999955
 21
-4.5
 31
0.0
  0
LINE
  5
13E
100
AcDbEntity
  8
0
  6
CONTINUOUS
 62
               2
100
AcDbLine
 10
65.0
 20
-6.5500000000000114
 30
0.0
 11
65.0
 21
-2.4499999999999886
 31
0.0
  0
CIRCLE
  5
13F
100
AcDbEntity
  8
0
  6
CONTINUOUS
 62
               7
100
AcDbCircle
 10
65.0
 20
-4.5
 30
0.0
 40
1.05
  0
CIRCLE
  5
140
100
AcDbEntity
  8
0
  6
CONTINUOUS
 62
               2
100
AcDbCircle
 10
65.0
 20
-4.5
 30
0.0
 40
1.25
  0
LINE
  5
141
100
AcDbEntity
  8
0
  6
CONTINUOUS
 62
               2
100
AcDbLine
 10
46.949999999999932
 20
-4.5
 30
0.0
 11
51.049999999999955
 21
-4.5
 31
0.0
  0
LINE
  5
142
100
AcDbEntity
  8
0
  6
CONTINUOUS
 62
               2
100
AcDbLine
 10
49.0
 20
-6.5500000000000114
 30
0.0
 11
49.0
 21
-2.4499999999999886
 31
0.0
  0
CIRCLE
  5
143
100
AcDbEntity
  8
0
  6
CONTINUOUS
 62
               7
100
AcDbCircle
 10
49.0
 20
-4.5
 30
0.0
 40
1.05
  0
CIRCLE
  5
144
100
AcDbEntity
  8
0
  6
CONTINUOUS
 62
               2
100
AcDbCircle
 10
49.0
 20
-4.5
 30
0.0
 40
1.25
  0
LINE
  5
145
100
AcDbEntity
  8
0
  6
CONTINUOUS
 62
               2
100
AcDbLine
 10
76.0
 20
-18.300000000000011
 30
0.0
 11
76.0
 21
-14.699999999999989
 31
0.0
  0
LINE
  5
146
100
AcDbEntity
  8
0
  6
CONTINUOUS
 62
               2
100
AcDbLine
 10
74.199999999999932
 20
-16.5
 30
0.0
 11
77.799999999999955
 21
-16.5
 31
0.0
  0
CIRCLE
  5
147
100
AcDbEntity
  8
0
  6
CONTINUOUS
 62
               2
100
AcDbCircle
 10
76.0
 20
-16.5
 30
0.0
 40
1.0
  0
CIRCLE
  5
148
100
AcDbEntity
  8
0
  6
CONTINUOUS
 62
               7
100
AcDbCircle
 10
76.0
 20
-16.5
 30
0.0
 40
0.8
  0
LINE
  5
149
100
AcDbEntity
  8
0
  6
CONTINUOUS
 62
               2
100
AcDbLine
 10
62.0
 20
-18.300000000000011
 30
0.0
 11
62.0
 21
-14.699999999999989
 31
0.0
  0
LINE
  5
14A
100
AcDbEntity
  8
0
  6
CONTINUOUS
 62
               2
100
AcDbLine
 10
60.199999999999932
 20
-16.5
 30
0.0
 11
63.799999999999955
 21
-16.5
 31
0.0
  0
CIRCLE
  5
14B
100
AcDbEntity
  8
0
  6
CONTINUOUS
 62
               2
100
AcDbCircle
 10
62.0
 20
-16.5
 30
0.0
 40
1.0
  0
CIRCLE
  5
14C
100
AcDbEntity
  8
0
  6
CONTINUOUS
 62
               7
100
AcDbCircle
 10
62.0
 20
-16.5
 30
0.0
 40
0.8
  0
LINE
  5
14D
100
AcDbEntity
  8
0
  6
CONTINUOUS
 62
               7
100
AcDbLine
 10
31.0
 20
-12.0
 30
0.0
 11
31.0
 21
0.0
 31
0.0
  0
LINE
  5
14E
100
AcDbEntity
  8
0
  6
CONTINUOUS
 62
               7
100
AcDbLine
 10
22.0
 20
-12.0
 30
0.0
 11
22.0
 21
0.0
 31
0.0
  0
LINE
  5
14F
100
AcDbEntity
  8
0
  6
CONTINUOUS
 62
               7
100
AcDbLine
 10
20.0
 20
-14.5
 30
0.0
 11
20.0
 21
0.0
 31
0.0
  0
LINE
  5
150
100
AcDbEntity
  8
0
  6
CONTINUOUS
 62
               7
100
AcDbLine
 10
78.0
 20
-23.0
 30
0.0
 11
78.0
 21
-14.5
 31
0.0
  0
LINE
  5
151
100
AcDbEntity
  8
0
  6
CONTINUOUS
 62
               7
100
AcDbLine
 10
80.0
 20
-18.900000000000006
 30
0.0
 11
80.0
 21
0.0
 31
0.0
  0
LINE
  5
152
100
AcDbEntity
  8
0
  6
CONTINUOUS
 62
               7
100
AcDbLine
 10
14.999999987179194
 20
-14.5
 30
0.0
 11
78.0
 21
-14.5
 31
0.0
  0
LINE
  5
153
100
AcDbEntity
  8
0
  6
CONTINUOUS
 62
               7
100
AcDbLine
 10
20.0
 20
0.0
 30
0.0
 11
80.0
 21
0.0
 31
0.0
  0
LINE
  5
154
100
AcDbEntity
  8
0
  6
CONTINUOUS
 62
               7
100
AcDbLine
 10
14.999999987179194
 20
-23.0
 30
0.0
 11
78.0
 21
-23.0
 31
0.0
  0
LINE
  5
155
100
AcDbEntity
  8
0
  6
CONTINUOUS
 62
               7
100
AcDbLine
 10
14.999999987179194
 20
-14.5
 30
0.0
 11
14.999999987179194
 21
-23.0
 31
0.0
  0
LINE
  5
156
100
AcDbEntity
  8
0
  6
CONTINUOUS
 62
               7
100
AcDbLine
 10
40.0
 20
-9.0
 30
0.0
 11
40.0
 21
-12.0
 31
0.0
  0
LINE
  5
157
100
AcDbEntity
  8
0
  6
CONTINUOUS
 62
               7
100
AcDbLine
 10
32.0
 20
-9.0
 30
0.0
 11
32.0
 21
-12.0
 31
0.0
  0
LINE
  5
158
100
AcDbEntity
  8
0
  6
CONTINUOUS
 62
               7
100
AcDbLine
 10
32.0
 20
-9.0
 30
0.0
 11
40.0
 21
-9.0
 31
0.0
  0
LINE
  5
159
100
AcDbEntity
  8
0
  6
CONTINUOUS
 62
               7
100
AcDbLine
 10
65.0
 20
-9.0
 30
0.0
 11
65.0
 21
-12.0
 31
0.0
  0
LINE
  5
15A
100
AcDbEntity
  8
0
  6
CONTINUOUS
 62
               7
100
AcDbLine
 10
57.0
 20
-9.0
 30
0.0
 11
65.0
 21
-9.0
 31
0.0
  0
LINE
  5
15B
100
AcDbEntity
  8
0
  6
CONTINUOUS
 62
               7
100
AcDbLine
 10
57.0
 20
-9.0
 30
0.0
 11
57.0
 21
-12.0
 31
0.0
  0
LINE
  5
15C
100
AcDbEntity
  8
0
  6
CONTINUOUS
 62
               2
100
AcDbLine
 10
62.5
 20
-18.0
 30
0.0
 11
68.5
 21
-18.0
 31
0.0
  0
LINE
  5
15D
100
AcDbEntity
  8
0
  6
CONTINUOUS
 62
               2
100
AcDbLine
 10
65.5
 20
-15.0
 30
0.0
 11
65.5
 21
-21.0
 31
0.0
  0
CIRCLE
  5
15E
100
AcDbEntity
  8
0
  6
CONTINUOUS
 62
               7
100
AcDbCircle
 10
72.5
 20
-18.0
 30
0.0
 40
1.6499999999999999
  0
CIRCLE
  5
15F
100
AcDbEntity
  8
0
  6
CONTINUOUS
 62
               2
100
AcDbCircle
 10
72.5
 20
-18.0
 30
0.0
 40
2.0
  0
LINE
  5
160
100
AcDbEntity
  8
0
  6
CONTINUOUS
 62
               2
100
AcDbLine
 10
72.5
 20
-15.0
 30
0.0
 11
72.5
 21
-21.0
 31
0.0
  0
LINE
  5
161
100
AcDbEntity
  8
0
  6
CONTINUOUS
 62
               2
100
AcDbLine
 10
69.5
 20
-18.0
 30
0.0
 11
75.5
 21
-18.0
 31
0.0
  0
CIRCLE
  5
162
100
AcDbEntity
  8
0
  6
CONTINUOUS
 62
               7
100
AcDbCircle
 10
58.5
 20
-18.0
 30
0.0
 40
1.6499999999999999
  0
CIRCLE
  5
163
100
AcDbEntity
  8
0
  6
CONTINUOUS
 62
               2
100
AcDbCircle
 10
58.5
 20
-18.0
 30
0.0
 40
2.0
  0
LINE
  5
164
100
AcDbEntity
  8
0
  6
CONTINUOUS
 62
               2
100
AcDbLine
 10
58.5
 20
-15.0
 30
0.0
 11
58.5
 21
-21.0
 31
0.0
  0
LINE
  5
165
100
AcDbEntity
  8
0
  6
CONTINUOUS
 62
               2
100
AcDbLine
 10
55.5
 20
-18.0
 30
0.0
 11
61.5
 21
-18.0
 31
0.0
  0
LINE
  5
166
100
AcDbEntity
  8
0
  6
CONTINUOUS
 62
               7
100
AcDbLine
 10
20.0
 20
-12.0
 30
0.0
 11
80.0
 21
-12.0
 31
0.0
  0
LINE
  5
167
100
AcDbEntity
  8
0
  6
CONTINUOUS
 62
               7
100
AcDbLine
 10
78.0
 20
-22.5
 30
0.0
 11
78.799999999999955
 21
-22.5
 31
0.0
  0
LINE
  5
168
100
AcDbEntity
  8
0
  6
CONTINUOUS
 62
               7
100
AcDbLine
 10
78.0
 20
-14.5
 30
0.0
 11
78.799999999999955
 21
-14.5
 31
0.0
  0
LINE
  5
169
100
AcDbEntity
  8
0
  6
CONTINUOUS
 62
               7
100
AcDbLine
 10
78.799999999999955
 20
-14.5
 30
0.0
 11
78.799999999999955
 21
-22.499999986528337
 31
0.0
  0
LINE
  5
16A
100
AcDbEntity
  8
0
  6
CONTINUOUS
 62
               7
100
AcDbLine
 10
78.899999999999977
 20
-15.5
 30
0.0
 11
78.799999999999955
 21
-15.5
 31
0.0
  0
ARC
  5
16B
100
AcDbEntity
  8
0
  6
CONTINUOUS
 62
               7
100
AcDbCircle
 10
78.899999999999977
 20
-16.0
 30
0.0
 40
0.5
100
AcDbArc
 50
0.0
 51
90.0
  0
ARC
  5
16C
100
AcDbEntity
  8
0
  6
CONTINUOUS
 62
               7
100
AcDbCircle
 10
78.899999999999977
 20
-18.0
 30
0.0
 40
0.5
100
AcDbArc
 50
270.0
 51
0.0
  0
LINE
  5
16D
100
AcDbEntity
  8
0
  6
CONTINUOUS
 62
               7
100
AcDbLine
 10
78.899999999999977
 20
-18.5
 30
0.0
 11
78.799999999999955
 21
-18.5
 31
0.0
  0
LINE
  5
16E
100
AcDbEntity
  8
0
  6
CONTINUOUS
 62
               7
100
AcDbLine
 10
79.399999999999977
 20
-16.0
 30
0.0
 11
79.399999999999977
 21
-18.0
 31
0.0
  0
LINE
  5
16F
100
AcDbEntity
  8
0
  6
CONTINUOUS
 62
               7
100
AcDbLine
 10
80.0
 20
-18.900000000000006
 30
0.0
 11
78.799999999999955
 21
-18.900000000000006
 31
0.0
  0
CIRCLE
  5
170
100
AcDbEntity
  8
0
  6
CONTINUOUS
 62
               7
100
AcDbCircle
 10
26.5
 20
-6.5
 30
0.0
 40
2.1000000000000001
  0
LINE
  5
171
100
AcDbEntity
  8
0
  6
CONTINUOUS
 62
               2
100
AcDbLine
 10
23.0
 20
-6.5
 30
0.0
 11
30.0
 21
-6.5
 31
0.0
  0
CIRCLE
  5
172
100
AcDbEntity
  8
0
  6
CONTINUOUS
 62
               2
100
AcDbCircle
 10
26.5
 20
-6.5
 30
0.0
 40
2.5
  0
LINE
  5
173
100
AcDbEntity
  8
0
  6
CONTINUOUS
 62
               2
100
AcDbLine
 10
26.5
 20
-3.0
 30
0.0
 11
26.5
 21
-10.0
 31
0.0
  0
LINE
  5
174
100
AcDbEntity
  8
0
  6
CONTINUOUS
 62
               7
100
AcDbLine
 10
14.999999987179194
 20
-22.5
 30
0.0
 11
78.0
 21
-22.5
 31
0.0
  0
CIRCLE
  5
175
100
AcDbEntity
  8
0
  6
CONTINUOUS
 62
               7
100
AcDbCircle
 10
65.5
 20
-18.0
 30
0.0
 40
2.0
  0
LINE
  5
176
100
AcDbEntity
  8
0
  6
CONTINUOUS
 62
               2
100
AcDbLine
 10
36.0
 20
-2.5
 30
0.0
 11
36.0
 21
2.5
 31
0.0
  0
LINE
  5
177
100
AcDbEntity
  8
0
  6
CONTINUOUS
 62
               2
100
AcDbLine
 10
61.0
 20
-2.5
 30
0.0
 11
61.0
 21
2.5
 31
0.0
  0
LINE
  5
178
100
AcDbEntity
  8
0
  6
CONTINUOUS
 62
               2
100
AcDbLine
 10
77.5
 20
-8.0
 30
0.0
 11
82.5
 21
-8.0
 31
0.0
  0
LINE
  5
179
100
AcDbEntity
  8
0
  6
CONTINUOUS
 62
               2
100
AcDbLine
 10
-2.5
 20
-10.0
 30
0.0
 11
2.5
 21
-10.0
 31
0.0
  0
LINE
  5
17A
100
AcDbEntity
  8
0
  6
PHANTOM
 62
               3
100
AcDbLine
 10
53.930325719341567
 20
-13.083766092897861
 30
0.0
 11
43.000000006606456
 21
-13.083766092897861
 31
0.0
  0
LINE
  5
17B
100
AcDbEntity
  8
0
  6
PHANTOM
 62
               3
100
AcDbLine
 10
43.000000006606456
 20
-13.083766092897861
 30
0.0
 11
43.000000006606456
 21
-33.0
 31
0.0
  0
LINE
  5
17C
100
AcDbEntity
  8
0
  6
PHANTOM
 62
               3
100
AcDbLine
 10
53.930325719341567
 20
-13.083766092897861
 30
0.0
 11
53.930325719341567
 21
10.0
 31
0.0
  0
ENDBLK
  5
17D
100
AcDbEntity
  8
0
100
AcDbBlockEnd
  0
BLOCK
  5
17E
100
AcDbEntity
  8
0
100
AcDbBlockBegin
  2
CS-MGA16-5
 70
               0
 10
0.0
 20
0.0
 30
0.0
  3
CS-MGA16-5
  1

  0
LINE
  5
17F
100
AcDbEntity
  8
0
  6
CONTINUOUS
 62
               2
100
AcDbLine
 10
77.5
 20
8.0
 30
0.0
 11
82.5
 21
8.0
 31
0.0
  0
LINE
  5
180
100
AcDbEntity
  8
0
  6
CONTINUOUS
 62
               2
100
AcDbLine
 10
-2.5
 20
10.0
 30
0.0
 11
2.5
 21
10.0
 31
0.0
  0
LINE
  5
181
100
AcDbEntity
  8
0
  6
CONTINUOUS
 62
               2
100
AcDbLine
 10
61.0
 20
-2.5
 30
0.0
 11
61.0
 21
2.5
 31
0.0
  0
LINE
  5
182
100
AcDbEntity
  8
0
  6
CONTINUOUS
 62
               2
100
AcDbLine
 10
36.0
 20
-2.5
 30
0.0
 11
36.0
 21
2.5
 31
0.0
  0
CIRCLE
  5
183
100
AcDbEntity
  8
0
  6
CONTINUOUS
 62
               7
100
AcDbCircle
 10
70.0
 20
5.9999999999999432
 30
0.0
 40
2.1000000000000001
  0
LINE
  5
184
100
AcDbEntity
  8
0
  6
CONTINUOUS
 62
               2
100
AcDbLine
 10
66.5
 20
5.9999999999999432
 30
0.0
 11
73.5
 21
5.9999999999999432
 31
0.0
  0
LINE
  5
185
100
AcDbEntity
  8
0
  6
CONTINUOUS
 62
               2
100
AcDbLine
 10
70.0
 20
2.4999999999999432
 30
0.0
 11
70.0
 21
9.4999999999999432
 31
0.0
  0
CIRCLE
  5
186
100
AcDbEntity
  8
0
  6
CONTINUOUS
 62
               2
100
AcDbCircle
 10
70.0
 20
5.9999999999999432
 30
0.0
 40
2.5
  0
CIRCLE
  5
187
100
AcDbEntity
  8
0
  6
CONTINUOUS
 62
               7
100
AcDbCircle
 10
43.0
 20
5.9999999999999432
 30
0.0
 40
2.1000000000000001
  0
LINE
  5
188
100
AcDbEntity
  8
0
  6
CONTINUOUS
 62
               2
100
AcDbLine
 10
39.5
 20
5.9999999999999432
 30
0.0
 11
46.5
 21
5.9999999999999432
 31
0.0
  0
LINE
  5
189
100
AcDbEntity
  8
0
  6
CONTINUOUS
 62
               2
100
AcDbLine
 10
43.0
 20
2.4999999999999432
 30
0.0
 11
43.0
 21
9.4999999999999432
 31
0.0
  0
CIRCLE
  5
18A
100
AcDbEntity
  8
0
  6
CONTINUOUS
 62
               2
100
AcDbCircle
 10
43.0
 20
5.9999999999999432
 30
0.0
 40
2.5
  0
LINE
  5
18B
100
AcDbEntity
  8
0
  6
CONTINUOUS
 62
               7
100
AcDbLine
 10
31.0
 20
12.0
 30
0.0
 11
31.0
 21
0.0
 31
0.0
  0
LINE
  5
18C
100
AcDbEntity
  8
0
  6
CONTINUOUS
 62
               7
100
AcDbLine
 10
22.0
 20
12.0
 30
0.0
 11
22.0
 21
0.0
 31
0.0
  0
LINE
  5
18D
100
AcDbEntity
  8
0
  6
CONTINUOUS
 62
               7
100
AcDbLine
 10
20.0
 20
14.5
 30
0.0
 11
20.0
 21
0.0
 31
0.0
  0
LINE
  5
18E
100
AcDbEntity
  8
0
  6
CONTINUOUS
 62
               7
100
AcDbLine
 10
78.0
 20
23.0
 30
0.0
 11
78.0
 21
14.5
 31
0.0
  0
LINE
  5
18F
100
AcDbEntity
  8
0
  6
CONTINUOUS
 62
               7
100
AcDbLine
 10
80.0
 20
18.899999999999991
 30
0.0
 11
80.0
 21
0.0
 31
0.0
  0
LINE
  5
190
100
AcDbEntity
  8
0
  6
CONTINUOUS
 62
               7
100
AcDbLine
 10
14.999999987179194
 20
14.5
 30
0.0
 11
78.0
 21
14.5
 31
0.0
  0
LINE
  5
191
100
AcDbEntity
  8
0
  6
CONTINUOUS
 62
               7
100
AcDbLine
 10
20.0
 20
0.0
 30
0.0
 11
80.0
 21
0.0
 31
0.0
  0
LINE
  5
192
100
AcDbEntity
  8
0
  6
CONTINUOUS
 62
               7
100
AcDbLine
 10
14.999999987179194
 20
23.0
 30
0.0
 11
78.0
 21
23.0
 31
0.0
  0
LINE
  5
193
100
AcDbEntity
  8
0
  6
CONTINUOUS
 62
               7
100
AcDbLine
 10
14.999999987179194
 20
14.5
 30
0.0
 11
14.999999987179194
 21
23.0
 31
0.0
  0
LINE
  5
194
100
AcDbEntity
  8
0
  6
CONTINUOUS
 62
               7
100
AcDbLine
 10
40.0
 20
9.0
 30
0.0
 11
40.0
 21
12.0
 31
0.0
  0
LINE
  5
195
100
AcDbEntity
  8
0
  6
CONTINUOUS
 62
               7
100
AcDbLine
 10
32.0
 20
9.0
 30
0.0
 11
32.0
 21
12.0
 31
0.0
  0
LINE
  5
196
100
AcDbEntity
  8
0
  6
CONTINUOUS
 62
               7
100
AcDbLine
 10
32.0
 20
9.0
 30
0.0
 11
40.0
 21
9.0
 31
0.0
  0
LINE
  5
197
100
AcDbEntity
  8
0
  6
CONTINUOUS
 62
               7
100
AcDbLine
 10
65.0
 20
9.0
 30
0.0
 11
65.0
 21
12.0
 31
0.0
  0
LINE
  5
198
100
AcDbEntity
  8
0
  6
CONTINUOUS
 62
               7
100
AcDbLine
 10
57.0
 20
9.0
 30
0.0
 11
65.0
 21
9.0
 31
0.0
  0
LINE
  5
199
100
AcDbEntity
  8
0
  6
CONTINUOUS
 62
               7
100
AcDbLine
 10
57.0
 20
9.0
 30
0.0
 11
57.0
 21
12.0
 31
0.0
  0
LINE
  5
19A
100
AcDbEntity
  8
0
  6
CONTINUOUS
 62
               2
100
AcDbLine
 10
62.5
 20
17.999999999999986
 30
0.0
 11
68.5
 21
17.999999999999986
 31
0.0
  0
LINE
  5
19B
100
AcDbEntity
  8
0
  6
CONTINUOUS
 62
               2
100
AcDbLine
 10
65.5
 20
14.999999999999986
 30
0.0
 11
65.5
 21
20.999999999999986
 31
0.0
  0
CIRCLE
  5
19C
100
AcDbEntity
  8
0
  6
CONTINUOUS
 62
               7
100
AcDbCircle
 10
72.5
 20
17.999999999999986
 30
0.0
 40
1.6499999999999999
  0
CIRCLE
  5
19D
100
AcDbEntity
  8
0
  6
CONTINUOUS
 62
               2
100
AcDbCircle
 10
72.5
 20
17.999999999999986
 30
0.0
 40
2.0
  0
LINE
  5
19E
100
AcDbEntity
  8
0
  6
CONTINUOUS
 62
               2
100
AcDbLine
 10
72.5
 20
14.999999999999986
 30
0.0
 11
72.5
 21
20.999999999999986
 31
0.0
  0
LINE
  5
19F
100
AcDbEntity
  8
0
  6
CONTINUOUS
 62
               2
100
AcDbLine
 10
69.5
 20
17.999999999999986
 30
0.0
 11
75.5
 21
17.999999999999986
 31
0.0
  0
CIRCLE
  5
1A0
100
AcDbEntity
  8
0
  6
CONTINUOUS
 62
               7
100
AcDbCircle
 10
58.5
 20
17.999999999999986
 30
0.0
 40
1.6499999999999999
  0
CIRCLE
  5
1A1
100
AcDbEntity
  8
0
  6
CONTINUOUS
 62
               2
100
AcDbCircle
 10
58.5
 20
17.999999999999986
 30
0.0
 40
2.0
  0
LINE
  5
1A2
100
AcDbEntity
  8
0
  6
CONTINUOUS
 62
               2
100
AcDbLine
 10
58.5
 20
14.999999999999986
 30
0.0
 11
58.5
 21
20.999999999999986
 31
0.0
  0
LINE
  5
1A3
100
AcDbEntity
  8
0
  6
CONTINUOUS
 62
               2
100
AcDbLine
 10
55.5
 20
17.999999999999986
 30
0.0
 11
61.5
 21
17.999999999999986
 31
0.0
  0
LINE
  5
1A4
100
AcDbEntity
  8
0
  6
CONTINUOUS
 62
               7
100
AcDbLine
 10
20.0
 20
12.0
 30
0.0
 11
80.0
 21
12.0
 31
0.0
  0
LINE
  5
1A5
100
AcDbEntity
  8
0
  6
CONTINUOUS
 62
               7
100
AcDbLine
 10
78.0
 20
22.5
 30
0.0
 11
78.799999999999955
 21
22.5
 31
0.0
  0
LINE
  5
1A6
100
AcDbEntity
  8
0
  6
CONTINUOUS
 62
               7
100
AcDbLine
 10
78.0
 20
14.5
 30
0.0
 11
78.799999999999955
 21
14.5
 31
0.0
  0
LINE
  5
1A7
100
AcDbEntity
  8
0
  6
CONTINUOUS
 62
               7
100
AcDbLine
 10
78.799999999999955
 20
14.5
 30
0.0
 11
78.799999999999955
 21
22.499999986528309
 31
0.0
  0
LINE
  5
1A8
100
AcDbEntity
  8
0
  6
CONTINUOUS
 62
               7
100
AcDbLine
 10
78.899999999999977
 20
15.499999999999986
 30
0.0
 11
78.799999999999955
 21
15.499999999999986
 31
0.0
  0
ARC
  5
1A9
100
AcDbEntity
  8
0
  6
CONTINUOUS
 62
               7
100
AcDbCircle
 10
78.899999999999977
 20
15.999999999999986
 30
0.0
 40
0.5
100
AcDbArc
 50
270.0
 51
0.0
  0
ARC
  5
1AA
100
AcDbEntity
  8
0
  6
CONTINUOUS
 62
               7
100
AcDbCircle
 10
78.899999999999977
 20
17.999999999999986
 30
0.0
 40
0.5
100
AcDbArc
 50
0.0
 51
90.0
  0
LINE
  5
1AB
100
AcDbEntity
  8
0
  6
CONTINUOUS
 62
               7
100
AcDbLine
 10
78.899999999999977
 20
18.499999999999986
 30
0.0
 11
78.799999999999955
 21
18.499999999999986
 31
0.0
  0
LINE
  5
1AC
100
AcDbEntity
  8
0
  6
CONTINUOUS
 62
               7
100
AcDbLine
 10
79.399999999999977
 20
15.999999999999986
 30
0.0
 11
79.399999999999977
 21
17.999999999999986
 31
0.0
  0
LINE
  5
1AD
100
AcDbEntity
  8
0
  6
CONTINUOUS
 62
               7
100
AcDbLine
 10
80.0
 20
18.899999999999991
 30
0.0
 11
78.799999999999955
 21
18.899999999999991
 31
0.0
  0
CIRCLE
  5
1AE
100
AcDbEntity
  8
0
  6
CONTINUOUS
 62
               7
100
AcDbCircle
 10
26.5
 20
6.5
 30
0.0
 40
2.1000000000000001
  0
LINE
  5
1AF
100
AcDbEntity
  8
0
  6
CONTINUOUS
 62
               2
100
AcDbLine
 10
23.0
 20
6.5
 30
0.0
 11
30.0
 21
6.5
 31
0.0
  0
CIRCLE
  5
1B0
100
AcDbEntity
  8
0
  6
CONTINUOUS
 62
               2
100
AcDbCircle
 10
26.5
 20
6.5
 30
0.0
 40
2.5
  0
LINE
  5
1B1
100
AcDbEntity
  8
0
  6
CONTINUOUS
 62
               2
100
AcDbLine
 10
26.5
 20
3.0
 30
0.0
 11
26.5
 21
10.0
 31
0.0
  0
LINE
  5
1B2
100
AcDbEntity
  8
0
  6
CONTINUOUS
 62
               7
100
AcDbLine
 10
14.999999987179194
 20
22.299999999999997
 30
0.0
 11
0.0
 21
22.299999999999997
 31
0.0
  0
LINE
  5
1B3
100
AcDbEntity
  8
0
  6
CONTINUOUS
 62
               7
100
AcDbLine
 10
14.999999987179194
 20
22.5
 30
0.0
 11
78.0
 21
22.5
 31
0.0
  0
CIRCLE
  5
1B4
100
AcDbEntity
  8
0
  6
CONTINUOUS
 62
               7
100
AcDbCircle
 10
65.5
 20
17.999999999999986
 30
0.0
 40
2.0
  0
CIRCLE
  5
1B5
100
AcDbEntity
  8
0
  6
CONTINUOUS
 62
               2
100
AcDbCircle
 10
65.0
 20
4.4999999999999716
 30
0.0
 40
1.25
  0
CIRCLE
  5
1B6
100
AcDbEntity
  8
0
  6
CONTINUOUS
 62
               7
100
AcDbCircle
 10
65.0
 20
4.4999999999999716
 30
0.0
 40
1.05
  0
LINE
  5
1B7
100
AcDbEntity
  8
0
  6
CONTINUOUS
 62
               2
100
AcDbLine
 10
65.0
 20
6.5499999999999687
 30
0.0
 11
65.0
 21
2.4499999999999744
 31
0.0
  0
LINE
  5
1B8
100
AcDbEntity
  8
0
  6
CONTINUOUS
 62
               2
100
AcDbLine
 10
62.949999999999932
 20
4.4999999999999716
 30
0.0
 11
67.049999999999955
 21
4.4999999999999716
 31
0.0
  0
CIRCLE
  5
1B9
100
AcDbEntity
  8
0
  6
CONTINUOUS
 62
               2
100
AcDbCircle
 10
49.0
 20
4.4999999999999716
 30
0.0
 40
1.25
  0
CIRCLE
  5
1BA
100
AcDbEntity
  8
0
  6
CONTINUOUS
 62
               7
100
AcDbCircle
 10
49.0
 20
4.4999999999999716
 30
0.0
 40
1.05
  0
LINE
  5
1BB
100
AcDbEntity
  8
0
  6
CONTINUOUS
 62
               2
100
AcDbLine
 10
49.0
 20
6.5499999999999687
 30
0.0
 11
49.0
 21
2.4499999999999744
 31
0.0
  0
LINE
  5
1BC
100
AcDbEntity
  8
0
  6
CONTINUOUS
 62
               2
100
AcDbLine
 10
46.949999999999932
 20
4.4999999999999716
 30
0.0
 11
51.049999999999955
 21
4.4999999999999716
 31
0.0
  0
CIRCLE
  5
1BD
100
AcDbEntity
  8
0
  6
CONTINUOUS
 62
               7
100
AcDbCircle
 10
76.0
 20
16.499999999999986
 30
0.0
 40
0.8
  0
CIRCLE
  5
1BE
100
AcDbEntity
  8
0
  6
CONTINUOUS
 62
               2
100
AcDbCircle
 10
76.0
 20
16.499999999999986
 30
0.0
 40
1.0
  0
LINE
  5
1BF
100
AcDbEntity
  8
0
  6
CONTINUOUS
 62
               2
100
AcDbLine
 10
74.199999999999932
 20
16.499999999999986
 30
0.0
 11
77.799999999999955
 21
16.499999999999986
 31
0.0
  0
LINE
  5
1C0
100
AcDbEntity
  8
0
  6
CONTINUOUS
 62
               2
100
AcDbLine
 10
76.0
 20
18.299999999999983
 30
0.0
 11
76.0
 21
14.699999999999989
 31
0.0
  0
CIRCLE
  5
1C1
100
AcDbEntity
  8
0
  6
CONTINUOUS
 62
               7
100
AcDbCircle
 10
62.0
 20
16.499999999999986
 30
0.0
 40
0.8
  0
CIRCLE
  5
1C2
100
AcDbEntity
  8
0
  6
CONTINUOUS
 62
               2
100
AcDbCircle
 10
62.0
 20
16.499999999999986
 30
0.0
 40
1.0
  0
LINE
  5
1C3
100
AcDbEntity
  8
0
  6
CONTINUOUS
 62
               2
100
AcDbLine
 10
60.199999999999932
 20
16.499999999999986
 30
0.0
 11
63.799999999999955
 21
16.499999999999986
 31
0.0
  0
LINE
  5
1C4
100
AcDbEntity
  8
0
  6
CONTINUOUS
 62
               2
100
AcDbLine
 10
62.0
 20
18.299999999999983
 30
0.0
 11
62.0
 21
14.699999999999989
 31
0.0
  0
CIRCLE
  5
1C5
100
AcDbEntity
  8
0
  6
CONTINUOUS
 62
               7
100
AcDbCircle
 10
48.5
 20
17.999999999999986
 30
0.0
 40
1.6499999999999999
  0
CIRCLE
  5
1C6
100
AcDbEntity
  8
0
  6
CONTINUOUS
 62
               2
100
AcDbCircle
 10
48.5
 20
17.999999999999986
 30
0.0
 40
2.0
  0
LINE
  5
1C7
100
AcDbEntity
  8
0
  6
CONTINUOUS
 62
               2
100
AcDbLine
 10
48.5
 20
14.999999999999986
 30
0.0
 11
48.5
 21
20.999999999999986
 31
0.0
  0
LINE
  5
1C8
100
AcDbEntity
  8
0
  6
CONTINUOUS
 62
               2
100
AcDbLine
 10
45.5
 20
17.999999999999986
 30
0.0
 11
51.5
 21
17.999999999999986
 31
0.0
  0
LINE
  5
1C9
100
AcDbEntity
  8
0
  6
CONTINUOUS
 62
               2
100
AcDbLine
 10
5.0
 20
9.4999999999999716
 30
0.0
 11
21.213298307512446
 21
9.4999999999999716
 31
0.0
  0
LINE
  5
1CA
100
AcDbEntity
  8
0
  6
CONTINUOUS
 62
               7
100
AcDbLine
 10
12.0
 20
12.5
 30
0.0
 11
20.0
 21
12.5
 31
0.0
  0
LINE
  5
1CB
100
AcDbEntity
  8
0
  6
CONTINUOUS
 62
               2
100
AcDbLine
 10
12.5
 20
5.9999999999999147
 30
0.0
 11
19.5
 21
5.9999999999999147
 31
0.0
  0
LINE
  5
1CC
100
AcDbEntity
  8
0
  6
CONTINUOUS
 62
               7
100
AcDbLine
 10
20.0
 20
0.2000000000000028
 30
0.0
 11
12.0
 21
0.2000000000000028
 31
0.0
  0
LINE
  5
1CD
100
AcDbEntity
  8
0
  6
CONTINUOUS
 62
               7
100
AcDbLine
 10
13.0
 20
12.499999999999929
 30
0.0
 11
13.0
 21
13.5
 31
0.0
  0
LINE
  5
1CE
100
AcDbEntity
  8
0
  6
CONTINUOUS
 62
               7
100
AcDbLine
 10
15.999999987179194
 20
13.5
 30
0.0
 11
15.999999987179194
 21
14.5
 31
0.0
  0
LINE
  5
1CF
100
AcDbEntity
  8
0
  6
CONTINUOUS
 62
               7
100
AcDbLine
 10
8.0
 20
13.5
 30
0.0
 11
15.999999987179194
 21
13.5
 31
0.0
  0
LINE
  5
1D0
100
AcDbEntity
  8
0
  6
CONTINUOUS
 62
               7
100
AcDbLine
 10
0.0
 20
22.799999999999997
 30
0.0
 11
0.0
 21
1.4999999999999858
 31
0.0
  0
LINE
  5
1D1
100
AcDbEntity
  8
0
  6
CONTINUOUS
 62
               7
100
AcDbLine
 10
0.0
 20
22.799999999999997
 30
0.0
 11
14.999999987179194
 21
22.799999999999997
 31
0.0
  0
LINE
  5
1D2
100
AcDbEntity
  8
0
  6
CONTINUOUS
 62
               7
100
AcDbLine
 10
8.0
 20
1.4999999999999858
 30
0.0
 11
8.0
 21
13.5
 31
0.0
  0
LINE
  5
1D3
100
AcDbEntity
  8
0
  6
CONTINUOUS
 62
               7
100
AcDbLine
 10
7.9999999871791942
 20
1.4999999999999858
 30
0.0
 11
0.0
 21
1.4999999999999858
 31
0.0
  0
LINE
  5
1D4
100
AcDbEntity
  8
0
  6
CONTINUOUS
 62
               7
100
AcDbLine
 10
12.0
 20
0.2000000000000028
 30
0.0
 11
12.0
 21
13.5
 31
0.0
  0
CIRCLE
  5
1D5
100
AcDbEntity
  8
0
  6
CONTINUOUS
 62
               2
100
AcDbCircle
 10
16.0
 20
5.9999999999999147
 30
0.0
 40
2.5
  0
CIRCLE
  5
1D6
100
AcDbEntity
  8
0
  6
CONTINUOUS
 62
               7
100
AcDbCircle
 10
16.0
 20
5.9999999999999147
 30
0.0
 40
2.1000000000000001
  0
LINE
  5
1D7
100
AcDbEntity
  8
0
  6
CONTINUOUS
 62
               2
100
AcDbLine
 10
16.0
 20
2.4999999999999147
 30
0.0
 11
16.0
 21
9.4999999999999147
 31
0.0
  0
LINE
  5
1D8
100
AcDbEntity
  8
0
  6
CONTINUOUS
 62
               7
100
AcDbLine
 10
10.199999999999932
 20
11.497498435543775
 30
0.0
 11
12.0
 21
11.497498435543775
 31
0.0
  0
LINE
  5
1D9
100
AcDbEntity
  8
0
  6
CONTINUOUS
 62
               7
100
AcDbLine
 10
8.0
 20
13.241657386773909
 30
0.0
 11
10.199999999999932
 21
13.241657386773909
 31
0.0
  0
LINE
  5
1DA
100
AcDbEntity
  8
0
  6
CONTINUOUS
 62
               7
100
AcDbLine
 10
10.199999999999932
 20
11.497498435543775
 30
0.0
 11
10.199999999999932
 21
13.5
 31
0.0
  0
LINE
  5
1DB
100
AcDbEntity
  8
0
  6
CONTINUOUS
 62
               2
100
AcDbLine
 10
10.199999999999932
 20
13.241657386773909
 30
0.0
 11
8.0
 21
5.7583426132260342
 31
0.0
  0
LINE
  5
1DC
100
AcDbEntity
  8
0
  6
CONTINUOUS
 62
               2
100
AcDbLine
 10
10.199999999999932
 20
5.7583426132260342
 30
0.0
 11
8.0
 21
13.241657386773909
 31
0.0
  0
LINE
  5
1DD
100
AcDbEntity
  8
0
  6
CONTINUOUS
 62
               7
100
AcDbLine
 10
10.199999999999932
 20
1.9999999999999716
 30
0.0
 11
10.199999999999932
 21
7.5025015644561677
 31
0.0
  0
LINE
  5
1DE
100
AcDbEntity
  8
0
  6
CONTINUOUS
 62
               7
100
AcDbLine
 10
10.199999999999932
 20
7.5025015644561677
 30
0.0
 11
12.0
 21
7.5025015644561677
 31
0.0
  0
LINE
  5
1DF
100
AcDbEntity
  8
0
  6
CONTINUOUS
 62
               7
100
AcDbLine
 10
8.0
 20
1.9999999999999716
 30
0.0
 11
10.199999999999932
 21
1.9999999999999716
 31
0.0
  0
LINE
  5
1E0
100
AcDbEntity
  8
0
  6
CONTINUOUS
 62
               7
100
AcDbLine
 10
10.199999999999932
 20
2.6999999999999744
 30
0.0
 11
12.0
 21
2.6999999999999744
 31
0.0
  0
LINE
  5
1E1
100
AcDbEntity
  8
0
  6
CONTINUOUS
 62
               7
100
AcDbLine
 10
8.0
 20
5.7583426132260342
 30
0.0
 11
10.199999999999932
 21
5.7583426132260342
 31
0.0
  0
LINE
  5
1E2
100
AcDbEntity
  8
0
  6
CONTINUOUS
 62
               7
100
AcDbLine
 10
20.0
 20
14.0
 30
0.0
 11
80.0
 21
14.0
 31
0.0
  0
LINE
  5
1E3
100
AcDbEntity
  8
0
  6
PHANTOM
 62
               3
100
AcDbLine
 10
53.930325719341567
 20
13.083766092897847
 30
0.0
 11
43.000000006606456
 21
13.083766092897847
 31
0.0
  0
LINE
  5
1E4
100
AcDbEntity
  8
0
  6
PHANTOM
 62
               3
100
AcDbLine
 10
53.930325719341567
 20
13.083766092897847
 30
0.0
 11
53.930325719341567
 21
-10.000000000000014
 31
0.0
  0
LINE
  5
1E5
100
AcDbEntity
  8
0
  6
PHANTOM
 62
               3
100
AcDbLine
 10
43.000000006606456
 20
13.083766092897847
 30
0.0
 11
43.000000006606456
 21
32.999999999999986
 31
0.0
  0
ENDBLK
  5
1E6
100
AcDbEntity
  8
0
100
AcDbBlockEnd
  0
BLOCK
  5
1E7
100
AcDbEntity
  8
0
100
AcDbBlockBegin
  2
CS-MGA16-6
 70
               0
 10
0.0
 20
0.0
 30
0.0
  3
CS-MGA16-6
  1

  0
LINE
  5
1E8
100
AcDbEntity
  8
0
  6
CONTINUOUS
 62
               2
100
AcDbLine
 10
77.5
 20
-14.0
 30
0.0
 11
82.5
 21
-14.0
 31
0.0
  0
LINE
  5
1E9
100
AcDbEntity
  8
0
  6
CONTINUOUS
 62
               2
100
AcDbLine
 10
77.5
 20
13.999999999999993
 30
0.0
 11
82.5
 21
13.999999999999993
 31
0.0
  0
LINE
  5
1EA
100
AcDbEntity
  8
0
  6
CONTINUOUS
 62
               2
100
AcDbLine
 10
-2.5
 20
-14.0
 30
0.0
 11
2.5
 21
-14.0
 31
0.0
  0
LINE
  5
1EB
100
AcDbEntity
  8
0
  6
CONTINUOUS
 62
               2
100
AcDbLine
 10
-2.5
 20
13.999999999999993
 30
0.0
 11
2.5
 21
13.999999999999993
 31
0.0
  0
ARC
  5
1EC
100
AcDbEntity
  8
0
  6
CONTINUOUS
 62
               7
100
AcDbCircle
 10
51.0
 20
16.0
 30
0.0
 40
2.0
100
AcDbArc
 50
0.0
 51
180.0
  0
ARC
  5
1ED
100
AcDbEntity
  8
0
  6
CONTINUOUS
 62
               7
100
AcDbCircle
 10
51.0
 20
15.0
 30
0.0
 40
2.0
100
AcDbArc
 50
180.0
 51
0.0
  0
LINE
  5
1EE
100
AcDbEntity
  8
0
  6
CONTINUOUS
 62
               7
100
AcDbLine
 10
53.0
 20
16.000000012820692
 30
0.0
 11
53.0
 21
15.000000012820692
 31
0.0
  0
LINE
  5
1EF
100
AcDbEntity
  8
0
  6
CONTINUOUS
 62
               7
100
AcDbLine
 10
49.0
 20
16.0
 30
0.0
 11
49.0
 21
15.0
 31
0.0
  0
LINE
  5
1F0
100
AcDbEntity
  8
0
  6
CONTINUOUS
 62
               2
100
AcDbLine
 10
54.0
 20
15.5
 30
0.0
 11
48.0
 21
15.5
 31
0.0
  0
LINE
  5
1F1
100
AcDbEntity
  8
0
  6
CONTINUOUS
 62
               2
100
AcDbLine
 10
51.0
 20
19.0
 30
0.0
 11
51.0
 21
12.0
 31
0.0
  0
LINE
  5
1F2
100
AcDbEntity
  8
0
  6
CONTINUOUS
 62
               2
100
AcDbLine
 10
51.0
 20
-18.5
 30
0.0
 11
51.0
 21
-12.5
 31
0.0
  0
CIRCLE
  5
1F3
100
AcDbEntity
  8
0
  6
CONTINUOUS
 62
               7
100
AcDbCircle
 10
51.0
 20
-15.5
 30
0.0
 40
2.0
  0
LINE
  5
1F4
100
AcDbEntity
  8
0
  6
CONTINUOUS
 62
               2
100
AcDbLine
 10
54.0
 20
-15.5
 30
0.0
 11
48.0
 21
-15.5
 31
0.0
  0
LINE
  5
1F5
100
AcDbEntity
  8
0
  6
CONTINUOUS
 62
               2
100
AcDbLine
 10
57.5
 20
-15.5
 30
0.0
 11
64.5
 21
-15.5
 31
0.0
  0
LINE
  5
1F6
100
AcDbEntity
  8
0
  6
CONTINUOUS
 62
               2
100
AcDbLine
 10
61.0
 20
-12.0
 30
0.0
 11
61.0
 21
-19.0
 31
0.0
  0
LINE
  5
1F7
100
AcDbEntity
  8
0
  6
CONTINUOUS
 62
               2
100
AcDbLine
 10
32.5
 20
-15.5
 30
0.0
 11
39.5
 21
-15.5
 31
0.0
  0
LINE
  5
1F8
100
AcDbEntity
  8
0
  6
CONTINUOUS
 62
               2
100
AcDbLine
 10
36.0
 20
-12.0
 30
0.0
 11
36.0
 21
-19.0
 31
0.0
  0
LINE
  5
1F9
100
AcDbEntity
  8
0
  6
CONTINUOUS
 62
               2
100
AcDbLine
 10
32.5
 20
15.5
 30
0.0
 11
39.5
 21
15.5
 31
0.0
  0
LINE
  5
1FA
100
AcDbEntity
  8
0
  6
CONTINUOUS
 62
               2
100
AcDbLine
 10
36.0
 20
19.0
 30
0.0
 11
36.0
 21
12.0
 31
0.0
  0
LINE
  5
1FB
100
AcDbEntity
  8
0
  6
CONTINUOUS
 62
               7
100
AcDbLine
 10
22.0
 20
-19.5
 30
0.0
 11
22.0
 21
-17.5
 31
0.0
  0
LINE
  5
1FC
100
AcDbEntity
  8
0
  6
CONTINUOUS
 62
               7
100
AcDbLine
 10
20.0
 20
19.5
 30
0.0
 11
20.0
 21
-19.5
 31
0.0
  0
LINE
  5
1FD
100
AcDbEntity
  8
0
  6
CONTINUOUS
 62
               7
100
AcDbLine
 10
21.999999987179194
 20
-17.5
 30
0.0
 11
31.0
 21
-17.5
 31
0.0
  0
LINE
  5
1FE
100
AcDbEntity
  8
0
  6
CONTINUOUS
 62
               7
100
AcDbLine
 10
31.0
 20
-19.5
 30
0.0
 11
31.0
 21
-17.5
 31
0.0
  0
CIRCLE
  5
1FF
100
AcDbEntity
  8
0
  6
CONTINUOUS
 62
               2
100
AcDbCircle
 10
36.0
 20
-15.5
 30
0.0
 40
2.5
  0
CIRCLE
  5
200
100
AcDbEntity
  8
0
  6
CONTINUOUS
 62
               7
100
AcDbCircle
 10
36.0
 20
-15.5
 30
0.0
 40
2.1000000000000001
  0
CIRCLE
  5
201
100
AcDbEntity
  8
0
  6
CONTINUOUS
 62
               2
100
AcDbCircle
 10
61.0
 20
-15.5
 30
0.0
 40
2.5
  0
CIRCLE
  5
202
100
AcDbEntity
  8
0
  6
CONTINUOUS
 62
               7
100
AcDbCircle
 10
61.0
 20
-15.5
 30
0.0
 40
2.1000000000000001
  0
CIRCLE
  5
203
100
AcDbEntity
  8
0
  6
CONTINUOUS
 62
               7
100
AcDbCircle
 10
61.0
 20
15.5
 30
0.0
 40
2.1000000000000001
  0
CIRCLE
  5
204
100
AcDbEntity
  8
0
  6
CONTINUOUS
 62
               2
100
AcDbCircle
 10
61.0
 20
15.5
 30
0.0
 40
2.5
  0
LINE
  5
205
100
AcDbEntity
  8
0
  6
CONTINUOUS
 62
               2
100
AcDbLine
 10
57.5
 20
15.5
 30
0.0
 11
64.5
 21
15.5
 31
0.0
  0
LINE
  5
206
100
AcDbEntity
  8
0
  6
CONTINUOUS
 62
               2
100
AcDbLine
 10
61.0
 20
19.0
 30
0.0
 11
61.0
 21
12.0
 31
0.0
  0
CIRCLE
  5
207
100
AcDbEntity
  8
0
  6
CONTINUOUS
 62
               7
100
AcDbCircle
 10
36.0
 20
15.5
 30
0.0
 40
2.1000000000000001
  0
CIRCLE
  5
208
100
AcDbEntity
  8
0
  6
CONTINUOUS
 62
               2
100
AcDbCircle
 10
36.0
 20
15.5
 30
0.0
 40
2.5
  0
LINE
  5
209
100
AcDbEntity
  8
0
  6
CONTINUOUS
 62
               7
100
AcDbLine
 10
31.0
 20
19.5
 30
0.0
 11
80.0
 21
19.5
 31
0.0
  0
LINE
  5
20A
100
AcDbEntity
  8
0
  6
CONTINUOUS
 62
               7
100
AcDbLine
 10
21.999999987179194
 20
17.5
 30
0.0
 11
31.0
 21
17.5
 31
0.0
  0
LINE
  5
20B
100
AcDbEntity
  8
0
  6
CONTINUOUS
 62
               7
100
AcDbLine
 10
31.0
 20
19.5
 30
0.0
 11
31.0
 21
17.5
 31
0.0
  0
LINE
  5
20C
100
AcDbEntity
  8
0
  6
CONTINUOUS
 62
               7
100
AcDbLine
 10
22.0
 20
19.5
 30
0.0
 11
22.0
 21
17.5
 31
0.0
  0
LINE
  5
20D
100
AcDbEntity
  8
0
  6
CONTINUOUS
 62
               7
100
AcDbLine
 10
20.0
 20
19.5
 30
0.0
 11
22.0
 21
19.5
 31
0.0
  0
LINE
  5
20E
100
AcDbEntity
  8
0
  6
CONTINUOUS
 62
               7
100
AcDbLine
 10
80.0
 20
19.5
 30
0.0
 11
80.0
 21
-19.5
 31
0.0
  0
LINE
  5
20F
100
AcDbEntity
  8
0
  6
CENTER
 62
               2
100
AcDbLine
 10
-3.5964301101943192
 20
0.0
 30
0.0
 11
81.821186235216487
 21
0.0
 31
0.0
  0
LINE
  5
210
100
AcDbEntity
  8
0
  6
CONTINUOUS
 62
               7
100
AcDbLine
 10
31.0
 20
-19.5
 30
0.0
 11
80.0
 21
-19.5
 31
0.0
  0
LINE
  5
211
100
AcDbEntity
  8
0
  6
CONTINUOUS
 62
               7
100
AcDbLine
 10
20.0
 20
-19.5
 30
0.0
 11
22.0
 21
-19.5
 31
0.0
  0
LINE
  5
212
100
AcDbEntity
  8
0
  6
CONTINUOUS
 62
               7
100
AcDbLine
 10
7.9999999871791942
 20
-19.999999988079338
 30
0.0
 11
7.9999999871791942
 21
20.000000011920662
 31
0.0
  0
LINE
  5
213
100
AcDbEntity
  8
0
  6
CONTINUOUS
 62
               7
100
AcDbLine
 10
0.0
 20
-19.999999988079338
 30
0.0
 11
0.0
 21
20.000000011920662
 31
0.0
  0
LINE
  5
214
100
AcDbEntity
  8
0
  6
CONTINUOUS
 62
               7
100
AcDbLine
 10
0.0
 20
20.0
 30
0.0
 11
78.0
 21
20.0
 31
0.0
  0
LINE
  5
215
100
AcDbEntity
  8
0
  6
CONTINUOUS
 62
               7
100
AcDbLine
 10
0.0
 20
-20.0
 30
0.0
 11
78.0
 21
-20.0
 31
0.0
  0
LINE
  5
216
100
AcDbEntity
  8
0
  6
CONTINUOUS
 62
               7
100
AcDbLine
 10
78.0
 20
-19.999999988079338
 30
0.0
 11
78.0
 21
-19.5
 31
0.0
  0
LINE
  5
217
100
AcDbEntity
  8
0
  6
CONTINUOUS
 62
               7
100
AcDbLine
 10
78.0
 20
19.5
 30
0.0
 11
78.0
 21
20.000000011920662
 31
0.0
  0
LINE
  5
218
100
AcDbEntity
  8
0
  6
CONTINUOUS
 62
               7
100
AcDbLine
 10
20.0
 20
10.799999999999983
 30
0.0
 11
80.0
 21
10.799999999999983
 31
0.0
  0
LINE
  5
219
100
AcDbEntity
  8
0
  6
CONTINUOUS
 62
               7
100
AcDbLine
 10
20.0
 20
10.5
 30
0.0
 11
80.0
 21
10.5
 31
0.0
  0
LINE
  5
21A
100
AcDbEntity
  8
0
  6
CONTINUOUS
 62
               7
100
AcDbLine
 10
20.0
 20
4.5
 30
0.0
 11
80.0
 21
4.5
 31
0.0
  0
LINE
  5
21B
100
AcDbEntity
  8
0
  6
CONTINUOUS
 62
               7
100
AcDbLine
 10
20.0
 20
4.2000000000000171
 30
0.0
 11
80.0
 21
4.2000000000000171
 31
0.0
  0
LINE
  5
21C
100
AcDbEntity
  8
0
  6
CONTINUOUS
 62
               7
100
AcDbLine
 10
20.0
 20
-4.2000000000000171
 30
0.0
 11
80.0
 21
-4.2000000000000171
 31
0.0
  0
LINE
  5
21D
100
AcDbEntity
  8
0
  6
CONTINUOUS
 62
               7
100
AcDbLine
 10
20.0
 20
-4.5
 30
0.0
 11
80.0
 21
-4.5
 31
0.0
  0
LINE
  5
21E
100
AcDbEntity
  8
0
  6
CONTINUOUS
 62
               7
100
AcDbLine
 10
20.0
 20
-10.5
 30
0.0
 11
80.0
 21
-10.5
 31
0.0
  0
LINE
  5
21F
100
AcDbEntity
  8
0
  6
CONTINUOUS
 62
               7
100
AcDbLine
 10
20.0
 20
-10.799999999999983
 30
0.0
 11
80.0
 21
-10.799999999999983
 31
0.0
  0
LINE
  5
220
100
AcDbEntity
  8
0
  6
CONTINUOUS
 62
               7
100
AcDbLine
 10
0.5
 20
7.0
 30
0.0
 11
4.0
 21
7.0
 31
0.0
  0
LINE
  5
221
100
AcDbEntity
  8
0
  6
CONTINUOUS
 62
               7
100
AcDbLine
 10
0.5
 20
-7.0
 30
0.0
 11
0.5
 21
7.0
 31
0.0
  0
LINE
  5
222
100
AcDbEntity
  8
0
  6
CONTINUOUS
 62
               7
100
AcDbLine
 10
0.5
 20
-7.0
 30
0.0
 11
4.0
 21
-7.0
 31
0.0
  0
LINE
  5
223
100
AcDbEntity
  8
0
  6
CONTINUOUS
 62
               7
100
AcDbLine
 10
4.0
 20
-8.0
 30
0.0
 11
4.0
 21
8.0
 31
0.0
  0
LINE
  5
224
100
AcDbEntity
  8
0
  6
CONTINUOUS
 62
               7
100
AcDbLine
 10
4.0
 20
4.0
 30
0.0
 11
7.9999999871791942
 21
4.0
 31
0.0
  0
LINE
  5
225
100
AcDbEntity
  8
0
  6
CONTINUOUS
 62
               7
100
AcDbLine
 10
4.0
 20
-3.9999999999999716
 30
0.0
 11
7.9999999871791942
 21
-3.9999999999999716
 31
0.0
  0
LINE
  5
226
100
AcDbEntity
  8
0
  6
CONTINUOUS
 62
               7
100
AcDbLine
 10
8.0
 20
6.5
 30
0.0
 11
12.0
 21
6.5
 31
0.0
  0
LINE
  5
227
100
AcDbEntity
  8
0
  6
CONTINUOUS
 62
               7
100
AcDbLine
 10
8.0
 20
-6.5
 30
0.0
 11
12.0
 21
-6.5
 31
0.0
  0
LINE
  5
228
100
AcDbEntity
  8
0
  6
CONTINUOUS
 62
               7
100
AcDbLine
 10
10.199999999999932
 20
-6.5
 30
0.0
 11
10.199999999999932
 21
6.5
 31
0.0
  0
LINE
  5
229
100
AcDbEntity
  8
0
  6
CONTINUOUS
 62
               7
100
AcDbLine
 10
4.0
 20
4.4000000000000057
 30
0.0
 11
7.9999999871791942
 21
4.4000000000000057
 31
0.0
  0
LINE
  5
22A
100
AcDbEntity
  8
0
  6
CONTINUOUS
 62
               7
100
AcDbLine
 10
4.0
 20
-4.4000000000000057
 30
0.0
 11
7.9999999871791942
 21
-4.4000000000000057
 31
0.0
  0
LINE
  5
22B
100
AcDbEntity
  8
0
  6
CONTINUOUS
 62
               7
100
AcDbLine
 10
0.0
 20
8.0
 30
0.0
 11
4.0
 21
8.0
 31
0.0
  0
LINE
  5
22C
100
AcDbEntity
  8
0
  6
CONTINUOUS
 62
               7
100
AcDbLine
 10
0.0
 20
-8.0
 30
0.0
 11
4.0
 21
-8.0
 31
0.0
  0
LINE
  5
22D
100
AcDbEntity
  8
0
  6
CONTINUOUS
 62
               7
100
AcDbLine
 10
12.0
 20
19.299999999999997
 30
0.0
 11
12.0
 21
-19.299999999999983
 31
0.0
  0
LINE
  5
22E
100
AcDbEntity
  8
0
  6
CONTINUOUS
 62
               7
100
AcDbLine
 10
12.0
 20
19.299999999999997
 30
0.0
 11
20.0
 21
19.299999999999997
 31
0.0
  0
LINE
  5
22F
100
AcDbEntity
  8
0
  6
CONTINUOUS
 62
               7
100
AcDbLine
 10
12.0
 20
-19.299999999999983
 30
0.0
 11
20.0
 21
-19.299999999999983
 31
0.0
  0
LINE
  5
230
100
AcDbEntity
  8
0
  6
PHANTOM
 62
               3
100
AcDbLine
 10
56.24262295260985
 20
30.0
 30
0.0
 11
56.24262295260985
 21
-30.0
 31
0.0
  0
ENDBLK
  5
231
100
AcDbEntity
  8
0
100
AcDbBlockEnd
  0
BLOCK
  5
232
100
AcDbEntity
  8
0
100
AcDbBlockBegin
  2
CS-MGA16-7
 70
               0
 10
0.0
 20
0.0
 30
0.0
  3
CS-MGA16-7
  1

  0
LINE
  5
233
100
AcDbEntity
  8
0
  6
CONTINUOUS
 62
               7
100
AcDbLine
 10
0.0
 20
-19.999999999100169
 30
0.0
 11
0.0
 21
20.0
 31
0.0
  0
LINE
  5
234
100
AcDbEntity
  8
0
  6
CONTINUOUS
 62
               2
100
AcDbLine
 10
30.999999999999943
 20
15.5
 30
0.0
 11
45.749999999999943
 21
15.5
 31
0.0
  0
LINE
  5
235
100
AcDbEntity
  8
0
  6
CONTINUOUS
 62
               2
100
AcDbLine
 10
95.999999999999943
 20
15.5
 30
0.0
 11
110.74999999999994
 21
15.5
 31
0.0
  0
LINE
  5
236
100
AcDbEntity
  8
0
  6
CONTINUOUS
 62
               2
100
AcDbLine
 10
30.999999999999943
 20
-15.5
 30
0.0
 11
45.749999999999943
 21
-15.5
 31
0.0
  0
LINE
  5
237
100
AcDbEntity
  8
0
  6
CONTINUOUS
 62
               2
100
AcDbLine
 10
56.999999987179194
 20
14.0
 30
0.0
 11
62.999999987179194
 21
14.0
 31
0.0
  0
LINE
  5
238
100
AcDbEntity
  8
0
  6
CONTINUOUS
 62
               2
100
AcDbLine
 10
59.999999987179194
 20
17.0
 30
0.0
 11
59.999999987179194
 21
11.0
 31
0.0
  0
CIRCLE
  5
239
100
AcDbEntity
  8
0
  6
CONTINUOUS
 62
               2
100
AcDbCircle
 10
59.999999987179194
 20
14.0
 30
0.0
 40
2.0
  0
CIRCLE
  5
23A
100
AcDbEntity
  8
0
  6
CONTINUOUS
 62
               7
100
AcDbCircle
 10
59.999999987179194
 20
14.0
 30
0.0
 40
1.6499999999999999
  0
LINE
  5
23B
100
AcDbEntity
  8
0
  6
CONTINUOUS
 62
               2
100
AcDbLine
 10
56.999999987179194
 20
-14.0
 30
0.0
 11
62.999999987179194
 21
-14.0
 31
0.0
  0
LINE
  5
23C
100
AcDbEntity
  8
0
  6
CONTINUOUS
 62
               2
100
AcDbLine
 10
59.999999987179194
 20
-17.0
 30
0.0
 11
59.999999987179194
 21
-11.0
 31
0.0
  0
CIRCLE
  5
23D
100
AcDbEntity
  8
0
  6
CONTINUOUS
 62
               2
100
AcDbCircle
 10
59.999999987179194
 20
-14.0
 30
0.0
 40
2.0
  0
CIRCLE
  5
23E
100
AcDbEntity
  8
0
  6
CONTINUOUS
 62
               7
100
AcDbCircle
 10
59.999999987179194
 20
-14.0
 30
0.0
 40
1.6499999999999999
  0
LINE
  5
23F
100
AcDbEntity
  8
0
  6
CONTINUOUS
 62
               2
100
AcDbLine
 10
22.999999987179194
 20
14.0
 30
0.0
 11
28.999999987179194
 21
14.0
 31
0.0
  0
LINE
  5
240
100
AcDbEntity
  8
0
  6
CONTINUOUS
 62
               2
100
AcDbLine
 10
25.999999987179194
 20
17.0
 30
0.0
 11
25.999999987179194
 21
11.0
 31
0.0
  0
CIRCLE
  5
241
100
AcDbEntity
  8
0
  6
CONTINUOUS
 62
               2
100
AcDbCircle
 10
25.999999987179194
 20
14.0
 30
0.0
 40
2.0
  0
CIRCLE
  5
242
100
AcDbEntity
  8
0
  6
CONTINUOUS
 62
               7
100
AcDbCircle
 10
25.999999987179194
 20
14.0
 30
0.0
 40
1.6499999999999999
  0
LINE
  5
243
100
AcDbEntity
  8
0
  6
CONTINUOUS
 62
               2
100
AcDbLine
 10
90.999999987179194
 20
14.0
 30
0.0
 11
96.999999987179194
 21
14.0
 31
0.0
  0
LINE
  5
244
100
AcDbEntity
  8
0
  6
CONTINUOUS
 62
               2
100
AcDbLine
 10
93.999999987179194
 20
17.0
 30
0.0
 11
93.999999987179194
 21
11.0
 31
0.0
  0
CIRCLE
  5
245
100
AcDbEntity
  8
0
  6
CONTINUOUS
 62
               2
100
AcDbCircle
 10
93.999999987179194
 20
14.0
 30
0.0
 40
2.0
  0
CIRCLE
  5
246
100
AcDbEntity
  8
0
  6
CONTINUOUS
 62
               7
100
AcDbCircle
 10
93.999999987179194
 20
14.0
 30
0.0
 40
1.6499999999999999
  0
LINE
  5
247
100
AcDbEntity
  8
0
  6
CONTINUOUS
 62
               2
100
AcDbLine
 10
22.999999987179194
 20
-14.0
 30
0.0
 11
28.999999987179194
 21
-14.0
 31
0.0
  0
LINE
  5
248
100
AcDbEntity
  8
0
  6
CONTINUOUS
 62
               2
100
AcDbLine
 10
25.999999987179194
 20
-17.0
 30
0.0
 11
25.999999987179194
 21
-11.0
 31
0.0
  0
CIRCLE
  5
249
100
AcDbEntity
  8
0
  6
CONTINUOUS
 62
               2
100
AcDbCircle
 10
25.999999987179194
 20
-14.0
 30
0.0
 40
2.0
  0
CIRCLE
  5
24A
100
AcDbEntity
  8
0
  6
CONTINUOUS
 62
               7
100
AcDbCircle
 10
25.999999987179194
 20
-14.0
 30
0.0
 40
1.6499999999999999
  0
ARC
  5
24B
100
AcDbEntity
  8
0
  6
CONTINUOUS
 62
               7
100
AcDbCircle
 10
35.999999999999943
 20
-15.5
 30
0.0
 40
2.1000000000000001
100
AcDbArc
 50
316.95630088933575
 51
43.043699110664235
  0
ARC
  5
24C
100
AcDbEntity
  8
0
  6
CONTINUOUS
 62
               7
100
AcDbCircle
 10
100.99999999999994
 20
15.5
 30
0.0
 40
2.1000000000000001
100
AcDbArc
 50
316.95630088933575
 51
43.043699110664235
  0
LINE
  5
24D
100
AcDbEntity
  8
0
  6
CONTINUOUS
 62
               2
100
AcDbLine
 10
35.999999999999943
 20
-20.5
 30
0.0
 11
35.999999999999943
 21
-10.5
 31
0.0
  0
ARC
  5
24E
100
AcDbEntity
  8
0
  6
CONTINUOUS
 62
               7
100
AcDbCircle
 10
35.999999999999943
 20
-15.5
 30
0.0
 40
4.0
100
AcDbArc
 50
0.0
 51
47.667069661316575
  0
LINE
  5
24F
100
AcDbEntity
  8
0
  6
CONTINUOUS
 62
               7
100
AcDbLine
 10
39.999999999999943
 20
-15.5
 30
0.0
 11
39.999999999999943
 21
-19.11420807370024
 31
0.0
  0
LINE
  5
250
100
AcDbEntity
  8
0
  6
CONTINUOUS
 62
               2
100
AcDbLine
 10
35.999999999999943
 20
20.800000000000011
 30
0.0
 11
35.999999999999943
 21
10.5
 31
0.0
  0
ARC
  5
251
100
AcDbEntity
  8
0
  6
CONTINUOUS
 62
               7
100
AcDbCircle
 10
35.999999999999943
 20
15.5
 30
0.0
 40
4.0
100
AcDbArc
 50
312.33293033868341
 51
0.0
  0
LINE
  5
252
100
AcDbEntity
  8
0
  6
CONTINUOUS
 62
               2
100
AcDbLine
 10
100.99999999999994
 20
20.800000000000011
 30
0.0
 11
100.99999999999994
 21
10.5
 31
0.0
  0
LINE
  5
253
100
AcDbEntity
  8
0
  6
CONTINUOUS
 62
               7
100
AcDbLine
 10
104.99999999999994
 20
15.5
 30
0.0
 11
104.99999999999994
 21
19.11420807370024
 31
0.0
  0
ARC
  5
254
100
AcDbEntity
  8
0
  6
CONTINUOUS
 62
               7
100
AcDbCircle
 10
100.99999999999994
 20
15.5
 30
0.0
 40
4.0
100
AcDbArc
 50
312.33293033868341
 51
0.0
  0
LINE
  5
255
100
AcDbEntity
  8
0
  6
CONTINUOUS
 62
               7
100
AcDbLine
 10
39.999999999999943
 20
15.5
 30
0.0
 11
39.999999999999943
 21
19.11420807370024
 31
0.0
  0
ARC
  5
256
100
AcDbEntity
  8
0
  6
CONTINUOUS
 62
               7
100
AcDbCircle
 10
35.999999999999943
 20
15.5
 30
0.0
 40
2.1000000000000001
100
AcDbArc
 50
316.95630088933575
 51
43.043699110664235
  0
LINE
  5
257
100
AcDbEntity
  8
0
  6
CONTINUOUS
 62
               7
100
AcDbLine
 10
118.79999999999995
 20
-9.0
 30
0.0
 11
119.99999999999994
 21
-9.0
 31
0.0
  0
LINE
  5
258
100
AcDbEntity
  8
0
  6
CONTINUOUS
 62
               7
100
AcDbLine
 10
118.79999999999995
 20
9.0
 30
0.0
 11
119.99999999999994
 21
9.0
 31
0.0
  0
LINE
  5
259
100
AcDbEntity
  8
0
  6
CONTINUOUS
 62
               7
100
AcDbLine
 10
119.99999999999994
 20
-11.0
 30
0.0
 11
118.79999999999995
 21
-11.0
 31
0.0
  0
LINE
  5
25A
100
AcDbEntity
  8
0
  6
CONTINUOUS
 62
               7
100
AcDbLine
 10
119.99999999999994
 20
11.0
 30
0.0
 11
118.79999999999995
 21
11.0
 31
0.0
  0
LINE
  5
25B
100
AcDbEntity
  8
0
  6
CONTINUOUS
 62
               2
100
AcDbLine
 10
25.999999987179194
 20
-3.0
 30
0.0
 11
25.999999987179194
 21
3.0
 31
0.0
  0
CIRCLE
  5
25C
100
AcDbEntity
  8
0
  6
CONTINUOUS
 62
               7
100
AcDbCircle
 10
25.999999987179194
 20
0.0
 30
0.0
 40
2.0
  0
CIRCLE
  5
25D
100
AcDbEntity
  8
0
  6
CONTINUOUS
 62
               7
100
AcDbCircle
 10
105.99999999999994
 20
15.5
 30
0.0
 40
3.75
  0
LINE
  5
25E
100
AcDbEntity
  8
0
  6
CONTINUOUS
 62
               2
100
AcDbLine
 10
105.99999999999994
 20
20.25
 30
0.0
 11
105.99999999999994
 21
10.75
 31
0.0
  0
CIRCLE
  5
25F
100
AcDbEntity
  8
0
  6
CONTINUOUS
 62
               7
100
AcDbCircle
 10
40.999999999999943
 20
15.5
 30
0.0
 40
3.75
  0
LINE
  5
260
100
AcDbEntity
  8
0
  6
CONTINUOUS
 62
               2
100
AcDbLine
 10
40.999999999999943
 20
20.25
 30
0.0
 11
40.999999999999943
 21
10.75
 31
0.0
  0
LINE
  5
261
100
AcDbEntity
  8
0
  6
CONTINUOUS
 62
               7
100
AcDbLine
 10
119.39999999999992
 20
-12.0
 30
0.0
 11
119.39999999999992
 21
-14.0
 31
0.0
  0
LINE
  5
262
100
AcDbEntity
  8
0
  6
CONTINUOUS
 62
               7
100
AcDbLine
 10
118.89999999999992
 20
-14.5
 30
0.0
 11
118.79999999999995
 21
-14.5
 31
0.0
  0
ARC
  5
263
100
AcDbEntity
  8
0
  6
CONTINUOUS
 62
               7
100
AcDbCircle
 10
118.89999999999992
 20
-14.0
 30
0.0
 40
0.5
100
AcDbArc
 50
270.0
 51
0.0
  0
ARC
  5
264
100
AcDbEntity
  8
0
  6
CONTINUOUS
 62
               7
100
AcDbCircle
 10
118.89999999999992
 20
-12.0
 30
0.0
 40
0.5
100
AcDbArc
 50
0.0
 51
90.0
  0
LINE
  5
265
100
AcDbEntity
  8
0
  6
CONTINUOUS
 62
               7
100
AcDbLine
 10
118.89999999999992
 20
-11.5
 30
0.0
 11
118.79999999999995
 21
-11.5
 31
0.0
  0
LINE
  5
266
100
AcDbEntity
  8
0
  6
CONTINUOUS
 62
               7
100
AcDbLine
 10
118.79999999999995
 20
-16.0
 30
0.0
 11
117.99999999999994
 21
-16.0
 31
0.0
  0
LINE
  5
267
100
AcDbEntity
  8
0
  6
CONTINUOUS
 62
               7
100
AcDbLine
 10
118.79999999999995
 20
16.0
 30
0.0
 11
117.99999999999994
 21
16.0
 31
0.0
  0
LINE
  5
268
100
AcDbEntity
  8
0
  6
CONTINUOUS
 62
               7
100
AcDbLine
 10
118.89999999999992
 20
11.5
 30
0.0
 11
118.79999999999995
 21
11.5
 31
0.0
  0
ARC
  5
269
100
AcDbEntity
  8
0
  6
CONTINUOUS
 62
               7
100
AcDbCircle
 10
118.89999999999992
 20
12.0
 30
0.0
 40
0.5
100
AcDbArc
 50
270.0
 51
0.0
  0
ARC
  5
26A
100
AcDbEntity
  8
0
  6
CONTINUOUS
 62
               7
100
AcDbCircle
 10
118.89999999999992
 20
14.0
 30
0.0
 40
0.5
100
AcDbArc
 50
0.0
 51
90.0
  0
LINE
  5
26B
100
AcDbEntity
  8
0
  6
CONTINUOUS
 62
               7
100
AcDbLine
 10
118.89999999999992
 20
14.5
 30
0.0
 11
118.79999999999995
 21
14.5
 31
0.0
  0
LINE
  5
26C
100
AcDbEntity
  8
0
  6
CONTINUOUS
 62
               7
100
AcDbLine
 10
119.39999999999992
 20
12.0
 30
0.0
 11
119.39999999999992
 21
14.0
 31
0.0
  0
LINE
  5
26D
100
AcDbEntity
  8
0
  6
CONTINUOUS
 62
               7
100
AcDbLine
 10
118.79999999999995
 20
-16.0
 30
0.0
 11
118.79999999999995
 21
16.0
 31
0.0
  0
CIRCLE
  5
26E
100
AcDbEntity
  8
0
  6
CONTINUOUS
 62
               7
100
AcDbCircle
 10
40.999999999999943
 20
-15.5
 30
0.0
 40
3.75
  0
LINE
  5
26F
100
AcDbEntity
  8
0
  6
CONTINUOUS
 62
               2
100
AcDbLine
 10
40.999999999999943
 20
-20.25
 30
0.0
 11
40.999999999999943
 21
-10.75
 31
0.0
  0
LINE
  5
270
100
AcDbEntity
  8
0
  6
CONTINUOUS
 62
               7
100
AcDbLine
 10
14.999999987179194
 20
-19.999999999100169
 30
0.0
 11
14.999999987179194
 21
20.0
 31
0.0
  0
LINE
  5
271
100
AcDbEntity
  8
0
  6
CONTINUOUS
 62
               7
100
AcDbLine
 10
117.99999999999994
 20
-19.5
 30
0.0
 11
119.99999999999994
 21
-19.5
 31
0.0
  0
LINE
  5
272
100
AcDbEntity
  8
0
  6
CONTINUOUS
 62
               7
100
AcDbLine
 10
117.99999999999994
 20
19.5
 30
0.0
 11
119.99999999999994
 21
19.5
 31
0.0
  0
LINE
  5
273
100
AcDbEntity
  8
0
  6
CONTINUOUS
 62
               7
100
AcDbLine
 10
117.99999999999994
 20
-19.999999999100169
 30
0.0
 11
117.99999999999994
 21
20.0
 31
0.0
  0
LINE
  5
274
100
AcDbEntity
  8
0
  6
CENTER
 62
               2
100
AcDbLine
 10
-3.5964301101943192
 20
0.0
 30
0.0
 11
121.8211862352164
 21
0.0
 31
0.0
  0
LINE
  5
275
100
AcDbEntity
  8
0
  6
CONTINUOUS
 62
               7
100
AcDbLine
 10
119.99999999999994
 20
-19.5
 30
0.0
 11
119.99999999999994
 21
19.5
 31
0.0
  0
LINE
  5
276
100
AcDbEntity
  8
0
  6
CONTINUOUS
 62
               7
100
AcDbLine
 10
0.0
 20
-19.999999999100169
 30
0.0
 11
117.99999999999994
 21
-19.999999999100169
 31
0.0
  0
LINE
  5
277
100
AcDbEntity
  8
0
  6
CONTINUOUS
 62
               7
100
AcDbLine
 10
0.0
 20
20.0
 30
0.0
 11
117.99999999999994
 21
20.0
 31
0.0
  0
LINE
  5
278
100
AcDbEntity
  8
0
  6
CONTINUOUS
 62
               7
100
AcDbLine
 10
0.0
 20
19.5
 30
0.0
 11
117.99999999999994
 21
19.5
 31
0.0
  0
LINE
  5
279
100
AcDbEntity
  8
0
  6
CONTINUOUS
 62
               7
100
AcDbLine
 10
0.0
 20
-19.499999999100169
 30
0.0
 11
117.99999999999994
 21
-19.499999999100169
 31
0.0
  0
LINE
  5
27A
100
AcDbEntity
  8
0
  6
CONTINUOUS
 62
               2
100
AcDbLine
 10
59.999999987179166
 20
3.0
 30
0.0
 11
59.999999987179166
 21
-3.0
 31
0.0
  0
ARC
  5
27B
100
AcDbEntity
  8
0
  6
CONTINUOUS
 62
               7
100
AcDbCircle
 10
59.499999987179166
 20
0.0
 30
0.0
 40
2.0
100
AcDbArc
 50
90.0
 51
270.0
  0
ARC
  5
27C
100
AcDbEntity
  8
0
  6
CONTINUOUS
 62
               7
100
AcDbCircle
 10
60.499999987179166
 20
0.0
 30
0.0
 40
2.0
100
AcDbArc
 50
270.0
 51
90.0
  0
LINE
  5
27D
100
AcDbEntity
  8
0
  6
CONTINUOUS
 62
               7
100
AcDbLine
 10
59.499999974358474
 20
2.0
 30
0.0
 11
60.499999974358474
 21
2.0
 31
0.0
  0
LINE
  5
27E
100
AcDbEntity
  8
0
  6
CONTINUOUS
 62
               7
100
AcDbLine
 10
59.499999987179166
 20
-2.0
 30
0.0
 11
60.499999987179166
 21
-2.0
 31
0.0
  0
LINE
  5
27F
100
AcDbEntity
  8
0
  6
CONTINUOUS
 62
               2
100
AcDbLine
 10
100.99999999999994
 20
-20.800000000000011
 30
0.0
 11
100.99999999999994
 21
-10.5
 31
0.0
  0
LINE
  5
280
100
AcDbEntity
  8
0
  6
CONTINUOUS
 62
               7
100
AcDbLine
 10
104.99999999999994
 20
-15.5
 30
0.0
 11
104.99999999999994
 21
-19.11420807370024
 31
0.0
  0
CIRCLE
  5
281
100
AcDbEntity
  8
0
  6
CONTINUOUS
 62
               7
100
AcDbCircle
 10
105.99999999999994
 20
-15.5
 30
0.0
 40
3.75
  0
LINE
  5
282
100
AcDbEntity
  8
0
  6
CONTINUOUS
 62
               2
100
AcDbLine
 10
105.99999999999994
 20
-20.25
 30
0.0
 11
105.99999999999994
 21
-10.75
 31
0.0
  0
ARC
  5
283
100
AcDbEntity
  8
0
  6
CONTINUOUS
 62
               7
100
AcDbCircle
 10
100.99999999999994
 20
-15.5
 30
0.0
 40
4.0
100
AcDbArc
 50
0.0
 51
47.667069661316575
  0
ARC
  5
284
100
AcDbEntity
  8
0
  6
CONTINUOUS
 62
               7
100
AcDbCircle
 10
100.99999999999994
 20
-15.5
 30
0.0
 40
2.1000000000000001
100
AcDbArc
 50
316.95630088933575
 51
43.043699110664235
  0
CIRCLE
  5
285
100
AcDbEntity
  8
0
  6
CONTINUOUS
 62
               7
100
AcDbCircle
 10
93.999999987179194
 20
-14.0
 30
0.0
 40
1.6499999999999999
  0
CIRCLE
  5
286
100
AcDbEntity
  8
0
  6
CONTINUOUS
 62
               2
100
AcDbCircle
 10
93.999999987179194
 20
-14.0
 30
0.0
 40
2.0
  0
LINE
  5
287
100
AcDbEntity
  8
0
  6
CONTINUOUS
 62
               2
100
AcDbLine
 10
93.999999987179194
 20
-17.0
 30
0.0
 11
93.999999987179194
 21
-11.0
 31
0.0
  0
LINE
  5
288
100
AcDbEntity
  8
0
  6
CONTINUOUS
 62
               2
100
AcDbLine
 10
90.999999987179194
 20
-14.0
 30
0.0
 11
96.999999987179194
 21
-14.0
 31
0.0
  0
LINE
  5
289
100
AcDbEntity
  8
0
  6
CONTINUOUS
 62
               2
100
AcDbLine
 10
95.999999999999943
 20
-15.5
 30
0.0
 11
110.74999999999994
 21
-15.5
 31
0.0
  0
LINE
  5
28A
100
AcDbEntity
  8
0
  6
CONTINUOUS
 62
               2
100
AcDbLine
 10
-2.5
 20
14.0
 30
0.0
 11
2.5
 21
14.0
 31
0.0
  0
LINE
  5
28B
100
AcDbEntity
  8
0
  6
CONTINUOUS
 62
               2
100
AcDbLine
 10
-2.5
 20
-14.0
 30
0.0
 11
2.5
 21
-14.0
 31
0.0
  0
LINE
  5
28C
100
AcDbEntity
  8
0
  6
CONTINUOUS
 62
               2
100
AcDbLine
 10
117.49999999999994
 20
14.0
 30
0.0
 11
122.49999999999994
 21
14.0
 31
0.0
  0
LINE
  5
28D
100
AcDbEntity
  8
0
  6
CONTINUOUS
 62
               2
100
AcDbLine
 10
117.49999999999994
 20
-14.0
 30
0.0
 11
122.49999999999994
 21
-14.0
 31
0.0
  0
ENDBLK
  5
28E
100
AcDbEntity
  8
0
100
AcDbBlockEnd
  0
BLOCK
  5
28F
100
AcDbEntity
  8
0
100
AcDbBlockBegin
  2
CS-MGA16-8
 70
               0
 10
0.0
 20
0.0
 30
0.0
  3
CS-MGA16-8
  1

  0
LINE
  5
290
100
AcDbEntity
  8
0
  6
CONTINUOUS
 62
               7
100
AcDbLine
 10
0.2999999999999545
 20
-4.5
 30
0.0
 11
0.2999999999999545
 21
-10.5
 31
0.0
  0
LINE
  5
291
100
AcDbEntity
  8
0
  6
CONTINUOUS
 62
               7
100
AcDbLine
 10
0.2999999999999545
 20
-10.5
 30
0.0
 11
0.0
 21
-10.799999999999983
 31
0.0
  0
LINE
  5
292
100
AcDbEntity
  8
0
  6
CONTINUOUS
 62
               7
100
AcDbLine
 10
0.2999999999999545
 20
-4.5
 30
0.0
 11
0.0
 21
-4.1999999999999886
 31
0.0
  0
LINE
  5
293
100
AcDbEntity
  8
0
  6
CONTINUOUS
 62
               7
100
AcDbLine
 10
0.0
 20
-10.799999999999983
 30
0.0
 11
0.0
 21
-19.5
 31
0.0
  0
LINE
  5
294
100
AcDbEntity
  8
0
  6
CONTINUOUS
 62
               7
100
AcDbLine
 10
0.2999999999999545
 20
4.5
 30
0.0
 11
0.0
 21
4.1999999999999886
 31
0.0
  0
LINE
  5
295
100
AcDbEntity
  8
0
  6
CONTINUOUS
 62
               7
100
AcDbLine
 10
0.2999999999999545
 20
10.5
 30
0.0
 11
0.0
 21
10.799999999999983
 31
0.0
  0
LINE
  5
296
100
AcDbEntity
  8
0
  6
CONTINUOUS
 62
               7
100
AcDbLine
 10
0.2999999999999545
 20
4.5
 30
0.0
 11
0.2999999999999545
 21
10.5
 31
0.0
  0
LINE
  5
297
100
AcDbEntity
  8
0
  6
CONTINUOUS
 62
               7
100
AcDbLine
 10
0.0
 20
10.799999999999983
 30
0.0
 11
0.0
 21
19.5
 31
0.0
  0
LINE
  5
298
100
AcDbEntity
  8
0
  6
CONTINUOUS
 62
               7
100
AcDbLine
 10
0.0
 20
4.1999999999999886
 30
0.0
 11
0.0
 21
-4.1999999999999886
 31
0.0
  0
LINE
  5
299
100
AcDbEntity
  8
0
  6
CONTINUOUS
 62
               7
100
AcDbLine
 10
6.8074175964327424
 20
-7.0
 30
0.0
 11
12.192582403567258
 21
-7.0
 31
0.0
  0
LINE
  5
29A
100
AcDbEntity
  8
0
  6
CONTINUOUS
 62
               7
100
AcDbLine
 10
6.8074175964327424
 20
7.0
 30
0.0
 11
12.192582403567258
 21
7.0
 31
0.0
  0
LINE
  5
29B
100
AcDbEntity
  8
0
  6
CONTINUOUS
 62
               7
100
AcDbLine
 10
1.5
 20
-4.4000000000000057
 30
0.0
 11
1.5
 21
-19.999999987179251
 31
0.0
  0
LINE
  5
29C
100
AcDbEntity
  8
0
  6
CONTINUOUS
 62
               7
100
AcDbLine
 10
1.5
 20
20.000000012820749
 30
0.0
 11
1.5
 21
4.4000000000000057
 31
0.0
  0
LINE
  5
29D
100
AcDbEntity
  8
0
  6
CONTINUOUS
 62
               7
100
AcDbLine
 10
9.6999999999999318
 20
-8.0
 30
0.0
 11
1.5
 21
-8.0
 31
0.0
  0
LINE
  5
29E
100
AcDbEntity
  8
0
  6
CONTINUOUS
 62
               7
100
AcDbLine
 10
9.6999999999999318
 20
8.0
 30
0.0
 11
1.5
 21
8.0
 31
0.0
  0
ARC
  5
29F
100
AcDbEntity
  8
0
  6
CONTINUOUS
 62
               7
100
AcDbCircle
 10
9.5
 20
0.0
 30
0.0
 40
7.5
100
AcDbArc
 50
291.03946978131722
 51
68.960530218682777
  0
ARC
  5
2A0
100
AcDbEntity
  8
0
  6
CONTINUOUS
 62
               7
100
AcDbCircle
 10
9.5
 20
0.0
 30
0.0
 40
7.5
100
AcDbArc
 50
111.03946978131725
 51
248.96053021868272
  0
ARC
  5
2A1
100
AcDbEntity
  8
0
  6
CONTINUOUS
 62
               7
100
AcDbCircle
 10
9.6999999999999318
 20
0.0
 30
0.0
 40
8.0
100
AcDbArc
 50
270.0
 51
90.0
  0
LINE
  5
2A2
100
AcDbEntity
  8
0
  6
CONTINUOUS
 62
               7
100
AcDbLine
 10
1.5
 20
-4.4000000000000057
 30
0.0
 11
3.426286144375922
 21
-4.4000000000000057
 31
0.0
  0
LINE
  5
2A3
100
AcDbEntity
  8
0
  6
CONTINUOUS
 62
               7
100
AcDbLine
 10
1.5
 20
4.4000000000000057
 30
0.0
 11
3.426286144375922
 21
4.4000000000000057
 31
0.0
  0
LINE
  5
2A4
100
AcDbEntity
  8
0
  6
CONTINUOUS
 62
               2
100
AcDbLine
 10
7.0
 20
-14.0
 30
0.0
 11
13.0
 21
-14.0
 31
0.0
  0
LINE
  5
2A5
100
AcDbEntity
  8
0
  6
CONTINUOUS
 62
               2
100
AcDbLine
 10
10.0
 20
-17.0
 30
0.0
 11
10.0
 21
-11.0
 31
0.0
  0
CIRCLE
  5
2A6
100
AcDbEntity
  8
0
  6
CONTINUOUS
 62
               2
100
AcDbCircle
 10
10.0
 20
-14.0
 30
0.0
 40
2.0
  0
CIRCLE
  5
2A7
100
AcDbEntity
  8
0
  6
CONTINUOUS
 62
               7
100
AcDbCircle
 10
10.0
 20
-14.0
 30
0.0
 40
1.6499999999999999
  0
LINE
  5
2A8
100
AcDbEntity
  8
0
  6
CONTINUOUS
 62
               2
100
AcDbLine
 10
7.0
 20
14.0
 30
0.0
 11
13.0
 21
14.0
 31
0.0
  0
LINE
  5
2A9
100
AcDbEntity
  8
0
  6
CONTINUOUS
 62
               2
100
AcDbLine
 10
10.0
 20
11.0
 30
0.0
 11
10.0
 21
17.0
 31
0.0
  0
CIRCLE
  5
2AA
100
AcDbEntity
  8
0
  6
CONTINUOUS
 62
               2
100
AcDbCircle
 10
10.0
 20
14.0
 30
0.0
 40
2.0
  0
CIRCLE
  5
2AB
100
AcDbEntity
  8
0
  6
CONTINUOUS
 62
               7
100
AcDbCircle
 10
10.0
 20
14.0
 30
0.0
 40
1.6499999999999999
  0
CIRCLE
  5
2AC
100
AcDbEntity
  8
0
  6
CONTINUOUS
 62
               2
100
AcDbCircle
 10
9.5
 20
0.0
 30
0.0
 40
2.6499999999999915
  0
CIRCLE
  5
2AD
100
AcDbEntity
  8
0
  6
CONTINUOUS
 62
               7
100
AcDbCircle
 10
9.5
 20
0.0
 30
0.0
 40
3.0
  0
LINE
  5
2AE
100
AcDbEntity
  8
0
  6
CONTINUOUS
 62
               7
100
AcDbLine
 10
19.732050018165523
 20
-14.000000642559996
 30
0.0
 11
18.866024673558286
 21
-12.500000489928141
 31
0.0
  0
LINE
  5
2AF
100
AcDbEntity
  8
0
  6
CONTINUOUS
 62
               7
100
AcDbLine
 10
18.866025261046047
 20
-15.500000399862074
 30
0.0
 11
19.732050605653171
 21
-14.000000247230219
 31
0.0
  0
LINE
  5
2B0
100
AcDbEntity
  8
0
  6
CONTINUOUS
 62
               7
100
AcDbLine
 10
18.866025388240814
 20
-12.5
 30
0.0
 11
17.133974611759186
 21
-12.5
 31
0.0
  0
LINE
  5
2B1
100
AcDbEntity
  8
0
  6
CONTINUOUS
 62
               7
100
AcDbLine
 10
18.866025686264038
 20
-15.5
 30
0.0
 11
17.133974313735962
 21
-15.5
 31
0.0
  0
LINE
  5
2B2
100
AcDbEntity
  8
0
  6
CONTINUOUS
 62
               7
100
AcDbLine
 10
16.267949981834363
 20
-14.000000642559996
 30
0.0
 11
17.1339753264416
 21
-12.500000489928141
 31
0.0
  0
LINE
  5
2B3
100
AcDbEntity
  8
0
  6
CONTINUOUS
 62
               7
100
AcDbLine
 10
17.133974738953953
 20
-15.500000399862074
 30
0.0
 11
16.267949394346715
 21
-14.000000247230219
 31
0.0
  0
CIRCLE
  5
2B4
100
AcDbEntity
  8
0
  6
CONTINUOUS
 62
               7
100
AcDbCircle
 10
18.0
 20
-14.0
 30
0.0
 40
3.5
  0
CIRCLE
  5
2B5
100
AcDbEntity
  8
0
  6
CONTINUOUS
 62
               7
100
AcDbCircle
 10
18.00000011920929
 20
-14.0
 30
0.0
 40
2.9803848266601563
  0
CIRCLE
  5
2B6
100
AcDbEntity
  8
0
  6
CONTINUOUS
 62
               7
100
AcDbCircle
 10
18.0
 20
-14.0
 30
0.0
 40
4.0
  0
LINE
  5
2B7
100
AcDbEntity
  8
0
  6
CONTINUOUS
 62
               7
100
AcDbLine
 10
18.866025686264038
 20
15.5
 30
0.0
 11
17.133974313735962
 21
15.5
 31
0.0
  0
LINE
  5
2B8
100
AcDbEntity
  8
0
  6
CONTINUOUS
 62
               7
100
AcDbLine
 10
18.866025388240814
 20
12.5
 30
0.0
 11
17.133974611759186
 21
12.5
 31
0.0
  0
LINE
  5
2B9
100
AcDbEntity
  8
0
  6
CONTINUOUS
 62
               7
100
AcDbLine
 10
18.866025261046047
 20
15.500000399862074
 30
0.0
 11
19.732050605653171
 21
14.000000247230219
 31
0.0
  0
LINE
  5
2BA
100
AcDbEntity
  8
0
  6
CONTINUOUS
 62
               7
100
AcDbLine
 10
16.267949981834363
 20
14.000000642559996
 30
0.0
 11
17.1339753264416
 21
12.500000489928141
 31
0.0
  0
LINE
  5
2BB
100
AcDbEntity
  8
0
  6
CONTINUOUS
 62
               7
100
AcDbLine
 10
19.732050018165523
 20
14.000000642559996
 30
0.0
 11
18.866024673558286
 21
12.500000489928141
 31
0.0
  0
LINE
  5
2BC
100
AcDbEntity
  8
0
  6
CONTINUOUS
 62
               7
100
AcDbLine
 10
17.133974738953953
 20
15.500000399862074
 30
0.0
 11
16.267949394346715
 21
14.000000247230219
 31
0.0
  0
CIRCLE
  5
2BD
100
AcDbEntity
  8
0
  6
CONTINUOUS
 62
               7
100
AcDbCircle
 10
18.0
 20
14.0
 30
0.0
 40
3.5
  0
CIRCLE
  5
2BE
100
AcDbEntity
  8
0
  6
CONTINUOUS
 62
               7
100
AcDbCircle
 10
18.00000011920929
 20
14.0
 30
0.0
 40
2.9803848266601563
  0
CIRCLE
  5
2BF
100
AcDbEntity
  8
0
  6
CONTINUOUS
 62
               7
100
AcDbCircle
 10
18.0
 20
14.0
 30
0.0
 40
4.0
  0
LINE
  5
2C0
100
AcDbEntity
  8
0
  6
CONTINUOUS
 62
               7
100
AcDbLine
 10
-0.0000000000001137
 20
19.5
 30
0.0
 11
1.5
 21
19.5
 31
0.0
  0
LINE
  5
2C1
100
AcDbEntity
  8
0
  6
CONTINUOUS
 62
               7
100
AcDbLine
 10
23.0
 20
19.5
 30
0.0
 11
22.499999999999773
 21
20.0
 31
0.0
  0
LINE
  5
2C2
100
AcDbEntity
  8
0
  6
CONTINUOUS
 62
               7
100
AcDbLine
 10
1.5
 20
20.0
 30
0.0
 11
22.499999999999773
 21
20.0
 31
0.0
  0
LINE
  5
2C3
100
AcDbEntity
  8
0
  6
CONTINUOUS
 62
               7
100
AcDbLine
 10
0.0
 20
-19.5
 30
0.0
 11
1.5
 21
-19.5
 31
0.0
  0
LINE
  5
2C4
100
AcDbEntity
  8
0
  6
CONTINUOUS
 62
               7
100
AcDbLine
 10
23.0
 20
-19.5
 30
0.0
 11
22.499999999999773
 21
-20.0
 31
0.0
  0
LINE
  5
2C5
100
AcDbEntity
  8
0
  6
CONTINUOUS
 62
               7
100
AcDbLine
 10
1.5
 20
-20.0
 30
0.0
 11
22.499999999999773
 21
-20.0
 31
0.0
  0
LINE
  5
2C6
100
AcDbEntity
  8
0
  6
CONTINUOUS
 62
               7
100
AcDbLine
 10
23.0
 20
19.5
 30
0.0
 11
23.0
 21
-19.5
 31
0.0
  0
LINE
  5
2C7
100
AcDbEntity
  8
0
  6
CENTER
 62
               2
100
AcDbLine
 10
9.5
 20
-9.0
 30
0.0
 11
9.5
 21
9.0
 31
0.0
  0
LINE
  5
2C8
100
AcDbEntity
  8
0
  6
CENTER
 62
               2
100
AcDbLine
 10
-2.5260440989142126
 20
0.0
 30
0.0
 11
24.910904413760022
 21
0.0
 31
0.0
  0
LINE
  5
2C9
100
AcDbEntity
  8
0
  6
CONTINUOUS
 62
               7
100
AcDbLine
 10
22.799999999999955
 20
19.699999999999903
 30
0.0
 11
22.799999999999955
 21
-19.699999999999932
 31
0.0
  0
LINE
  5
2CA
100
AcDbEntity
  8
0
  6
CONTINUOUS
 62
               2
100
AcDbLine
 10
-2.5
 20
15.5
 30
0.0
 11
2.5
 21
15.5
 31
0.0
  0
LINE
  5
2CB
100
AcDbEntity
  8
0
  6
CONTINUOUS
 62
               2
100
AcDbLine
 10
-2.5
 20
-15.5
 30
0.0
 11
2.5
 21
-15.5
 31
0.0
  0
ENDBLK
  5
2CC
100
AcDbEntity
  8
0
100
AcDbBlockEnd
  0
BLOCK
  5
2CD
100
AcDbEntity
  8
0
100
AcDbBlockBegin
  2
CS-MGA16-9
 70
               0
 10
0.0
 20
0.0
 30
0.0
  3
CS-MGA16-9
  1

  0
LINE
  5
2CE
100
AcDbEntity
  8
0
  6
CONTINUOUS
 62
               7
100
AcDbLine
 10
-1.5000000000000142
 20
-19.5
 30
0.0
 11
-1.5000000000000142
 21
-20.0
 31
0.0
  0
LINE
  5
2CF
100
AcDbEntity
  8
0
  6
CONTINUOUS
 62
               7
100
AcDbLine
 10
-1.5000000000000142
 20
19.5
 30
0.0
 11
-1.5000000000000142
 21
20.0
 31
0.0
  0
LINE
  5
2D0
100
AcDbEntity
  8
0
  6
CONTINUOUS
 62
               7
100
AcDbLine
 10
-0.2999999999999972
 20
4.5
 30
0.0
 11
-0.2999999999999972
 21
10.5
 31
0.0
  0
LINE
  5
2D1
100
AcDbEntity
  8
0
  6
CONTINUOUS
 62
               7
100
AcDbLine
 10
-0.2999999999999972
 20
10.5
 30
0.0
 11
-0.0000000000000142
 21
10.799999999999983
 31
0.0
  0
LINE
  5
2D2
100
AcDbEntity
  8
0
  6
CONTINUOUS
 62
               7
100
AcDbLine
 10
-0.2999999999999972
 20
4.5
 30
0.0
 11
0.0
 21
4.1999999999999886
 31
0.0
  0
LINE
  5
2D3
100
AcDbEntity
  8
0
  6
CONTINUOUS
 62
               7
100
AcDbLine
 10
-0.0000000000000142
 20
10.799999999999983
 30
0.0
 11
-0.0000000000000142
 21
19.5
 31
0.0
  0
LINE
  5
2D4
100
AcDbEntity
  8
0
  6
CONTINUOUS
 62
               7
100
AcDbLine
 10
-0.2999999999999972
 20
-4.5
 30
0.0
 11
0.0
 21
-4.1999999999999886
 31
0.0
  0
LINE
  5
2D5
100
AcDbEntity
  8
0
  6
CONTINUOUS
 62
               7
100
AcDbLine
 10
-0.2999999999999972
 20
-10.5
 30
0.0
 11
-0.0000000000000142
 21
-10.799999999999983
 31
0.0
  0
LINE
  5
2D6
100
AcDbEntity
  8
0
  6
CONTINUOUS
 62
               7
100
AcDbLine
 10
-0.2999999999999972
 20
-4.5
 30
0.0
 11
-0.2999999999999972
 21
-10.5
 31
0.0
  0
LINE
  5
2D7
100
AcDbEntity
  8
0
  6
CONTINUOUS
 62
               7
100
AcDbLine
 10
-0.0000000000000142
 20
-10.799999999999983
 30
0.0
 11
-0.0000000000000142
 21
-19.5
 31
0.0
  0
LINE
  5
2D8
100
AcDbEntity
  8
0
  6
CONTINUOUS
 62
               7
100
AcDbLine
 10
0.0
 20
-4.1999999999999886
 30
0.0
 11
0.0
 21
4.1999999999999886
 31
0.0
  0
CIRCLE
  5
2D9
100
AcDbEntity
  8
0
  6
CONTINUOUS
 62
               7
100
AcDbCircle
 10
-9.5000000000000142
 20
0.0
 30
0.0
 40
7.25
  0
CIRCLE
  5
2DA
100
AcDbEntity
  8
0
  6
CONTINUOUS
 62
               7
100
AcDbCircle
 10
-9.5000000000000142
 20
0.0
 30
0.0
 40
8.0
  0
LINE
  5
2DB
100
AcDbEntity
  8
0
  6
CONTINUOUS
 62
               7
100
AcDbLine
 10
-14.000000000000043
 20
9.0
 30
0.0
 11
-12.000000000000043
 21
11.0
 31
0.0
  0
LINE
  5
2DC
100
AcDbEntity
  8
0
  6
CONTINUOUS
 62
               7
100
AcDbLine
 10
-15.654356076261053
 20
9.0
 30
0.0
 11
-14.000000000000043
 21
9.0
 31
0.0
  0
LINE
  5
2DD
100
AcDbEntity
  8
0
  6
CONTINUOUS
 62
               7
100
AcDbLine
 10
-12.000000000000043
 20
11.0
 30
0.0
 11
-12.000000000000043
 21
19.5
 31
0.0
  0
LINE
  5
2DE
100
AcDbEntity
  8
0
  6
CONTINUOUS
 62
               7
100
AcDbLine
 10
-14.000000000000043
 20
-9.0
 30
0.0
 11
-12.000000000000043
 21
-11.0
 31
0.0
  0
LINE
  5
2DF
100
AcDbEntity
  8
0
  6
CONTINUOUS
 62
               7
100
AcDbLine
 10
-12.000000000000043
 20
-11.0
 30
0.0
 11
-12.000000000000043
 21
-19.5
 31
0.0
  0
CIRCLE
  5
2E0
100
AcDbEntity
  8
0
  6
CONTINUOUS
 62
               7
100
AcDbCircle
 10
-8.0000000000000142
 20
-14.0
 30
0.0
 40
2.1000000000000001
  0
CIRCLE
  5
2E1
100
AcDbEntity
  8
0
  6
CONTINUOUS
 62
               2
100
AcDbCircle
 10
-8.0000000000000142
 20
-14.0
 30
0.0
 40
2.5
  0
LINE
  5
2E2
100
AcDbEntity
  8
0
  6
CONTINUOUS
 62
               2
100
AcDbLine
 10
-8.0000000000000142
 20
-17.5
 30
0.0
 11
-8.0000000000000142
 21
-10.5
 31
0.0
  0
LINE
  5
2E3
100
AcDbEntity
  8
0
  6
CONTINUOUS
 62
               2
100
AcDbLine
 10
-4.5000000000000142
 20
-14.0
 30
0.0
 11
-11.500000000000014
 21
-14.0
 31
0.0
  0
CIRCLE
  5
2E4
100
AcDbEntity
  8
0
  6
CONTINUOUS
 62
               7
100
AcDbCircle
 10
-8.0000000000000142
 20
14.0
 30
0.0
 40
2.1000000000000001
  0
CIRCLE
  5
2E5
100
AcDbEntity
  8
0
  6
CONTINUOUS
 62
               2
100
AcDbCircle
 10
-8.0000000000000142
 20
14.0
 30
0.0
 40
2.5
  0
LINE
  5
2E6
100
AcDbEntity
  8
0
  6
CONTINUOUS
 62
               2
100
AcDbLine
 10
-8.0000000000000142
 20
17.5
 30
0.0
 11
-8.0000000000000142
 21
10.5
 31
0.0
  0
LINE
  5
2E7
100
AcDbEntity
  8
0
  6
CONTINUOUS
 62
               2
100
AcDbLine
 10
-4.5000000000000142
 20
14.0
 30
0.0
 11
-11.500000000000014
 21
14.0
 31
0.0
  0
LINE
  5
2E8
100
AcDbEntity
  8
0
  6
CONTINUOUS
 62
               7
100
AcDbLine
 10
-19.300000000000026
 20
9.1999999999999886
 30
0.0
 11
-14.500000000000014
 21
9.1999999999999886
 31
0.0
  0
CIRCLE
  5
2E9
100
AcDbEntity
  8
0
  6
CONTINUOUS
 62
               7
100
AcDbCircle
 10
-17.000000000000014
 20
13.0
 30
0.0
 40
1.5
  0
LINE
  5
2EA
100
AcDbEntity
  8
0
  6
CONTINUOUS
 62
               7
100
AcDbLine
 10
-17.707106781186567
 20
13.707106781186553
 30
0.0
 11
-16.292893218813461
 21
12.292893218813447
 31
0.0
  0
LINE
  5
2EB
100
AcDbEntity
  8
0
  6
CONTINUOUS
 62
               7
100
AcDbLine
 10
-17.707106781186567
 20
12.292893218813447
 30
0.0
 11
-16.292893218813461
 21
13.707106781186553
 31
0.0
  0
LINE
  5
2EC
100
AcDbEntity
  8
0
  6
CONTINUOUS
 62
               7
100
AcDbLine
 10
-14.500000000000014
 20
16.0
 30
0.0
 11
-22.500000000000014
 21
16.0
 31
0.0
  0
LINE
  5
2ED
100
AcDbEntity
  8
0
  6
CONTINUOUS
 62
               7
100
AcDbLine
 10
-19.300000000000026
 20
-9.1999999999999886
 30
0.0
 11
-14.500000000000014
 21
-9.1999999999999886
 31
0.0
  0
LINE
  5
2EE
100
AcDbEntity
  8
0
  6
CONTINUOUS
 62
               7
100
AcDbLine
 10
-22.500000000000014
 20
16.0
 30
0.0
 11
-22.500000000000014
 21
-16.0
 31
0.0
  0
LINE
  5
2EF
100
AcDbEntity
  8
0
  6
CONTINUOUS
 62
               7
100
AcDbLine
 10
-17.707106781186567
 20
-12.292893218813447
 30
0.0
 11
-16.292893218813461
 21
-13.707106781186553
 31
0.0
  0
LINE
  5
2F0
100
AcDbEntity
  8
0
  6
CONTINUOUS
 62
               7
100
AcDbLine
 10
-17.707106781186567
 20
-13.707106781186553
 30
0.0
 11
-16.292893218813461
 21
-12.292893218813447
 31
0.0
  0
CIRCLE
  5
2F1
100
AcDbEntity
  8
0
  6
CONTINUOUS
 62
               7
100
AcDbCircle
 10
-17.000000000000014
 20
-13.0
 30
0.0
 40
1.5
  0
LINE
  5
2F2
100
AcDbEntity
  8
0
  6
CONTINUOUS
 62
               7
100
AcDbLine
 10
-14.500000000000014
 20
-16.0
 30
0.0
 11
-22.500000000000014
 21
-16.0
 31
0.0
  0
LINE
  5
2F3
100
AcDbEntity
  8
0
  6
CONTINUOUS
 62
               7
100
AcDbLine
 10
-14.500000000000014
 20
9.1999999999999886
 30
0.0
 11
-14.500000000000014
 21
20.0
 31
0.0
  0
LINE
  5
2F4
100
AcDbEntity
  8
0
  6
CONTINUOUS
 62
               7
100
AcDbLine
 10
-18.700000000000003
 20
9.0
 30
0.0
 11
-17.945643923738999
 21
9.0
 31
0.0
  0
LINE
  5
2F5
100
AcDbEntity
  8
0
  6
CONTINUOUS
 62
               7
100
AcDbLine
 10
-18.899999999999991
 20
8.8000000000000114
 30
0.0
 11
-18.700000000000003
 21
9.0
 31
0.0
  0
ARC
  5
2F6
100
AcDbEntity
  8
0
  6
CONTINUOUS
 62
               7
100
AcDbCircle
 10
-16.800000000000026
 20
9.4999999999999716
 30
0.0
 40
1.25
100
AcDbArc
 50
193.88654036262753
 51
346.1134596373725
  0
LINE
  5
2F7
100
AcDbEntity
  8
0
  6
CONTINUOUS
 62
               7
100
AcDbLine
 10
-18.899999999999991
 20
-8.8000000000000114
 30
0.0
 11
-18.700000000000003
 21
-9.0
 31
0.0
  0
LINE
  5
2F8
100
AcDbEntity
  8
0
  6
CENTER
 62
               2
100
AcDbLine
 10
2.5260440989141983
 20
0.0
 30
0.0
 11
-24.910904413760036
 21
0.0
 31
0.0
  0
LINE
  5
2F9
100
AcDbEntity
  8
0
  6
CONTINUOUS
 62
               7
100
AcDbLine
 10
-18.899999999999991
 20
8.8000000000000114
 30
0.0
 11
-18.899999999999991
 21
-8.8000000000000114
 31
0.0
  0
LINE
  5
2FA
100
AcDbEntity
  8
0
  6
CENTER
 62
               2
100
AcDbLine
 10
-9.5000000000000142
 20
-10.0
 30
0.0
 11
-9.5000000000000142
 21
10.0
 31
0.0
  0
LINE
  5
2FB
100
AcDbEntity
  8
0
  6
CONTINUOUS
 62
               7
100
AcDbLine
 10
-19.300000000000026
 20
9.1999999999999886
 30
0.0
 11
-19.300000000000026
 21
-9.1999999999999886
 31
0.0
  0
LINE
  5
2FC
100
AcDbEntity
  8
0
  6
CONTINUOUS
 62
               7
100
AcDbLine
 10
-23.000000000000014
 20
19.5
 30
0.0
 11
-23.000000000000043
 21
-19.5
 31
0.0
  0
LINE
  5
2FD
100
AcDbEntity
  8
0
  6
CONTINUOUS
 62
               7
100
AcDbLine
 10
-15.654356076261053
 20
-9.0
 30
0.0
 11
-14.000000000000014
 21
-9.0
 31
0.0
  0
ARC
  5
2FE
100
AcDbEntity
  8
0
  6
CONTINUOUS
 62
               7
100
AcDbCircle
 10
-16.800000000000026
 20
-9.4999999999999716
 30
0.0
 40
1.25
100
AcDbArc
 50
13.886540362627525
 51
166.11345963737247
  0
LINE
  5
2FF
100
AcDbEntity
  8
0
  6
CONTINUOUS
 62
               7
100
AcDbLine
 10
-18.700000000000003
 20
-9.0
 30
0.0
 11
-17.945643923738999
 21
-9.0
 31
0.0
  0
LINE
  5
300
100
AcDbEntity
  8
0
  6
CONTINUOUS
 62
               7
100
AcDbLine
 10
-1.5000000000000142
 20
-20.0
 30
0.0
 11
-22.499999999999844
 21
-20.0
 31
0.0
  0
LINE
  5
301
100
AcDbEntity
  8
0
  6
CONTINUOUS
 62
               7
100
AcDbLine
 10
-23.000000000000043
 20
-19.5
 30
0.0
 11
-22.499999999999844
 21
-20.0
 31
0.0
  0
LINE
  5
302
100
AcDbEntity
  8
0
  6
CONTINUOUS
 62
               7
100
AcDbLine
 10
-14.500000000000014
 20
-9.1999999999999886
 30
0.0
 11
-14.500000000000014
 21
-20.0
 31
0.0
  0
LINE
  5
303
100
AcDbEntity
  8
0
  6
CONTINUOUS
 62
               7
100
AcDbLine
 10
-0.0000000000000142
 20
-19.5
 30
0.0
 11
-12.000000000000043
 21
-19.5
 31
0.0
  0
LINE
  5
304
100
AcDbEntity
  8
0
  6
CONTINUOUS
 62
               7
100
AcDbLine
 10
-1.5000000000000142
 20
20.0
 30
0.0
 11
-22.499999999999815
 21
20.0
 31
0.0
  0
LINE
  5
305
100
AcDbEntity
  8
0
  6
CONTINUOUS
 62
               7
100
AcDbLine
 10
-23.000000000000014
 20
19.5
 30
0.0
 11
-22.499999999999815
 21
20.0
 31
0.0
  0
LINE
  5
306
100
AcDbEntity
  8
0
  6
CONTINUOUS
 62
               7
100
AcDbLine
 10
-0.0000000000000142
 20
19.5
 30
0.0
 11
-12.000000000000043
 21
19.5
 31
0.0
  0
LINE
  5
307
100
AcDbEntity
  8
0
  6
CONTINUOUS
 62
               2
100
AcDbLine
 10
-2.5000000000000142
 20
15.5
 30
0.0
 11
2.4999999999999858
 21
15.5
 31
0.0
  0
LINE
  5
308
100
AcDbEntity
  8
0
  6
CONTINUOUS
 62
               2
100
AcDbLine
 10
-2.5000000000000142
 20
-15.5
 30
0.0
 11
2.4999999999999858
 21
-15.5
 31
0.0
  0
ENDBLK
  5
309
100
AcDbEntity
  8
0
100
AcDbBlockEnd
  0
BLOCK
  5
30A
100
AcDbEntity
  8
0
100
AcDbBlockBegin
  2
CS-MGA16-10
 70
               0
 10
0.0
 20
0.0
 30
0.0
  3
CS-MGA16-10
  1

  0
LINE
  5
30B
100
AcDbEntity
  8
0
  6
CONTINUOUS
 62
               2
100
AcDbLine
 10
-2.5
 20
-10.0
 30
0.0
 11
2.5
 21
-10.0
 31
0.0
  0
LINE
  5
30C
100
AcDbEntity
  8
0
  6
CONTINUOUS
 62
               2
100
AcDbLine
 10
117.49999999999994
 20
-8.0
 30
0.0
 11
122.49999999999994
 21
-8.0
 31
0.0
  0
LINE
  5
30D
100
AcDbEntity
  8
0
  6
CONTINUOUS
 62
               2
100
AcDbLine
 10
100.99999999999994
 20
-2.5
 30
0.0
 11
100.99999999999994
 21
2.5
 31
0.0
  0
LINE
  5
30E
100
AcDbEntity
  8
0
  6
CONTINUOUS
 62
               2
100
AcDbLine
 10
35.999999999999943
 20
-2.5
 30
0.0
 11
35.999999999999943
 21
2.5
 31
0.0
  0
CIRCLE
  5
30F
100
AcDbEntity
  8
0
  6
CONTINUOUS
 62
               7
100
AcDbCircle
 10
105.49999999999997
 20
-18.0
 30
0.0
 40
2.0
  0
LINE
  5
310
100
AcDbEntity
  8
0
  6
CONTINUOUS
 62
               7
100
AcDbLine
 10
14.999999987179194
 20
-22.5
 30
0.0
 11
117.99999999999994
 21
-22.5
 31
0.0
  0
LINE
  5
311
100
AcDbEntity
  8
0
  6
CONTINUOUS
 62
               2
100
AcDbLine
 10
26.499999999999943
 20
-3.0
 30
0.0
 11
26.499999999999943
 21
-10.0
 31
0.0
  0
CIRCLE
  5
312
100
AcDbEntity
  8
0
  6
CONTINUOUS
 62
               2
100
AcDbCircle
 10
26.499999999999943
 20
-6.5
 30
0.0
 40
2.5
  0
LINE
  5
313
100
AcDbEntity
  8
0
  6
CONTINUOUS
 62
               2
100
AcDbLine
 10
22.999999999999943
 20
-6.5
 30
0.0
 11
29.999999999999943
 21
-6.5
 31
0.0
  0
CIRCLE
  5
314
100
AcDbEntity
  8
0
  6
CONTINUOUS
 62
               7
100
AcDbCircle
 10
26.499999999999943
 20
-6.5
 30
0.0
 40
2.1000000000000001
  0
LINE
  5
315
100
AcDbEntity
  8
0
  6
CONTINUOUS
 62
               7
100
AcDbLine
 10
119.99999999999994
 20
-18.900000000000006
 30
0.0
 11
118.79999999999995
 21
-18.900000000000006
 31
0.0
  0
LINE
  5
316
100
AcDbEntity
  8
0
  6
CONTINUOUS
 62
               7
100
AcDbLine
 10
119.39999999999992
 20
-16.0
 30
0.0
 11
119.39999999999992
 21
-18.0
 31
0.0
  0
LINE
  5
317
100
AcDbEntity
  8
0
  6
CONTINUOUS
 62
               7
100
AcDbLine
 10
118.89999999999992
 20
-18.5
 30
0.0
 11
118.79999999999995
 21
-18.5
 31
0.0
  0
ARC
  5
318
100
AcDbEntity
  8
0
  6
CONTINUOUS
 62
               7
100
AcDbCircle
 10
118.89999999999992
 20
-18.0
 30
0.0
 40
0.5
100
AcDbArc
 50
270.0
 51
0.0
  0
ARC
  5
319
100
AcDbEntity
  8
0
  6
CONTINUOUS
 62
               7
100
AcDbCircle
 10
118.89999999999992
 20
-16.0
 30
0.0
 40
0.5
100
AcDbArc
 50
0.0
 51
90.0
  0
LINE
  5
31A
100
AcDbEntity
  8
0
  6
CONTINUOUS
 62
               7
100
AcDbLine
 10
118.89999999999992
 20
-15.5
 30
0.0
 11
118.79999999999995
 21
-15.5
 31
0.0
  0
LINE
  5
31B
100
AcDbEntity
  8
0
  6
CONTINUOUS
 62
               7
100
AcDbLine
 10
118.79999999999995
 20
-14.5
 30
0.0
 11
118.79999999999995
 21
-22.499999986528337
 31
0.0
  0
LINE
  5
31C
100
AcDbEntity
  8
0
  6
CONTINUOUS
 62
               7
100
AcDbLine
 10
117.99999999999994
 20
-14.5
 30
0.0
 11
118.79999999999995
 21
-14.5
 31
0.0
  0
LINE
  5
31D
100
AcDbEntity
  8
0
  6
CONTINUOUS
 62
               7
100
AcDbLine
 10
117.99999999999994
 20
-22.5
 30
0.0
 11
118.79999999999995
 21
-22.5
 31
0.0
  0
LINE
  5
31E
100
AcDbEntity
  8
0
  6
CONTINUOUS
 62
               7
100
AcDbLine
 10
19.999999999999943
 20
-12.0
 30
0.0
 11
119.99999999999994
 21
-12.0
 31
0.0
  0
LINE
  5
31F
100
AcDbEntity
  8
0
  6
CONTINUOUS
 62
               2
100
AcDbLine
 10
95.499999999999972
 20
-18.0
 30
0.0
 11
101.49999999999997
 21
-18.0
 31
0.0
  0
LINE
  5
320
100
AcDbEntity
  8
0
  6
CONTINUOUS
 62
               2
100
AcDbLine
 10
98.499999999999972
 20
-15.0
 30
0.0
 11
98.499999999999972
 21
-21.0
 31
0.0
  0
CIRCLE
  5
321
100
AcDbEntity
  8
0
  6
CONTINUOUS
 62
               2
100
AcDbCircle
 10
98.499999999999972
 20
-18.0
 30
0.0
 40
2.0
  0
CIRCLE
  5
322
100
AcDbEntity
  8
0
  6
CONTINUOUS
 62
               7
100
AcDbCircle
 10
98.499999999999972
 20
-18.0
 30
0.0
 40
1.6499999999999999
  0
LINE
  5
323
100
AcDbEntity
  8
0
  6
CONTINUOUS
 62
               2
100
AcDbLine
 10
109.49999999999997
 20
-18.0
 30
0.0
 11
115.49999999999997
 21
-18.0
 31
0.0
  0
LINE
  5
324
100
AcDbEntity
  8
0
  6
CONTINUOUS
 62
               2
100
AcDbLine
 10
112.49999999999997
 20
-15.0
 30
0.0
 11
112.49999999999997
 21
-21.0
 31
0.0
  0
CIRCLE
  5
325
100
AcDbEntity
  8
0
  6
CONTINUOUS
 62
               2
100
AcDbCircle
 10
112.49999999999997
 20
-18.0
 30
0.0
 40
2.0
  0
CIRCLE
  5
326
100
AcDbEntity
  8
0
  6
CONTINUOUS
 62
               7
100
AcDbCircle
 10
112.49999999999997
 20
-18.0
 30
0.0
 40
1.6499999999999999
  0
LINE
  5
327
100
AcDbEntity
  8
0
  6
CONTINUOUS
 62
               2
100
AcDbLine
 10
105.49999999999997
 20
-15.0
 30
0.0
 11
105.49999999999997
 21
-21.0
 31
0.0
  0
LINE
  5
328
100
AcDbEntity
  8
0
  6
CONTINUOUS
 62
               2
100
AcDbLine
 10
102.49999999999997
 20
-18.0
 30
0.0
 11
108.49999999999997
 21
-18.0
 31
0.0
  0
LINE
  5
329
100
AcDbEntity
  8
0
  6
CONTINUOUS
 62
               7
100
AcDbLine
 10
96.999999999999943
 20
-9.0
 30
0.0
 11
96.999999999999943
 21
-12.0
 31
0.0
  0
LINE
  5
32A
100
AcDbEntity
  8
0
  6
CONTINUOUS
 62
               7
100
AcDbLine
 10
96.999999999999943
 20
-9.0
 30
0.0
 11
104.99999999999994
 21
-9.0
 31
0.0
  0
LINE
  5
32B
100
AcDbEntity
  8
0
  6
CONTINUOUS
 62
               7
100
AcDbLine
 10
104.99999999999994
 20
-9.0
 30
0.0
 11
104.99999999999994
 21
-12.0
 31
0.0
  0
LINE
  5
32C
100
AcDbEntity
  8
0
  6
CONTINUOUS
 62
               7
100
AcDbLine
 10
31.999999999999943
 20
-9.0
 30
0.0
 11
39.999999999999943
 21
-9.0
 31
0.0
  0
LINE
  5
32D
100
AcDbEntity
  8
0
  6
CONTINUOUS
 62
               7
100
AcDbLine
 10
31.999999999999943
 20
-9.0
 30
0.0
 11
31.999999999999943
 21
-12.0
 31
0.0
  0
LINE
  5
32E
100
AcDbEntity
  8
0
  6
CONTINUOUS
 62
               7
100
AcDbLine
 10
39.999999999999943
 20
-9.0
 30
0.0
 11
39.999999999999943
 21
-12.0
 31
0.0
  0
LINE
  5
32F
100
AcDbEntity
  8
0
  6
CONTINUOUS
 62
               7
100
AcDbLine
 10
14.999999987179194
 20
-14.5
 30
0.0
 11
14.999999987179194
 21
-23.0
 31
0.0
  0
LINE
  5
330
100
AcDbEntity
  8
0
  6
CONTINUOUS
 62
               7
100
AcDbLine
 10
14.999999987179194
 20
-23.0
 30
0.0
 11
117.99999999999994
 21
-23.0
 31
0.0
  0
LINE
  5
331
100
AcDbEntity
  8
0
  6
CONTINUOUS
 62
               7
100
AcDbLine
 10
19.999999999999943
 20
0.0
 30
0.0
 11
119.99999999999994
 21
0.0
 31
0.0
  0
LINE
  5
332
100
AcDbEntity
  8
0
  6
CONTINUOUS
 62
               7
100
AcDbLine
 10
14.999999987179194
 20
-14.5
 30
0.0
 11
117.99999999999994
 21
-14.5
 31
0.0
  0
LINE
  5
333
100
AcDbEntity
  8
0
  6
CONTINUOUS
 62
               7
100
AcDbLine
 10
119.99999999999994
 20
-18.900000000000006
 30
0.0
 11
119.99999999999994
 21
0.0
 31
0.0
  0
LINE
  5
334
100
AcDbEntity
  8
0
  6
CONTINUOUS
 62
               7
100
AcDbLine
 10
117.99999999999994
 20
-23.0
 30
0.0
 11
117.99999999999994
 21
-14.5
 31
0.0
  0
LINE
  5
335
100
AcDbEntity
  8
0
  6
CONTINUOUS
 62
               7
100
AcDbLine
 10
19.999999999999943
 20
-14.5
 30
0.0
 11
19.999999999999943
 21
0.0
 31
0.0
  0
LINE
  5
336
100
AcDbEntity
  8
0
  6
CONTINUOUS
 62
               7
100
AcDbLine
 10
21.999999999999943
 20
-12.0
 30
0.0
 11
21.999999999999943
 21
0.0
 31
0.0
  0
LINE
  5
337
100
AcDbEntity
  8
0
  6
CONTINUOUS
 62
               7
100
AcDbLine
 10
30.999999999999943
 20
-12.0
 30
0.0
 11
30.999999999999943
 21
0.0
 31
0.0
  0
CIRCLE
  5
338
100
AcDbEntity
  8
0
  6
CONTINUOUS
 62
               7
100
AcDbCircle
 10
101.99999999999994
 20
-16.5
 30
0.0
 40
0.8
  0
CIRCLE
  5
339
100
AcDbEntity
  8
0
  6
CONTINUOUS
 62
               2
100
AcDbCircle
 10
101.99999999999994
 20
-16.5
 30
0.0
 40
1.0
  0
LINE
  5
33A
100
AcDbEntity
  8
0
  6
CONTINUOUS
 62
               2
100
AcDbLine
 10
100.19999999999996
 20
-16.5
 30
0.0
 11
103.79999999999993
 21
-16.5
 31
0.0
  0
LINE
  5
33B
100
AcDbEntity
  8
0
  6
CONTINUOUS
 62
               2
100
AcDbLine
 10
101.99999999999994
 20
-18.300000000000011
 30
0.0
 11
101.99999999999994
 21
-14.699999999999989
 31
0.0
  0
CIRCLE
  5
33C
100
AcDbEntity
  8
0
  6
CONTINUOUS
 62
               7
100
AcDbCircle
 10
115.99999999999994
 20
-16.5
 30
0.0
 40
0.8
  0
CIRCLE
  5
33D
100
AcDbEntity
  8
0
  6
CONTINUOUS
 62
               2
100
AcDbCircle
 10
115.99999999999994
 20
-16.5
 30
0.0
 40
1.0
  0
LINE
  5
33E
100
AcDbEntity
  8
0
  6
CONTINUOUS
 62
               2
100
AcDbLine
 10
114.19999999999996
 20
-16.5
 30
0.0
 11
117.79999999999993
 21
-16.5
 31
0.0
  0
LINE
  5
33F
100
AcDbEntity
  8
0
  6
CONTINUOUS
 62
               2
100
AcDbLine
 10
115.99999999999994
 20
-18.300000000000011
 30
0.0
 11
115.99999999999994
 21
-14.699999999999989
 31
0.0
  0
CIRCLE
  5
340
100
AcDbEntity
  8
0
  6
CONTINUOUS
 62
               2
100
AcDbCircle
 10
48.999999999999943
 20
-4.5
 30
0.0
 40
1.25
  0
CIRCLE
  5
341
100
AcDbEntity
  8
0
  6
CONTINUOUS
 62
               7
100
AcDbCircle
 10
48.999999999999943
 20
-4.5
 30
0.0
 40
1.05
  0
LINE
  5
342
100
AcDbEntity
  8
0
  6
CONTINUOUS
 62
               2
100
AcDbLine
 10
48.999999999999943
 20
-6.5500000000000114
 30
0.0
 11
48.999999999999943
 21
-2.4499999999999886
 31
0.0
  0
LINE
  5
343
100
AcDbEntity
  8
0
  6
CONTINUOUS
 62
               2
100
AcDbLine
 10
46.949999999999932
 20
-4.5
 30
0.0
 11
51.049999999999955
 21
-4.5
 31
0.0
  0
CIRCLE
  5
344
100
AcDbEntity
  8
0
  6
CONTINUOUS
 62
               2
100
AcDbCircle
 10
104.99999999999994
 20
-4.5
 30
0.0
 40
1.25
  0
CIRCLE
  5
345
100
AcDbEntity
  8
0
  6
CONTINUOUS
 62
               7
100
AcDbCircle
 10
104.99999999999994
 20
-4.5
 30
0.0
 40
1.05
  0
LINE
  5
346
100
AcDbEntity
  8
0
  6
CONTINUOUS
 62
               2
100
AcDbLine
 10
104.99999999999994
 20
-6.5500000000000114
 30
0.0
 11
104.99999999999994
 21
-2.4499999999999886
 31
0.0
  0
LINE
  5
347
100
AcDbEntity
  8
0
  6
CONTINUOUS
 62
               2
100
AcDbLine
 10
102.94999999999993
 20
-4.5
 30
0.0
 11
107.04999999999995
 21
-4.5
 31
0.0
  0
LINE
  5
348
100
AcDbEntity
  8
0
  6
CONTINUOUS
 62
               2
100
AcDbLine
 10
85.499999999999972
 20
-18.0
 30
0.0
 11
91.499999999999972
 21
-18.0
 31
0.0
  0
LINE
  5
349
100
AcDbEntity
  8
0
  6
CONTINUOUS
 62
               2
100
AcDbLine
 10
88.499999999999972
 20
-15.0
 30
0.0
 11
88.499999999999972
 21
-21.0
 31
0.0
  0
CIRCLE
  5
34A
100
AcDbEntity
  8
0
  6
CONTINUOUS
 62
               2
100
AcDbCircle
 10
88.499999999999972
 20
-18.0
 30
0.0
 40
2.0
  0
CIRCLE
  5
34B
100
AcDbEntity
  8
0
  6
CONTINUOUS
 62
               7
100
AcDbCircle
 10
88.499999999999972
 20
-18.0
 30
0.0
 40
1.6499999999999999
  0
LINE
  5
34C
100
AcDbEntity
  8
0
  6
CONTINUOUS
 62
               7
100
AcDbLine
 10
0.0
 20
-22.800000000000011
 30
0.0
 11
14.999999987179194
 21
-22.800000000000011
 31
0.0
  0
LINE
  5
34D
100
AcDbEntity
  8
0
  6
CONTINUOUS
 62
               7
100
AcDbLine
 10
14.999999987179194
 20
-22.300000000000011
 30
0.0
 11
0.0
 21
-22.300000000000011
 31
0.0
  0
LINE
  5
34E
100
AcDbEntity
  8
0
  6
CONTINUOUS
 62
               7
100
AcDbLine
 10
12.999999999999943
 20
-12.499999999999943
 30
0.0
 11
12.999999999999943
 21
-13.5
 31
0.0
  0
LINE
  5
34F
100
AcDbEntity
  8
0
  6
CONTINUOUS
 62
               7
100
AcDbLine
 10
7.9999999999999716
 20
-13.5
 30
0.0
 11
15.999999987179194
 21
-13.5
 31
0.0
  0
LINE
  5
350
100
AcDbEntity
  8
0
  6
CONTINUOUS
 62
               7
100
AcDbLine
 10
10.199999999999932
 20
-11.497498435543775
 30
0.0
 11
11.999999999999943
 21
-11.497498435543775
 31
0.0
  0
LINE
  5
351
100
AcDbEntity
  8
0
  6
CONTINUOUS
 62
               7
100
AcDbLine
 10
7.9999999999999716
 20
-13.241657386773909
 30
0.0
 11
10.199999999999932
 21
-13.241657386773909
 31
0.0
  0
LINE
  5
352
100
AcDbEntity
  8
0
  6
CONTINUOUS
 62
               7
100
AcDbLine
 10
10.199999999999932
 20
-11.497498435543775
 30
0.0
 11
10.199999999999932
 21
-13.5
 31
0.0
  0
LINE
  5
353
100
AcDbEntity
  8
0
  6
CONTINUOUS
 62
               2
100
AcDbLine
 10
10.199999999999932
 20
-13.241657386773909
 30
0.0
 11
7.9999999999999716
 21
-5.7583426132260342
 31
0.0
  0
LINE
  5
354
100
AcDbEntity
  8
0
  6
CONTINUOUS
 62
               2
100
AcDbLine
 10
10.199999999999932
 20
-5.7583426132260342
 30
0.0
 11
7.9999999999999716
 21
-13.241657386773909
 31
0.0
  0
LINE
  5
355
100
AcDbEntity
  8
0
  6
CONTINUOUS
 62
               7
100
AcDbLine
 10
10.199999999999932
 20
-7.5025015644561677
 30
0.0
 11
11.999999999999943
 21
-7.5025015644561677
 31
0.0
  0
LINE
  5
356
100
AcDbEntity
  8
0
  6
CONTINUOUS
 62
               7
100
AcDbLine
 10
7.9999999999999716
 20
-5.7583426132260342
 30
0.0
 11
10.199999999999932
 21
-5.7583426132260342
 31
0.0
  0
LINE
  5
357
100
AcDbEntity
  8
0
  6
CONTINUOUS
 62
               7
100
AcDbLine
 10
15.999999987179194
 20
-13.5
 30
0.0
 11
15.999999987179194
 21
-14.5
 31
0.0
  0
LINE
  5
358
100
AcDbEntity
  8
0
  6
CONTINUOUS
 62
               7
100
AcDbLine
 10
11.999999999999943
 20
-12.5
 30
0.0
 11
19.999999999999943
 21
-12.5
 31
0.0
  0
LINE
  5
359
100
AcDbEntity
  8
0
  6
CONTINUOUS
 62
               2
100
AcDbLine
 10
4.9999999999999716
 20
-9.4999999999999716
 30
0.0
 11
21.213298307512446
 21
-9.4999999999999716
 31
0.0
  0
LINE
  5
35A
100
AcDbEntity
  8
0
  6
CONTINUOUS
 62
               7
100
AcDbLine
 10
19.999999999999943
 20
-0.1999999999999886
 30
0.0
 11
11.999999999999943
 21
-0.1999999999999886
 31
0.0
  0
LINE
  5
35B
100
AcDbEntity
  8
0
  6
CONTINUOUS
 62
               7
100
AcDbLine
 10
7.9999999871791658
 20
-1.5
 30
0.0
 11
0.0
 21
-1.5
 31
0.0
  0
LINE
  5
35C
100
AcDbEntity
  8
0
  6
CONTINUOUS
 62
               7
100
AcDbLine
 10
7.9999999999999716
 20
-1.9999999999999716
 30
0.0
 11
10.199999999999932
 21
-1.9999999999999716
 31
0.0
  0
LINE
  5
35D
100
AcDbEntity
  8
0
  6
CONTINUOUS
 62
               7
100
AcDbLine
 10
10.199999999999932
 20
-2.6999999999999886
 30
0.0
 11
11.999999999999943
 21
-2.6999999999999886
 31
0.0
  0
LINE
  5
35E
100
AcDbEntity
  8
0
  6
CONTINUOUS
 62
               7
100
AcDbLine
 10
10.199999999999932
 20
-1.9999999999999716
 30
0.0
 11
10.199999999999932
 21
-7.5025015644561677
 31
0.0
  0
LINE
  5
35F
100
AcDbEntity
  8
0
  6
CONTINUOUS
 62
               7
100
AcDbLine
 10
11.999999999999943
 20
-0.1999999999999886
 30
0.0
 11
11.999999999999943
 21
-13.5
 31
0.0
  0
LINE
  5
360
100
AcDbEntity
  8
0
  6
CONTINUOUS
 62
               7
100
AcDbLine
 10
7.9999999999999716
 20
-1.5
 30
0.0
 11
7.9999999999999716
 21
-13.5
 31
0.0
  0
LINE
  5
361
100
AcDbEntity
  8
0
  6
CONTINUOUS
 62
               7
100
AcDbLine
 10
0.0
 20
-22.800000000000011
 30
0.0
 11
0.0
 21
-1.5
 31
0.0
  0
LINE
  5
362
100
AcDbEntity
  8
0
  6
CONTINUOUS
 62
               7
100
AcDbLine
 10
19.999999999999943
 20
-14.0
 30
0.0
 11
119.99999999999994
 21
-14.0
 31
0.0
  0
LINE
  5
363
100
AcDbEntity
  8
0
  6
CONTINUOUS
 62
               7
100
AcDbLine
 10
16.000000090311403
 20
-7.4433756842825858
 30
0.0
 11
14.749999964495657
 21
-6.7216877827842723
 31
0.0
  0
LINE
  5
364
100
AcDbEntity
  8
0
  6
CONTINUOUS
 62
               7
100
AcDbLine
 10
14.75000003536212
 20
-6.7216879203532756
 30
0.0
 11
14.750000028755778
 21
-5.278312105913983
 31
0.0
  0
LINE
  5
365
100
AcDbEntity
  8
0
  6
CONTINUOUS
 62
               7
100
AcDbLine
 10
17.249999964637766
 20
-5.2783120796465539
 30
0.0
 11
17.249999971244108
 21
-6.7216878940858749
 31
0.0
  0
LINE
  5
366
100
AcDbEntity
  8
0
  6
CONTINUOUS
 62
               7
100
AcDbLine
 10
17.250000054949226
 20
-6.721687763929225
 30
0.0
 11
15.999999935739936
 21
-7.443375676870204
 31
0.0
  0
LINE
  5
367
100
AcDbEntity
  8
0
  6
CONTINUOUS
 62
               7
100
AcDbLine
 10
15.999999909688484
 20
-4.5566243157172437
 30
0.0
 11
17.250000035504229
 21
-5.2783122172155856
 31
0.0
  0
LINE
  5
368
100
AcDbEntity
  8
0
  6
CONTINUOUS
 62
               7
100
AcDbLine
 10
14.749999945050661
 20
-5.2783122360706045
 30
0.0
 11
16.00000006425995
 21
-4.5566243231296255
 31
0.0
  0
CIRCLE
  5
369
100
AcDbEntity
  8
0
  6
CONTINUOUS
 62
               7
100
AcDbCircle
 10
15.999999999999943
 20
-5.9999999999999147
 30
0.0
 40
2.5
  0
CIRCLE
  5
36A
100
AcDbEntity
  8
0
  6
CONTINUOUS
 62
               2
100
AcDbCircle
 10
15.999999999999943
 20
-5.9999999999999147
 30
0.0
 40
2.1000000000000001
  0
LINE
  5
36B
100
AcDbEntity
  8
0
  6
CONTINUOUS
 62
               7
100
AcDbLine
 10
43.000000090311403
 20
-7.4433756842826142
 30
0.0
 11
41.749999964495657
 21
-6.7216877827843007
 31
0.0
  0
LINE
  5
36C
100
AcDbEntity
  8
0
  6
CONTINUOUS
 62
               7
100
AcDbLine
 10
41.75000003536212
 20
-6.721687920353304
 30
0.0
 11
41.750000028755778
 21
-5.2783121059140115
 31
0.0
  0
LINE
  5
36D
100
AcDbEntity
  8
0
  6
CONTINUOUS
 62
               7
100
AcDbLine
 10
44.249999964637766
 20
-5.2783120796465823
 30
0.0
 11
44.249999971244108
 21
-6.7216878940859033
 31
0.0
  0
LINE
  5
36E
100
AcDbEntity
  8
0
  6
CONTINUOUS
 62
               7
100
AcDbLine
 10
44.250000054949226
 20
-6.7216877639292534
 30
0.0
 11
42.999999935739936
 21
-7.4433756768702324
 31
0.0
  0
LINE
  5
36F
100
AcDbEntity
  8
0
  6
CONTINUOUS
 62
               7
100
AcDbLine
 10
42.999999909688484
 20
-4.5566243157172721
 30
0.0
 11
44.250000035504229
 21
-5.2783122172156141
 31
0.0
  0
LINE
  5
370
100
AcDbEntity
  8
0
  6
CONTINUOUS
 62
               7
100
AcDbLine
 10
41.749999945050661
 20
-5.2783122360706329
 30
0.0
 11
43.00000006425995
 21
-4.5566243231296539
 31
0.0
  0
CIRCLE
  5
371
100
AcDbEntity
  8
0
  6
CONTINUOUS
 62
               7
100
AcDbCircle
 10
42.999999999999943
 20
-5.9999999999999432
 30
0.0
 40
2.5
  0
CIRCLE
  5
372
100
AcDbEntity
  8
0
  6
CONTINUOUS
 62
               2
100
AcDbCircle
 10
42.999999999999943
 20
-5.9999999999999432
 30
0.0
 40
2.1000000000000001
  0
LINE
  5
373
100
AcDbEntity
  8
0
  6
CONTINUOUS
 62
               7
100
AcDbLine
 10
110.0000000903114
 20
-7.4433756842826142
 30
0.0
 11
108.74999996449566
 21
-6.7216877827843007
 31
0.0
  0
LINE
  5
374
100
AcDbEntity
  8
0
  6
CONTINUOUS
 62
               7
100
AcDbLine
 10
108.75000003536212
 20
-6.721687920353304
 30
0.0
 11
108.75000002875578
 21
-5.2783121059140115
 31
0.0
  0
LINE
  5
375
100
AcDbEntity
  8
0
  6
CONTINUOUS
 62
               7
100
AcDbLine
 10
111.24999996463777
 20
-5.2783120796465823
 30
0.0
 11
111.24999997124411
 21
-6.7216878940859033
 31
0.0
  0
LINE
  5
376
100
AcDbEntity
  8
0
  6
CONTINUOUS
 62
               7
100
AcDbLine
 10
111.25000005494923
 20
-6.7216877639292534
 30
0.0
 11
109.99999993573994
 21
-7.4433756768702324
 31
0.0
  0
LINE
  5
377
100
AcDbEntity
  8
0
  6
CONTINUOUS
 62
               7
100
AcDbLine
 10
109.99999990968848
 20
-4.5566243157172721
 30
0.0
 11
111.25000003550423
 21
-5.2783122172156141
 31
0.0
  0
LINE
  5
378
100
AcDbEntity
  8
0
  6
CONTINUOUS
 62
               7
100
AcDbLine
 10
108.74999994505066
 20
-5.2783122360706329
 30
0.0
 11
110.00000006425995
 21
-4.5566243231296539
 31
0.0
  0
CIRCLE
  5
379
100
AcDbEntity
  8
0
  6
CONTINUOUS
 62
               7
100
AcDbCircle
 10
109.99999999999994
 20
-5.9999999999999432
 30
0.0
 40
2.5
  0
CIRCLE
  5
37A
100
AcDbEntity
  8
0
  6
CONTINUOUS
 62
               2
100
AcDbCircle
 10
109.99999999999994
 20
-5.9999999999999432
 30
0.0
 40
2.1000000000000001
  0
ENDBLK
  5
37B
100
AcDbEntity
  8
0
100
AcDbBlockEnd
  0
BLOCK
  5
37C
100
AcDbEntity
  8
0
100
AcDbBlockBegin
  2
CS-MGA16-11
 70
               0
 10
0.0
 20
0.0
 30
0.0
  3
CS-MGA16-11
  1

  0
LINE
  5
37D
100
AcDbEntity
  8
0
  6
CONTINUOUS
 62
               7
100
AcDbLine
 10
19.999999999999943
 20
14.0
 30
0.0
 11
119.99999999999994
 21
14.0
 31
0.0
  0
LINE
  5
37E
100
AcDbEntity
  8
0
  6
CONTINUOUS
 62
               7
100
AcDbLine
 10
7.9999999999999716
 20
5.7583426132260342
 30
0.0
 11
10.199999999999932
 21
5.7583426132260342
 31
0.0
  0
LINE
  5
37F
100
AcDbEntity
  8
0
  6
CONTINUOUS
 62
               7
100
AcDbLine
 10
10.199999999999932
 20
2.6999999999999744
 30
0.0
 11
11.999999999999943
 21
2.6999999999999744
 31
0.0
  0
LINE
  5
380
100
AcDbEntity
  8
0
  6
CONTINUOUS
 62
               7
100
AcDbLine
 10
7.9999999999999716
 20
1.9999999999999716
 30
0.0
 11
10.199999999999932
 21
1.9999999999999716
 31
0.0
  0
LINE
  5
381
100
AcDbEntity
  8
0
  6
CONTINUOUS
 62
               7
100
AcDbLine
 10
10.199999999999932
 20
7.5025015644561677
 30
0.0
 11
11.999999999999943
 21
7.5025015644561677
 31
0.0
  0
LINE
  5
382
100
AcDbEntity
  8
0
  6
CONTINUOUS
 62
               7
100
AcDbLine
 10
10.199999999999932
 20
1.9999999999999716
 30
0.0
 11
10.199999999999932
 21
7.5025015644561677
 31
0.0
  0
LINE
  5
383
100
AcDbEntity
  8
0
  6
CONTINUOUS
 62
               2
100
AcDbLine
 10
10.199999999999932
 20
5.7583426132260342
 30
0.0
 11
7.9999999999999716
 21
13.241657386773909
 31
0.0
  0
LINE
  5
384
100
AcDbEntity
  8
0
  6
CONTINUOUS
 62
               2
100
AcDbLine
 10
10.199999999999932
 20
13.241657386773909
 30
0.0
 11
7.9999999999999716
 21
5.7583426132260342
 31
0.0
  0
LINE
  5
385
100
AcDbEntity
  8
0
  6
CONTINUOUS
 62
               7
100
AcDbLine
 10
10.199999999999932
 20
11.497498435543775
 30
0.0
 11
10.199999999999932
 21
13.5
 31
0.0
  0
LINE
  5
386
100
AcDbEntity
  8
0
  6
CONTINUOUS
 62
               7
100
AcDbLine
 10
7.9999999999999716
 20
13.241657386773909
 30
0.0
 11
10.199999999999932
 21
13.241657386773909
 31
0.0
  0
LINE
  5
387
100
AcDbEntity
  8
0
  6
CONTINUOUS
 62
               7
100
AcDbLine
 10
10.199999999999932
 20
11.497498435543775
 30
0.0
 11
11.999999999999943
 21
11.497498435543775
 31
0.0
  0
LINE
  5
388
100
AcDbEntity
  8
0
  6
CONTINUOUS
 62
               2
100
AcDbLine
 10
15.999999999999943
 20
2.4999999999999147
 30
0.0
 11
15.999999999999943
 21
9.4999999999999147
 31
0.0
  0
CIRCLE
  5
389
100
AcDbEntity
  8
0
  6
CONTINUOUS
 62
               7
100
AcDbCircle
 10
15.999999999999943
 20
5.9999999999999147
 30
0.0
 40
2.1000000000000001
  0
CIRCLE
  5
38A
100
AcDbEntity
  8
0
  6
CONTINUOUS
 62
               2
100
AcDbCircle
 10
15.999999999999943
 20
5.9999999999999147
 30
0.0
 40
2.5
  0
LINE
  5
38B
100
AcDbEntity
  8
0
  6
CONTINUOUS
 62
               7
100
AcDbLine
 10
11.999999999999943
 20
0.2000000000000028
 30
0.0
 11
11.999999999999943
 21
13.5
 31
0.0
  0
LINE
  5
38C
100
AcDbEntity
  8
0
  6
CONTINUOUS
 62
               7
100
AcDbLine
 10
7.9999999871791658
 20
1.4999999999999858
 30
0.0
 11
0.0
 21
1.4999999999999858
 31
0.0
  0
LINE
  5
38D
100
AcDbEntity
  8
0
  6
CONTINUOUS
 62
               7
100
AcDbLine
 10
7.9999999999999716
 20
1.4999999999999858
 30
0.0
 11
7.9999999999999716
 21
13.5
 31
0.0
  0
LINE
  5
38E
100
AcDbEntity
  8
0
  6
CONTINUOUS
 62
               7
100
AcDbLine
 10
0.0
 20
22.799999999999997
 30
0.0
 11
14.999999987179194
 21
22.799999999999997
 31
0.0
  0
LINE
  5
38F
100
AcDbEntity
  8
0
  6
CONTINUOUS
 62
               7
100
AcDbLine
 10
0.0
 20
22.799999999999997
 30
0.0
 11
0.0
 21
1.4999999999999858
 31
0.0
  0
LINE
  5
390
100
AcDbEntity
  8
0
  6
CONTINUOUS
 62
               7
100
AcDbLine
 10
7.9999999999999716
 20
13.5
 30
0.0
 11
15.999999987179194
 21
13.5
 31
0.0
  0
LINE
  5
391
100
AcDbEntity
  8
0
  6
CONTINUOUS
 62
               7
100
AcDbLine
 10
15.999999987179194
 20
13.5
 30
0.0
 11
15.999999987179194
 21
14.5
 31
0.0
  0
LINE
  5
392
100
AcDbEntity
  8
0
  6
CONTINUOUS
 62
               7
100
AcDbLine
 10
12.999999999999943
 20
12.499999999999929
 30
0.0
 11
12.999999999999943
 21
13.5
 31
0.0
  0
LINE
  5
393
100
AcDbEntity
  8
0
  6
CONTINUOUS
 62
               7
100
AcDbLine
 10
19.999999999999943
 20
0.2000000000000028
 30
0.0
 11
11.999999999999943
 21
0.2000000000000028
 31
0.0
  0
LINE
  5
394
100
AcDbEntity
  8
0
  6
CONTINUOUS
 62
               2
100
AcDbLine
 10
12.499999999999943
 20
5.9999999999999147
 30
0.0
 11
19.499999999999943
 21
5.9999999999999147
 31
0.0
  0
LINE
  5
395
100
AcDbEntity
  8
0
  6
CONTINUOUS
 62
               7
100
AcDbLine
 10
11.999999999999943
 20
12.5
 30
0.0
 11
19.999999999999943
 21
12.5
 31
0.0
  0
LINE
  5
396
100
AcDbEntity
  8
0
  6
CONTINUOUS
 62
               2
100
AcDbLine
 10
4.9999999999999716
 20
9.4999999999999716
 30
0.0
 11
21.213298307512446
 21
9.4999999999999716
 31
0.0
  0
LINE
  5
397
100
AcDbEntity
  8
0
  6
CONTINUOUS
 62
               2
100
AcDbLine
 10
85.499999999999972
 20
17.999999999999986
 30
0.0
 11
91.499999999999972
 21
17.999999999999986
 31
0.0
  0
LINE
  5
398
100
AcDbEntity
  8
0
  6
CONTINUOUS
 62
               2
100
AcDbLine
 10
88.499999999999972
 20
14.999999999999986
 30
0.0
 11
88.499999999999972
 21
20.999999999999986
 31
0.0
  0
CIRCLE
  5
399
100
AcDbEntity
  8
0
  6
CONTINUOUS
 62
               2
100
AcDbCircle
 10
88.499999999999972
 20
17.999999999999986
 30
0.0
 40
2.0
  0
CIRCLE
  5
39A
100
AcDbEntity
  8
0
  6
CONTINUOUS
 62
               7
100
AcDbCircle
 10
88.499999999999972
 20
17.999999999999986
 30
0.0
 40
1.6499999999999999
  0
LINE
  5
39B
100
AcDbEntity
  8
0
  6
CONTINUOUS
 62
               2
100
AcDbLine
 10
101.99999999999994
 20
18.299999999999983
 30
0.0
 11
101.99999999999994
 21
14.699999999999989
 31
0.0
  0
LINE
  5
39C
100
AcDbEntity
  8
0
  6
CONTINUOUS
 62
               2
100
AcDbLine
 10
100.19999999999996
 20
16.499999999999986
 30
0.0
 11
103.79999999999993
 21
16.499999999999986
 31
0.0
  0
CIRCLE
  5
39D
100
AcDbEntity
  8
0
  6
CONTINUOUS
 62
               2
100
AcDbCircle
 10
101.99999999999994
 20
16.499999999999986
 30
0.0
 40
1.0
  0
CIRCLE
  5
39E
100
AcDbEntity
  8
0
  6
CONTINUOUS
 62
               7
100
AcDbCircle
 10
101.99999999999994
 20
16.499999999999986
 30
0.0
 40
0.8
  0
LINE
  5
39F
100
AcDbEntity
  8
0
  6
CONTINUOUS
 62
               2
100
AcDbLine
 10
115.99999999999994
 20
18.299999999999983
 30
0.0
 11
115.99999999999994
 21
14.699999999999989
 31
0.0
  0
LINE
  5
3A0
100
AcDbEntity
  8
0
  6
CONTINUOUS
 62
               2
100
AcDbLine
 10
114.19999999999996
 20
16.499999999999986
 30
0.0
 11
117.79999999999993
 21
16.499999999999986
 31
0.0
  0
CIRCLE
  5
3A1
100
AcDbEntity
  8
0
  6
CONTINUOUS
 62
               2
100
AcDbCircle
 10
115.99999999999994
 20
16.499999999999986
 30
0.0
 40
1.0
  0
CIRCLE
  5
3A2
100
AcDbEntity
  8
0
  6
CONTINUOUS
 62
               7
100
AcDbCircle
 10
115.99999999999994
 20
16.499999999999986
 30
0.0
 40
0.8
  0
LINE
  5
3A3
100
AcDbEntity
  8
0
  6
CONTINUOUS
 62
               2
100
AcDbLine
 10
46.949999999999932
 20
4.4999999999999716
 30
0.0
 11
51.049999999999955
 21
4.4999999999999716
 31
0.0
  0
LINE
  5
3A4
100
AcDbEntity
  8
0
  6
CONTINUOUS
 62
               2
100
AcDbLine
 10
48.999999999999943
 20
6.5499999999999687
 30
0.0
 11
48.999999999999943
 21
2.4499999999999744
 31
0.0
  0
CIRCLE
  5
3A5
100
AcDbEntity
  8
0
  6
CONTINUOUS
 62
               7
100
AcDbCircle
 10
48.999999999999943
 20
4.4999999999999716
 30
0.0
 40
1.05
  0
CIRCLE
  5
3A6
100
AcDbEntity
  8
0
  6
CONTINUOUS
 62
               2
100
AcDbCircle
 10
48.999999999999943
 20
4.4999999999999716
 30
0.0
 40
1.25
  0
LINE
  5
3A7
100
AcDbEntity
  8
0
  6
CONTINUOUS
 62
               2
100
AcDbLine
 10
102.94999999999993
 20
4.4999999999999716
 30
0.0
 11
107.04999999999995
 21
4.4999999999999716
 31
0.0
  0
LINE
  5
3A8
100
AcDbEntity
  8
0
  6
CONTINUOUS
 62
               2
100
AcDbLine
 10
104.99999999999994
 20
6.5499999999999687
 30
0.0
 11
104.99999999999994
 21
2.4499999999999744
 31
0.0
  0
CIRCLE
  5
3A9
100
AcDbEntity
  8
0
  6
CONTINUOUS
 62
               7
100
AcDbCircle
 10
104.99999999999994
 20
4.4999999999999716
 30
0.0
 40
1.05
  0
CIRCLE
  5
3AA
100
AcDbEntity
  8
0
  6
CONTINUOUS
 62
               2
100
AcDbCircle
 10
104.99999999999994
 20
4.4999999999999716
 30
0.0
 40
1.25
  0
CIRCLE
  5
3AB
100
AcDbEntity
  8
0
  6
CONTINUOUS
 62
               7
100
AcDbCircle
 10
105.49999999999997
 20
17.999999999999986
 30
0.0
 40
2.0
  0
LINE
  5
3AC
100
AcDbEntity
  8
0
  6
CONTINUOUS
 62
               7
100
AcDbLine
 10
14.999999987179194
 20
22.5
 30
0.0
 11
117.99999999999994
 21
22.5
 31
0.0
  0
LINE
  5
3AD
100
AcDbEntity
  8
0
  6
CONTINUOUS
 62
               7
100
AcDbLine
 10
14.999999987179194
 20
22.299999999999997
 30
0.0
 11
0.0
 21
22.299999999999997
 31
0.0
  0
LINE
  5
3AE
100
AcDbEntity
  8
0
  6
CONTINUOUS
 62
               2
100
AcDbLine
 10
26.499999999999943
 20
3.0
 30
0.0
 11
26.499999999999943
 21
10.0
 31
0.0
  0
CIRCLE
  5
3AF
100
AcDbEntity
  8
0
  6
CONTINUOUS
 62
               2
100
AcDbCircle
 10
26.499999999999943
 20
6.5
 30
0.0
 40
2.5
  0
LINE
  5
3B0
100
AcDbEntity
  8
0
  6
CONTINUOUS
 62
               2
100
AcDbLine
 10
22.999999999999943
 20
6.5
 30
0.0
 11
29.999999999999943
 21
6.5
 31
0.0
  0
CIRCLE
  5
3B1
100
AcDbEntity
  8
0
  6
CONTINUOUS
 62
               7
100
AcDbCircle
 10
26.499999999999943
 20
6.5
 30
0.0
 40
2.1000000000000001
  0
LINE
  5
3B2
100
AcDbEntity
  8
0
  6
CONTINUOUS
 62
               7
100
AcDbLine
 10
119.99999999999994
 20
18.899999999999991
 30
0.0
 11
118.79999999999995
 21
18.899999999999991
 31
0.0
  0
LINE
  5
3B3
100
AcDbEntity
  8
0
  6
CONTINUOUS
 62
               7
100
AcDbLine
 10
119.39999999999992
 20
15.999999999999986
 30
0.0
 11
119.39999999999992
 21
17.999999999999986
 31
0.0
  0
LINE
  5
3B4
100
AcDbEntity
  8
0
  6
CONTINUOUS
 62
               7
100
AcDbLine
 10
118.89999999999992
 20
18.499999999999986
 30
0.0
 11
118.79999999999995
 21
18.499999999999986
 31
0.0
  0
ARC
  5
3B5
100
AcDbEntity
  8
0
  6
CONTINUOUS
 62
               7
100
AcDbCircle
 10
118.89999999999992
 20
17.999999999999986
 30
0.0
 40
0.5
100
AcDbArc
 50
0.0
 51
90.0
  0
ARC
  5
3B6
100
AcDbEntity
  8
0
  6
CONTINUOUS
 62
               7
100
AcDbCircle
 10
118.89999999999992
 20
15.999999999999986
 30
0.0
 40
0.5
100
AcDbArc
 50
270.0
 51
0.0
  0
LINE
  5
3B7
100
AcDbEntity
  8
0
  6
CONTINUOUS
 62
               7
100
AcDbLine
 10
118.89999999999992
 20
15.499999999999986
 30
0.0
 11
118.79999999999995
 21
15.499999999999986
 31
0.0
  0
LINE
  5
3B8
100
AcDbEntity
  8
0
  6
CONTINUOUS
 62
               7
100
AcDbLine
 10
118.79999999999995
 20
14.5
 30
0.0
 11
118.79999999999995
 21
22.499999986528309
 31
0.0
  0
LINE
  5
3B9
100
AcDbEntity
  8
0
  6
CONTINUOUS
 62
               7
100
AcDbLine
 10
117.99999999999994
 20
14.5
 30
0.0
 11
118.79999999999995
 21
14.5
 31
0.0
  0
LINE
  5
3BA
100
AcDbEntity
  8
0
  6
CONTINUOUS
 62
               7
100
AcDbLine
 10
117.99999999999994
 20
22.5
 30
0.0
 11
118.79999999999995
 21
22.5
 31
0.0
  0
LINE
  5
3BB
100
AcDbEntity
  8
0
  6
CONTINUOUS
 62
               7
100
AcDbLine
 10
19.999999999999943
 20
12.0
 30
0.0
 11
119.99999999999994
 21
12.0
 31
0.0
  0
LINE
  5
3BC
100
AcDbEntity
  8
0
  6
CONTINUOUS
 62
               2
100
AcDbLine
 10
95.499999999999972
 20
17.999999999999986
 30
0.0
 11
101.49999999999997
 21
17.999999999999986
 31
0.0
  0
LINE
  5
3BD
100
AcDbEntity
  8
0
  6
CONTINUOUS
 62
               2
100
AcDbLine
 10
98.499999999999972
 20
14.999999999999986
 30
0.0
 11
98.499999999999972
 21
20.999999999999986
 31
0.0
  0
CIRCLE
  5
3BE
100
AcDbEntity
  8
0
  6
CONTINUOUS
 62
               2
100
AcDbCircle
 10
98.499999999999972
 20
17.999999999999986
 30
0.0
 40
2.0
  0
CIRCLE
  5
3BF
100
AcDbEntity
  8
0
  6
CONTINUOUS
 62
               7
100
AcDbCircle
 10
98.499999999999972
 20
17.999999999999986
 30
0.0
 40
1.6499999999999999
  0
LINE
  5
3C0
100
AcDbEntity
  8
0
  6
CONTINUOUS
 62
               2
100
AcDbLine
 10
109.49999999999997
 20
17.999999999999986
 30
0.0
 11
115.49999999999997
 21
17.999999999999986
 31
0.0
  0
LINE
  5
3C1
100
AcDbEntity
  8
0
  6
CONTINUOUS
 62
               2
100
AcDbLine
 10
112.49999999999997
 20
14.999999999999986
 30
0.0
 11
112.49999999999997
 21
20.999999999999986
 31
0.0
  0
CIRCLE
  5
3C2
100
AcDbEntity
  8
0
  6
CONTINUOUS
 62
               2
100
AcDbCircle
 10
112.49999999999997
 20
17.999999999999986
 30
0.0
 40
2.0
  0
CIRCLE
  5
3C3
100
AcDbEntity
  8
0
  6
CONTINUOUS
 62
               7
100
AcDbCircle
 10
112.49999999999997
 20
17.999999999999986
 30
0.0
 40
1.6499999999999999
  0
LINE
  5
3C4
100
AcDbEntity
  8
0
  6
CONTINUOUS
 62
               2
100
AcDbLine
 10
105.49999999999997
 20
14.999999999999986
 30
0.0
 11
105.49999999999997
 21
20.999999999999986
 31
0.0
  0
LINE
  5
3C5
100
AcDbEntity
  8
0
  6
CONTINUOUS
 62
               2
100
AcDbLine
 10
102.49999999999997
 20
17.999999999999986
 30
0.0
 11
108.49999999999997
 21
17.999999999999986
 31
0.0
  0
LINE
  5
3C6
100
AcDbEntity
  8
0
  6
CONTINUOUS
 62
               7
100
AcDbLine
 10
96.999999999999943
 20
9.0
 30
0.0
 11
96.999999999999943
 21
12.0
 31
0.0
  0
LINE
  5
3C7
100
AcDbEntity
  8
0
  6
CONTINUOUS
 62
               7
100
AcDbLine
 10
96.999999999999943
 20
9.0
 30
0.0
 11
104.99999999999994
 21
9.0
 31
0.0
  0
LINE
  5
3C8
100
AcDbEntity
  8
0
  6
CONTINUOUS
 62
               7
100
AcDbLine
 10
104.99999999999994
 20
9.0
 30
0.0
 11
104.99999999999994
 21
12.0
 31
0.0
  0
LINE
  5
3C9
100
AcDbEntity
  8
0
  6
CONTINUOUS
 62
               7
100
AcDbLine
 10
31.999999999999943
 20
9.0
 30
0.0
 11
39.999999999999943
 21
9.0
 31
0.0
  0
LINE
  5
3CA
100
AcDbEntity
  8
0
  6
CONTINUOUS
 62
               7
100
AcDbLine
 10
31.999999999999943
 20
9.0
 30
0.0
 11
31.999999999999943
 21
12.0
 31
0.0
  0
LINE
  5
3CB
100
AcDbEntity
  8
0
  6
CONTINUOUS
 62
               7
100
AcDbLine
 10
39.999999999999943
 20
9.0
 30
0.0
 11
39.999999999999943
 21
12.0
 31
0.0
  0
LINE
  5
3CC
100
AcDbEntity
  8
0
  6
CONTINUOUS
 62
               7
100
AcDbLine
 10
14.999999987179194
 20
14.5
 30
0.0
 11
14.999999987179194
 21
23.0
 31
0.0
  0
LINE
  5
3CD
100
AcDbEntity
  8
0
  6
CONTINUOUS
 62
               7
100
AcDbLine
 10
14.999999987179194
 20
23.0
 30
0.0
 11
117.99999999999994
 21
23.0
 31
0.0
  0
LINE
  5
3CE
100
AcDbEntity
  8
0
  6
CONTINUOUS
 62
               7
100
AcDbLine
 10
19.999999999999943
 20
0.0
 30
0.0
 11
119.99999999999994
 21
0.0
 31
0.0
  0
LINE
  5
3CF
100
AcDbEntity
  8
0
  6
CONTINUOUS
 62
               7
100
AcDbLine
 10
14.999999987179194
 20
14.5
 30
0.0
 11
117.99999999999994
 21
14.5
 31
0.0
  0
LINE
  5
3D0
100
AcDbEntity
  8
0
  6
CONTINUOUS
 62
               7
100
AcDbLine
 10
119.99999999999994
 20
18.899999999999991
 30
0.0
 11
119.99999999999994
 21
0.0
 31
0.0
  0
LINE
  5
3D1
100
AcDbEntity
  8
0
  6
CONTINUOUS
 62
               7
100
AcDbLine
 10
117.99999999999994
 20
23.0
 30
0.0
 11
117.99999999999994
 21
14.5
 31
0.0
  0
LINE
  5
3D2
100
AcDbEntity
  8
0
  6
CONTINUOUS
 62
               7
100
AcDbLine
 10
19.999999999999943
 20
14.5
 30
0.0
 11
19.999999999999943
 21
0.0
 31
0.0
  0
LINE
  5
3D3
100
AcDbEntity
  8
0
  6
CONTINUOUS
 62
               7
100
AcDbLine
 10
21.999999999999943
 20
12.0
 30
0.0
 11
21.999999999999943
 21
0.0
 31
0.0
  0
LINE
  5
3D4
100
AcDbEntity
  8
0
  6
CONTINUOUS
 62
               7
100
AcDbLine
 10
30.999999999999943
 20
12.0
 30
0.0
 11
30.999999999999943
 21
0.0
 31
0.0
  0
CIRCLE
  5
3D5
100
AcDbEntity
  8
0
  6
CONTINUOUS
 62
               2
100
AcDbCircle
 10
42.999999999999943
 20
5.9999999999999432
 30
0.0
 40
2.5
  0
LINE
  5
3D6
100
AcDbEntity
  8
0
  6
CONTINUOUS
 62
               2
100
AcDbLine
 10
42.999999999999943
 20
2.4999999999999432
 30
0.0
 11
42.999999999999943
 21
9.4999999999999432
 31
0.0
  0
LINE
  5
3D7
100
AcDbEntity
  8
0
  6
CONTINUOUS
 62
               2
100
AcDbLine
 10
39.499999999999943
 20
5.9999999999999432
 30
0.0
 11
46.499999999999943
 21
5.9999999999999432
 31
0.0
  0
CIRCLE
  5
3D8
100
AcDbEntity
  8
0
  6
CONTINUOUS
 62
               7
100
AcDbCircle
 10
42.999999999999943
 20
5.9999999999999432
 30
0.0
 40
2.1000000000000001
  0
CIRCLE
  5
3D9
100
AcDbEntity
  8
0
  6
CONTINUOUS
 62
               2
100
AcDbCircle
 10
109.99999999999994
 20
5.9999999999999432
 30
0.0
 40
2.5
  0
LINE
  5
3DA
100
AcDbEntity
  8
0
  6
CONTINUOUS
 62
               2
100
AcDbLine
 10
109.99999999999994
 20
2.4999999999999432
 30
0.0
 11
109.99999999999994
 21
9.4999999999999432
 31
0.0
  0
LINE
  5
3DB
100
AcDbEntity
  8
0
  6
CONTINUOUS
 62
               2
100
AcDbLine
 10
106.49999999999994
 20
5.9999999999999432
 30
0.0
 11
113.49999999999994
 21
5.9999999999999432
 31
0.0
  0
CIRCLE
  5
3DC
100
AcDbEntity
  8
0
  6
CONTINUOUS
 62
               7
100
AcDbCircle
 10
109.99999999999994
 20
5.9999999999999432
 30
0.0
 40
2.1000000000000001
  0
LINE
  5
3DD
100
AcDbEntity
  8
0
  6
CONTINUOUS
 62
               2
100
AcDbLine
 10
35.999999999999943
 20
-2.5
 30
0.0
 11
35.999999999999943
 21
2.5
 31
0.0
  0
LINE
  5
3DE
100
AcDbEntity
  8
0
  6
CONTINUOUS
 62
               2
100
AcDbLine
 10
100.99999999999994
 20
-2.5
 30
0.0
 11
100.99999999999994
 21
2.5
 31
0.0
  0
LINE
  5
3DF
100
AcDbEntity
  8
0
  6
CONTINUOUS
 62
               2
100
AcDbLine
 10
-2.5
 20
10.0
 30
0.0
 11
2.5
 21
10.0
 31
0.0
  0
LINE
  5
3E0
100
AcDbEntity
  8
0
  6
CONTINUOUS
 62
               2
100
AcDbLine
 10
117.49999999999994
 20
8.0
 30
0.0
 11
122.49999999999994
 21
8.0
 31
0.0
  0
ENDBLK
  5
3E1
100
AcDbEntity
  8
0
100
AcDbBlockEnd
  0
BLOCK
  5
3E2
100
AcDbEntity
  8
0
100
AcDbBlockBegin
  2
CS-MGA16-12
 70
               0
 10
0.0
 20
0.0
 30
0.0
  3
CS-MGA16-12
  1

  0
LINE
  5
3E3
100
AcDbEntity
  8
0
  6
CONTINUOUS
 62
               2
100
AcDbLine
 10
-2.5
 20
14.0
 30
0.0
 11
2.5
 21
14.0
 31
0.0
  0
LINE
  5
3E4
100
AcDbEntity
  8
0
  6
CONTINUOUS
 62
               2
100
AcDbLine
 10
-2.5
 20
-14.0
 30
0.0
 11
2.5
 21
-14.0
 31
0.0
  0
LINE
  5
3E5
100
AcDbEntity
  8
0
  6
CONTINUOUS
 62
               2
100
AcDbLine
 10
117.49999999999994
 20
14.0
 30
0.0
 11
122.49999999999994
 21
14.0
 31
0.0
  0
LINE
  5
3E6
100
AcDbEntity
  8
0
  6
CONTINUOUS
 62
               2
100
AcDbLine
 10
117.49999999999994
 20
-14.0
 30
0.0
 11
122.49999999999994
 21
-14.0
 31
0.0
  0
LINE
  5
3E7
100
AcDbEntity
  8
0
  6
CONTINUOUS
 62
               7
100
AcDbLine
 10
11.999999999999943
 20
-19.299999999999983
 30
0.0
 11
19.999999999999943
 21
-19.299999999999983
 31
0.0
  0
LINE
  5
3E8
100
AcDbEntity
  8
0
  6
CONTINUOUS
 62
               7
100
AcDbLine
 10
11.999999999999943
 20
19.299999999999997
 30
0.0
 11
19.999999999999943
 21
19.299999999999997
 31
0.0
  0
LINE
  5
3E9
100
AcDbEntity
  8
0
  6
CONTINUOUS
 62
               7
100
AcDbLine
 10
11.999999999999943
 20
19.299999999999997
 30
0.0
 11
11.999999999999943
 21
-19.299999999999983
 31
0.0
  0
LINE
  5
3EA
100
AcDbEntity
  8
0
  6
CONTINUOUS
 62
               7
100
AcDbLine
 10
0.0
 20
-8.0
 30
0.0
 11
3.9999999999999716
 21
-8.0
 31
0.0
  0
LINE
  5
3EB
100
AcDbEntity
  8
0
  6
CONTINUOUS
 62
               7
100
AcDbLine
 10
0.0
 20
8.0
 30
0.0
 11
3.9999999999999716
 21
8.0
 31
0.0
  0
LINE
  5
3EC
100
AcDbEntity
  8
0
  6
CONTINUOUS
 62
               7
100
AcDbLine
 10
3.9999999999999716
 20
-4.4000000000000057
 30
0.0
 11
7.9999999871791658
 21
-4.4000000000000057
 31
0.0
  0
LINE
  5
3ED
100
AcDbEntity
  8
0
  6
CONTINUOUS
 62
               7
100
AcDbLine
 10
3.9999999999999716
 20
4.4000000000000057
 30
0.0
 11
7.9999999871791658
 21
4.4000000000000057
 31
0.0
  0
LINE
  5
3EE
100
AcDbEntity
  8
0
  6
CONTINUOUS
 62
               7
100
AcDbLine
 10
10.199999999999932
 20
-6.5
 30
0.0
 11
10.199999999999932
 21
6.5
 31
0.0
  0
LINE
  5
3EF
100
AcDbEntity
  8
0
  6
CONTINUOUS
 62
               7
100
AcDbLine
 10
7.9999999999999716
 20
-6.5
 30
0.0
 11
11.999999999999943
 21
-6.5
 31
0.0
  0
LINE
  5
3F0
100
AcDbEntity
  8
0
  6
CONTINUOUS
 62
               7
100
AcDbLine
 10
7.9999999999999716
 20
6.5
 30
0.0
 11
11.999999999999943
 21
6.5
 31
0.0
  0
LINE
  5
3F1
100
AcDbEntity
  8
0
  6
CONTINUOUS
 62
               7
100
AcDbLine
 10
3.9999999999999716
 20
-3.9999999999999716
 30
0.0
 11
7.9999999871791658
 21
-3.9999999999999716
 31
0.0
  0
LINE
  5
3F2
100
AcDbEntity
  8
0
  6
CONTINUOUS
 62
               7
100
AcDbLine
 10
3.9999999999999716
 20
4.0
 30
0.0
 11
7.9999999871791658
 21
4.0
 31
0.0
  0
LINE
  5
3F3
100
AcDbEntity
  8
0
  6
CONTINUOUS
 62
               7
100
AcDbLine
 10
3.9999999999999716
 20
-8.0
 30
0.0
 11
3.9999999999999716
 21
8.0
 31
0.0
  0
LINE
  5
3F4
100
AcDbEntity
  8
0
  6
CONTINUOUS
 62
               7
100
AcDbLine
 10
0.5
 20
-7.0
 30
0.0
 11
3.9999999999999716
 21
-7.0
 31
0.0
  0
LINE
  5
3F5
100
AcDbEntity
  8
0
  6
CONTINUOUS
 62
               7
100
AcDbLine
 10
0.5
 20
-7.0
 30
0.0
 11
0.5
 21
7.0
 31
0.0
  0
LINE
  5
3F6
100
AcDbEntity
  8
0
  6
CONTINUOUS
 62
               7
100
AcDbLine
 10
0.5
 20
7.0
 30
0.0
 11
3.9999999999999716
 21
7.0
 31
0.0
  0
LINE
  5
3F7
100
AcDbEntity
  8
0
  6
CONTINUOUS
 62
               7
100
AcDbLine
 10
19.999999999999943
 20
-10.799999999999983
 30
0.0
 11
119.99999999999994
 21
-10.799999999999983
 31
0.0
  0
LINE
  5
3F8
100
AcDbEntity
  8
0
  6
CONTINUOUS
 62
               7
100
AcDbLine
 10
19.999999999999943
 20
-10.5
 30
0.0
 11
119.99999999999994
 21
-10.5
 31
0.0
  0
LINE
  5
3F9
100
AcDbEntity
  8
0
  6
CONTINUOUS
 62
               7
100
AcDbLine
 10
19.999999999999943
 20
-4.5
 30
0.0
 11
119.99999999999994
 21
-4.5
 31
0.0
  0
LINE
  5
3FA
100
AcDbEntity
  8
0
  6
CONTINUOUS
 62
               7
100
AcDbLine
 10
19.999999999999943
 20
-4.2000000000000171
 30
0.0
 11
119.99999999999994
 21
-4.2000000000000171
 31
0.0
  0
LINE
  5
3FB
100
AcDbEntity
  8
0
  6
CONTINUOUS
 62
               7
100
AcDbLine
 10
19.999999999999943
 20
4.2000000000000171
 30
0.0
 11
119.99999999999994
 21
4.2000000000000171
 31
0.0
  0
LINE
  5
3FC
100
AcDbEntity
  8
0
  6
CONTINUOUS
 62
               7
100
AcDbLine
 10
19.999999999999943
 20
4.5
 30
0.0
 11
119.99999999999994
 21
4.5
 31
0.0
  0
LINE
  5
3FD
100
AcDbEntity
  8
0
  6
CONTINUOUS
 62
               7
100
AcDbLine
 10
19.999999999999943
 20
10.5
 30
0.0
 11
119.99999999999994
 21
10.5
 31
0.0
  0
LINE
  5
3FE
100
AcDbEntity
  8
0
  6
CONTINUOUS
 62
               7
100
AcDbLine
 10
19.999999999999943
 20
10.799999999999983
 30
0.0
 11
119.99999999999994
 21
10.799999999999983
 31
0.0
  0
LINE
  5
3FF
100
AcDbEntity
  8
0
  6
CONTINUOUS
 62
               7
100
AcDbLine
 10
117.99999999999994
 20
19.5
 30
0.0
 11
117.99999999999994
 21
20.000000011920662
 31
0.0
  0
LINE
  5
400
100
AcDbEntity
  8
0
  6
CONTINUOUS
 62
               7
100
AcDbLine
 10
117.99999999999994
 20
-19.999999988079338
 30
0.0
 11
117.99999999999994
 21
-19.5
 31
0.0
  0
LINE
  5
401
100
AcDbEntity
  8
0
  6
CONTINUOUS
 62
               7
100
AcDbLine
 10
0.0
 20
-20.0
 30
0.0
 11
117.99999999999994
 21
-20.0
 31
0.0
  0
LINE
  5
402
100
AcDbEntity
  8
0
  6
CONTINUOUS
 62
               7
100
AcDbLine
 10
0.0
 20
20.0
 30
0.0
 11
117.99999999999994
 21
20.0
 31
0.0
  0
LINE
  5
403
100
AcDbEntity
  8
0
  6
CONTINUOUS
 62
               7
100
AcDbLine
 10
0.0
 20
-19.999999988079338
 30
0.0
 11
0.0
 21
20.000000011920662
 31
0.0
  0
LINE
  5
404
100
AcDbEntity
  8
0
  6
CONTINUOUS
 62
               7
100
AcDbLine
 10
7.9999999871791658
 20
-19.999999988079338
 30
0.0
 11
7.9999999871791658
 21
20.000000011920662
 31
0.0
  0
LINE
  5
405
100
AcDbEntity
  8
0
  6
CONTINUOUS
 62
               7
100
AcDbLine
 10
19.999999999999943
 20
-19.5
 30
0.0
 11
21.999999999999943
 21
-19.5
 31
0.0
  0
LINE
  5
406
100
AcDbEntity
  8
0
  6
CONTINUOUS
 62
               7
100
AcDbLine
 10
30.999999999999943
 20
-19.5
 30
0.0
 11
119.99999999999994
 21
-19.5
 31
0.0
  0
LINE
  5
407
100
AcDbEntity
  8
0
  6
CENTER
 62
               2
100
AcDbLine
 10
-3.5964301101943192
 20
0.0
 30
0.0
 11
123.99999999999994
 21
0.0
 31
0.0
  0
LINE
  5
408
100
AcDbEntity
  8
0
  6
CONTINUOUS
 62
               7
100
AcDbLine
 10
119.99999999999994
 20
19.5
 30
0.0
 11
119.99999999999994
 21
-19.5
 31
0.0
  0
LINE
  5
409
100
AcDbEntity
  8
0
  6
CONTINUOUS
 62
               7
100
AcDbLine
 10
19.999999999999943
 20
19.5
 30
0.0
 11
21.999999999999943
 21
19.5
 31
0.0
  0
LINE
  5
40A
100
AcDbEntity
  8
0
  6
CONTINUOUS
 62
               7
100
AcDbLine
 10
21.999999999999943
 20
19.5
 30
0.0
 11
21.999999999999943
 21
17.5
 31
0.0
  0
LINE
  5
40B
100
AcDbEntity
  8
0
  6
CONTINUOUS
 62
               7
100
AcDbLine
 10
30.999999999999943
 20
19.5
 30
0.0
 11
30.999999999999943
 21
17.5
 31
0.0
  0
LINE
  5
40C
100
AcDbEntity
  8
0
  6
CONTINUOUS
 62
               7
100
AcDbLine
 10
21.999999987179194
 20
17.5
 30
0.0
 11
30.999999999999943
 21
17.5
 31
0.0
  0
LINE
  5
40D
100
AcDbEntity
  8
0
  6
CONTINUOUS
 62
               7
100
AcDbLine
 10
30.999999999999943
 20
19.5
 30
0.0
 11
119.99999999999994
 21
19.5
 31
0.0
  0
CIRCLE
  5
40E
100
AcDbEntity
  8
0
  6
CONTINUOUS
 62
               2
100
AcDbCircle
 10
35.999999999999943
 20
15.5
 30
0.0
 40
2.5
  0
CIRCLE
  5
40F
100
AcDbEntity
  8
0
  6
CONTINUOUS
 62
               7
100
AcDbCircle
 10
35.999999999999943
 20
15.5
 30
0.0
 40
2.1000000000000001
  0
LINE
  5
410
100
AcDbEntity
  8
0
  6
CONTINUOUS
 62
               2
100
AcDbLine
 10
100.99999999999994
 20
19.0
 30
0.0
 11
100.99999999999994
 21
12.0
 31
0.0
  0
LINE
  5
411
100
AcDbEntity
  8
0
  6
CONTINUOUS
 62
               2
100
AcDbLine
 10
97.499999999999943
 20
15.5
 30
0.0
 11
104.49999999999994
 21
15.5
 31
0.0
  0
CIRCLE
  5
412
100
AcDbEntity
  8
0
  6
CONTINUOUS
 62
               2
100
AcDbCircle
 10
100.99999999999994
 20
15.5
 30
0.0
 40
2.5
  0
CIRCLE
  5
413
100
AcDbEntity
  8
0
  6
CONTINUOUS
 62
               7
100
AcDbCircle
 10
100.99999999999994
 20
15.5
 30
0.0
 40
2.1000000000000001
  0
CIRCLE
  5
414
100
AcDbEntity
  8
0
  6
CONTINUOUS
 62
               7
100
AcDbCircle
 10
100.99999999999994
 20
-15.5
 30
0.0
 40
2.1000000000000001
  0
CIRCLE
  5
415
100
AcDbEntity
  8
0
  6
CONTINUOUS
 62
               2
100
AcDbCircle
 10
100.99999999999994
 20
-15.5
 30
0.0
 40
2.5
  0
CIRCLE
  5
416
100
AcDbEntity
  8
0
  6
CONTINUOUS
 62
               7
100
AcDbCircle
 10
35.999999999999943
 20
-15.5
 30
0.0
 40
2.1000000000000001
  0
CIRCLE
  5
417
100
AcDbEntity
  8
0
  6
CONTINUOUS
 62
               2
100
AcDbCircle
 10
35.999999999999943
 20
-15.5
 30
0.0
 40
2.5
  0
LINE
  5
418
100
AcDbEntity
  8
0
  6
CONTINUOUS
 62
               7
100
AcDbLine
 10
30.999999999999943
 20
-19.5
 30
0.0
 11
30.999999999999943
 21
-17.5
 31
0.0
  0
LINE
  5
419
100
AcDbEntity
  8
0
  6
CONTINUOUS
 62
               7
100
AcDbLine
 10
21.999999987179194
 20
-17.5
 30
0.0
 11
30.999999999999943
 21
-17.5
 31
0.0
  0
LINE
  5
41A
100
AcDbEntity
  8
0
  6
CONTINUOUS
 62
               7
100
AcDbLine
 10
19.999999999999943
 20
19.5
 30
0.0
 11
19.999999999999943
 21
-19.5
 31
0.0
  0
LINE
  5
41B
100
AcDbEntity
  8
0
  6
CONTINUOUS
 62
               7
100
AcDbLine
 10
21.999999999999943
 20
-19.5
 30
0.0
 11
21.999999999999943
 21
-17.5
 31
0.0
  0
LINE
  5
41C
100
AcDbEntity
  8
0
  6
CONTINUOUS
 62
               2
100
AcDbLine
 10
35.999999999999943
 20
19.0
 30
0.0
 11
35.999999999999943
 21
12.0
 31
0.0
  0
LINE
  5
41D
100
AcDbEntity
  8
0
  6
CONTINUOUS
 62
               2
100
AcDbLine
 10
32.499999999999943
 20
15.5
 30
0.0
 11
39.499999999999943
 21
15.5
 31
0.0
  0
LINE
  5
41E
100
AcDbEntity
  8
0
  6
CONTINUOUS
 62
               2
100
AcDbLine
 10
35.999999999999943
 20
-12.0
 30
0.0
 11
35.999999999999943
 21
-19.0
 31
0.0
  0
LINE
  5
41F
100
AcDbEntity
  8
0
  6
CONTINUOUS
 62
               2
100
AcDbLine
 10
32.499999999999943
 20
-15.5
 30
0.0
 11
39.499999999999943
 21
-15.5
 31
0.0
  0
LINE
  5
420
100
AcDbEntity
  8
0
  6
CONTINUOUS
 62
               2
100
AcDbLine
 10
100.99999999999994
 20
-12.0
 30
0.0
 11
100.99999999999994
 21
-19.0
 31
0.0
  0
LINE
  5
421
100
AcDbEntity
  8
0
  6
CONTINUOUS
 62
               2
100
AcDbLine
 10
97.499999999999943
 20
-15.5
 30
0.0
 11
104.49999999999994
 21
-15.5
 31
0.0
  0
LINE
  5
422
100
AcDbEntity
  8
0
  6
CONTINUOUS
 62
               2
100
AcDbLine
 10
53.999999999999943
 20
-15.5
 30
0.0
 11
47.999999999999943
 21
-15.5
 31
0.0
  0
CIRCLE
  5
423
100
AcDbEntity
  8
0
  6
CONTINUOUS
 62
               7
100
AcDbCircle
 10
50.999999999999943
 20
-15.5
 30
0.0
 40
2.0
  0
LINE
  5
424
100
AcDbEntity
  8
0
  6
CONTINUOUS
 62
               2
100
AcDbLine
 10
50.999999999999943
 20
-18.5
 30
0.0
 11
50.999999999999943
 21
-12.5
 31
0.0
  0
LINE
  5
425
100
AcDbEntity
  8
0
  6
CONTINUOUS
 62
               2
100
AcDbLine
 10
50.999999999999943
 20
19.0
 30
0.0
 11
50.999999999999943
 21
12.0
 31
0.0
  0
LINE
  5
426
100
AcDbEntity
  8
0
  6
CONTINUOUS
 62
               2
100
AcDbLine
 10
53.999999999999943
 20
15.5
 30
0.0
 11
47.999999999999943
 21
15.5
 31
0.0
  0
LINE
  5
427
100
AcDbEntity
  8
0
  6
CONTINUOUS
 62
               7
100
AcDbLine
 10
48.999999999999943
 20
16.0
 30
0.0
 11
48.999999999999943
 21
15.0
 31
0.0
  0
LINE
  5
428
100
AcDbEntity
  8
0
  6
CONTINUOUS
 62
               7
100
AcDbLine
 10
52.999999999999943
 20
16.000000012820692
 30
0.0
 11
52.999999999999943
 21
15.000000012820692
 31
0.0
  0
ARC
  5
429
100
AcDbEntity
  8
0
  6
CONTINUOUS
 62
               7
100
AcDbCircle
 10
50.999999999999943
 20
15.0
 30
0.0
 40
2.0
100
AcDbArc
 50
180.0
 51
0.0
  0
ARC
  5
42A
100
AcDbEntity
  8
0
  6
CONTINUOUS
 62
               7
100
AcDbCircle
 10
50.999999999999943
 20
16.0
 30
0.0
 40
2.0
100
AcDbArc
 50
0.0
 51
180.0
  0
ENDBLK
  5
42B
100
AcDbEntity
  8
0
100
AcDbBlockEnd
  0
BLOCK
  5
42C
100
AcDbEntity
  8
0
100
AcDbBlockBegin
  2
CS-MGA16-13
 70
               0
 10
0.0
 20
0.0
 30
0.0
  3
CS-MGA16-13
  1

  0
LINE
  5
42D
100
AcDbEntity
  8
0
  6
PHANTOM
 62
               3
100
AcDbLine
 10
48.872021663177975
 20
30.0
 30
0.0
 11
48.872021663177975
 21
-29.999999999100169
 31
0.0
  0
LINE
  5
42E
100
AcDbEntity
  8
0
  6
CONTINUOUS
 62
               7
100
AcDbLine
 10
0.0
 20
-19.999999999100169
 30
0.0
 11
0.0
 21
20.0
 31
0.0
  0
LINE
  5
42F
100
AcDbEntity
  8
0
  6
CONTINUOUS
 62
               2
100
AcDbLine
 10
31.0
 20
15.5
 30
0.0
 11
45.75
 21
15.5
 31
0.0
  0
LINE
  5
430
100
AcDbEntity
  8
0
  6
CONTINUOUS
 62
               2
100
AcDbLine
 10
56.0
 20
15.5
 30
0.0
 11
70.75
 21
15.5
 31
0.0
  0
LINE
  5
431
100
AcDbEntity
  8
0
  6
CONTINUOUS
 62
               2
100
AcDbLine
 10
31.0
 20
-15.5
 30
0.0
 11
45.75
 21
-15.5
 31
0.0
  0
LINE
  5
432
100
AcDbEntity
  8
0
  6
CONTINUOUS
 62
               2
100
AcDbLine
 10
50.999999987179194
 20
14.0
 30
0.0
 11
56.999999987179194
 21
14.0
 31
0.0
  0
LINE
  5
433
100
AcDbEntity
  8
0
  6
CONTINUOUS
 62
               2
100
AcDbLine
 10
53.999999987179194
 20
17.0
 30
0.0
 11
53.999999987179194
 21
11.0
 31
0.0
  0
CIRCLE
  5
434
100
AcDbEntity
  8
0
  6
CONTINUOUS
 62
               2
100
AcDbCircle
 10
53.999999987179194
 20
14.0
 30
0.0
 40
2.0
  0
CIRCLE
  5
435
100
AcDbEntity
  8
0
  6
CONTINUOUS
 62
               7
100
AcDbCircle
 10
53.999999987179194
 20
14.0
 30
0.0
 40
1.6499999999999999
  0
LINE
  5
436
100
AcDbEntity
  8
0
  6
CONTINUOUS
 62
               2
100
AcDbLine
 10
50.999999987179194
 20
-14.0
 30
0.0
 11
56.999999987179194
 21
-14.0
 31
0.0
  0
LINE
  5
437
100
AcDbEntity
  8
0
  6
CONTINUOUS
 62
               2
100
AcDbLine
 10
53.999999987179194
 20
-17.0
 30
0.0
 11
53.999999987179194
 21
-11.0
 31
0.0
  0
CIRCLE
  5
438
100
AcDbEntity
  8
0
  6
CONTINUOUS
 62
               2
100
AcDbCircle
 10
53.999999987179194
 20
-14.0
 30
0.0
 40
2.0
  0
CIRCLE
  5
439
100
AcDbEntity
  8
0
  6
CONTINUOUS
 62
               7
100
AcDbCircle
 10
53.999999987179194
 20
-14.0
 30
0.0
 40
1.6499999999999999
  0
LINE
  5
43A
100
AcDbEntity
  8
0
  6
CONTINUOUS
 62
               2
100
AcDbLine
 10
22.999999987179194
 20
14.0
 30
0.0
 11
28.999999987179194
 21
14.0
 31
0.0
  0
LINE
  5
43B
100
AcDbEntity
  8
0
  6
CONTINUOUS
 62
               2
100
AcDbLine
 10
25.999999987179194
 20
17.0
 30
0.0
 11
25.999999987179194
 21
11.0
 31
0.0
  0
CIRCLE
  5
43C
100
AcDbEntity
  8
0
  6
CONTINUOUS
 62
               2
100
AcDbCircle
 10
25.999999987179194
 20
14.0
 30
0.0
 40
2.0
  0
CIRCLE
  5
43D
100
AcDbEntity
  8
0
  6
CONTINUOUS
 62
               7
100
AcDbCircle
 10
25.999999987179194
 20
14.0
 30
0.0
 40
1.6499999999999999
  0
LINE
  5
43E
100
AcDbEntity
  8
0
  6
CONTINUOUS
 62
               2
100
AcDbLine
 10
22.999999987179194
 20
-14.0
 30
0.0
 11
28.999999987179194
 21
-14.0
 31
0.0
  0
LINE
  5
43F
100
AcDbEntity
  8
0
  6
CONTINUOUS
 62
               2
100
AcDbLine
 10
25.999999987179194
 20
-17.0
 30
0.0
 11
25.999999987179194
 21
-11.0
 31
0.0
  0
CIRCLE
  5
440
100
AcDbEntity
  8
0
  6
CONTINUOUS
 62
               2
100
AcDbCircle
 10
25.999999987179194
 20
-14.0
 30
0.0
 40
2.0
  0
CIRCLE
  5
441
100
AcDbEntity
  8
0
  6
CONTINUOUS
 62
               7
100
AcDbCircle
 10
25.999999987179194
 20
-14.0
 30
0.0
 40
1.6499999999999999
  0
ARC
  5
442
100
AcDbEntity
  8
0
  6
CONTINUOUS
 62
               7
100
AcDbCircle
 10
36.0
 20
-15.5
 30
0.0
 40
2.1000000000000001
100
AcDbArc
 50
316.95630088933575
 51
43.043699110664235
  0
ARC
  5
443
100
AcDbEntity
  8
0
  6
CONTINUOUS
 62
               7
100
AcDbCircle
 10
61.0
 20
15.5
 30
0.0
 40
2.1000000000000001
100
AcDbArc
 50
316.95630088933575
 51
43.043699110664235
  0
LINE
  5
444
100
AcDbEntity
  8
0
  6
CONTINUOUS
 62
               2
100
AcDbLine
 10
36.0
 20
-20.5
 30
0.0
 11
36.0
 21
-10.5
 31
0.0
  0
ARC
  5
445
100
AcDbEntity
  8
0
  6
CONTINUOUS
 62
               7
100
AcDbCircle
 10
36.0
 20
-15.5
 30
0.0
 40
4.0
100
AcDbArc
 50
0.0
 51
47.667069661316575
  0
LINE
  5
446
100
AcDbEntity
  8
0
  6
CONTINUOUS
 62
               7
100
AcDbLine
 10
40.0
 20
-15.5
 30
0.0
 11
40.0
 21
-19.11420807370024
 31
0.0
  0
LINE
  5
447
100
AcDbEntity
  8
0
  6
CONTINUOUS
 62
               2
100
AcDbLine
 10
36.0
 20
20.800000000000011
 30
0.0
 11
36.0
 21
10.5
 31
0.0
  0
ARC
  5
448
100
AcDbEntity
  8
0
  6
CONTINUOUS
 62
               7
100
AcDbCircle
 10
36.0
 20
15.5
 30
0.0
 40
4.0
100
AcDbArc
 50
312.33293033868341
 51
0.0
  0
LINE
  5
449
100
AcDbEntity
  8
0
  6
CONTINUOUS
 62
               2
100
AcDbLine
 10
61.0
 20
20.800000000000011
 30
0.0
 11
61.0
 21
10.5
 31
0.0
  0
LINE
  5
44A
100
AcDbEntity
  8
0
  6
CONTINUOUS
 62
               7
100
AcDbLine
 10
65.0
 20
15.5
 30
0.0
 11
65.0
 21
19.11420807370024
 31
0.0
  0
ARC
  5
44B
100
AcDbEntity
  8
0
  6
CONTINUOUS
 62
               7
100
AcDbCircle
 10
61.0
 20
15.5
 30
0.0
 40
4.0
100
AcDbArc
 50
312.33293033868341
 51
0.0
  0
LINE
  5
44C
100
AcDbEntity
  8
0
  6
CONTINUOUS
 62
               7
100
AcDbLine
 10
40.0
 20
15.5
 30
0.0
 11
40.0
 21
19.11420807370024
 31
0.0
  0
ARC
  5
44D
100
AcDbEntity
  8
0
  6
CONTINUOUS
 62
               7
100
AcDbCircle
 10
36.0
 20
15.5
 30
0.0
 40
2.1000000000000001
100
AcDbArc
 50
316.95630088933575
 51
43.043699110664235
  0
LINE
  5
44E
100
AcDbEntity
  8
0
  6
CONTINUOUS
 62
               7
100
AcDbLine
 10
78.799999999999955
 20
-9.0
 30
0.0
 11
80.0
 21
-9.0
 31
0.0
  0
LINE
  5
44F
100
AcDbEntity
  8
0
  6
CONTINUOUS
 62
               7
100
AcDbLine
 10
78.799999999999955
 20
9.0
 30
0.0
 11
80.0
 21
9.0
 31
0.0
  0
LINE
  5
450
100
AcDbEntity
  8
0
  6
CONTINUOUS
 62
               7
100
AcDbLine
 10
80.0
 20
-11.0
 30
0.0
 11
78.799999999999955
 21
-11.0
 31
0.0
  0
LINE
  5
451
100
AcDbEntity
  8
0
  6
CONTINUOUS
 62
               7
100
AcDbLine
 10
80.0
 20
11.0
 30
0.0
 11
78.799999999999955
 21
11.0
 31
0.0
  0
LINE
  5
452
100
AcDbEntity
  8
0
  6
CONTINUOUS
 62
               2
100
AcDbLine
 10
25.999999987179194
 20
-3.0
 30
0.0
 11
25.999999987179194
 21
3.0
 31
0.0
  0
CIRCLE
  5
453
100
AcDbEntity
  8
0
  6
CONTINUOUS
 62
               7
100
AcDbCircle
 10
25.999999987179194
 20
0.0
 30
0.0
 40
2.0
  0
CIRCLE
  5
454
100
AcDbEntity
  8
0
  6
CONTINUOUS
 62
               7
100
AcDbCircle
 10
66.0
 20
15.5
 30
0.0
 40
3.75
  0
LINE
  5
455
100
AcDbEntity
  8
0
  6
CONTINUOUS
 62
               2
100
AcDbLine
 10
66.0
 20
20.25
 30
0.0
 11
66.0
 21
10.75
 31
0.0
  0
CIRCLE
  5
456
100
AcDbEntity
  8
0
  6
CONTINUOUS
 62
               7
100
AcDbCircle
 10
41.0
 20
15.5
 30
0.0
 40
3.75
  0
LINE
  5
457
100
AcDbEntity
  8
0
  6
CONTINUOUS
 62
               2
100
AcDbLine
 10
41.0
 20
20.25
 30
0.0
 11
41.0
 21
10.75
 31
0.0
  0
LINE
  5
458
100
AcDbEntity
  8
0
  6
CONTINUOUS
 62
               7
100
AcDbLine
 10
79.399999999999977
 20
-12.0
 30
0.0
 11
79.399999999999977
 21
-14.0
 31
0.0
  0
LINE
  5
459
100
AcDbEntity
  8
0
  6
CONTINUOUS
 62
               7
100
AcDbLine
 10
78.899999999999977
 20
-14.5
 30
0.0
 11
78.799999999999955
 21
-14.5
 31
0.0
  0
ARC
  5
45A
100
AcDbEntity
  8
0
  6
CONTINUOUS
 62
               7
100
AcDbCircle
 10
78.899999999999977
 20
-14.0
 30
0.0
 40
0.5
100
AcDbArc
 50
270.0
 51
0.0
  0
ARC
  5
45B
100
AcDbEntity
  8
0
  6
CONTINUOUS
 62
               7
100
AcDbCircle
 10
78.899999999999977
 20
-12.0
 30
0.0
 40
0.5
100
AcDbArc
 50
0.0
 51
90.0
  0
LINE
  5
45C
100
AcDbEntity
  8
0
  6
CONTINUOUS
 62
               7
100
AcDbLine
 10
78.899999999999977
 20
-11.5
 30
0.0
 11
78.799999999999955
 21
-11.5
 31
0.0
  0
LINE
  5
45D
100
AcDbEntity
  8
0
  6
CONTINUOUS
 62
               7
100
AcDbLine
 10
78.799999999999955
 20
-16.0
 30
0.0
 11
78.0
 21
-16.0
 31
0.0
  0
LINE
  5
45E
100
AcDbEntity
  8
0
  6
CONTINUOUS
 62
               7
100
AcDbLine
 10
78.799999999999955
 20
16.0
 30
0.0
 11
78.0
 21
16.0
 31
0.0
  0
LINE
  5
45F
100
AcDbEntity
  8
0
  6
CONTINUOUS
 62
               7
100
AcDbLine
 10
78.899999999999977
 20
11.5
 30
0.0
 11
78.799999999999955
 21
11.5
 31
0.0
  0
ARC
  5
460
100
AcDbEntity
  8
0
  6
CONTINUOUS
 62
               7
100
AcDbCircle
 10
78.899999999999977
 20
12.0
 30
0.0
 40
0.5
100
AcDbArc
 50
270.0
 51
0.0
  0
ARC
  5
461
100
AcDbEntity
  8
0
  6
CONTINUOUS
 62
               7
100
AcDbCircle
 10
78.899999999999977
 20
14.0
 30
0.0
 40
0.5
100
AcDbArc
 50
0.0
 51
90.0
  0
LINE
  5
462
100
AcDbEntity
  8
0
  6
CONTINUOUS
 62
               7
100
AcDbLine
 10
78.899999999999977
 20
14.5
 30
0.0
 11
78.799999999999955
 21
14.5
 31
0.0
  0
LINE
  5
463
100
AcDbEntity
  8
0
  6
CONTINUOUS
 62
               7
100
AcDbLine
 10
79.399999999999977
 20
12.0
 30
0.0
 11
79.399999999999977
 21
14.0
 31
0.0
  0
LINE
  5
464
100
AcDbEntity
  8
0
  6
CONTINUOUS
 62
               7
100
AcDbLine
 10
78.799999999999955
 20
-16.0
 30
0.0
 11
78.799999999999955
 21
16.0
 31
0.0
  0
CIRCLE
  5
465
100
AcDbEntity
  8
0
  6
CONTINUOUS
 62
               7
100
AcDbCircle
 10
41.0
 20
-15.5
 30
0.0
 40
3.75
  0
LINE
  5
466
100
AcDbEntity
  8
0
  6
CONTINUOUS
 62
               2
100
AcDbLine
 10
41.0
 20
-20.25
 30
0.0
 11
41.0
 21
-10.75
 31
0.0
  0
LINE
  5
467
100
AcDbEntity
  8
0
  6
CONTINUOUS
 62
               7
100
AcDbLine
 10
14.999999987179194
 20
-19.999999999100169
 30
0.0
 11
14.999999987179194
 21
20.0
 31
0.0
  0
LINE
  5
468
100
AcDbEntity
  8
0
  6
CONTINUOUS
 62
               7
100
AcDbLine
 10
78.0
 20
-19.5
 30
0.0
 11
80.0
 21
-19.5
 31
0.0
  0
LINE
  5
469
100
AcDbEntity
  8
0
  6
CONTINUOUS
 62
               7
100
AcDbLine
 10
78.0
 20
19.5
 30
0.0
 11
80.0
 21
19.5
 31
0.0
  0
LINE
  5
46A
100
AcDbEntity
  8
0
  6
CONTINUOUS
 62
               7
100
AcDbLine
 10
78.0
 20
-19.999999999100169
 30
0.0
 11
78.0
 21
20.0
 31
0.0
  0
LINE
  5
46B
100
AcDbEntity
  8
0
  6
CENTER
 62
               2
100
AcDbLine
 10
-3.5964301101943192
 20
0.0
 30
0.0
 11
81.821186235216487
 21
0.0
 31
0.0
  0
LINE
  5
46C
100
AcDbEntity
  8
0
  6
CONTINUOUS
 62
               7
100
AcDbLine
 10
80.0
 20
-19.5
 30
0.0
 11
80.0
 21
19.5
 31
0.0
  0
LINE
  5
46D
100
AcDbEntity
  8
0
  6
CONTINUOUS
 62
               7
100
AcDbLine
 10
0.0
 20
-19.999999999100169
 30
0.0
 11
78.0
 21
-19.999999999100169
 31
0.0
  0
LINE
  5
46E
100
AcDbEntity
  8
0
  6
CONTINUOUS
 62
               7
100
AcDbLine
 10
0.0
 20
20.0
 30
0.0
 11
78.0
 21
20.0
 31
0.0
  0
LINE
  5
46F
100
AcDbEntity
  8
0
  6
CONTINUOUS
 62
               7
100
AcDbLine
 10
0.0
 20
19.5
 30
0.0
 11
78.0
 21
19.5
 31
0.0
  0
LINE
  5
470
100
AcDbEntity
  8
0
  6
CONTINUOUS
 62
               7
100
AcDbLine
 10
0.0
 20
-19.499999999100169
 30
0.0
 11
78.0
 21
-19.499999999100169
 31
0.0
  0
LINE
  5
471
100
AcDbEntity
  8
0
  6
CONTINUOUS
 62
               2
100
AcDbLine
 10
53.999999987179194
 20
3.0
 30
0.0
 11
53.999999987179194
 21
-3.0
 31
0.0
  0
ARC
  5
472
100
AcDbEntity
  8
0
  6
CONTINUOUS
 62
               7
100
AcDbCircle
 10
53.499999987179194
 20
0.0
 30
0.0
 40
2.0
100
AcDbArc
 50
90.0
 51
270.0
  0
ARC
  5
473
100
AcDbEntity
  8
0
  6
CONTINUOUS
 62
               7
100
AcDbCircle
 10
54.499999987179194
 20
0.0
 30
0.0
 40
2.0
100
AcDbArc
 50
270.0
 51
90.0
  0
LINE
  5
474
100
AcDbEntity
  8
0
  6
CONTINUOUS
 62
               7
100
AcDbLine
 10
53.499999974358502
 20
2.0
 30
0.0
 11
54.499999974358502
 21
2.0
 31
0.0
  0
LINE
  5
475
100
AcDbEntity
  8
0
  6
CONTINUOUS
 62
               7
100
AcDbLine
 10
53.499999987179194
 20
-2.0
 30
0.0
 11
54.499999987179194
 21
-2.0
 31
0.0
  0
LINE
  5
476
100
AcDbEntity
  8
0
  6
CONTINUOUS
 62
               2
100
AcDbLine
 10
61.0
 20
-20.800000000000011
 30
0.0
 11
61.0
 21
-10.5
 31
0.0
  0
LINE
  5
477
100
AcDbEntity
  8
0
  6
CONTINUOUS
 62
               7
100
AcDbLine
 10
65.0
 20
-15.5
 30
0.0
 11
65.0
 21
-19.11420807370024
 31
0.0
  0
CIRCLE
  5
478
100
AcDbEntity
  8
0
  6
CONTINUOUS
 62
               7
100
AcDbCircle
 10
66.0
 20
-15.5
 30
0.0
 40
3.75
  0
LINE
  5
479
100
AcDbEntity
  8
0
  6
CONTINUOUS
 62
               2
100
AcDbLine
 10
66.0
 20
-20.25
 30
0.0
 11
66.0
 21
-10.75
 31
0.0
  0
ARC
  5
47A
100
AcDbEntity
  8
0
  6
CONTINUOUS
 62
               7
100
AcDbCircle
 10
61.0
 20
-15.5
 30
0.0
 40
4.0
100
AcDbArc
 50
0.0
 51
47.667069661316575
  0
ARC
  5
47B
100
AcDbEntity
  8
0
  6
CONTINUOUS
 62
               7
100
AcDbCircle
 10
61.0
 20
-15.5
 30
0.0
 40
2.1000000000000001
100
AcDbArc
 50
316.95630088933575
 51
43.043699110664235
  0
LINE
  5
47C
100
AcDbEntity
  8
0
  6
CONTINUOUS
 62
               2
100
AcDbLine
 10
56.0
 20
-15.5
 30
0.0
 11
70.75
 21
-15.5
 31
0.0
  0
LINE
  5
47D
100
AcDbEntity
  8
0
  6
CONTINUOUS
 62
               2
100
AcDbLine
 10
-2.5
 20
14.0
 30
0.0
 11
2.5
 21
14.0
 31
0.0
  0
LINE
  5
47E
100
AcDbEntity
  8
0
  6
CONTINUOUS
 62
               2
100
AcDbLine
 10
-2.5
 20
-14.0
 30
0.0
 11
2.5
 21
-14.0
 31
0.0
  0
LINE
  5
47F
100
AcDbEntity
  8
0
  6
CONTINUOUS
 62
               2
100
AcDbLine
 10
77.5
 20
14.0
 30
0.0
 11
82.5
 21
14.0
 31
0.0
  0
LINE
  5
480
100
AcDbEntity
  8
0
  6
CONTINUOUS
 62
               2
100
AcDbLine
 10
77.5
 20
-14.0
 30
0.0
 11
82.5
 21
-14.0
 31
0.0
  0
ENDBLK
  5
481
100
AcDbEntity
  8
0
100
AcDbBlockEnd
  0
BLOCK
  5
482
100
AcDbEntity
  8
0
100
AcDbBlockBegin
  2
CS-MGA16-14
 70
               0
 10
0.0
 20
0.0
 30
0.0
  3
CS-MGA16-14
  1

  0
LINE
  5
483
100
AcDbEntity
  8
0
  6
CONTINUOUS
 62
               7
100
AcDbLine
 10
0.2999999999999545
 20
-4.5
 30
0.0
 11
0.2999999999999545
 21
-10.5
 31
0.0
  0
LINE
  5
484
100
AcDbEntity
  8
0
  6
CONTINUOUS
 62
               7
100
AcDbLine
 10
0.2999999999999545
 20
-10.5
 30
0.0
 11
0.0
 21
-10.799999999999983
 31
0.0
  0
LINE
  5
485
100
AcDbEntity
  8
0
  6
CONTINUOUS
 62
               7
100
AcDbLine
 10
0.2999999999999545
 20
-4.5
 30
0.0
 11
0.0
 21
-4.1999999999999886
 31
0.0
  0
LINE
  5
486
100
AcDbEntity
  8
0
  6
CONTINUOUS
 62
               7
100
AcDbLine
 10
0.0
 20
-10.799999999999983
 30
0.0
 11
0.0
 21
-19.5
 31
0.0
  0
LINE
  5
487
100
AcDbEntity
  8
0
  6
CONTINUOUS
 62
               7
100
AcDbLine
 10
0.2999999999999545
 20
4.5
 30
0.0
 11
0.0
 21
4.1999999999999886
 31
0.0
  0
LINE
  5
488
100
AcDbEntity
  8
0
  6
CONTINUOUS
 62
               7
100
AcDbLine
 10
0.2999999999999545
 20
10.5
 30
0.0
 11
0.0
 21
10.799999999999983
 31
0.0
  0
LINE
  5
489
100
AcDbEntity
  8
0
  6
CONTINUOUS
 62
               7
100
AcDbLine
 10
0.2999999999999545
 20
4.5
 30
0.0
 11
0.2999999999999545
 21
10.5
 31
0.0
  0
LINE
  5
48A
100
AcDbEntity
  8
0
  6
CONTINUOUS
 62
               7
100
AcDbLine
 10
0.0
 20
10.799999999999983
 30
0.0
 11
0.0
 21
19.5
 31
0.0
  0
LINE
  5
48B
100
AcDbEntity
  8
0
  6
CONTINUOUS
 62
               7
100
AcDbLine
 10
0.0
 20
4.1999999999999886
 30
0.0
 11
0.0
 21
-4.1999999999999886
 31
0.0
  0
LINE
  5
48C
100
AcDbEntity
  8
0
  6
CONTINUOUS
 62
               7
100
AcDbLine
 10
6.8074175964327424
 20
-7.0
 30
0.0
 11
12.192582403567258
 21
-7.0
 31
0.0
  0
LINE
  5
48D
100
AcDbEntity
  8
0
  6
CONTINUOUS
 62
               7
100
AcDbLine
 10
6.8074175964327424
 20
7.0
 30
0.0
 11
12.192582403567258
 21
7.0
 31
0.0
  0
LINE
  5
48E
100
AcDbEntity
  8
0
  6
CONTINUOUS
 62
               7
100
AcDbLine
 10
1.5
 20
-4.4000000000000057
 30
0.0
 11
1.5
 21
-19.999999987179251
 31
0.0
  0
LINE
  5
48F
100
AcDbEntity
  8
0
  6
CONTINUOUS
 62
               7
100
AcDbLine
 10
1.5
 20
20.000000012820749
 30
0.0
 11
1.5
 21
4.4000000000000057
 31
0.0
  0
LINE
  5
490
100
AcDbEntity
  8
0
  6
CONTINUOUS
 62
               7
100
AcDbLine
 10
9.6999999999999318
 20
-8.0
 30
0.0
 11
1.5
 21
-8.0
 31
0.0
  0
LINE
  5
491
100
AcDbEntity
  8
0
  6
CONTINUOUS
 62
               7
100
AcDbLine
 10
9.6999999999999318
 20
8.0
 30
0.0
 11
1.5
 21
8.0
 31
0.0
  0
ARC
  5
492
100
AcDbEntity
  8
0
  6
CONTINUOUS
 62
               7
100
AcDbCircle
 10
9.5
 20
0.0
 30
0.0
 40
7.5
100
AcDbArc
 50
291.03946978131722
 51
68.960530218682777
  0
ARC
  5
493
100
AcDbEntity
  8
0
  6
CONTINUOUS
 62
               7
100
AcDbCircle
 10
9.5
 20
0.0
 30
0.0
 40
7.5
100
AcDbArc
 50
111.03946978131725
 51
248.96053021868272
  0
ARC
  5
494
100
AcDbEntity
  8
0
  6
CONTINUOUS
 62
               7
100
AcDbCircle
 10
9.6999999999999318
 20
0.0
 30
0.0
 40
8.0
100
AcDbArc
 50
270.0
 51
90.0
  0
LINE
  5
495
100
AcDbEntity
  8
0
  6
CONTINUOUS
 62
               7
100
AcDbLine
 10
1.5
 20
-4.4000000000000057
 30
0.0
 11
3.426286144375922
 21
-4.4000000000000057
 31
0.0
  0
LINE
  5
496
100
AcDbEntity
  8
0
  6
CONTINUOUS
 62
               7
100
AcDbLine
 10
1.5
 20
4.4000000000000057
 30
0.0
 11
3.426286144375922
 21
4.4000000000000057
 31
0.0
  0
LINE
  5
497
100
AcDbEntity
  8
0
  6
CONTINUOUS
 62
               2
100
AcDbLine
 10
7.0
 20
-14.0
 30
0.0
 11
13.0
 21
-14.0
 31
0.0
  0
LINE
  5
498
100
AcDbEntity
  8
0
  6
CONTINUOUS
 62
               2
100
AcDbLine
 10
10.0
 20
-17.0
 30
0.0
 11
10.0
 21
-11.0
 31
0.0
  0
CIRCLE
  5
499
100
AcDbEntity
  8
0
  6
CONTINUOUS
 62
               2
100
AcDbCircle
 10
10.0
 20
-14.0
 30
0.0
 40
2.0
  0
CIRCLE
  5
49A
100
AcDbEntity
  8
0
  6
CONTINUOUS
 62
               7
100
AcDbCircle
 10
10.0
 20
-14.0
 30
0.0
 40
1.6499999999999999
  0
LINE
  5
49B
100
AcDbEntity
  8
0
  6
CONTINUOUS
 62
               2
100
AcDbLine
 10
7.0
 20
14.0
 30
0.0
 11
13.0
 21
14.0
 31
0.0
  0
LINE
  5
49C
100
AcDbEntity
  8
0
  6
CONTINUOUS
 62
               2
100
AcDbLine
 10
10.0
 20
11.0
 30
0.0
 11
10.0
 21
17.0
 31
0.0
  0
CIRCLE
  5
49D
100
AcDbEntity
  8
0
  6
CONTINUOUS
 62
               2
100
AcDbCircle
 10
10.0
 20
14.0
 30
0.0
 40
2.0
  0
CIRCLE
  5
49E
100
AcDbEntity
  8
0
  6
CONTINUOUS
 62
               7
100
AcDbCircle
 10
10.0
 20
14.0
 30
0.0
 40
1.6499999999999999
  0
CIRCLE
  5
49F
100
AcDbEntity
  8
0
  6
CONTINUOUS
 62
               2
100
AcDbCircle
 10
9.5
 20
0.0
 30
0.0
 40
2.6499999999999915
  0
CIRCLE
  5
4A0
100
AcDbEntity
  8
0
  6
CONTINUOUS
 62
               7
100
AcDbCircle
 10
9.5
 20
0.0
 30
0.0
 40
3.0
  0
LINE
  5
4A1
100
AcDbEntity
  8
0
  6
CONTINUOUS
 62
               7
100
AcDbLine
 10
19.732050018165523
 20
-14.000000642559996
 30
0.0
 11
18.8660246735584
 21
-12.500000489928141
 31
0.0
  0
LINE
  5
4A2
100
AcDbEntity
  8
0
  6
CONTINUOUS
 62
               7
100
AcDbLine
 10
18.866025261046047
 20
-15.500000399862074
 30
0.0
 11
19.732050605653171
 21
-14.000000247230219
 31
0.0
  0
LINE
  5
4A3
100
AcDbEntity
  8
0
  6
CONTINUOUS
 62
               7
100
AcDbLine
 10
18.866025388240814
 20
-12.5
 30
0.0
 11
17.133974611759186
 21
-12.5
 31
0.0
  0
LINE
  5
4A4
100
AcDbEntity
  8
0
  6
CONTINUOUS
 62
               7
100
AcDbLine
 10
18.866025686264038
 20
-15.5
 30
0.0
 11
17.133974313735962
 21
-15.5
 31
0.0
  0
LINE
  5
4A5
100
AcDbEntity
  8
0
  6
CONTINUOUS
 62
               7
100
AcDbLine
 10
16.267949981834477
 20
-14.000000642559996
 30
0.0
 11
17.1339753264416
 21
-12.500000489928141
 31
0.0
  0
LINE
  5
4A6
100
AcDbEntity
  8
0
  6
CONTINUOUS
 62
               7
100
AcDbLine
 10
17.133974738953953
 20
-15.500000399862074
 30
0.0
 11
16.267949394346715
 21
-14.000000247230219
 31
0.0
  0
CIRCLE
  5
4A7
100
AcDbEntity
  8
0
  6
CONTINUOUS
 62
               7
100
AcDbCircle
 10
18.0
 20
-14.0
 30
0.0
 40
3.5
  0
CIRCLE
  5
4A8
100
AcDbEntity
  8
0
  6
CONTINUOUS
 62
               7
100
AcDbCircle
 10
18.00000011920929
 20
-14.0
 30
0.0
 40
2.9803848266601563
  0
CIRCLE
  5
4A9
100
AcDbEntity
  8
0
  6
CONTINUOUS
 62
               7
100
AcDbCircle
 10
18.0
 20
-14.0
 30
0.0
 40
4.0
  0
LINE
  5
4AA
100
AcDbEntity
  8
0
  6
CONTINUOUS
 62
               7
100
AcDbLine
 10
18.866025686264038
 20
15.5
 30
0.0
 11
17.133974313735962
 21
15.5
 31
0.0
  0
LINE
  5
4AB
100
AcDbEntity
  8
0
  6
CONTINUOUS
 62
               7
100
AcDbLine
 10
18.866025388240814
 20
12.5
 30
0.0
 11
17.133974611759186
 21
12.5
 31
0.0
  0
LINE
  5
4AC
100
AcDbEntity
  8
0
  6
CONTINUOUS
 62
               7
100
AcDbLine
 10
18.866025261046047
 20
15.500000399862074
 30
0.0
 11
19.732050605653171
 21
14.000000247230219
 31
0.0
  0
LINE
  5
4AD
100
AcDbEntity
  8
0
  6
CONTINUOUS
 62
               7
100
AcDbLine
 10
16.267949981834477
 20
14.000000642559996
 30
0.0
 11
17.1339753264416
 21
12.500000489928141
 31
0.0
  0
LINE
  5
4AE
100
AcDbEntity
  8
0
  6
CONTINUOUS
 62
               7
100
AcDbLine
 10
19.732050018165523
 20
14.000000642559996
 30
0.0
 11
18.8660246735584
 21
12.500000489928141
 31
0.0
  0
LINE
  5
4AF
100
AcDbEntity
  8
0
  6
CONTINUOUS
 62
               7
100
AcDbLine
 10
17.133974738953953
 20
15.500000399862074
 30
0.0
 11
16.267949394346715
 21
14.000000247230219
 31
0.0
  0
CIRCLE
  5
4B0
100
AcDbEntity
  8
0
  6
CONTINUOUS
 62
               7
100
AcDbCircle
 10
18.0
 20
14.0
 30
0.0
 40
3.5
  0
CIRCLE
  5
4B1
100
AcDbEntity
  8
0
  6
CONTINUOUS
 62
               7
100
AcDbCircle
 10
18.00000011920929
 20
14.0
 30
0.0
 40
2.9803848266601563
  0
CIRCLE
  5
4B2
100
AcDbEntity
  8
0
  6
CONTINUOUS
 62
               7
100
AcDbCircle
 10
18.0
 20
14.0
 30
0.0
 40
4.0
  0
LINE
  5
4B3
100
AcDbEntity
  8
0
  6
CONTINUOUS
 62
               7
100
AcDbLine
 10
-0.0000000000001137
 20
19.5
 30
0.0
 11
1.5
 21
19.5
 31
0.0
  0
LINE
  5
4B4
100
AcDbEntity
  8
0
  6
CONTINUOUS
 62
               7
100
AcDbLine
 10
23.0
 20
19.5
 30
0.0
 11
22.499999999999773
 21
20.0
 31
0.0
  0
LINE
  5
4B5
100
AcDbEntity
  8
0
  6
CONTINUOUS
 62
               7
100
AcDbLine
 10
1.5
 20
20.0
 30
0.0
 11
22.499999999999773
 21
20.0
 31
0.0
  0
LINE
  5
4B6
100
AcDbEntity
  8
0
  6
CONTINUOUS
 62
               7
100
AcDbLine
 10
0.0
 20
-19.5
 30
0.0
 11
1.5
 21
-19.5
 31
0.0
  0
LINE
  5
4B7
100
AcDbEntity
  8
0
  6
CONTINUOUS
 62
               7
100
AcDbLine
 10
23.0
 20
-19.5
 30
0.0
 11
22.499999999999773
 21
-20.0
 31
0.0
  0
LINE
  5
4B8
100
AcDbEntity
  8
0
  6
CONTINUOUS
 62
               7
100
AcDbLine
 10
1.5
 20
-20.0
 30
0.0
 11
22.499999999999773
 21
-20.0
 31
0.0
  0
LINE
  5
4B9
100
AcDbEntity
  8
0
  6
CONTINUOUS
 62
               7
100
AcDbLine
 10
23.0
 20
19.5
 30
0.0
 11
23.0
 21
-19.5
 31
0.0
  0
LINE
  5
4BA
100
AcDbEntity
  8
0
  6
CENTER
 62
               2
100
AcDbLine
 10
9.5
 20
-9.0
 30
0.0
 11
9.5
 21
9.0
 31
0.0
  0
LINE
  5
4BB
100
AcDbEntity
  8
0
  6
CENTER
 62
               2
100
AcDbLine
 10
-2.5260440989142126
 20
0.0
 30
0.0
 11
24.910904413760022
 21
0.0
 31
0.0
  0
LINE
  5
4BC
100
AcDbEntity
  8
0
  6
CONTINUOUS
 62
               7
100
AcDbLine
 10
22.799999999999955
 20
19.699999999999903
 30
0.0
 11
22.799999999999955
 21
-19.699999999999932
 31
0.0
  0
LINE
  5
4BD
100
AcDbEntity
  8
0
  6
CONTINUOUS
 62
               2
100
AcDbLine
 10
-2.5
 20
15.5
 30
0.0
 11
2.5
 21
15.5
 31
0.0
  0
LINE
  5
4BE
100
AcDbEntity
  8
0
  6
CONTINUOUS
 62
               2
100
AcDbLine
 10
-2.5
 20
-15.5
 30
0.0
 11
2.5
 21
-15.5
 31
0.0
  0
ENDBLK
  5
4BF
100
AcDbEntity
  8
0
100
AcDbBlockEnd
  0
BLOCK
  5
4C0
100
AcDbEntity
  8
0
100
AcDbBlockBegin
  2
CS-MGA16-15
 70
               0
 10
0.0
 20
0.0
 30
0.0
  3
CS-MGA16-15
  1

  0
LINE
  5
4C1
100
AcDbEntity
  8
0
  6
CONTINUOUS
 62
               7
100
AcDbLine
 10
-1.5
 20
-19.5
 30
0.0
 11
-1.5
 21
-20.0
 31
0.0
  0
LINE
  5
4C2
100
AcDbEntity
  8
0
  6
CONTINUOUS
 62
               7
100
AcDbLine
 10
-1.5
 20
19.5
 30
0.0
 11
-1.5
 21
20.0
 31
0.0
  0
LINE
  5
4C3
100
AcDbEntity
  8
0
  6
CONTINUOUS
 62
               7
100
AcDbLine
 10
-0.2999999999999545
 20
4.5
 30
0.0
 11
-0.2999999999999545
 21
10.5
 31
0.0
  0
LINE
  5
4C4
100
AcDbEntity
  8
0
  6
CONTINUOUS
 62
               7
100
AcDbLine
 10
-0.2999999999999545
 20
10.5
 30
0.0
 11
0.0
 21
10.799999999999983
 31
0.0
  0
LINE
  5
4C5
100
AcDbEntity
  8
0
  6
CONTINUOUS
 62
               7
100
AcDbLine
 10
-0.2999999999999545
 20
4.5
 30
0.0
 11
0.0
 21
4.1999999999999886
 31
0.0
  0
LINE
  5
4C6
100
AcDbEntity
  8
0
  6
CONTINUOUS
 62
               7
100
AcDbLine
 10
0.0
 20
10.799999999999983
 30
0.0
 11
0.0
 21
19.5
 31
0.0
  0
LINE
  5
4C7
100
AcDbEntity
  8
0
  6
CONTINUOUS
 62
               7
100
AcDbLine
 10
-0.2999999999999545
 20
-4.5
 30
0.0
 11
0.0
 21
-4.1999999999999886
 31
0.0
  0
LINE
  5
4C8
100
AcDbEntity
  8
0
  6
CONTINUOUS
 62
               7
100
AcDbLine
 10
-0.2999999999999545
 20
-10.5
 30
0.0
 11
0.0
 21
-10.799999999999983
 31
0.0
  0
LINE
  5
4C9
100
AcDbEntity
  8
0
  6
CONTINUOUS
 62
               7
100
AcDbLine
 10
-0.2999999999999545
 20
-4.5
 30
0.0
 11
-0.2999999999999545
 21
-10.5
 31
0.0
  0
LINE
  5
4CA
100
AcDbEntity
  8
0
  6
CONTINUOUS
 62
               7
100
AcDbLine
 10
0.0
 20
-10.799999999999983
 30
0.0
 11
0.0
 21
-19.5
 31
0.0
  0
LINE
  5
4CB
100
AcDbEntity
  8
0
  6
CONTINUOUS
 62
               7
100
AcDbLine
 10
0.0
 20
-4.1999999999999886
 30
0.0
 11
0.0
 21
4.1999999999999886
 31
0.0
  0
CIRCLE
  5
4CC
100
AcDbEntity
  8
0
  6
CONTINUOUS
 62
               7
100
AcDbCircle
 10
-9.5
 20
0.0
 30
0.0
 40
7.25
  0
CIRCLE
  5
4CD
100
AcDbEntity
  8
0
  6
CONTINUOUS
 62
               7
100
AcDbCircle
 10
-9.5
 20
0.0
 30
0.0
 40
8.0
  0
LINE
  5
4CE
100
AcDbEntity
  8
0
  6
CONTINUOUS
 62
               7
100
AcDbLine
 10
-14.0
 20
9.0
 30
0.0
 11
-12.0
 21
11.0
 31
0.0
  0
LINE
  5
4CF
100
AcDbEntity
  8
0
  6
CONTINUOUS
 62
               7
100
AcDbLine
 10
-15.654356076261024
 20
9.0
 30
0.0
 11
-14.0
 21
9.0
 31
0.0
  0
LINE
  5
4D0
100
AcDbEntity
  8
0
  6
CONTINUOUS
 62
               7
100
AcDbLine
 10
-12.0
 20
11.0
 30
0.0
 11
-12.0
 21
19.5
 31
0.0
  0
LINE
  5
4D1
100
AcDbEntity
  8
0
  6
CONTINUOUS
 62
               7
100
AcDbLine
 10
-14.0
 20
-9.0
 30
0.0
 11
-12.0
 21
-11.0
 31
0.0
  0
LINE
  5
4D2
100
AcDbEntity
  8
0
  6
CONTINUOUS
 62
               7
100
AcDbLine
 10
-12.0
 20
-11.0
 30
0.0
 11
-12.0
 21
-19.5
 31
0.0
  0
CIRCLE
  5
4D3
100
AcDbEntity
  8
0
  6
CONTINUOUS
 62
               7
100
AcDbCircle
 10
-8.0
 20
-14.0
 30
0.0
 40
2.1000000000000001
  0
CIRCLE
  5
4D4
100
AcDbEntity
  8
0
  6
CONTINUOUS
 62
               2
100
AcDbCircle
 10
-8.0
 20
-14.0
 30
0.0
 40
2.5
  0
LINE
  5
4D5
100
AcDbEntity
  8
0
  6
CONTINUOUS
 62
               2
100
AcDbLine
 10
-8.0
 20
-17.5
 30
0.0
 11
-8.0
 21
-10.5
 31
0.0
  0
LINE
  5
4D6
100
AcDbEntity
  8
0
  6
CONTINUOUS
 62
               2
100
AcDbLine
 10
-4.5
 20
-14.0
 30
0.0
 11
-11.5
 21
-14.0
 31
0.0
  0
CIRCLE
  5
4D7
100
AcDbEntity
  8
0
  6
CONTINUOUS
 62
               7
100
AcDbCircle
 10
-8.0
 20
14.0
 30
0.0
 40
2.1000000000000001
  0
CIRCLE
  5
4D8
100
AcDbEntity
  8
0
  6
CONTINUOUS
 62
               2
100
AcDbCircle
 10
-8.0
 20
14.0
 30
0.0
 40
2.5
  0
LINE
  5
4D9
100
AcDbEntity
  8
0
  6
CONTINUOUS
 62
               2
100
AcDbLine
 10
-8.0
 20
17.5
 30
0.0
 11
-8.0
 21
10.5
 31
0.0
  0
LINE
  5
4DA
100
AcDbEntity
  8
0
  6
CONTINUOUS
 62
               2
100
AcDbLine
 10
-4.5
 20
14.0
 30
0.0
 11
-11.5
 21
14.0
 31
0.0
  0
LINE
  5
4DB
100
AcDbEntity
  8
0
  6
CONTINUOUS
 62
               7
100
AcDbLine
 10
-19.299999999999955
 20
9.1999999999999886
 30
0.0
 11
-14.5
 21
9.1999999999999886
 31
0.0
  0
CIRCLE
  5
4DC
100
AcDbEntity
  8
0
  6
CONTINUOUS
 62
               7
100
AcDbCircle
 10
-17.0
 20
13.0
 30
0.0
 40
1.5
  0
LINE
  5
4DD
100
AcDbEntity
  8
0
  6
CONTINUOUS
 62
               7
100
AcDbLine
 10
-17.707106781186553
 20
13.707106781186553
 30
0.0
 11
-16.292893218813447
 21
12.292893218813447
 31
0.0
  0
LINE
  5
4DE
100
AcDbEntity
  8
0
  6
CONTINUOUS
 62
               7
100
AcDbLine
 10
-17.707106781186553
 20
12.292893218813447
 30
0.0
 11
-16.292893218813447
 21
13.707106781186553
 31
0.0
  0
LINE
  5
4DF
100
AcDbEntity
  8
0
  6
CONTINUOUS
 62
               7
100
AcDbLine
 10
-14.5
 20
16.0
 30
0.0
 11
-22.5
 21
16.0
 31
0.0
  0
LINE
  5
4E0
100
AcDbEntity
  8
0
  6
CONTINUOUS
 62
               7
100
AcDbLine
 10
-19.299999999999955
 20
-9.1999999999999886
 30
0.0
 11
-14.5
 21
-9.1999999999999886
 31
0.0
  0
LINE
  5
4E1
100
AcDbEntity
  8
0
  6
CONTINUOUS
 62
               7
100
AcDbLine
 10
-22.5
 20
16.0
 30
0.0
 11
-22.5
 21
-16.0
 31
0.0
  0
LINE
  5
4E2
100
AcDbEntity
  8
0
  6
CONTINUOUS
 62
               7
100
AcDbLine
 10
-17.707106781186553
 20
-12.292893218813447
 30
0.0
 11
-16.292893218813447
 21
-13.707106781186553
 31
0.0
  0
LINE
  5
4E3
100
AcDbEntity
  8
0
  6
CONTINUOUS
 62
               7
100
AcDbLine
 10
-17.707106781186553
 20
-13.707106781186553
 30
0.0
 11
-16.292893218813447
 21
-12.292893218813447
 31
0.0
  0
CIRCLE
  5
4E4
100
AcDbEntity
  8
0
  6
CONTINUOUS
 62
               7
100
AcDbCircle
 10
-17.0
 20
-13.0
 30
0.0
 40
1.5
  0
LINE
  5
4E5
100
AcDbEntity
  8
0
  6
CONTINUOUS
 62
               7
100
AcDbLine
 10
-14.5
 20
-16.0
 30
0.0
 11
-22.5
 21
-16.0
 31
0.0
  0
LINE
  5
4E6
100
AcDbEntity
  8
0
  6
CONTINUOUS
 62
               7
100
AcDbLine
 10
-14.5
 20
9.1999999999999886
 30
0.0
 11
-14.5
 21
20.0
 31
0.0
  0
LINE
  5
4E7
100
AcDbEntity
  8
0
  6
CONTINUOUS
 62
               7
100
AcDbLine
 10
-18.699999999999932
 20
9.0
 30
0.0
 11
-17.945643923738999
 21
9.0
 31
0.0
  0
LINE
  5
4E8
100
AcDbEntity
  8
0
  6
CONTINUOUS
 62
               7
100
AcDbLine
 10
-18.899999999999977
 20
8.8000000000000114
 30
0.0
 11
-18.699999999999932
 21
9.0
 31
0.0
  0
ARC
  5
4E9
100
AcDbEntity
  8
0
  6
CONTINUOUS
 62
               7
100
AcDbCircle
 10
-16.799999999999955
 20
9.4999999999999716
 30
0.0
 40
1.25
100
AcDbArc
 50
193.88654036262753
 51
346.1134596373725
  0
LINE
  5
4EA
100
AcDbEntity
  8
0
  6
CONTINUOUS
 62
               7
100
AcDbLine
 10
-18.899999999999977
 20
-8.8000000000000114
 30
0.0
 11
-18.699999999999932
 21
-9.0
 31
0.0
  0
LINE
  5
4EB
100
AcDbEntity
  8
0
  6
CENTER
 62
               2
100
AcDbLine
 10
2.5260440989142126
 20
0.0
 30
0.0
 11
-24.910904413760022
 21
0.0
 31
0.0
  0
LINE
  5
4EC
100
AcDbEntity
  8
0
  6
CONTINUOUS
 62
               7
100
AcDbLine
 10
-18.899999999999977
 20
8.8000000000000114
 30
0.0
 11
-18.899999999999977
 21
-8.8000000000000114
 31
0.0
  0
LINE
  5
4ED
100
AcDbEntity
  8
0
  6
CENTER
 62
               2
100
AcDbLine
 10
-9.5
 20
-10.0
 30
0.0
 11
-9.5
 21
10.0
 31
0.0
  0
LINE
  5
4EE
100
AcDbEntity
  8
0
  6
CONTINUOUS
 62
               7
100
AcDbLine
 10
-19.299999999999955
 20
9.1999999999999886
 30
0.0
 11
-19.299999999999955
 21
-9.1999999999999886
 31
0.0
  0
LINE
  5
4EF
100
AcDbEntity
  8
0
  6
CONTINUOUS
 62
               7
100
AcDbLine
 10
-23.0
 20
19.5
 30
0.0
 11
-23.0
 21
-19.5
 31
0.0
  0
LINE
  5
4F0
100
AcDbEntity
  8
0
  6
CONTINUOUS
 62
               7
100
AcDbLine
 10
-15.654356076261024
 20
-9.0
 30
0.0
 11
-14.0
 21
-9.0
 31
0.0
  0
ARC
  5
4F1
100
AcDbEntity
  8
0
  6
CONTINUOUS
 62
               7
100
AcDbCircle
 10
-16.799999999999955
 20
-9.4999999999999716
 30
0.0
 40
1.25
100
AcDbArc
 50
13.886540362627525
 51
166.11345963737247
  0
LINE
  5
4F2
100
AcDbEntity
  8
0
  6
CONTINUOUS
 62
               7
100
AcDbLine
 10
-18.699999999999932
 20
-9.0
 30
0.0
 11
-17.945643923738999
 21
-9.0
 31
0.0
  0
LINE
  5
4F3
100
AcDbEntity
  8
0
  6
CONTINUOUS
 62
               7
100
AcDbLine
 10
-1.5
 20
-20.0
 30
0.0
 11
-22.499999999999773
 21
-20.0
 31
0.0
  0
LINE
  5
4F4
100
AcDbEntity
  8
0
  6
CONTINUOUS
 62
               7
100
AcDbLine
 10
-23.0
 20
-19.5
 30
0.0
 11
-22.499999999999773
 21
-20.0
 31
0.0
  0
LINE
  5
4F5
100
AcDbEntity
  8
0
  6
CONTINUOUS
 62
               7
100
AcDbLine
 10
-14.5
 20
-9.1999999999999886
 30
0.0
 11
-14.5
 21
-20.0
 31
0.0
  0
LINE
  5
4F6
100
AcDbEntity
  8
0
  6
CONTINUOUS
 62
               7
100
AcDbLine
 10
0.0
 20
-19.5
 30
0.0
 11
-12.0
 21
-19.5
 31
0.0
  0
LINE
  5
4F7
100
AcDbEntity
  8
0
  6
CONTINUOUS
 62
               7
100
AcDbLine
 10
-1.5
 20
20.0
 30
0.0
 11
-22.499999999999773
 21
20.0
 31
0.0
  0
LINE
  5
4F8
100
AcDbEntity
  8
0
  6
CONTINUOUS
 62
               7
100
AcDbLine
 10
-23.0
 20
19.5
 30
0.0
 11
-22.499999999999773
 21
20.0
 31
0.0
  0
LINE
  5
4F9
100
AcDbEntity
  8
0
  6
CONTINUOUS
 62
               7
100
AcDbLine
 10
0.0
 20
19.5
 30
0.0
 11
-12.0
 21
19.5
 31
0.0
  0
LINE
  5
4FA
100
AcDbEntity
  8
0
  6
CONTINUOUS
 62
               2
100
AcDbLine
 10
-2.5
 20
15.5
 30
0.0
 11
2.5
 21
15.5
 31
0.0
  0
LINE
  5
4FB
100
AcDbEntity
  8
0
  6
CONTINUOUS
 62
               2
100
AcDbLine
 10
-2.5
 20
-15.5
 30
0.0
 11
2.5
 21
-15.5
 31
0.0
  0
ENDBLK
  5
4FC
100
AcDbEntity
  8
0
100
AcDbBlockEnd
  0
BLOCK
  5
4FD
100
AcDbEntity
  8
0
100
AcDbBlockBegin
  2
CS-MGA16-16
 70
               0
 10
0.0
 20
0.0
 30
0.0
  3
CS-MGA16-16
  1

  0
LINE
  5
4FE
100
AcDbEntity
  8
0
  6
PHANTOM
 62
               3
100
AcDbLine
 10
43.000000006606456
 20
-13.083766092897861
 30
0.0
 11
43.000000006606456
 21
-33.0
 31
0.0
  0
LINE
  5
4FF
100
AcDbEntity
  8
0
  6
PHANTOM
 62
               3
100
AcDbLine
 10
53.930325719341567
 20
-13.083766092897861
 30
0.0
 11
43.000000006606456
 21
-13.083766092897861
 31
0.0
  0
LINE
  5
500
100
AcDbEntity
  8
0
  6
CONTINUOUS
 62
               7
100
AcDbLine
 10
20.0
 20
-14.0
 30
0.0
 11
80.0
 21
-14.0
 31
0.0
  0
LINE
  5
501
100
AcDbEntity
  8
0
  6
CONTINUOUS
 62
               7
100
AcDbLine
 10
8.0
 20
-5.7583426132260342
 30
0.0
 11
10.199999999999932
 21
-5.7583426132260342
 31
0.0
  0
LINE
  5
502
100
AcDbEntity
  8
0
  6
CONTINUOUS
 62
               7
100
AcDbLine
 10
10.199999999999932
 20
-2.6999999999999886
 30
0.0
 11
12.0
 21
-2.6999999999999886
 31
0.0
  0
LINE
  5
503
100
AcDbEntity
  8
0
  6
CONTINUOUS
 62
               7
100
AcDbLine
 10
8.0
 20
-2.0
 30
0.0
 11
10.199999999999932
 21
-2.0
 31
0.0
  0
LINE
  5
504
100
AcDbEntity
  8
0
  6
CONTINUOUS
 62
               7
100
AcDbLine
 10
10.199999999999932
 20
-7.5025015644561677
 30
0.0
 11
12.0
 21
-7.5025015644561677
 31
0.0
  0
LINE
  5
505
100
AcDbEntity
  8
0
  6
CONTINUOUS
 62
               7
100
AcDbLine
 10
10.199999999999932
 20
-2.0
 30
0.0
 11
10.199999999999932
 21
-7.5025015644561677
 31
0.0
  0
LINE
  5
506
100
AcDbEntity
  8
0
  6
CONTINUOUS
 62
               2
100
AcDbLine
 10
10.199999999999932
 20
-5.7583426132260342
 30
0.0
 11
8.0
 21
-13.241657386773909
 31
0.0
  0
LINE
  5
507
100
AcDbEntity
  8
0
  6
CONTINUOUS
 62
               2
100
AcDbLine
 10
10.199999999999932
 20
-13.241657386773909
 30
0.0
 11
8.0
 21
-5.7583426132260342
 31
0.0
  0
LINE
  5
508
100
AcDbEntity
  8
0
  6
CONTINUOUS
 62
               7
100
AcDbLine
 10
10.199999999999932
 20
-11.497498435543775
 30
0.0
 11
10.199999999999932
 21
-13.5
 31
0.0
  0
LINE
  5
509
100
AcDbEntity
  8
0
  6
CONTINUOUS
 62
               7
100
AcDbLine
 10
8.0
 20
-13.241657386773909
 30
0.0
 11
10.199999999999932
 21
-13.241657386773909
 31
0.0
  0
LINE
  5
50A
100
AcDbEntity
  8
0
  6
CONTINUOUS
 62
               7
100
AcDbLine
 10
10.199999999999932
 20
-11.497498435543775
 30
0.0
 11
12.0
 21
-11.497498435543775
 31
0.0
  0
LINE
  5
50B
100
AcDbEntity
  8
0
  6
CONTINUOUS
 62
               2
100
AcDbLine
 10
16.0
 20
-2.4999999999999432
 30
0.0
 11
16.0
 21
-9.4999999999999432
 31
0.0
  0
CIRCLE
  5
50C
100
AcDbEntity
  8
0
  6
CONTINUOUS
 62
               7
100
AcDbCircle
 10
16.0
 20
-5.9999999999999432
 30
0.0
 40
2.1000000000000001
  0
CIRCLE
  5
50D
100
AcDbEntity
  8
0
  6
CONTINUOUS
 62
               2
100
AcDbCircle
 10
16.0
 20
-5.9999999999999432
 30
0.0
 40
2.5
  0
LINE
  5
50E
100
AcDbEntity
  8
0
  6
CONTINUOUS
 62
               7
100
AcDbLine
 10
12.0
 20
-0.2000000000000171
 30
0.0
 11
12.0
 21
-13.5
 31
0.0
  0
LINE
  5
50F
100
AcDbEntity
  8
0
  6
CONTINUOUS
 62
               7
100
AcDbLine
 10
7.9999999871791942
 20
-1.5
 30
0.0
 11
0.0
 21
-1.5
 31
0.0
  0
LINE
  5
510
100
AcDbEntity
  8
0
  6
CONTINUOUS
 62
               7
100
AcDbLine
 10
8.0
 20
-1.5
 30
0.0
 11
8.0
 21
-13.5
 31
0.0
  0
LINE
  5
511
100
AcDbEntity
  8
0
  6
CONTINUOUS
 62
               7
100
AcDbLine
 10
0.0
 20
-22.800000000000011
 30
0.0
 11
14.999999987179194
 21
-22.800000000000011
 31
0.0
  0
LINE
  5
512
100
AcDbEntity
  8
0
  6
CONTINUOUS
 62
               7
100
AcDbLine
 10
0.0
 20
-22.800000000000011
 30
0.0
 11
0.0
 21
-1.5
 31
0.0
  0
LINE
  5
513
100
AcDbEntity
  8
0
  6
CONTINUOUS
 62
               7
100
AcDbLine
 10
8.0
 20
-13.5
 30
0.0
 11
15.999999987179194
 21
-13.5
 31
0.0
  0
LINE
  5
514
100
AcDbEntity
  8
0
  6
CONTINUOUS
 62
               7
100
AcDbLine
 10
15.999999987179194
 20
-13.5
 30
0.0
 11
15.999999987179194
 21
-14.5
 31
0.0
  0
LINE
  5
515
100
AcDbEntity
  8
0
  6
CONTINUOUS
 62
               7
100
AcDbLine
 10
13.0
 20
-12.499999999999943
 30
0.0
 11
13.0
 21
-13.5
 31
0.0
  0
LINE
  5
516
100
AcDbEntity
  8
0
  6
CONTINUOUS
 62
               7
100
AcDbLine
 10
20.0
 20
-0.2000000000000171
 30
0.0
 11
12.0
 21
-0.2000000000000171
 31
0.0
  0
LINE
  5
517
100
AcDbEntity
  8
0
  6
CONTINUOUS
 62
               2
100
AcDbLine
 10
12.5
 20
-5.9999999999999432
 30
0.0
 11
19.5
 21
-5.9999999999999432
 31
0.0
  0
LINE
  5
518
100
AcDbEntity
  8
0
  6
CONTINUOUS
 62
               7
100
AcDbLine
 10
12.0
 20
-12.5
 30
0.0
 11
20.0
 21
-12.5
 31
0.0
  0
LINE
  5
519
100
AcDbEntity
  8
0
  6
CONTINUOUS
 62
               2
100
AcDbLine
 10
5.0
 20
-9.5
 30
0.0
 11
21.213298307512446
 21
-9.5
 31
0.0
  0
LINE
  5
51A
100
AcDbEntity
  8
0
  6
CONTINUOUS
 62
               2
100
AcDbLine
 10
45.5
 20
-18.0
 30
0.0
 11
51.5
 21
-18.0
 31
0.0
  0
LINE
  5
51B
100
AcDbEntity
  8
0
  6
CONTINUOUS
 62
               2
100
AcDbLine
 10
48.5
 20
-15.0
 30
0.0
 11
48.5
 21
-21.0
 31
0.0
  0
CIRCLE
  5
51C
100
AcDbEntity
  8
0
  6
CONTINUOUS
 62
               2
100
AcDbCircle
 10
48.5
 20
-18.0
 30
0.0
 40
2.0
  0
CIRCLE
  5
51D
100
AcDbEntity
  8
0
  6
CONTINUOUS
 62
               7
100
AcDbCircle
 10
48.5
 20
-18.0
 30
0.0
 40
1.6499999999999999
  0
LINE
  5
51E
100
AcDbEntity
  8
0
  6
CONTINUOUS
 62
               2
100
AcDbLine
 10
62.0
 20
-18.300000000000011
 30
0.0
 11
62.0
 21
-14.699999999999989
 31
0.0
  0
LINE
  5
51F
100
AcDbEntity
  8
0
  6
CONTINUOUS
 62
               2
100
AcDbLine
 10
60.199999999999932
 20
-16.5
 30
0.0
 11
63.799999999999955
 21
-16.5
 31
0.0
  0
CIRCLE
  5
520
100
AcDbEntity
  8
0
  6
CONTINUOUS
 62
               2
100
AcDbCircle
 10
62.0
 20
-16.5
 30
0.0
 40
1.0
  0
CIRCLE
  5
521
100
AcDbEntity
  8
0
  6
CONTINUOUS
 62
               7
100
AcDbCircle
 10
62.0
 20
-16.5
 30
0.0
 40
0.8
  0
LINE
  5
522
100
AcDbEntity
  8
0
  6
CONTINUOUS
 62
               2
100
AcDbLine
 10
76.0
 20
-18.300000000000011
 30
0.0
 11
76.0
 21
-14.699999999999989
 31
0.0
  0
LINE
  5
523
100
AcDbEntity
  8
0
  6
CONTINUOUS
 62
               2
100
AcDbLine
 10
74.199999999999932
 20
-16.5
 30
0.0
 11
77.799999999999955
 21
-16.5
 31
0.0
  0
CIRCLE
  5
524
100
AcDbEntity
  8
0
  6
CONTINUOUS
 62
               2
100
AcDbCircle
 10
76.0
 20
-16.5
 30
0.0
 40
1.0
  0
CIRCLE
  5
525
100
AcDbEntity
  8
0
  6
CONTINUOUS
 62
               7
100
AcDbCircle
 10
76.0
 20
-16.5
 30
0.0
 40
0.8
  0
LINE
  5
526
100
AcDbEntity
  8
0
  6
CONTINUOUS
 62
               2
100
AcDbLine
 10
46.949999999999932
 20
-4.5
 30
0.0
 11
51.049999999999955
 21
-4.5
 31
0.0
  0
LINE
  5
527
100
AcDbEntity
  8
0
  6
CONTINUOUS
 62
               2
100
AcDbLine
 10
49.0
 20
-6.5499999999999829
 30
0.0
 11
49.0
 21
-2.4499999999999886
 31
0.0
  0
CIRCLE
  5
528
100
AcDbEntity
  8
0
  6
CONTINUOUS
 62
               7
100
AcDbCircle
 10
49.0
 20
-4.5
 30
0.0
 40
1.05
  0
CIRCLE
  5
529
100
AcDbEntity
  8
0
  6
CONTINUOUS
 62
               2
100
AcDbCircle
 10
49.0
 20
-4.5
 30
0.0
 40
1.25
  0
LINE
  5
52A
100
AcDbEntity
  8
0
  6
CONTINUOUS
 62
               2
100
AcDbLine
 10
62.949999999999932
 20
-4.5
 30
0.0
 11
67.049999999999955
 21
-4.5
 31
0.0
  0
LINE
  5
52B
100
AcDbEntity
  8
0
  6
CONTINUOUS
 62
               2
100
AcDbLine
 10
65.0
 20
-6.5499999999999829
 30
0.0
 11
65.0
 21
-2.4499999999999886
 31
0.0
  0
CIRCLE
  5
52C
100
AcDbEntity
  8
0
  6
CONTINUOUS
 62
               7
100
AcDbCircle
 10
65.0
 20
-4.5
 30
0.0
 40
1.05
  0
CIRCLE
  5
52D
100
AcDbEntity
  8
0
  6
CONTINUOUS
 62
               2
100
AcDbCircle
 10
65.0
 20
-4.5
 30
0.0
 40
1.25
  0
CIRCLE
  5
52E
100
AcDbEntity
  8
0
  6
CONTINUOUS
 62
               7
100
AcDbCircle
 10
65.5
 20
-18.0
 30
0.0
 40
2.0
  0
LINE
  5
52F
100
AcDbEntity
  8
0
  6
CONTINUOUS
 62
               7
100
AcDbLine
 10
14.999999987179194
 20
-22.5
 30
0.0
 11
78.0
 21
-22.5
 31
0.0
  0
LINE
  5
530
100
AcDbEntity
  8
0
  6
CONTINUOUS
 62
               7
100
AcDbLine
 10
14.999999987179194
 20
-22.300000000000011
 30
0.0
 11
0.0
 21
-22.300000000000011
 31
0.0
  0
LINE
  5
531
100
AcDbEntity
  8
0
  6
CONTINUOUS
 62
               2
100
AcDbLine
 10
26.5
 20
-3.0
 30
0.0
 11
26.5
 21
-10.0
 31
0.0
  0
CIRCLE
  5
532
100
AcDbEntity
  8
0
  6
CONTINUOUS
 62
               2
100
AcDbCircle
 10
26.5
 20
-6.5
 30
0.0
 40
2.5
  0
LINE
  5
533
100
AcDbEntity
  8
0
  6
CONTINUOUS
 62
               2
100
AcDbLine
 10
23.0
 20
-6.5
 30
0.0
 11
30.0
 21
-6.5
 31
0.0
  0
CIRCLE
  5
534
100
AcDbEntity
  8
0
  6
CONTINUOUS
 62
               7
100
AcDbCircle
 10
26.5
 20
-6.5
 30
0.0
 40
2.1000000000000001
  0
LINE
  5
535
100
AcDbEntity
  8
0
  6
CONTINUOUS
 62
               7
100
AcDbLine
 10
80.0
 20
-18.900000000000006
 30
0.0
 11
78.799999999999955
 21
-18.900000000000006
 31
0.0
  0
LINE
  5
536
100
AcDbEntity
  8
0
  6
CONTINUOUS
 62
               7
100
AcDbLine
 10
79.399999999999977
 20
-16.0
 30
0.0
 11
79.399999999999977
 21
-18.0
 31
0.0
  0
LINE
  5
537
100
AcDbEntity
  8
0
  6
CONTINUOUS
 62
               7
100
AcDbLine
 10
78.899999999999977
 20
-18.5
 30
0.0
 11
78.799999999999955
 21
-18.5
 31
0.0
  0
ARC
  5
538
100
AcDbEntity
  8
0
  6
CONTINUOUS
 62
               7
100
AcDbCircle
 10
78.899999999999977
 20
-18.0
 30
0.0
 40
0.5
100
AcDbArc
 50
270.0
 51
0.0
  0
ARC
  5
539
100
AcDbEntity
  8
0
  6
CONTINUOUS
 62
               7
100
AcDbCircle
 10
78.899999999999977
 20
-16.0
 30
0.0
 40
0.5
100
AcDbArc
 50
0.0
 51
90.0
  0
LINE
  5
53A
100
AcDbEntity
  8
0
  6
CONTINUOUS
 62
               7
100
AcDbLine
 10
78.899999999999977
 20
-15.5
 30
0.0
 11
78.799999999999955
 21
-15.5
 31
0.0
  0
LINE
  5
53B
100
AcDbEntity
  8
0
  6
CONTINUOUS
 62
               7
100
AcDbLine
 10
78.799999999999955
 20
-14.5
 30
0.0
 11
78.799999999999955
 21
-22.499999986528337
 31
0.0
  0
LINE
  5
53C
100
AcDbEntity
  8
0
  6
CONTINUOUS
 62
               7
100
AcDbLine
 10
78.0
 20
-14.5
 30
0.0
 11
78.799999999999955
 21
-14.5
 31
0.0
  0
LINE
  5
53D
100
AcDbEntity
  8
0
  6
CONTINUOUS
 62
               7
100
AcDbLine
 10
78.0
 20
-22.5
 30
0.0
 11
78.799999999999955
 21
-22.5
 31
0.0
  0
LINE
  5
53E
100
AcDbEntity
  8
0
  6
CONTINUOUS
 62
               7
100
AcDbLine
 10
20.0
 20
-12.0
 30
0.0
 11
80.0
 21
-12.0
 31
0.0
  0
LINE
  5
53F
100
AcDbEntity
  8
0
  6
CONTINUOUS
 62
               2
100
AcDbLine
 10
55.5
 20
-18.0
 30
0.0
 11
61.5
 21
-18.0
 31
0.0
  0
LINE
  5
540
100
AcDbEntity
  8
0
  6
CONTINUOUS
 62
               2
100
AcDbLine
 10
58.5
 20
-15.0
 30
0.0
 11
58.5
 21
-21.0
 31
0.0
  0
CIRCLE
  5
541
100
AcDbEntity
  8
0
  6
CONTINUOUS
 62
               2
100
AcDbCircle
 10
58.5
 20
-18.0
 30
0.0
 40
2.0
  0
CIRCLE
  5
542
100
AcDbEntity
  8
0
  6
CONTINUOUS
 62
               7
100
AcDbCircle
 10
58.5
 20
-18.0
 30
0.0
 40
1.6499999999999999
  0
LINE
  5
543
100
AcDbEntity
  8
0
  6
CONTINUOUS
 62
               2
100
AcDbLine
 10
69.5
 20
-18.0
 30
0.0
 11
75.5
 21
-18.0
 31
0.0
  0
LINE
  5
544
100
AcDbEntity
  8
0
  6
CONTINUOUS
 62
               2
100
AcDbLine
 10
72.5
 20
-15.0
 30
0.0
 11
72.5
 21
-21.0
 31
0.0
  0
CIRCLE
  5
545
100
AcDbEntity
  8
0
  6
CONTINUOUS
 62
               2
100
AcDbCircle
 10
72.5
 20
-18.0
 30
0.0
 40
2.0
  0
CIRCLE
  5
546
100
AcDbEntity
  8
0
  6
CONTINUOUS
 62
               7
100
AcDbCircle
 10
72.5
 20
-18.0
 30
0.0
 40
1.6499999999999999
  0
LINE
  5
547
100
AcDbEntity
  8
0
  6
CONTINUOUS
 62
               2
100
AcDbLine
 10
65.5
 20
-15.0
 30
0.0
 11
65.5
 21
-21.0
 31
0.0
  0
LINE
  5
548
100
AcDbEntity
  8
0
  6
CONTINUOUS
 62
               2
100
AcDbLine
 10
62.5
 20
-18.0
 30
0.0
 11
68.5
 21
-18.0
 31
0.0
  0
LINE
  5
549
100
AcDbEntity
  8
0
  6
CONTINUOUS
 62
               7
100
AcDbLine
 10
57.0
 20
-9.0
 30
0.0
 11
57.0
 21
-12.0
 31
0.0
  0
LINE
  5
54A
100
AcDbEntity
  8
0
  6
CONTINUOUS
 62
               7
100
AcDbLine
 10
57.0
 20
-9.0
 30
0.0
 11
65.0
 21
-9.0
 31
0.0
  0
LINE
  5
54B
100
AcDbEntity
  8
0
  6
CONTINUOUS
 62
               7
100
AcDbLine
 10
65.0
 20
-9.0
 30
0.0
 11
65.0
 21
-12.0
 31
0.0
  0
LINE
  5
54C
100
AcDbEntity
  8
0
  6
CONTINUOUS
 62
               7
100
AcDbLine
 10
32.0
 20
-9.0
 30
0.0
 11
40.0
 21
-9.0
 31
0.0
  0
LINE
  5
54D
100
AcDbEntity
  8
0
  6
CONTINUOUS
 62
               7
100
AcDbLine
 10
32.0
 20
-9.0
 30
0.0
 11
32.0
 21
-12.0
 31
0.0
  0
LINE
  5
54E
100
AcDbEntity
  8
0
  6
CONTINUOUS
 62
               7
100
AcDbLine
 10
40.0
 20
-9.0
 30
0.0
 11
40.0
 21
-12.0
 31
0.0
  0
LINE
  5
54F
100
AcDbEntity
  8
0
  6
CONTINUOUS
 62
               7
100
AcDbLine
 10
14.999999987179194
 20
-14.5
 30
0.0
 11
14.999999987179194
 21
-23.0
 31
0.0
  0
LINE
  5
550
100
AcDbEntity
  8
0
  6
CONTINUOUS
 62
               7
100
AcDbLine
 10
14.999999987179194
 20
-23.0
 30
0.0
 11
78.0
 21
-23.0
 31
0.0
  0
LINE
  5
551
100
AcDbEntity
  8
0
  6
CONTINUOUS
 62
               7
100
AcDbLine
 10
20.0
 20
0.0
 30
0.0
 11
80.0
 21
0.0
 31
0.0
  0
LINE
  5
552
100
AcDbEntity
  8
0
  6
CONTINUOUS
 62
               7
100
AcDbLine
 10
14.999999987179194
 20
-14.5
 30
0.0
 11
78.0
 21
-14.5
 31
0.0
  0
LINE
  5
553
100
AcDbEntity
  8
0
  6
CONTINUOUS
 62
               7
100
AcDbLine
 10
80.0
 20
-18.900000000000006
 30
0.0
 11
80.0
 21
0.0
 31
0.0
  0
LINE
  5
554
100
AcDbEntity
  8
0
  6
CONTINUOUS
 62
               7
100
AcDbLine
 10
78.0
 20
-23.0
 30
0.0
 11
78.0
 21
-14.5
 31
0.0
  0
LINE
  5
555
100
AcDbEntity
  8
0
  6
CONTINUOUS
 62
               7
100
AcDbLine
 10
20.0
 20
-14.5
 30
0.0
 11
20.0
 21
0.0
 31
0.0
  0
LINE
  5
556
100
AcDbEntity
  8
0
  6
CONTINUOUS
 62
               7
100
AcDbLine
 10
22.0
 20
-12.0
 30
0.0
 11
22.0
 21
0.0
 31
0.0
  0
LINE
  5
557
100
AcDbEntity
  8
0
  6
CONTINUOUS
 62
               7
100
AcDbLine
 10
31.0
 20
-12.0
 30
0.0
 11
31.0
 21
0.0
 31
0.0
  0
CIRCLE
  5
558
100
AcDbEntity
  8
0
  6
CONTINUOUS
 62
               2
100
AcDbCircle
 10
43.0
 20
-5.9999999999999432
 30
0.0
 40
2.5
  0
LINE
  5
559
100
AcDbEntity
  8
0
  6
CONTINUOUS
 62
               2
100
AcDbLine
 10
43.0
 20
-2.4999999999999432
 30
0.0
 11
43.0
 21
-9.4999999999999432
 31
0.0
  0
LINE
  5
55A
100
AcDbEntity
  8
0
  6
CONTINUOUS
 62
               2
100
AcDbLine
 10
39.5
 20
-5.9999999999999432
 30
0.0
 11
46.5
 21
-5.9999999999999432
 31
0.0
  0
CIRCLE
  5
55B
100
AcDbEntity
  8
0
  6
CONTINUOUS
 62
               7
100
AcDbCircle
 10
43.0
 20
-5.9999999999999432
 30
0.0
 40
2.1000000000000001
  0
CIRCLE
  5
55C
100
AcDbEntity
  8
0
  6
CONTINUOUS
 62
               2
100
AcDbCircle
 10
70.0
 20
-5.9999999999999432
 30
0.0
 40
2.5
  0
LINE
  5
55D
100
AcDbEntity
  8
0
  6
CONTINUOUS
 62
               2
100
AcDbLine
 10
70.0
 20
-2.4999999999999432
 30
0.0
 11
70.0
 21
-9.4999999999999432
 31
0.0
  0
LINE
  5
55E
100
AcDbEntity
  8
0
  6
CONTINUOUS
 62
               2
100
AcDbLine
 10
66.5
 20
-5.9999999999999432
 30
0.0
 11
73.5
 21
-5.9999999999999432
 31
0.0
  0
CIRCLE
  5
55F
100
AcDbEntity
  8
0
  6
CONTINUOUS
 62
               7
100
AcDbCircle
 10
70.0
 20
-5.9999999999999432
 30
0.0
 40
2.1000000000000001
  0
LINE
  5
560
100
AcDbEntity
  8
0
  6
CONTINUOUS
 62
               2
100
AcDbLine
 10
36.0
 20
2.5
 30
0.0
 11
36.0
 21
-2.5
 31
0.0
  0
LINE
  5
561
100
AcDbEntity
  8
0
  6
CONTINUOUS
 62
               2
100
AcDbLine
 10
61.0
 20
2.5
 30
0.0
 11
61.0
 21
-2.5
 31
0.0
  0
LINE
  5
562
100
AcDbEntity
  8
0
  6
CONTINUOUS
 62
               2
100
AcDbLine
 10
-2.5
 20
-10.0
 30
0.0
 11
2.5
 21
-10.0
 31
0.0
  0
LINE
  5
563
100
AcDbEntity
  8
0
  6
CONTINUOUS
 62
               2
100
AcDbLine
 10
77.5
 20
-8.0
 30
0.0
 11
82.5
 21
-8.0
 31
0.0
  0
LINE
  5
564
100
AcDbEntity
  8
0
  6
PHANTOM
 62
               3
100
AcDbLine
 10
53.930325719341567
 20
-13.083766092897861
 30
0.0
 11
53.930325719341567
 21
10.0
 31
0.0
  0
ENDBLK
  5
565
100
AcDbEntity
  8
0
100
AcDbBlockEnd
  0
BLOCK
  5
566
100
AcDbEntity
  8
0
100
AcDbBlockBegin
  2
CS-MGA16-17
 70
               0
 10
0.0
 20
0.0
 30
0.0
  3
CS-MGA16-17
  1

  0
LINE
  5
567
100
AcDbEntity
  8
0
  6
PHANTOM
 62
               3
100
AcDbLine
 10
43.000000006606456
 20
13.083766092897861
 30
0.0
 11
43.000000006606456
 21
33.0
 31
0.0
  0
LINE
  5
568
100
AcDbEntity
  8
0
  6
PHANTOM
 62
               3
100
AcDbLine
 10
53.930325719341567
 20
13.083766092897861
 30
0.0
 11
43.000000006606456
 21
13.083766092897861
 31
0.0
  0
LINE
  5
569
100
AcDbEntity
  8
0
  6
PHANTOM
 62
               3
100
AcDbLine
 10
53.930325719341567
 20
13.083766092897861
 30
0.0
 11
53.930325719341567
 21
-10.0
 31
0.0
  0
LINE
  5
56A
100
AcDbEntity
  8
0
  6
CONTINUOUS
 62
               2
100
AcDbLine
 10
-2.5
 20
10.0
 30
0.0
 11
2.5
 21
10.0
 31
0.0
  0
LINE
  5
56B
100
AcDbEntity
  8
0
  6
CONTINUOUS
 62
               2
100
AcDbLine
 10
77.5
 20
8.0
 30
0.0
 11
82.5
 21
8.0
 31
0.0
  0
LINE
  5
56C
100
AcDbEntity
  8
0
  6
CONTINUOUS
 62
               2
100
AcDbLine
 10
61.0
 20
2.5
 30
0.0
 11
61.0
 21
-2.5
 31
0.0
  0
LINE
  5
56D
100
AcDbEntity
  8
0
  6
CONTINUOUS
 62
               2
100
AcDbLine
 10
36.0
 20
2.5
 30
0.0
 11
36.0
 21
-2.5
 31
0.0
  0
CIRCLE
  5
56E
100
AcDbEntity
  8
0
  6
CONTINUOUS
 62
               7
100
AcDbCircle
 10
65.5
 20
18.0
 30
0.0
 40
2.0
  0
LINE
  5
56F
100
AcDbEntity
  8
0
  6
CONTINUOUS
 62
               7
100
AcDbLine
 10
14.999999987179194
 20
22.5
 30
0.0
 11
78.0
 21
22.5
 31
0.0
  0
LINE
  5
570
100
AcDbEntity
  8
0
  6
CONTINUOUS
 62
               2
100
AcDbLine
 10
26.5
 20
3.0
 30
0.0
 11
26.5
 21
10.0
 31
0.0
  0
CIRCLE
  5
571
100
AcDbEntity
  8
0
  6
CONTINUOUS
 62
               2
100
AcDbCircle
 10
26.5
 20
6.5
 30
0.0
 40
2.5
  0
LINE
  5
572
100
AcDbEntity
  8
0
  6
CONTINUOUS
 62
               2
100
AcDbLine
 10
23.0
 20
6.5
 30
0.0
 11
30.0
 21
6.5
 31
0.0
  0
CIRCLE
  5
573
100
AcDbEntity
  8
0
  6
CONTINUOUS
 62
               7
100
AcDbCircle
 10
26.5
 20
6.5
 30
0.0
 40
2.1000000000000001
  0
LINE
  5
574
100
AcDbEntity
  8
0
  6
CONTINUOUS
 62
               7
100
AcDbLine
 10
80.0
 20
18.900000000000006
 30
0.0
 11
78.799999999999955
 21
18.900000000000006
 31
0.0
  0
LINE
  5
575
100
AcDbEntity
  8
0
  6
CONTINUOUS
 62
               7
100
AcDbLine
 10
79.399999999999977
 20
16.0
 30
0.0
 11
79.399999999999977
 21
18.0
 31
0.0
  0
LINE
  5
576
100
AcDbEntity
  8
0
  6
CONTINUOUS
 62
               7
100
AcDbLine
 10
78.899999999999977
 20
18.5
 30
0.0
 11
78.799999999999955
 21
18.5
 31
0.0
  0
ARC
  5
577
100
AcDbEntity
  8
0
  6
CONTINUOUS
 62
               7
100
AcDbCircle
 10
78.899999999999977
 20
18.0
 30
0.0
 40
0.5
100
AcDbArc
 50
0.0
 51
90.0
  0
ARC
  5
578
100
AcDbEntity
  8
0
  6
CONTINUOUS
 62
               7
100
AcDbCircle
 10
78.899999999999977
 20
16.0
 30
0.0
 40
0.5
100
AcDbArc
 50
270.0
 51
0.0
  0
LINE
  5
579
100
AcDbEntity
  8
0
  6
CONTINUOUS
 62
               7
100
AcDbLine
 10
78.899999999999977
 20
15.5
 30
0.0
 11
78.799999999999955
 21
15.5
 31
0.0
  0
LINE
  5
57A
100
AcDbEntity
  8
0
  6
CONTINUOUS
 62
               7
100
AcDbLine
 10
78.799999999999955
 20
14.5
 30
0.0
 11
78.799999999999955
 21
22.499999986528337
 31
0.0
  0
LINE
  5
57B
100
AcDbEntity
  8
0
  6
CONTINUOUS
 62
               7
100
AcDbLine
 10
78.0
 20
14.5
 30
0.0
 11
78.799999999999955
 21
14.5
 31
0.0
  0
LINE
  5
57C
100
AcDbEntity
  8
0
  6
CONTINUOUS
 62
               7
100
AcDbLine
 10
78.0
 20
22.5
 30
0.0
 11
78.799999999999955
 21
22.5
 31
0.0
  0
LINE
  5
57D
100
AcDbEntity
  8
0
  6
CONTINUOUS
 62
               7
100
AcDbLine
 10
20.0
 20
12.0
 30
0.0
 11
80.0
 21
12.0
 31
0.0
  0
LINE
  5
57E
100
AcDbEntity
  8
0
  6
CONTINUOUS
 62
               2
100
AcDbLine
 10
55.5
 20
18.0
 30
0.0
 11
61.5
 21
18.0
 31
0.0
  0
LINE
  5
57F
100
AcDbEntity
  8
0
  6
CONTINUOUS
 62
               2
100
AcDbLine
 10
58.5
 20
15.0
 30
0.0
 11
58.5
 21
21.0
 31
0.0
  0
CIRCLE
  5
580
100
AcDbEntity
  8
0
  6
CONTINUOUS
 62
               2
100
AcDbCircle
 10
58.5
 20
18.0
 30
0.0
 40
2.0
  0
CIRCLE
  5
581
100
AcDbEntity
  8
0
  6
CONTINUOUS
 62
               7
100
AcDbCircle
 10
58.5
 20
18.0
 30
0.0
 40
1.6499999999999999
  0
LINE
  5
582
100
AcDbEntity
  8
0
  6
CONTINUOUS
 62
               2
100
AcDbLine
 10
69.5
 20
18.0
 30
0.0
 11
75.5
 21
18.0
 31
0.0
  0
LINE
  5
583
100
AcDbEntity
  8
0
  6
CONTINUOUS
 62
               2
100
AcDbLine
 10
72.5
 20
15.0
 30
0.0
 11
72.5
 21
21.0
 31
0.0
  0
CIRCLE
  5
584
100
AcDbEntity
  8
0
  6
CONTINUOUS
 62
               2
100
AcDbCircle
 10
72.5
 20
18.0
 30
0.0
 40
2.0
  0
CIRCLE
  5
585
100
AcDbEntity
  8
0
  6
CONTINUOUS
 62
               7
100
AcDbCircle
 10
72.5
 20
18.0
 30
0.0
 40
1.6499999999999999
  0
LINE
  5
586
100
AcDbEntity
  8
0
  6
CONTINUOUS
 62
               2
100
AcDbLine
 10
65.5
 20
15.0
 30
0.0
 11
65.5
 21
21.0
 31
0.0
  0
LINE
  5
587
100
AcDbEntity
  8
0
  6
CONTINUOUS
 62
               2
100
AcDbLine
 10
62.5
 20
18.0
 30
0.0
 11
68.5
 21
18.0
 31
0.0
  0
LINE
  5
588
100
AcDbEntity
  8
0
  6
CONTINUOUS
 62
               7
100
AcDbLine
 10
57.0
 20
9.0
 30
0.0
 11
57.0
 21
12.0
 31
0.0
  0
LINE
  5
589
100
AcDbEntity
  8
0
  6
CONTINUOUS
 62
               7
100
AcDbLine
 10
57.0
 20
9.0
 30
0.0
 11
65.0
 21
9.0
 31
0.0
  0
LINE
  5
58A
100
AcDbEntity
  8
0
  6
CONTINUOUS
 62
               7
100
AcDbLine
 10
65.0
 20
9.0
 30
0.0
 11
65.0
 21
12.0
 31
0.0
  0
LINE
  5
58B
100
AcDbEntity
  8
0
  6
CONTINUOUS
 62
               7
100
AcDbLine
 10
32.0
 20
9.0
 30
0.0
 11
40.0
 21
9.0
 31
0.0
  0
LINE
  5
58C
100
AcDbEntity
  8
0
  6
CONTINUOUS
 62
               7
100
AcDbLine
 10
32.0
 20
9.0
 30
0.0
 11
32.0
 21
12.0
 31
0.0
  0
LINE
  5
58D
100
AcDbEntity
  8
0
  6
CONTINUOUS
 62
               7
100
AcDbLine
 10
40.0
 20
9.0
 30
0.0
 11
40.0
 21
12.0
 31
0.0
  0
LINE
  5
58E
100
AcDbEntity
  8
0
  6
CONTINUOUS
 62
               7
100
AcDbLine
 10
14.999999987179194
 20
14.5
 30
0.0
 11
14.999999987179194
 21
23.0
 31
0.0
  0
LINE
  5
58F
100
AcDbEntity
  8
0
  6
CONTINUOUS
 62
               7
100
AcDbLine
 10
14.999999987179194
 20
23.0
 30
0.0
 11
78.0
 21
23.0
 31
0.0
  0
LINE
  5
590
100
AcDbEntity
  8
0
  6
CONTINUOUS
 62
               7
100
AcDbLine
 10
20.0
 20
0.0
 30
0.0
 11
80.0
 21
0.0
 31
0.0
  0
LINE
  5
591
100
AcDbEntity
  8
0
  6
CONTINUOUS
 62
               7
100
AcDbLine
 10
14.999999987179194
 20
14.5
 30
0.0
 11
78.0
 21
14.5
 31
0.0
  0
LINE
  5
592
100
AcDbEntity
  8
0
  6
CONTINUOUS
 62
               7
100
AcDbLine
 10
80.0
 20
18.900000000000006
 30
0.0
 11
80.0
 21
0.0
 31
0.0
  0
LINE
  5
593
100
AcDbEntity
  8
0
  6
CONTINUOUS
 62
               7
100
AcDbLine
 10
78.0
 20
23.0
 30
0.0
 11
78.0
 21
14.5
 31
0.0
  0
LINE
  5
594
100
AcDbEntity
  8
0
  6
CONTINUOUS
 62
               7
100
AcDbLine
 10
20.0
 20
14.5
 30
0.0
 11
20.0
 21
0.0
 31
0.0
  0
LINE
  5
595
100
AcDbEntity
  8
0
  6
CONTINUOUS
 62
               7
100
AcDbLine
 10
22.0
 20
12.0
 30
0.0
 11
22.0
 21
0.0
 31
0.0
  0
LINE
  5
596
100
AcDbEntity
  8
0
  6
CONTINUOUS
 62
               7
100
AcDbLine
 10
31.0
 20
12.0
 30
0.0
 11
31.0
 21
0.0
 31
0.0
  0
CIRCLE
  5
597
100
AcDbEntity
  8
0
  6
CONTINUOUS
 62
               7
100
AcDbCircle
 10
62.0
 20
16.5
 30
0.0
 40
0.8
  0
CIRCLE
  5
598
100
AcDbEntity
  8
0
  6
CONTINUOUS
 62
               2
100
AcDbCircle
 10
62.0
 20
16.5
 30
0.0
 40
1.0
  0
LINE
  5
599
100
AcDbEntity
  8
0
  6
CONTINUOUS
 62
               2
100
AcDbLine
 10
60.199999999999932
 20
16.5
 30
0.0
 11
63.799999999999955
 21
16.5
 31
0.0
  0
LINE
  5
59A
100
AcDbEntity
  8
0
  6
CONTINUOUS
 62
               2
100
AcDbLine
 10
62.0
 20
18.300000000000011
 30
0.0
 11
62.0
 21
14.699999999999989
 31
0.0
  0
CIRCLE
  5
59B
100
AcDbEntity
  8
0
  6
CONTINUOUS
 62
               7
100
AcDbCircle
 10
76.0
 20
16.5
 30
0.0
 40
0.8
  0
CIRCLE
  5
59C
100
AcDbEntity
  8
0
  6
CONTINUOUS
 62
               2
100
AcDbCircle
 10
76.0
 20
16.5
 30
0.0
 40
1.0
  0
LINE
  5
59D
100
AcDbEntity
  8
0
  6
CONTINUOUS
 62
               2
100
AcDbLine
 10
74.199999999999932
 20
16.5
 30
0.0
 11
77.799999999999955
 21
16.5
 31
0.0
  0
LINE
  5
59E
100
AcDbEntity
  8
0
  6
CONTINUOUS
 62
               2
100
AcDbLine
 10
76.0
 20
18.300000000000011
 30
0.0
 11
76.0
 21
14.699999999999989
 31
0.0
  0
CIRCLE
  5
59F
100
AcDbEntity
  8
0
  6
CONTINUOUS
 62
               2
100
AcDbCircle
 10
49.0
 20
4.5
 30
0.0
 40
1.25
  0
CIRCLE
  5
5A0
100
AcDbEntity
  8
0
  6
CONTINUOUS
 62
               7
100
AcDbCircle
 10
49.0
 20
4.5
 30
0.0
 40
1.05
  0
LINE
  5
5A1
100
AcDbEntity
  8
0
  6
CONTINUOUS
 62
               2
100
AcDbLine
 10
49.0
 20
6.5500000000000114
 30
0.0
 11
49.0
 21
2.4499999999999886
 31
0.0
  0
LINE
  5
5A2
100
AcDbEntity
  8
0
  6
CONTINUOUS
 62
               2
100
AcDbLine
 10
46.949999999999932
 20
4.5
 30
0.0
 11
51.049999999999955
 21
4.5
 31
0.0
  0
CIRCLE
  5
5A3
100
AcDbEntity
  8
0
  6
CONTINUOUS
 62
               2
100
AcDbCircle
 10
65.0
 20
4.5
 30
0.0
 40
1.25
  0
CIRCLE
  5
5A4
100
AcDbEntity
  8
0
  6
CONTINUOUS
 62
               7
100
AcDbCircle
 10
65.0
 20
4.5
 30
0.0
 40
1.05
  0
LINE
  5
5A5
100
AcDbEntity
  8
0
  6
CONTINUOUS
 62
               2
100
AcDbLine
 10
65.0
 20
6.5500000000000114
 30
0.0
 11
65.0
 21
2.4499999999999886
 31
0.0
  0
LINE
  5
5A6
100
AcDbEntity
  8
0
  6
CONTINUOUS
 62
               2
100
AcDbLine
 10
62.949999999999932
 20
4.5
 30
0.0
 11
67.049999999999955
 21
4.5
 31
0.0
  0
LINE
  5
5A7
100
AcDbEntity
  8
0
  6
CONTINUOUS
 62
               2
100
AcDbLine
 10
45.5
 20
18.0
 30
0.0
 11
51.5
 21
18.0
 31
0.0
  0
LINE
  5
5A8
100
AcDbEntity
  8
0
  6
CONTINUOUS
 62
               2
100
AcDbLine
 10
48.5
 20
15.0
 30
0.0
 11
48.5
 21
21.0
 31
0.0
  0
CIRCLE
  5
5A9
100
AcDbEntity
  8
0
  6
CONTINUOUS
 62
               2
100
AcDbCircle
 10
48.5
 20
18.0
 30
0.0
 40
2.0
  0
CIRCLE
  5
5AA
100
AcDbEntity
  8
0
  6
CONTINUOUS
 62
               7
100
AcDbCircle
 10
48.5
 20
18.0
 30
0.0
 40
1.6499999999999999
  0
LINE
  5
5AB
100
AcDbEntity
  8
0
  6
CONTINUOUS
 62
               7
100
AcDbLine
 10
0.0
 20
22.800000000000011
 30
0.0
 11
14.999999987179194
 21
22.800000000000011
 31
0.0
  0
LINE
  5
5AC
100
AcDbEntity
  8
0
  6
CONTINUOUS
 62
               7
100
AcDbLine
 10
14.999999987179194
 20
22.300000000000011
 30
0.0
 11
0.0
 21
22.300000000000011
 31
0.0
  0
LINE
  5
5AD
100
AcDbEntity
  8
0
  6
CONTINUOUS
 62
               7
100
AcDbLine
 10
13.0
 20
12.499999999999943
 30
0.0
 11
13.0
 21
13.5
 31
0.0
  0
LINE
  5
5AE
100
AcDbEntity
  8
0
  6
CONTINUOUS
 62
               7
100
AcDbLine
 10
8.0
 20
13.5
 30
0.0
 11
15.999999987179194
 21
13.5
 31
0.0
  0
LINE
  5
5AF
100
AcDbEntity
  8
0
  6
CONTINUOUS
 62
               7
100
AcDbLine
 10
10.199999999999932
 20
11.497498435543775
 30
0.0
 11
12.0
 21
11.497498435543775
 31
0.0
  0
LINE
  5
5B0
100
AcDbEntity
  8
0
  6
CONTINUOUS
 62
               7
100
AcDbLine
 10
8.0
 20
13.241657386773909
 30
0.0
 11
10.199999999999932
 21
13.241657386773909
 31
0.0
  0
LINE
  5
5B1
100
AcDbEntity
  8
0
  6
CONTINUOUS
 62
               7
100
AcDbLine
 10
10.199999999999932
 20
11.497498435543775
 30
0.0
 11
10.199999999999932
 21
13.5
 31
0.0
  0
LINE
  5
5B2
100
AcDbEntity
  8
0
  6
CONTINUOUS
 62
               2
100
AcDbLine
 10
10.199999999999932
 20
13.241657386773909
 30
0.0
 11
8.0
 21
5.7583426132260342
 31
0.0
  0
LINE
  5
5B3
100
AcDbEntity
  8
0
  6
CONTINUOUS
 62
               2
100
AcDbLine
 10
10.199999999999932
 20
5.7583426132260342
 30
0.0
 11
8.0
 21
13.241657386773909
 31
0.0
  0
LINE
  5
5B4
100
AcDbEntity
  8
0
  6
CONTINUOUS
 62
               7
100
AcDbLine
 10
10.199999999999932
 20
7.5025015644561677
 30
0.0
 11
12.0
 21
7.5025015644561677
 31
0.0
  0
LINE
  5
5B5
100
AcDbEntity
  8
0
  6
CONTINUOUS
 62
               7
100
AcDbLine
 10
8.0
 20
5.7583426132260342
 30
0.0
 11
10.199999999999932
 21
5.7583426132260342
 31
0.0
  0
LINE
  5
5B6
100
AcDbEntity
  8
0
  6
CONTINUOUS
 62
               7
100
AcDbLine
 10
15.999999987179194
 20
13.5
 30
0.0
 11
15.999999987179194
 21
14.5
 31
0.0
  0
LINE
  5
5B7
100
AcDbEntity
  8
0
  6
CONTINUOUS
 62
               7
100
AcDbLine
 10
12.0
 20
12.5
 30
0.0
 11
20.0
 21
12.5
 31
0.0
  0
LINE
  5
5B8
100
AcDbEntity
  8
0
  6
CONTINUOUS
 62
               2
100
AcDbLine
 10
5.0
 20
9.4999999999999716
 30
0.0
 11
21.213298307512446
 21
9.4999999999999716
 31
0.0
  0
LINE
  5
5B9
100
AcDbEntity
  8
0
  6
CONTINUOUS
 62
               7
100
AcDbLine
 10
20.0
 20
0.1999999999999886
 30
0.0
 11
12.0
 21
0.1999999999999886
 31
0.0
  0
LINE
  5
5BA
100
AcDbEntity
  8
0
  6
CONTINUOUS
 62
               7
100
AcDbLine
 10
7.9999999871791942
 20
1.5
 30
0.0
 11
0.0
 21
1.5
 31
0.0
  0
LINE
  5
5BB
100
AcDbEntity
  8
0
  6
CONTINUOUS
 62
               7
100
AcDbLine
 10
8.0
 20
1.9999999999999716
 30
0.0
 11
10.199999999999932
 21
1.9999999999999716
 31
0.0
  0
LINE
  5
5BC
100
AcDbEntity
  8
0
  6
CONTINUOUS
 62
               7
100
AcDbLine
 10
10.199999999999932
 20
2.6999999999999886
 30
0.0
 11
12.0
 21
2.6999999999999886
 31
0.0
  0
LINE
  5
5BD
100
AcDbEntity
  8
0
  6
CONTINUOUS
 62
               7
100
AcDbLine
 10
10.199999999999932
 20
1.9999999999999716
 30
0.0
 11
10.199999999999932
 21
7.5025015644561677
 31
0.0
  0
LINE
  5
5BE
100
AcDbEntity
  8
0
  6
CONTINUOUS
 62
               7
100
AcDbLine
 10
12.0
 20
0.1999999999999886
 30
0.0
 11
12.0
 21
13.5
 31
0.0
  0
LINE
  5
5BF
100
AcDbEntity
  8
0
  6
CONTINUOUS
 62
               7
100
AcDbLine
 10
8.0
 20
1.5
 30
0.0
 11
8.0
 21
13.5
 31
0.0
  0
LINE
  5
5C0
100
AcDbEntity
  8
0
  6
CONTINUOUS
 62
               7
100
AcDbLine
 10
0.0
 20
22.800000000000011
 30
0.0
 11
0.0
 21
1.5
 31
0.0
  0
LINE
  5
5C1
100
AcDbEntity
  8
0
  6
CONTINUOUS
 62
               7
100
AcDbLine
 10
20.0
 20
14.0
 30
0.0
 11
80.0
 21
14.0
 31
0.0
  0
LINE
  5
5C2
100
AcDbEntity
  8
0
  6
CONTINUOUS
 62
               7
100
AcDbLine
 10
16.00000009031146
 20
7.4433756842825858
 30
0.0
 11
14.749999964495714
 21
6.7216877827842723
 31
0.0
  0
LINE
  5
5C3
100
AcDbEntity
  8
0
  6
CONTINUOUS
 62
               7
100
AcDbLine
 10
14.750000035362177
 20
6.7216879203532756
 30
0.0
 11
14.750000028755835
 21
5.278312105913983
 31
0.0
  0
LINE
  5
5C4
100
AcDbEntity
  8
0
  6
CONTINUOUS
 62
               7
100
AcDbLine
 10
17.249999964637823
 20
5.2783120796465539
 30
0.0
 11
17.249999971244165
 21
6.7216878940858749
 31
0.0
  0
LINE
  5
5C5
100
AcDbEntity
  8
0
  6
CONTINUOUS
 62
               7
100
AcDbLine
 10
17.250000054949282
 20
6.721687763929225
 30
0.0
 11
15.999999935739993
 21
7.443375676870204
 31
0.0
  0
LINE
  5
5C6
100
AcDbEntity
  8
0
  6
CONTINUOUS
 62
               7
100
AcDbLine
 10
15.99999990968854
 20
4.5566243157172437
 30
0.0
 11
17.250000035504286
 21
5.2783122172155856
 31
0.0
  0
LINE
  5
5C7
100
AcDbEntity
  8
0
  6
CONTINUOUS
 62
               7
100
AcDbLine
 10
14.749999945050718
 20
5.2783122360706045
 30
0.0
 11
16.000000064260007
 21
4.5566243231296255
 31
0.0
  0
CIRCLE
  5
5C8
100
AcDbEntity
  8
0
  6
CONTINUOUS
 62
               7
100
AcDbCircle
 10
16.0
 20
5.9999999999999147
 30
0.0
 40
2.5
  0
CIRCLE
  5
5C9
100
AcDbEntity
  8
0
  6
CONTINUOUS
 62
               2
100
AcDbCircle
 10
16.0
 20
5.9999999999999147
 30
0.0
 40
2.1000000000000001
  0
LINE
  5
5CA
100
AcDbEntity
  8
0
  6
CONTINUOUS
 62
               7
100
AcDbLine
 10
43.00000009031146
 20
7.4433756842826142
 30
0.0
 11
41.749999964495714
 21
6.7216877827843007
 31
0.0
  0
LINE
  5
5CB
100
AcDbEntity
  8
0
  6
CONTINUOUS
 62
               7
100
AcDbLine
 10
41.750000035362177
 20
6.721687920353304
 30
0.0
 11
41.750000028755835
 21
5.2783121059140115
 31
0.0
  0
LINE
  5
5CC
100
AcDbEntity
  8
0
  6
CONTINUOUS
 62
               7
100
AcDbLine
 10
44.249999964637823
 20
5.2783120796465823
 30
0.0
 11
44.249999971244165
 21
6.7216878940859033
 31
0.0
  0
LINE
  5
5CD
100
AcDbEntity
  8
0
  6
CONTINUOUS
 62
               7
100
AcDbLine
 10
44.250000054949282
 20
6.7216877639292534
 30
0.0
 11
42.999999935739993
 21
7.4433756768702324
 31
0.0
  0
LINE
  5
5CE
100
AcDbEntity
  8
0
  6
CONTINUOUS
 62
               7
100
AcDbLine
 10
42.99999990968854
 20
4.5566243157172721
 30
0.0
 11
44.250000035504286
 21
5.2783122172156141
 31
0.0
  0
LINE
  5
5CF
100
AcDbEntity
  8
0
  6
CONTINUOUS
 62
               7
100
AcDbLine
 10
41.749999945050718
 20
5.2783122360706329
 30
0.0
 11
43.000000064260007
 21
4.5566243231296539
 31
0.0
  0
CIRCLE
  5
5D0
100
AcDbEntity
  8
0
  6
CONTINUOUS
 62
               7
100
AcDbCircle
 10
43.0
 20
5.9999999999999432
 30
0.0
 40
2.5
  0
CIRCLE
  5
5D1
100
AcDbEntity
  8
0
  6
CONTINUOUS
 62
               2
100
AcDbCircle
 10
43.0
 20
5.9999999999999432
 30
0.0
 40
2.1000000000000001
  0
LINE
  5
5D2
100
AcDbEntity
  8
0
  6
CONTINUOUS
 62
               7
100
AcDbLine
 10
70.00000009031146
 20
7.4433756842826142
 30
0.0
 11
68.749999964495714
 21
6.7216877827843007
 31
0.0
  0
LINE
  5
5D3
100
AcDbEntity
  8
0
  6
CONTINUOUS
 62
               7
100
AcDbLine
 10
68.750000035362177
 20
6.721687920353304
 30
0.0
 11
68.750000028755835
 21
5.2783121059140115
 31
0.0
  0
LINE
  5
5D4
100
AcDbEntity
  8
0
  6
CONTINUOUS
 62
               7
100
AcDbLine
 10
71.249999964637823
 20
5.2783120796465823
 30
0.0
 11
71.249999971244165
 21
6.7216878940859033
 31
0.0
  0
LINE
  5
5D5
100
AcDbEntity
  8
0
  6
CONTINUOUS
 62
               7
100
AcDbLine
 10
71.250000054949282
 20
6.7216877639292534
 30
0.0
 11
69.999999935739993
 21
7.4433756768702324
 31
0.0
  0
LINE
  5
5D6
100
AcDbEntity
  8
0
  6
CONTINUOUS
 62
               7
100
AcDbLine
 10
69.99999990968854
 20
4.5566243157172721
 30
0.0
 11
71.250000035504286
 21
5.2783122172156141
 31
0.0
  0
LINE
  5
5D7
100
AcDbEntity
  8
0
  6
CONTINUOUS
 62
               7
100
AcDbLine
 10
68.749999945050718
 20
5.2783122360706329
 30
0.0
 11
70.000000064260007
 21
4.5566243231296539
 31
0.0
  0
CIRCLE
  5
5D8
100
AcDbEntity
  8
0
  6
CONTINUOUS
 62
               7
100
AcDbCircle
 10
70.0
 20
5.9999999999999432
 30
0.0
 40
2.5
  0
CIRCLE
  5
5D9
100
AcDbEntity
  8
0
  6
CONTINUOUS
 62
               2
100
AcDbCircle
 10
70.0
 20
5.9999999999999432
 30
0.0
 40
2.1000000000000001
  0
ENDBLK
  5
5DA
100
AcDbEntity
  8
0
100
AcDbBlockEnd
  0
BLOCK
  5
5DB
100
AcDbEntity
  8
0
100
AcDbBlockBegin
  2
CS-MGA16-18
 70
               0
 10
0.0
 20
0.0
 30
0.0
  3
CS-MGA16-18
  1

  0
LINE
  5
5DC
100
AcDbEntity
  8
0
  6
CONTINUOUS
 62
               2
100
AcDbLine
 10
77.5
 20
-14.0
 30
0.0
 11
82.5
 21
-14.0
 31
0.0
  0
LINE
  5
5DD
100
AcDbEntity
  8
0
  6
CONTINUOUS
 62
               2
100
AcDbLine
 10
77.5
 20
14.0
 30
0.0
 11
82.5
 21
14.0
 31
0.0
  0
LINE
  5
5DE
100
AcDbEntity
  8
0
  6
CONTINUOUS
 62
               2
100
AcDbLine
 10
-2.5
 20
-14.0
 30
0.0
 11
2.5
 21
-14.0
 31
0.0
  0
LINE
  5
5DF
100
AcDbEntity
  8
0
  6
CONTINUOUS
 62
               2
100
AcDbLine
 10
-2.5
 20
14.0
 30
0.0
 11
2.5
 21
14.0
 31
0.0
  0
LINE
  5
5E0
100
AcDbEntity
  8
0
  6
PHANTOM
 62
               3
100
AcDbLine
 10
56.24262295260985
 20
30.0
 30
0.0
 11
56.24262295260985
 21
-30.0
 31
0.0
  0
LINE
  5
5E1
100
AcDbEntity
  8
0
  6
CONTINUOUS
 62
               7
100
AcDbLine
 10
12.0
 20
-19.299999999999983
 30
0.0
 11
20.0
 21
-19.299999999999983
 31
0.0
  0
LINE
  5
5E2
100
AcDbEntity
  8
0
  6
CONTINUOUS
 62
               7
100
AcDbLine
 10
12.0
 20
19.299999999999997
 30
0.0
 11
20.0
 21
19.299999999999997
 31
0.0
  0
LINE
  5
5E3
100
AcDbEntity
  8
0
  6
CONTINUOUS
 62
               7
100
AcDbLine
 10
12.0
 20
19.299999999999997
 30
0.0
 11
12.0
 21
-19.299999999999983
 31
0.0
  0
LINE
  5
5E4
100
AcDbEntity
  8
0
  6
CONTINUOUS
 62
               7
100
AcDbLine
 10
0.0
 20
-8.0
 30
0.0
 11
4.0
 21
-8.0
 31
0.0
  0
LINE
  5
5E5
100
AcDbEntity
  8
0
  6
CONTINUOUS
 62
               7
100
AcDbLine
 10
0.0
 20
8.0
 30
0.0
 11
4.0
 21
8.0
 31
0.0
  0
LINE
  5
5E6
100
AcDbEntity
  8
0
  6
CONTINUOUS
 62
               7
100
AcDbLine
 10
4.0
 20
-4.4000000000000057
 30
0.0
 11
7.9999999871791942
 21
-4.4000000000000057
 31
0.0
  0
LINE
  5
5E7
100
AcDbEntity
  8
0
  6
CONTINUOUS
 62
               7
100
AcDbLine
 10
4.0
 20
4.4000000000000057
 30
0.0
 11
7.9999999871791942
 21
4.4000000000000057
 31
0.0
  0
LINE
  5
5E8
100
AcDbEntity
  8
0
  6
CONTINUOUS
 62
               7
100
AcDbLine
 10
10.199999999999932
 20
-6.5
 30
0.0
 11
10.199999999999932
 21
6.5
 31
0.0
  0
LINE
  5
5E9
100
AcDbEntity
  8
0
  6
CONTINUOUS
 62
               7
100
AcDbLine
 10
8.0
 20
-6.5
 30
0.0
 11
12.0
 21
-6.5
 31
0.0
  0
LINE
  5
5EA
100
AcDbEntity
  8
0
  6
CONTINUOUS
 62
               7
100
AcDbLine
 10
8.0
 20
6.5
 30
0.0
 11
12.0
 21
6.5
 31
0.0
  0
LINE
  5
5EB
100
AcDbEntity
  8
0
  6
CONTINUOUS
 62
               7
100
AcDbLine
 10
4.0
 20
-3.9999999999999716
 30
0.0
 11
7.9999999871791942
 21
-3.9999999999999716
 31
0.0
  0
LINE
  5
5EC
100
AcDbEntity
  8
0
  6
CONTINUOUS
 62
               7
100
AcDbLine
 10
4.0
 20
4.0
 30
0.0
 11
7.9999999871791942
 21
4.0
 31
0.0
  0
LINE
  5
5ED
100
AcDbEntity
  8
0
  6
CONTINUOUS
 62
               7
100
AcDbLine
 10
4.0
 20
-8.0
 30
0.0
 11
4.0
 21
8.0
 31
0.0
  0
LINE
  5
5EE
100
AcDbEntity
  8
0
  6
CONTINUOUS
 62
               7
100
AcDbLine
 10
0.5
 20
-7.0
 30
0.0
 11
4.0
 21
-7.0
 31
0.0
  0
LINE
  5
5EF
100
AcDbEntity
  8
0
  6
CONTINUOUS
 62
               7
100
AcDbLine
 10
0.5
 20
-7.0
 30
0.0
 11
0.5
 21
7.0
 31
0.0
  0
LINE
  5
5F0
100
AcDbEntity
  8
0
  6
CONTINUOUS
 62
               7
100
AcDbLine
 10
0.5
 20
7.0
 30
0.0
 11
4.0
 21
7.0
 31
0.0
  0
LINE
  5
5F1
100
AcDbEntity
  8
0
  6
CONTINUOUS
 62
               7
100
AcDbLine
 10
20.0
 20
-10.799999999999983
 30
0.0
 11
80.0
 21
-10.799999999999983
 31
0.0
  0
LINE
  5
5F2
100
AcDbEntity
  8
0
  6
CONTINUOUS
 62
               7
100
AcDbLine
 10
20.0
 20
-10.5
 30
0.0
 11
80.0
 21
-10.5
 31
0.0
  0
LINE
  5
5F3
100
AcDbEntity
  8
0
  6
CONTINUOUS
 62
               7
100
AcDbLine
 10
20.0
 20
-4.5
 30
0.0
 11
80.0
 21
-4.5
 31
0.0
  0
LINE
  5
5F4
100
AcDbEntity
  8
0
  6
CONTINUOUS
 62
               7
100
AcDbLine
 10
20.0
 20
-4.2000000000000171
 30
0.0
 11
80.0
 21
-4.2000000000000171
 31
0.0
  0
LINE
  5
5F5
100
AcDbEntity
  8
0
  6
CONTINUOUS
 62
               7
100
AcDbLine
 10
20.0
 20
4.2000000000000171
 30
0.0
 11
80.0
 21
4.2000000000000171
 31
0.0
  0
LINE
  5
5F6
100
AcDbEntity
  8
0
  6
CONTINUOUS
 62
               7
100
AcDbLine
 10
20.0
 20
4.5
 30
0.0
 11
80.0
 21
4.5
 31
0.0
  0
LINE
  5
5F7
100
AcDbEntity
  8
0
  6
CONTINUOUS
 62
               7
100
AcDbLine
 10
20.0
 20
10.5
 30
0.0
 11
80.0
 21
10.5
 31
0.0
  0
LINE
  5
5F8
100
AcDbEntity
  8
0
  6
CONTINUOUS
 62
               7
100
AcDbLine
 10
20.0
 20
10.799999999999983
 30
0.0
 11
80.0
 21
10.799999999999983
 31
0.0
  0
LINE
  5
5F9
100
AcDbEntity
  8
0
  6
CONTINUOUS
 62
               7
100
AcDbLine
 10
78.0
 20
19.5
 30
0.0
 11
78.0
 21
20.000000011920662
 31
0.0
  0
LINE
  5
5FA
100
AcDbEntity
  8
0
  6
CONTINUOUS
 62
               7
100
AcDbLine
 10
78.0
 20
-19.999999988079338
 30
0.0
 11
78.0
 21
-19.5
 31
0.0
  0
LINE
  5
5FB
100
AcDbEntity
  8
0
  6
CONTINUOUS
 62
               7
100
AcDbLine
 10
0.0
 20
-20.0
 30
0.0
 11
78.0
 21
-20.0
 31
0.0
  0
LINE
  5
5FC
100
AcDbEntity
  8
0
  6
CONTINUOUS
 62
               7
100
AcDbLine
 10
0.0
 20
20.0
 30
0.0
 11
78.0
 21
20.0
 31
0.0
  0
LINE
  5
5FD
100
AcDbEntity
  8
0
  6
CONTINUOUS
 62
               7
100
AcDbLine
 10
0.0
 20
-19.999999988079338
 30
0.0
 11
0.0
 21
20.000000011920662
 31
0.0
  0
LINE
  5
5FE
100
AcDbEntity
  8
0
  6
CONTINUOUS
 62
               7
100
AcDbLine
 10
7.9999999871791942
 20
-19.999999988079338
 30
0.0
 11
7.9999999871791942
 21
20.000000011920662
 31
0.0
  0
LINE
  5
5FF
100
AcDbEntity
  8
0
  6
CONTINUOUS
 62
               7
100
AcDbLine
 10
20.0
 20
-19.5
 30
0.0
 11
22.0
 21
-19.5
 31
0.0
  0
LINE
  5
600
100
AcDbEntity
  8
0
  6
CONTINUOUS
 62
               7
100
AcDbLine
 10
31.0
 20
-19.5
 30
0.0
 11
80.0
 21
-19.5
 31
0.0
  0
LINE
  5
601
100
AcDbEntity
  8
0
  6
CENTER
 62
               2
100
AcDbLine
 10
-3.5964301101943192
 20
0.0
 30
0.0
 11
84.0
 21
0.0
 31
0.0
  0
LINE
  5
602
100
AcDbEntity
  8
0
  6
CONTINUOUS
 62
               7
100
AcDbLine
 10
80.0
 20
19.5
 30
0.0
 11
80.0
 21
-19.5
 31
0.0
  0
LINE
  5
603
100
AcDbEntity
  8
0
  6
CONTINUOUS
 62
               7
100
AcDbLine
 10
20.0
 20
19.5
 30
0.0
 11
22.0
 21
19.5
 31
0.0
  0
LINE
  5
604
100
AcDbEntity
  8
0
  6
CONTINUOUS
 62
               7
100
AcDbLine
 10
22.0
 20
19.5
 30
0.0
 11
22.0
 21
17.5
 31
0.0
  0
LINE
  5
605
100
AcDbEntity
  8
0
  6
CONTINUOUS
 62
               7
100
AcDbLine
 10
31.0
 20
19.5
 30
0.0
 11
31.0
 21
17.5
 31
0.0
  0
LINE
  5
606
100
AcDbEntity
  8
0
  6
CONTINUOUS
 62
               7
100
AcDbLine
 10
21.999999987179194
 20
17.5
 30
0.0
 11
31.0
 21
17.5
 31
0.0
  0
LINE
  5
607
100
AcDbEntity
  8
0
  6
CONTINUOUS
 62
               7
100
AcDbLine
 10
31.0
 20
19.5
 30
0.0
 11
80.0
 21
19.5
 31
0.0
  0
CIRCLE
  5
608
100
AcDbEntity
  8
0
  6
CONTINUOUS
 62
               2
100
AcDbCircle
 10
36.0
 20
15.5
 30
0.0
 40
2.5
  0
CIRCLE
  5
609
100
AcDbEntity
  8
0
  6
CONTINUOUS
 62
               7
100
AcDbCircle
 10
36.0
 20
15.5
 30
0.0
 40
2.1000000000000001
  0
LINE
  5
60A
100
AcDbEntity
  8
0
  6
CONTINUOUS
 62
               2
100
AcDbLine
 10
61.0
 20
19.0
 30
0.0
 11
61.0
 21
12.0
 31
0.0
  0
LINE
  5
60B
100
AcDbEntity
  8
0
  6
CONTINUOUS
 62
               2
100
AcDbLine
 10
57.5
 20
15.5
 30
0.0
 11
64.5
 21
15.5
 31
0.0
  0
CIRCLE
  5
60C
100
AcDbEntity
  8
0
  6
CONTINUOUS
 62
               2
100
AcDbCircle
 10
61.0
 20
15.5
 30
0.0
 40
2.5
  0
CIRCLE
  5
60D
100
AcDbEntity
  8
0
  6
CONTINUOUS
 62
               7
100
AcDbCircle
 10
61.0
 20
15.5
 30
0.0
 40
2.1000000000000001
  0
CIRCLE
  5
60E
100
AcDbEntity
  8
0
  6
CONTINUOUS
 62
               7
100
AcDbCircle
 10
61.0
 20
-15.5
 30
0.0
 40
2.1000000000000001
  0
CIRCLE
  5
60F
100
AcDbEntity
  8
0
  6
CONTINUOUS
 62
               2
100
AcDbCircle
 10
61.0
 20
-15.5
 30
0.0
 40
2.5
  0
CIRCLE
  5
610
100
AcDbEntity
  8
0
  6
CONTINUOUS
 62
               7
100
AcDbCircle
 10
36.0
 20
-15.5
 30
0.0
 40
2.1000000000000001
  0
CIRCLE
  5
611
100
AcDbEntity
  8
0
  6
CONTINUOUS
 62
               2
100
AcDbCircle
 10
36.0
 20
-15.5
 30
0.0
 40
2.5
  0
LINE
  5
612
100
AcDbEntity
  8
0
  6
CONTINUOUS
 62
               7
100
AcDbLine
 10
31.0
 20
-19.5
 30
0.0
 11
31.0
 21
-17.5
 31
0.0
  0
LINE
  5
613
100
AcDbEntity
  8
0
  6
CONTINUOUS
 62
               7
100
AcDbLine
 10
21.999999987179194
 20
-17.5
 30
0.0
 11
31.0
 21
-17.5
 31
0.0
  0
LINE
  5
614
100
AcDbEntity
  8
0
  6
CONTINUOUS
 62
               7
100
AcDbLine
 10
20.0
 20
19.5
 30
0.0
 11
20.0
 21
-19.5
 31
0.0
  0
LINE
  5
615
100
AcDbEntity
  8
0
  6
CONTINUOUS
 62
               7
100
AcDbLine
 10
22.0
 20
-19.5
 30
0.0
 11
22.0
 21
-17.5
 31
0.0
  0
LINE
  5
616
100
AcDbEntity
  8
0
  6
CONTINUOUS
 62
               2
100
AcDbLine
 10
36.0
 20
19.0
 30
0.0
 11
36.0
 21
12.0
 31
0.0
  0
LINE
  5
617
100
AcDbEntity
  8
0
  6
CONTINUOUS
 62
               2
100
AcDbLine
 10
32.5
 20
15.5
 30
0.0
 11
39.5
 21
15.5
 31
0.0
  0
LINE
  5
618
100
AcDbEntity
  8
0
  6
CONTINUOUS
 62
               2
100
AcDbLine
 10
36.0
 20
-12.0
 30
0.0
 11
36.0
 21
-19.0
 31
0.0
  0
LINE
  5
619
100
AcDbEntity
  8
0
  6
CONTINUOUS
 62
               2
100
AcDbLine
 10
32.5
 20
-15.5
 30
0.0
 11
39.5
 21
-15.5
 31
0.0
  0
LINE
  5
61A
100
AcDbEntity
  8
0
  6
CONTINUOUS
 62
               2
100
AcDbLine
 10
61.0
 20
-12.0
 30
0.0
 11
61.0
 21
-19.0
 31
0.0
  0
LINE
  5
61B
100
AcDbEntity
  8
0
  6
CONTINUOUS
 62
               2
100
AcDbLine
 10
57.5
 20
-15.5
 30
0.0
 11
64.5
 21
-15.5
 31
0.0
  0
LINE
  5
61C
100
AcDbEntity
  8
0
  6
CONTINUOUS
 62
               2
100
AcDbLine
 10
54.0
 20
-15.5
 30
0.0
 11
48.0
 21
-15.5
 31
0.0
  0
CIRCLE
  5
61D
100
AcDbEntity
  8
0
  6
CONTINUOUS
 62
               7
100
AcDbCircle
 10
51.0
 20
-15.5
 30
0.0
 40
2.0
  0
LINE
  5
61E
100
AcDbEntity
  8
0
  6
CONTINUOUS
 62
               2
100
AcDbLine
 10
51.0
 20
-18.5
 30
0.0
 11
51.0
 21
-12.5
 31
0.0
  0
LINE
  5
61F
100
AcDbEntity
  8
0
  6
CONTINUOUS
 62
               2
100
AcDbLine
 10
51.0
 20
19.0
 30
0.0
 11
51.0
 21
12.0
 31
0.0
  0
LINE
  5
620
100
AcDbEntity
  8
0
  6
CONTINUOUS
 62
               2
100
AcDbLine
 10
54.0
 20
15.5
 30
0.0
 11
48.0
 21
15.5
 31
0.0
  0
LINE
  5
621
100
AcDbEntity
  8
0
  6
CONTINUOUS
 62
               7
100
AcDbLine
 10
49.0
 20
16.0
 30
0.0
 11
49.0
 21
15.0
 31
0.0
  0
LINE
  5
622
100
AcDbEntity
  8
0
  6
CONTINUOUS
 62
               7
100
AcDbLine
 10
53.0
 20
16.000000012820692
 30
0.0
 11
53.0
 21
15.000000012820692
 31
0.0
  0
ARC
  5
623
100
AcDbEntity
  8
0
  6
CONTINUOUS
 62
               7
100
AcDbCircle
 10
51.0
 20
15.0
 30
0.0
 40
2.0
100
AcDbArc
 50
180.0
 51
0.0
  0
ARC
  5
624
100
AcDbEntity
  8
0
  6
CONTINUOUS
 62
               7
100
AcDbCircle
 10
51.0
 20
16.0
 30
0.0
 40
2.0
100
AcDbArc
 50
0.0
 51
180.0
  0
ENDBLK
  5
625
100
AcDbEntity
  8
0
100
AcDbBlockEnd
  0
BLOCK
  5
626
100
AcDbEntity
  8
0
100
AcDbBlockBegin
  2
CS-MGA16-19
 70
               0
 10
0.0
 20
0.0
 30
0.0
  3
CS-MGA16-19
  1

  0
LINE
  5
627
100
AcDbEntity
  8
0
  6
CONTINUOUS
 62
               2
100
AcDbLine
 10
96.0
 20
-15.5
 30
0.0
 11
110.75
 21
-15.5
 31
0.0
  0
LINE
  5
628
100
AcDbEntity
  8
0
  6
CONTINUOUS
 62
               2
100
AcDbLine
 10
90.999999987179194
 20
-14.0
 30
0.0
 11
96.999999987179194
 21
-14.0
 31
0.0
  0
LINE
  5
629
100
AcDbEntity
  8
0
  6
CONTINUOUS
 62
               2
100
AcDbLine
 10
93.999999987179194
 20
-17.0
 30
0.0
 11
93.999999987179194
 21
-11.0
 31
0.0
  0
CIRCLE
  5
62A
100
AcDbEntity
  8
0
  6
CONTINUOUS
 62
               2
100
AcDbCircle
 10
93.999999987179194
 20
-14.0
 30
0.0
 40
2.0
  0
CIRCLE
  5
62B
100
AcDbEntity
  8
0
  6
CONTINUOUS
 62
               7
100
AcDbCircle
 10
93.999999987179194
 20
-14.0
 30
0.0
 40
1.6499999999999999
  0
ARC
  5
62C
100
AcDbEntity
  8
0
  6
CONTINUOUS
 62
               7
100
AcDbCircle
 10
101.0
 20
-15.5
 30
0.0
 40
2.1000000000000001
100
AcDbArc
 50
316.95630088933575
 51
43.043699110664235
  0
ARC
  5
62D
100
AcDbEntity
  8
0
  6
CONTINUOUS
 62
               7
100
AcDbCircle
 10
101.0
 20
-15.5
 30
0.0
 40
4.0
100
AcDbArc
 50
0.0
 51
47.667069661316575
  0
LINE
  5
62E
100
AcDbEntity
  8
0
  6
CONTINUOUS
 62
               2
100
AcDbLine
 10
106.0
 20
-20.25
 30
0.0
 11
106.0
 21
-10.75
 31
0.0
  0
CIRCLE
  5
62F
100
AcDbEntity
  8
0
  6
CONTINUOUS
 62
               7
100
AcDbCircle
 10
106.0
 20
-15.5
 30
0.0
 40
3.75
  0
LINE
  5
630
100
AcDbEntity
  8
0
  6
CONTINUOUS
 62
               7
100
AcDbLine
 10
105.0
 20
-15.5
 30
0.0
 11
105.0
 21
-19.11420807370024
 31
0.0
  0
LINE
  5
631
100
AcDbEntity
  8
0
  6
CONTINUOUS
 62
               2
100
AcDbLine
 10
101.0
 20
-20.800000000000011
 30
0.0
 11
101.0
 21
-10.5
 31
0.0
  0
LINE
  5
632
100
AcDbEntity
  8
0
  6
CONTINUOUS
 62
               7
100
AcDbLine
 10
59.499999987179194
 20
-2.0
 30
0.0
 11
60.499999987179194
 21
-2.0
 31
0.0
  0
LINE
  5
633
100
AcDbEntity
  8
0
  6
CONTINUOUS
 62
               7
100
AcDbLine
 10
59.499999974358502
 20
2.0
 30
0.0
 11
60.499999974358502
 21
2.0
 31
0.0
  0
ARC
  5
634
100
AcDbEntity
  8
0
  6
CONTINUOUS
 62
               7
100
AcDbCircle
 10
60.499999987179194
 20
0.0
 30
0.0
 40
2.0
100
AcDbArc
 50
270.0
 51
90.0
  0
ARC
  5
635
100
AcDbEntity
  8
0
  6
CONTINUOUS
 62
               7
100
AcDbCircle
 10
59.499999987179194
 20
0.0
 30
0.0
 40
2.0
100
AcDbArc
 50
90.0
 51
270.0
  0
LINE
  5
636
100
AcDbEntity
  8
0
  6
CONTINUOUS
 62
               2
100
AcDbLine
 10
59.999999987179194
 20
3.0
 30
0.0
 11
59.999999987179194
 21
-3.0
 31
0.0
  0
LINE
  5
637
100
AcDbEntity
  8
0
  6
CONTINUOUS
 62
               7
100
AcDbLine
 10
0.0
 20
-19.499999999100169
 30
0.0
 11
118.0
 21
-19.499999999100169
 31
0.0
  0
LINE
  5
638
100
AcDbEntity
  8
0
  6
CONTINUOUS
 62
               7
100
AcDbLine
 10
0.0
 20
19.5
 30
0.0
 11
118.0
 21
19.5
 31
0.0
  0
LINE
  5
639
100
AcDbEntity
  8
0
  6
CONTINUOUS
 62
               7
100
AcDbLine
 10
0.0
 20
20.0
 30
0.0
 11
118.0
 21
20.0
 31
0.0
  0
LINE
  5
63A
100
AcDbEntity
  8
0
  6
CONTINUOUS
 62
               7
100
AcDbLine
 10
0.0
 20
-19.999999999100169
 30
0.0
 11
118.0
 21
-19.999999999100169
 31
0.0
  0
LINE
  5
63B
100
AcDbEntity
  8
0
  6
CONTINUOUS
 62
               7
100
AcDbLine
 10
120.0
 20
-19.5
 30
0.0
 11
120.0
 21
19.5
 31
0.0
  0
LINE
  5
63C
100
AcDbEntity
  8
0
  6
CENTER
 62
               2
100
AcDbLine
 10
-3.5964301101943192
 20
0.0
 30
0.0
 11
121.82118623521649
 21
0.0
 31
0.0
  0
LINE
  5
63D
100
AcDbEntity
  8
0
  6
CONTINUOUS
 62
               7
100
AcDbLine
 10
118.0
 20
-19.999999999100169
 30
0.0
 11
118.0
 21
20.0
 31
0.0
  0
LINE
  5
63E
100
AcDbEntity
  8
0
  6
CONTINUOUS
 62
               7
100
AcDbLine
 10
118.0
 20
19.5
 30
0.0
 11
120.0
 21
19.5
 31
0.0
  0
LINE
  5
63F
100
AcDbEntity
  8
0
  6
CONTINUOUS
 62
               7
100
AcDbLine
 10
118.0
 20
-19.5
 30
0.0
 11
120.0
 21
-19.5
 31
0.0
  0
LINE
  5
640
100
AcDbEntity
  8
0
  6
CONTINUOUS
 62
               7
100
AcDbLine
 10
14.999999987179194
 20
-19.999999999100169
 30
0.0
 11
14.999999987179194
 21
20.0
 31
0.0
  0
LINE
  5
641
100
AcDbEntity
  8
0
  6
CONTINUOUS
 62
               2
100
AcDbLine
 10
41.0
 20
-20.25
 30
0.0
 11
41.0
 21
-10.75
 31
0.0
  0
CIRCLE
  5
642
100
AcDbEntity
  8
0
  6
CONTINUOUS
 62
               7
100
AcDbCircle
 10
41.0
 20
-15.5
 30
0.0
 40
3.75
  0
LINE
  5
643
100
AcDbEntity
  8
0
  6
CONTINUOUS
 62
               7
100
AcDbLine
 10
118.79999999999995
 20
-16.0
 30
0.0
 11
118.79999999999995
 21
16.0
 31
0.0
  0
LINE
  5
644
100
AcDbEntity
  8
0
  6
CONTINUOUS
 62
               7
100
AcDbLine
 10
119.39999999999998
 20
12.0
 30
0.0
 11
119.39999999999998
 21
14.0
 31
0.0
  0
LINE
  5
645
100
AcDbEntity
  8
0
  6
CONTINUOUS
 62
               7
100
AcDbLine
 10
118.89999999999998
 20
14.5
 30
0.0
 11
118.79999999999995
 21
14.5
 31
0.0
  0
ARC
  5
646
100
AcDbEntity
  8
0
  6
CONTINUOUS
 62
               7
100
AcDbCircle
 10
118.89999999999998
 20
14.0
 30
0.0
 40
0.5
100
AcDbArc
 50
0.0
 51
90.0
  0
ARC
  5
647
100
AcDbEntity
  8
0
  6
CONTINUOUS
 62
               7
100
AcDbCircle
 10
118.89999999999998
 20
12.0
 30
0.0
 40
0.5
100
AcDbArc
 50
270.0
 51
0.0
  0
LINE
  5
648
100
AcDbEntity
  8
0
  6
CONTINUOUS
 62
               7
100
AcDbLine
 10
118.89999999999998
 20
11.5
 30
0.0
 11
118.79999999999995
 21
11.5
 31
0.0
  0
LINE
  5
649
100
AcDbEntity
  8
0
  6
CONTINUOUS
 62
               7
100
AcDbLine
 10
118.79999999999995
 20
16.0
 30
0.0
 11
118.0
 21
16.0
 31
0.0
  0
LINE
  5
64A
100
AcDbEntity
  8
0
  6
CONTINUOUS
 62
               7
100
AcDbLine
 10
118.79999999999995
 20
-16.0
 30
0.0
 11
118.0
 21
-16.0
 31
0.0
  0
LINE
  5
64B
100
AcDbEntity
  8
0
  6
CONTINUOUS
 62
               7
100
AcDbLine
 10
118.89999999999998
 20
-11.5
 30
0.0
 11
118.79999999999995
 21
-11.5
 31
0.0
  0
ARC
  5
64C
100
AcDbEntity
  8
0
  6
CONTINUOUS
 62
               7
100
AcDbCircle
 10
118.89999999999998
 20
-12.0
 30
0.0
 40
0.5
100
AcDbArc
 50
0.0
 51
90.0
  0
ARC
  5
64D
100
AcDbEntity
  8
0
  6
CONTINUOUS
 62
               7
100
AcDbCircle
 10
118.89999999999998
 20
-14.0
 30
0.0
 40
0.5
100
AcDbArc
 50
270.0
 51
0.0
  0
LINE
  5
64E
100
AcDbEntity
  8
0
  6
CONTINUOUS
 62
               7
100
AcDbLine
 10
118.89999999999998
 20
-14.5
 30
0.0
 11
118.79999999999995
 21
-14.5
 31
0.0
  0
LINE
  5
64F
100
AcDbEntity
  8
0
  6
CONTINUOUS
 62
               7
100
AcDbLine
 10
119.39999999999998
 20
-12.0
 30
0.0
 11
119.39999999999998
 21
-14.0
 31
0.0
  0
LINE
  5
650
100
AcDbEntity
  8
0
  6
CONTINUOUS
 62
               2
100
AcDbLine
 10
41.0
 20
20.25
 30
0.0
 11
41.0
 21
10.75
 31
0.0
  0
CIRCLE
  5
651
100
AcDbEntity
  8
0
  6
CONTINUOUS
 62
               7
100
AcDbCircle
 10
41.0
 20
15.5
 30
0.0
 40
3.75
  0
LINE
  5
652
100
AcDbEntity
  8
0
  6
CONTINUOUS
 62
               2
100
AcDbLine
 10
106.0
 20
20.25
 30
0.0
 11
106.0
 21
10.75
 31
0.0
  0
CIRCLE
  5
653
100
AcDbEntity
  8
0
  6
CONTINUOUS
 62
               7
100
AcDbCircle
 10
106.0
 20
15.5
 30
0.0
 40
3.75
  0
CIRCLE
  5
654
100
AcDbEntity
  8
0
  6
CONTINUOUS
 62
               7
100
AcDbCircle
 10
25.999999987179194
 20
0.0
 30
0.0
 40
2.0
  0
LINE
  5
655
100
AcDbEntity
  8
0
  6
CONTINUOUS
 62
               2
100
AcDbLine
 10
25.999999987179194
 20
-3.0
 30
0.0
 11
25.999999987179194
 21
3.0
 31
0.0
  0
LINE
  5
656
100
AcDbEntity
  8
0
  6
CONTINUOUS
 62
               7
100
AcDbLine
 10
120.0
 20
11.0
 30
0.0
 11
118.79999999999995
 21
11.0
 31
0.0
  0
LINE
  5
657
100
AcDbEntity
  8
0
  6
CONTINUOUS
 62
               7
100
AcDbLine
 10
120.0
 20
-11.0
 30
0.0
 11
118.79999999999995
 21
-11.0
 31
0.0
  0
LINE
  5
658
100
AcDbEntity
  8
0
  6
CONTINUOUS
 62
               7
100
AcDbLine
 10
118.79999999999995
 20
9.0
 30
0.0
 11
120.0
 21
9.0
 31
0.0
  0
LINE
  5
659
100
AcDbEntity
  8
0
  6
CONTINUOUS
 62
               7
100
AcDbLine
 10
118.79999999999995
 20
-9.0
 30
0.0
 11
120.0
 21
-9.0
 31
0.0
  0
ARC
  5
65A
100
AcDbEntity
  8
0
  6
CONTINUOUS
 62
               7
100
AcDbCircle
 10
36.0
 20
15.5
 30
0.0
 40
2.1000000000000001
100
AcDbArc
 50
316.95630088933575
 51
43.043699110664235
  0
LINE
  5
65B
100
AcDbEntity
  8
0
  6
CONTINUOUS
 62
               7
100
AcDbLine
 10
40.0
 20
15.5
 30
0.0
 11
40.0
 21
19.11420807370024
 31
0.0
  0
ARC
  5
65C
100
AcDbEntity
  8
0
  6
CONTINUOUS
 62
               7
100
AcDbCircle
 10
101.0
 20
15.5
 30
0.0
 40
4.0
100
AcDbArc
 50
312.33293033868341
 51
0.0
  0
LINE
  5
65D
100
AcDbEntity
  8
0
  6
CONTINUOUS
 62
               7
100
AcDbLine
 10
105.0
 20
15.5
 30
0.0
 11
105.0
 21
19.11420807370024
 31
0.0
  0
LINE
  5
65E
100
AcDbEntity
  8
0
  6
CONTINUOUS
 62
               2
100
AcDbLine
 10
101.0
 20
20.800000000000011
 30
0.0
 11
101.0
 21
10.5
 31
0.0
  0
ARC
  5
65F
100
AcDbEntity
  8
0
  6
CONTINUOUS
 62
               7
100
AcDbCircle
 10
36.0
 20
15.5
 30
0.0
 40
4.0
100
AcDbArc
 50
312.33293033868341
 51
0.0
  0
LINE
  5
660
100
AcDbEntity
  8
0
  6
CONTINUOUS
 62
               2
100
AcDbLine
 10
36.0
 20
20.800000000000011
 30
0.0
 11
36.0
 21
10.5
 31
0.0
  0
LINE
  5
661
100
AcDbEntity
  8
0
  6
CONTINUOUS
 62
               7
100
AcDbLine
 10
40.0
 20
-15.5
 30
0.0
 11
40.0
 21
-19.11420807370024
 31
0.0
  0
ARC
  5
662
100
AcDbEntity
  8
0
  6
CONTINUOUS
 62
               7
100
AcDbCircle
 10
36.0
 20
-15.5
 30
0.0
 40
4.0
100
AcDbArc
 50
0.0
 51
47.667069661316575
  0
LINE
  5
663
100
AcDbEntity
  8
0
  6
CONTINUOUS
 62
               2
100
AcDbLine
 10
36.0
 20
-20.5
 30
0.0
 11
36.0
 21
-10.5
 31
0.0
  0
ARC
  5
664
100
AcDbEntity
  8
0
  6
CONTINUOUS
 62
               7
100
AcDbCircle
 10
101.0
 20
15.5
 30
0.0
 40
2.1000000000000001
100
AcDbArc
 50
316.95630088933575
 51
43.043699110664235
  0
ARC
  5
665
100
AcDbEntity
  8
0
  6
CONTINUOUS
 62
               7
100
AcDbCircle
 10
36.0
 20
-15.5
 30
0.0
 40
2.1000000000000001
100
AcDbArc
 50
316.95630088933575
 51
43.043699110664235
  0
CIRCLE
  5
666
100
AcDbEntity
  8
0
  6
CONTINUOUS
 62
               7
100
AcDbCircle
 10
25.999999987179194
 20
-14.0
 30
0.0
 40
1.6499999999999999
  0
CIRCLE
  5
667
100
AcDbEntity
  8
0
  6
CONTINUOUS
 62
               2
100
AcDbCircle
 10
25.999999987179194
 20
-14.0
 30
0.0
 40
2.0
  0
LINE
  5
668
100
AcDbEntity
  8
0
  6
CONTINUOUS
 62
               2
100
AcDbLine
 10
25.999999987179194
 20
-17.0
 30
0.0
 11
25.999999987179194
 21
-11.0
 31
0.0
  0
LINE
  5
669
100
AcDbEntity
  8
0
  6
CONTINUOUS
 62
               2
100
AcDbLine
 10
22.999999987179194
 20
-14.0
 30
0.0
 11
28.999999987179194
 21
-14.0
 31
0.0
  0
CIRCLE
  5
66A
100
AcDbEntity
  8
0
  6
CONTINUOUS
 62
               7
100
AcDbCircle
 10
93.999999987179194
 20
14.0
 30
0.0
 40
1.6499999999999999
  0
CIRCLE
  5
66B
100
AcDbEntity
  8
0
  6
CONTINUOUS
 62
               2
100
AcDbCircle
 10
93.999999987179194
 20
14.0
 30
0.0
 40
2.0
  0
LINE
  5
66C
100
AcDbEntity
  8
0
  6
CONTINUOUS
 62
               2
100
AcDbLine
 10
93.999999987179194
 20
17.0
 30
0.0
 11
93.999999987179194
 21
11.0
 31
0.0
  0
LINE
  5
66D
100
AcDbEntity
  8
0
  6
CONTINUOUS
 62
               2
100
AcDbLine
 10
90.999999987179194
 20
14.0
 30
0.0
 11
96.999999987179194
 21
14.0
 31
0.0
  0
CIRCLE
  5
66E
100
AcDbEntity
  8
0
  6
CONTINUOUS
 62
               7
100
AcDbCircle
 10
25.999999987179194
 20
14.0
 30
0.0
 40
1.6499999999999999
  0
CIRCLE
  5
66F
100
AcDbEntity
  8
0
  6
CONTINUOUS
 62
               2
100
AcDbCircle
 10
25.999999987179194
 20
14.0
 30
0.0
 40
2.0
  0
LINE
  5
670
100
AcDbEntity
  8
0
  6
CONTINUOUS
 62
               2
100
AcDbLine
 10
25.999999987179194
 20
17.0
 30
0.0
 11
25.999999987179194
 21
11.0
 31
0.0
  0
LINE
  5
671
100
AcDbEntity
  8
0
  6
CONTINUOUS
 62
               2
100
AcDbLine
 10
22.999999987179194
 20
14.0
 30
0.0
 11
28.999999987179194
 21
14.0
 31
0.0
  0
CIRCLE
  5
672
100
AcDbEntity
  8
0
  6
CONTINUOUS
 62
               7
100
AcDbCircle
 10
59.999999987179194
 20
-14.0
 30
0.0
 40
1.6499999999999999
  0
CIRCLE
  5
673
100
AcDbEntity
  8
0
  6
CONTINUOUS
 62
               2
100
AcDbCircle
 10
59.999999987179194
 20
-14.0
 30
0.0
 40
2.0
  0
LINE
  5
674
100
AcDbEntity
  8
0
  6
CONTINUOUS
 62
               2
100
AcDbLine
 10
59.999999987179194
 20
-17.0
 30
0.0
 11
59.999999987179194
 21
-11.0
 31
0.0
  0
LINE
  5
675
100
AcDbEntity
  8
0
  6
CONTINUOUS
 62
               2
100
AcDbLine
 10
56.999999987179194
 20
-14.0
 30
0.0
 11
62.999999987179194
 21
-14.0
 31
0.0
  0
CIRCLE
  5
676
100
AcDbEntity
  8
0
  6
CONTINUOUS
 62
               7
100
AcDbCircle
 10
59.999999987179194
 20
14.0
 30
0.0
 40
1.6499999999999999
  0
CIRCLE
  5
677
100
AcDbEntity
  8
0
  6
CONTINUOUS
 62
               2
100
AcDbCircle
 10
59.999999987179194
 20
14.0
 30
0.0
 40
2.0
  0
LINE
  5
678
100
AcDbEntity
  8
0
  6
CONTINUOUS
 62
               2
100
AcDbLine
 10
59.999999987179194
 20
17.0
 30
0.0
 11
59.999999987179194
 21
11.0
 31
0.0
  0
LINE
  5
679
100
AcDbEntity
  8
0
  6
CONTINUOUS
 62
               2
100
AcDbLine
 10
56.999999987179194
 20
14.0
 30
0.0
 11
62.999999987179194
 21
14.0
 31
0.0
  0
LINE
  5
67A
100
AcDbEntity
  8
0
  6
CONTINUOUS
 62
               2
100
AcDbLine
 10
31.0
 20
-15.5
 30
0.0
 11
45.75
 21
-15.5
 31
0.0
  0
LINE
  5
67B
100
AcDbEntity
  8
0
  6
CONTINUOUS
 62
               2
100
AcDbLine
 10
96.0
 20
15.5
 30
0.0
 11
110.75
 21
15.5
 31
0.0
  0
LINE
  5
67C
100
AcDbEntity
  8
0
  6
CONTINUOUS
 62
               2
100
AcDbLine
 10
31.0
 20
15.5
 30
0.0
 11
45.75
 21
15.5
 31
0.0
  0
LINE
  5
67D
100
AcDbEntity
  8
0
  6
CONTINUOUS
 62
               7
100
AcDbLine
 10
0.0
 20
-19.999999999100169
 30
0.0
 11
0.0
 21
20.0
 31
0.0
  0
LINE
  5
67E
100
AcDbEntity
  8
0
  6
CONTINUOUS
 62
               2
100
AcDbLine
 10
-2.5
 20
14.0
 30
0.0
 11
2.5
 21
14.0
 31
0.0
  0
LINE
  5
67F
100
AcDbEntity
  8
0
  6
CONTINUOUS
 62
               2
100
AcDbLine
 10
-2.5
 20
-14.0
 30
0.0
 11
2.5
 21
-14.0
 31
0.0
  0
LINE
  5
680
100
AcDbEntity
  8
0
  6
CONTINUOUS
 62
               2
100
AcDbLine
 10
117.5
 20
14.0
 30
0.0
 11
122.5
 21
14.0
 31
0.0
  0
LINE
  5
681
100
AcDbEntity
  8
0
  6
CONTINUOUS
 62
               2
100
AcDbLine
 10
117.5
 20
-14.0
 30
0.0
 11
122.5
 21
-14.0
 31
0.0
  0
ENDBLK
  5
682
100
AcDbEntity
  8
0
100
AcDbBlockEnd
  0
BLOCK
  5
683
100
AcDbEntity
  8
0
100
AcDbBlockBegin
  2
CS-MGA16-20
 70
               0
 10
0.0
 20
0.0
 30
0.0
  3
CS-MGA16-20
  1

  0
LINE
  5
684
100
AcDbEntity
  8
0
  6
CONTINUOUS
 62
               7
100
AcDbLine
 10
22.799999999999955
 20
19.699999999999903
 30
0.0
 11
22.799999999999955
 21
-19.699999999999932
 31
0.0
  0
LINE
  5
685
100
AcDbEntity
  8
0
  6
CENTER
 62
               2
100
AcDbLine
 10
-2.5260440989142126
 20
0.0
 30
0.0
 11
24.910904413760022
 21
0.0
 31
0.0
  0
LINE
  5
686
100
AcDbEntity
  8
0
  6
CENTER
 62
               2
100
AcDbLine
 10
9.5
 20
-9.0
 30
0.0
 11
9.5
 21
9.0
 31
0.0
  0
LINE
  5
687
100
AcDbEntity
  8
0
  6
CONTINUOUS
 62
               7
100
AcDbLine
 10
23.0
 20
19.5
 30
0.0
 11
23.0
 21
-19.5
 31
0.0
  0
LINE
  5
688
100
AcDbEntity
  8
0
  6
CONTINUOUS
 62
               7
100
AcDbLine
 10
1.5
 20
-20.0
 30
0.0
 11
22.499999999999773
 21
-20.0
 31
0.0
  0
LINE
  5
689
100
AcDbEntity
  8
0
  6
CONTINUOUS
 62
               7
100
AcDbLine
 10
23.0
 20
-19.5
 30
0.0
 11
22.499999999999773
 21
-20.0
 31
0.0
  0
LINE
  5
68A
100
AcDbEntity
  8
0
  6
CONTINUOUS
 62
               7
100
AcDbLine
 10
0.0
 20
-19.5
 30
0.0
 11
1.5
 21
-19.5
 31
0.0
  0
LINE
  5
68B
100
AcDbEntity
  8
0
  6
CONTINUOUS
 62
               7
100
AcDbLine
 10
1.5
 20
20.0
 30
0.0
 11
22.499999999999773
 21
20.0
 31
0.0
  0
LINE
  5
68C
100
AcDbEntity
  8
0
  6
CONTINUOUS
 62
               7
100
AcDbLine
 10
23.0
 20
19.5
 30
0.0
 11
22.499999999999773
 21
20.0
 31
0.0
  0
LINE
  5
68D
100
AcDbEntity
  8
0
  6
CONTINUOUS
 62
               7
100
AcDbLine
 10
-0.0000000000000568
 20
19.5
 30
0.0
 11
1.5
 21
19.5
 31
0.0
  0
CIRCLE
  5
68E
100
AcDbEntity
  8
0
  6
CONTINUOUS
 62
               7
100
AcDbCircle
 10
18.0
 20
14.0
 30
0.0
 40
4.0
  0
CIRCLE
  5
68F
100
AcDbEntity
  8
0
  6
CONTINUOUS
 62
               7
100
AcDbCircle
 10
18.00000011920929
 20
14.0
 30
0.0
 40
2.9803848266601563
  0
CIRCLE
  5
690
100
AcDbEntity
  8
0
  6
CONTINUOUS
 62
               7
100
AcDbCircle
 10
18.0
 20
14.0
 30
0.0
 40
3.5
  0
LINE
  5
691
100
AcDbEntity
  8
0
  6
CONTINUOUS
 62
               7
100
AcDbLine
 10
17.133974738953953
 20
15.500000399862074
 30
0.0
 11
16.267949394346715
 21
14.000000247230219
 31
0.0
  0
LINE
  5
692
100
AcDbEntity
  8
0
  6
CONTINUOUS
 62
               7
100
AcDbLine
 10
19.732050018165523
 20
14.000000642559996
 30
0.0
 11
18.8660246735584
 21
12.500000489928141
 31
0.0
  0
LINE
  5
693
100
AcDbEntity
  8
0
  6
CONTINUOUS
 62
               7
100
AcDbLine
 10
16.267949981834477
 20
14.000000642559996
 30
0.0
 11
17.1339753264416
 21
12.500000489928141
 31
0.0
  0
LINE
  5
694
100
AcDbEntity
  8
0
  6
CONTINUOUS
 62
               7
100
AcDbLine
 10
18.866025261046047
 20
15.500000399862074
 30
0.0
 11
19.732050605653171
 21
14.000000247230219
 31
0.0
  0
LINE
  5
695
100
AcDbEntity
  8
0
  6
CONTINUOUS
 62
               7
100
AcDbLine
 10
18.866025388240814
 20
12.5
 30
0.0
 11
17.133974611759186
 21
12.5
 31
0.0
  0
LINE
  5
696
100
AcDbEntity
  8
0
  6
CONTINUOUS
 62
               7
100
AcDbLine
 10
18.866025686264038
 20
15.5
 30
0.0
 11
17.133974313735962
 21
15.5
 31
0.0
  0
CIRCLE
  5
697
100
AcDbEntity
  8
0
  6
CONTINUOUS
 62
               7
100
AcDbCircle
 10
18.0
 20
-14.0
 30
0.0
 40
4.0
  0
CIRCLE
  5
698
100
AcDbEntity
  8
0
  6
CONTINUOUS
 62
               7
100
AcDbCircle
 10
18.00000011920929
 20
-14.0
 30
0.0
 40
2.9803848266601563
  0
CIRCLE
  5
699
100
AcDbEntity
  8
0
  6
CONTINUOUS
 62
               7
100
AcDbCircle
 10
18.0
 20
-14.0
 30
0.0
 40
3.5
  0
LINE
  5
69A
100
AcDbEntity
  8
0
  6
CONTINUOUS
 62
               7
100
AcDbLine
 10
17.133974738953953
 20
-15.500000399862074
 30
0.0
 11
16.267949394346715
 21
-14.000000247230219
 31
0.0
  0
LINE
  5
69B
100
AcDbEntity
  8
0
  6
CONTINUOUS
 62
               7
100
AcDbLine
 10
16.267949981834477
 20
-14.000000642559996
 30
0.0
 11
17.1339753264416
 21
-12.500000489928141
 31
0.0
  0
LINE
  5
69C
100
AcDbEntity
  8
0
  6
CONTINUOUS
 62
               7
100
AcDbLine
 10
18.866025686264038
 20
-15.5
 30
0.0
 11
17.133974313735962
 21
-15.5
 31
0.0
  0
LINE
  5
69D
100
AcDbEntity
  8
0
  6
CONTINUOUS
 62
               7
100
AcDbLine
 10
18.866025388240814
 20
-12.5
 30
0.0
 11
17.133974611759186
 21
-12.5
 31
0.0
  0
LINE
  5
69E
100
AcDbEntity
  8
0
  6
CONTINUOUS
 62
               7
100
AcDbLine
 10
18.866025261046047
 20
-15.500000399862074
 30
0.0
 11
19.732050605653171
 21
-14.000000247230219
 31
0.0
  0
LINE
  5
69F
100
AcDbEntity
  8
0
  6
CONTINUOUS
 62
               7
100
AcDbLine
 10
19.732050018165523
 20
-14.000000642559996
 30
0.0
 11
18.8660246735584
 21
-12.500000489928141
 31
0.0
  0
CIRCLE
  5
6A0
100
AcDbEntity
  8
0
  6
CONTINUOUS
 62
               7
100
AcDbCircle
 10
9.5
 20
0.0
 30
0.0
 40
3.0
  0
CIRCLE
  5
6A1
100
AcDbEntity
  8
0
  6
CONTINUOUS
 62
               2
100
AcDbCircle
 10
9.5
 20
0.0
 30
0.0
 40
2.6499999999999915
  0
CIRCLE
  5
6A2
100
AcDbEntity
  8
0
  6
CONTINUOUS
 62
               7
100
AcDbCircle
 10
10.0
 20
14.0
 30
0.0
 40
1.6499999999999999
  0
CIRCLE
  5
6A3
100
AcDbEntity
  8
0
  6
CONTINUOUS
 62
               2
100
AcDbCircle
 10
10.0
 20
14.0
 30
0.0
 40
2.0
  0
LINE
  5
6A4
100
AcDbEntity
  8
0
  6
CONTINUOUS
 62
               2
100
AcDbLine
 10
10.0
 20
11.0
 30
0.0
 11
10.0
 21
17.0
 31
0.0
  0
LINE
  5
6A5
100
AcDbEntity
  8
0
  6
CONTINUOUS
 62
               2
100
AcDbLine
 10
7.0
 20
14.0
 30
0.0
 11
13.0
 21
14.0
 31
0.0
  0
CIRCLE
  5
6A6
100
AcDbEntity
  8
0
  6
CONTINUOUS
 62
               7
100
AcDbCircle
 10
10.0
 20
-14.0
 30
0.0
 40
1.6499999999999999
  0
CIRCLE
  5
6A7
100
AcDbEntity
  8
0
  6
CONTINUOUS
 62
               2
100
AcDbCircle
 10
10.0
 20
-14.0
 30
0.0
 40
2.0
  0
LINE
  5
6A8
100
AcDbEntity
  8
0
  6
CONTINUOUS
 62
               2
100
AcDbLine
 10
10.0
 20
-17.0
 30
0.0
 11
10.0
 21
-11.0
 31
0.0
  0
LINE
  5
6A9
100
AcDbEntity
  8
0
  6
CONTINUOUS
 62
               2
100
AcDbLine
 10
7.0
 20
-14.0
 30
0.0
 11
13.0
 21
-14.0
 31
0.0
  0
LINE
  5
6AA
100
AcDbEntity
  8
0
  6
CONTINUOUS
 62
               7
100
AcDbLine
 10
1.5
 20
4.4000000000000057
 30
0.0
 11
3.426286144375922
 21
4.4000000000000057
 31
0.0
  0
LINE
  5
6AB
100
AcDbEntity
  8
0
  6
CONTINUOUS
 62
               7
100
AcDbLine
 10
1.5
 20
-4.4000000000000057
 30
0.0
 11
3.426286144375922
 21
-4.4000000000000057
 31
0.0
  0
ARC
  5
6AC
100
AcDbEntity
  8
0
  6
CONTINUOUS
 62
               7
100
AcDbCircle
 10
9.6999999999999318
 20
0.0
 30
0.0
 40
8.0
100
AcDbArc
 50
270.0
 51
90.0
  0
ARC
  5
6AD
100
AcDbEntity
  8
0
  6
CONTINUOUS
 62
               7
100
AcDbCircle
 10
9.5
 20
0.0
 30
0.0
 40
7.5
100
AcDbArc
 50
111.03946978131725
 51
248.96053021868272
  0
ARC
  5
6AE
100
AcDbEntity
  8
0
  6
CONTINUOUS
 62
               7
100
AcDbCircle
 10
9.5
 20
0.0
 30
0.0
 40
7.5
100
AcDbArc
 50
291.03946978131722
 51
68.960530218682777
  0
LINE
  5
6AF
100
AcDbEntity
  8
0
  6
CONTINUOUS
 62
               7
100
AcDbLine
 10
9.6999999999999318
 20
8.0
 30
0.0
 11
1.5
 21
8.0
 31
0.0
  0
LINE
  5
6B0
100
AcDbEntity
  8
0
  6
CONTINUOUS
 62
               7
100
AcDbLine
 10
9.6999999999999318
 20
-8.0
 30
0.0
 11
1.5
 21
-8.0
 31
0.0
  0
LINE
  5
6B1
100
AcDbEntity
  8
0
  6
CONTINUOUS
 62
               7
100
AcDbLine
 10
1.5
 20
20.000000012820749
 30
0.0
 11
1.5
 21
4.4000000000000057
 31
0.0
  0
LINE
  5
6B2
100
AcDbEntity
  8
0
  6
CONTINUOUS
 62
               7
100
AcDbLine
 10
1.5
 20
-4.4000000000000057
 30
0.0
 11
1.5
 21
-19.999999987179251
 31
0.0
  0
LINE
  5
6B3
100
AcDbEntity
  8
0
  6
CONTINUOUS
 62
               7
100
AcDbLine
 10
6.8074175964327424
 20
7.0
 30
0.0
 11
12.192582403567258
 21
7.0
 31
0.0
  0
LINE
  5
6B4
100
AcDbEntity
  8
0
  6
CONTINUOUS
 62
               7
100
AcDbLine
 10
6.8074175964327424
 20
-7.0
 30
0.0
 11
12.192582403567258
 21
-7.0
 31
0.0
  0
LINE
  5
6B5
100
AcDbEntity
  8
0
  6
CONTINUOUS
 62
               7
100
AcDbLine
 10
0.0
 20
4.1999999999999886
 30
0.0
 11
0.0
 21
-4.1999999999999886
 31
0.0
  0
LINE
  5
6B6
100
AcDbEntity
  8
0
  6
CONTINUOUS
 62
               7
100
AcDbLine
 10
0.0
 20
10.799999999999983
 30
0.0
 11
0.0
 21
19.5
 31
0.0
  0
LINE
  5
6B7
100
AcDbEntity
  8
0
  6
CONTINUOUS
 62
               7
100
AcDbLine
 10
0.2999999999999545
 20
4.5
 30
0.0
 11
0.2999999999999545
 21
10.5
 31
0.0
  0
LINE
  5
6B8
100
AcDbEntity
  8
0
  6
CONTINUOUS
 62
               7
100
AcDbLine
 10
0.2999999999999545
 20
10.5
 30
0.0
 11
0.0
 21
10.799999999999983
 31
0.0
  0
LINE
  5
6B9
100
AcDbEntity
  8
0
  6
CONTINUOUS
 62
               7
100
AcDbLine
 10
0.2999999999999545
 20
4.5
 30
0.0
 11
0.0
 21
4.1999999999999886
 31
0.0
  0
LINE
  5
6BA
100
AcDbEntity
  8
0
  6
CONTINUOUS
 62
               7
100
AcDbLine
 10
0.0
 20
-10.799999999999983
 30
0.0
 11
0.0
 21
-19.5
 31
0.0
  0
LINE
  5
6BB
100
AcDbEntity
  8
0
  6
CONTINUOUS
 62
               7
100
AcDbLine
 10
0.2999999999999545
 20
-4.5
 30
0.0
 11
0.0
 21
-4.1999999999999886
 31
0.0
  0
LINE
  5
6BC
100
AcDbEntity
  8
0
  6
CONTINUOUS
 62
               7
100
AcDbLine
 10
0.2999999999999545
 20
-10.5
 30
0.0
 11
0.0
 21
-10.799999999999983
 31
0.0
  0
LINE
  5
6BD
100
AcDbEntity
  8
0
  6
CONTINUOUS
 62
               7
100
AcDbLine
 10
0.2999999999999545
 20
-4.5
 30
0.0
 11
0.2999999999999545
 21
-10.5
 31
0.0
  0
LINE
  5
6BE
100
AcDbEntity
  8
0
  6
CONTINUOUS
 62
               2
100
AcDbLine
 10
-2.5
 20
15.5
 30
0.0
 11
2.5
 21
15.5
 31
0.0
  0
LINE
  5
6BF
100
AcDbEntity
  8
0
  6
CONTINUOUS
 62
               2
100
AcDbLine
 10
-2.5
 20
-15.5
 30
0.0
 11
2.5
 21
-15.5
 31
0.0
  0
ENDBLK
  5
6C0
100
AcDbEntity
  8
0
100
AcDbBlockEnd
  0
BLOCK
  5
6C1
100
AcDbEntity
  8
0
100
AcDbBlockBegin
  2
CS-MGA16-21
 70
               0
 10
0.0
 20
0.0
 30
0.0
  3
CS-MGA16-21
  1

  0
LINE
  5
6C2
100
AcDbEntity
  8
0
  6
CONTINUOUS
 62
               7
100
AcDbLine
 10
0.0
 20
19.5
 30
0.0
 11
-12.0
 21
19.5
 31
0.0
  0
LINE
  5
6C3
100
AcDbEntity
  8
0
  6
CONTINUOUS
 62
               7
100
AcDbLine
 10
-23.0
 20
19.5
 30
0.0
 11
-22.499999999999773
 21
20.0
 31
0.0
  0
LINE
  5
6C4
100
AcDbEntity
  8
0
  6
CONTINUOUS
 62
               7
100
AcDbLine
 10
-1.5
 20
20.0
 30
0.0
 11
-22.499999999999773
 21
20.0
 31
0.0
  0
LINE
  5
6C5
100
AcDbEntity
  8
0
  6
CONTINUOUS
 62
               7
100
AcDbLine
 10
0.0
 20
-19.5
 30
0.0
 11
-12.0
 21
-19.5
 31
0.0
  0
LINE
  5
6C6
100
AcDbEntity
  8
0
  6
CONTINUOUS
 62
               7
100
AcDbLine
 10
-14.5
 20
-9.1999999999999886
 30
0.0
 11
-14.5
 21
-20.0
 31
0.0
  0
LINE
  5
6C7
100
AcDbEntity
  8
0
  6
CONTINUOUS
 62
               7
100
AcDbLine
 10
-23.0
 20
-19.5
 30
0.0
 11
-22.499999999999773
 21
-20.0
 31
0.0
  0
LINE
  5
6C8
100
AcDbEntity
  8
0
  6
CONTINUOUS
 62
               7
100
AcDbLine
 10
-1.5
 20
-20.0
 30
0.0
 11
-22.499999999999773
 21
-20.0
 31
0.0
  0
LINE
  5
6C9
100
AcDbEntity
  8
0
  6
CONTINUOUS
 62
               7
100
AcDbLine
 10
-18.699999999999932
 20
-9.0
 30
0.0
 11
-17.945643923738999
 21
-9.0
 31
0.0
  0
ARC
  5
6CA
100
AcDbEntity
  8
0
  6
CONTINUOUS
 62
               7
100
AcDbCircle
 10
-16.799999999999955
 20
-9.4999999999999716
 30
0.0
 40
1.25
100
AcDbArc
 50
13.886540362627525
 51
166.11345963737247
  0
LINE
  5
6CB
100
AcDbEntity
  8
0
  6
CONTINUOUS
 62
               7
100
AcDbLine
 10
-15.654356076261024
 20
-9.0
 30
0.0
 11
-14.0
 21
-9.0
 31
0.0
  0
LINE
  5
6CC
100
AcDbEntity
  8
0
  6
CONTINUOUS
 62
               7
100
AcDbLine
 10
-23.0
 20
19.5
 30
0.0
 11
-23.0
 21
-19.5
 31
0.0
  0
LINE
  5
6CD
100
AcDbEntity
  8
0
  6
CONTINUOUS
 62
               7
100
AcDbLine
 10
-19.299999999999955
 20
9.1999999999999886
 30
0.0
 11
-19.299999999999955
 21
-9.1999999999999886
 31
0.0
  0
LINE
  5
6CE
100
AcDbEntity
  8
0
  6
CENTER
 62
               2
100
AcDbLine
 10
-9.5
 20
-10.0
 30
0.0
 11
-9.5
 21
10.0
 31
0.0
  0
LINE
  5
6CF
100
AcDbEntity
  8
0
  6
CONTINUOUS
 62
               7
100
AcDbLine
 10
-18.899999999999977
 20
8.8000000000000114
 30
0.0
 11
-18.899999999999977
 21
-8.8000000000000114
 31
0.0
  0
LINE
  5
6D0
100
AcDbEntity
  8
0
  6
CENTER
 62
               2
100
AcDbLine
 10
2.5260440989142126
 20
0.0
 30
0.0
 11
-24.910904413760022
 21
0.0
 31
0.0
  0
LINE
  5
6D1
100
AcDbEntity
  8
0
  6
CONTINUOUS
 62
               7
100
AcDbLine
 10
-18.899999999999977
 20
-8.8000000000000114
 30
0.0
 11
-18.699999999999932
 21
-9.0
 31
0.0
  0
ARC
  5
6D2
100
AcDbEntity
  8
0
  6
CONTINUOUS
 62
               7
100
AcDbCircle
 10
-16.799999999999955
 20
9.4999999999999716
 30
0.0
 40
1.25
100
AcDbArc
 50
193.88654036262753
 51
346.1134596373725
  0
LINE
  5
6D3
100
AcDbEntity
  8
0
  6
CONTINUOUS
 62
               7
100
AcDbLine
 10
-18.899999999999977
 20
8.8000000000000114
 30
0.0
 11
-18.699999999999932
 21
9.0
 31
0.0
  0
LINE
  5
6D4
100
AcDbEntity
  8
0
  6
CONTINUOUS
 62
               7
100
AcDbLine
 10
-18.699999999999932
 20
9.0
 30
0.0
 11
-17.945643923738999
 21
9.0
 31
0.0
  0
LINE
  5
6D5
100
AcDbEntity
  8
0
  6
CONTINUOUS
 62
               7
100
AcDbLine
 10
-14.5
 20
9.1999999999999886
 30
0.0
 11
-14.5
 21
20.0
 31
0.0
  0
LINE
  5
6D6
100
AcDbEntity
  8
0
  6
CONTINUOUS
 62
               7
100
AcDbLine
 10
-14.5
 20
-16.0
 30
0.0
 11
-22.5
 21
-16.0
 31
0.0
  0
CIRCLE
  5
6D7
100
AcDbEntity
  8
0
  6
CONTINUOUS
 62
               7
100
AcDbCircle
 10
-17.0
 20
-13.0
 30
0.0
 40
1.5
  0
LINE
  5
6D8
100
AcDbEntity
  8
0
  6
CONTINUOUS
 62
               7
100
AcDbLine
 10
-17.707106781186553
 20
-13.707106781186553
 30
0.0
 11
-16.292893218813447
 21
-12.292893218813447
 31
0.0
  0
LINE
  5
6D9
100
AcDbEntity
  8
0
  6
CONTINUOUS
 62
               7
100
AcDbLine
 10
-17.707106781186553
 20
-12.292893218813447
 30
0.0
 11
-16.292893218813447
 21
-13.707106781186553
 31
0.0
  0
LINE
  5
6DA
100
AcDbEntity
  8
0
  6
CONTINUOUS
 62
               7
100
AcDbLine
 10
-22.5
 20
16.0
 30
0.0
 11
-22.5
 21
-16.0
 31
0.0
  0
LINE
  5
6DB
100
AcDbEntity
  8
0
  6
CONTINUOUS
 62
               7
100
AcDbLine
 10
-19.299999999999955
 20
-9.1999999999999886
 30
0.0
 11
-14.5
 21
-9.1999999999999886
 31
0.0
  0
LINE
  5
6DC
100
AcDbEntity
  8
0
  6
CONTINUOUS
 62
               7
100
AcDbLine
 10
-14.5
 20
16.0
 30
0.0
 11
-22.5
 21
16.0
 31
0.0
  0
LINE
  5
6DD
100
AcDbEntity
  8
0
  6
CONTINUOUS
 62
               7
100
AcDbLine
 10
-17.707106781186553
 20
12.292893218813447
 30
0.0
 11
-16.292893218813447
 21
13.707106781186553
 31
0.0
  0
LINE
  5
6DE
100
AcDbEntity
  8
0
  6
CONTINUOUS
 62
               7
100
AcDbLine
 10
-17.707106781186553
 20
13.707106781186553
 30
0.0
 11
-16.292893218813447
 21
12.292893218813447
 31
0.0
  0
CIRCLE
  5
6DF
100
AcDbEntity
  8
0
  6
CONTINUOUS
 62
               7
100
AcDbCircle
 10
-17.0
 20
13.0
 30
0.0
 40
1.5
  0
LINE
  5
6E0
100
AcDbEntity
  8
0
  6
CONTINUOUS
 62
               7
100
AcDbLine
 10
-19.299999999999955
 20
9.1999999999999886
 30
0.0
 11
-14.5
 21
9.1999999999999886
 31
0.0
  0
LINE
  5
6E1
100
AcDbEntity
  8
0
  6
CONTINUOUS
 62
               2
100
AcDbLine
 10
-4.5
 20
14.0
 30
0.0
 11
-11.5
 21
14.0
 31
0.0
  0
LINE
  5
6E2
100
AcDbEntity
  8
0
  6
CONTINUOUS
 62
               2
100
AcDbLine
 10
-8.0
 20
17.5
 30
0.0
 11
-8.0
 21
10.5
 31
0.0
  0
CIRCLE
  5
6E3
100
AcDbEntity
  8
0
  6
CONTINUOUS
 62
               2
100
AcDbCircle
 10
-8.0
 20
14.0
 30
0.0
 40
2.5
  0
CIRCLE
  5
6E4
100
AcDbEntity
  8
0
  6
CONTINUOUS
 62
               7
100
AcDbCircle
 10
-8.0
 20
14.0
 30
0.0
 40
2.1000000000000001
  0
LINE
  5
6E5
100
AcDbEntity
  8
0
  6
CONTINUOUS
 62
               2
100
AcDbLine
 10
-4.5
 20
-14.0
 30
0.0
 11
-11.5
 21
-14.0
 31
0.0
  0
LINE
  5
6E6
100
AcDbEntity
  8
0
  6
CONTINUOUS
 62
               2
100
AcDbLine
 10
-8.0
 20
-17.5
 30
0.0
 11
-8.0
 21
-10.5
 31
0.0
  0
CIRCLE
  5
6E7
100
AcDbEntity
  8
0
  6
CONTINUOUS
 62
               2
100
AcDbCircle
 10
-8.0
 20
-14.0
 30
0.0
 40
2.5
  0
CIRCLE
  5
6E8
100
AcDbEntity
  8
0
  6
CONTINUOUS
 62
               7
100
AcDbCircle
 10
-8.0
 20
-14.0
 30
0.0
 40
2.1000000000000001
  0
LINE
  5
6E9
100
AcDbEntity
  8
0
  6
CONTINUOUS
 62
               7
100
AcDbLine
 10
-12.0
 20
-11.0
 30
0.0
 11
-12.0
 21
-19.5
 31
0.0
  0
LINE
  5
6EA
100
AcDbEntity
  8
0
  6
CONTINUOUS
 62
               7
100
AcDbLine
 10
-14.0
 20
-9.0
 30
0.0
 11
-12.0
 21
-11.0
 31
0.0
  0
LINE
  5
6EB
100
AcDbEntity
  8
0
  6
CONTINUOUS
 62
               7
100
AcDbLine
 10
-12.0
 20
11.0
 30
0.0
 11
-12.0
 21
19.5
 31
0.0
  0
LINE
  5
6EC
100
AcDbEntity
  8
0
  6
CONTINUOUS
 62
               7
100
AcDbLine
 10
-15.654356076261024
 20
9.0
 30
0.0
 11
-14.0
 21
9.0
 31
0.0
  0
LINE
  5
6ED
100
AcDbEntity
  8
0
  6
CONTINUOUS
 62
               7
100
AcDbLine
 10
-14.0
 20
9.0
 30
0.0
 11
-12.0
 21
11.0
 31
0.0
  0
CIRCLE
  5
6EE
100
AcDbEntity
  8
0
  6
CONTINUOUS
 62
               7
100
AcDbCircle
 10
-9.5
 20
0.0
 30
0.0
 40
8.0
  0
CIRCLE
  5
6EF
100
AcDbEntity
  8
0
  6
CONTINUOUS
 62
               7
100
AcDbCircle
 10
-9.5
 20
0.0
 30
0.0
 40
7.25
  0
LINE
  5
6F0
100
AcDbEntity
  8
0
  6
CONTINUOUS
 62
               7
100
AcDbLine
 10
0.0
 20
-4.1999999999999886
 30
0.0
 11
0.0
 21
4.1999999999999886
 31
0.0
  0
LINE
  5
6F1
100
AcDbEntity
  8
0
  6
CONTINUOUS
 62
               7
100
AcDbLine
 10
0.0
 20
-10.799999999999983
 30
0.0
 11
0.0
 21
-19.5
 31
0.0
  0
LINE
  5
6F2
100
AcDbEntity
  8
0
  6
CONTINUOUS
 62
               7
100
AcDbLine
 10
-0.2999999999999545
 20
-4.5
 30
0.0
 11
-0.2999999999999545
 21
-10.5
 31
0.0
  0
LINE
  5
6F3
100
AcDbEntity
  8
0
  6
CONTINUOUS
 62
               7
100
AcDbLine
 10
-0.2999999999999545
 20
-10.5
 30
0.0
 11
0.0
 21
-10.799999999999983
 31
0.0
  0
LINE
  5
6F4
100
AcDbEntity
  8
0
  6
CONTINUOUS
 62
               7
100
AcDbLine
 10
-0.2999999999999545
 20
-4.5
 30
0.0
 11
0.0
 21
-4.1999999999999886
 31
0.0
  0
LINE
  5
6F5
100
AcDbEntity
  8
0
  6
CONTINUOUS
 62
               7
100
AcDbLine
 10
0.0
 20
10.799999999999983
 30
0.0
 11
0.0
 21
19.5
 31
0.0
  0
LINE
  5
6F6
100
AcDbEntity
  8
0
  6
CONTINUOUS
 62
               7
100
AcDbLine
 10
-0.2999999999999545
 20
4.5
 30
0.0
 11
0.0
 21
4.1999999999999886
 31
0.0
  0
LINE
  5
6F7
100
AcDbEntity
  8
0
  6
CONTINUOUS
 62
               7
100
AcDbLine
 10
-0.2999999999999545
 20
10.5
 30
0.0
 11
0.0
 21
10.799999999999983
 31
0.0
  0
LINE
  5
6F8
100
AcDbEntity
  8
0
  6
CONTINUOUS
 62
               7
100
AcDbLine
 10
-0.2999999999999545
 20
4.5
 30
0.0
 11
-0.2999999999999545
 21
10.5
 31
0.0
  0
LINE
  5
6F9
100
AcDbEntity
  8
0
  6
CONTINUOUS
 62
               7
100
AcDbLine
 10
-1.5
 20
19.5
 30
0.0
 11
-1.5
 21
20.0
 31
0.0
  0
LINE
  5
6FA
100
AcDbEntity
  8
0
  6
CONTINUOUS
 62
               7
100
AcDbLine
 10
-1.5
 20
-19.5
 30
0.0
 11
-1.5
 21
-20.0
 31
0.0
  0
LINE
  5
6FB
100
AcDbEntity
  8
0
  6
CONTINUOUS
 62
               2
100
AcDbLine
 10
-2.5
 20
15.5
 30
0.0
 11
2.5
 21
15.5
 31
0.0
  0
LINE
  5
6FC
100
AcDbEntity
  8
0
  6
CONTINUOUS
 62
               2
100
AcDbLine
 10
-2.5
 20
-15.5
 30
0.0
 11
2.5
 21
-15.5
 31
0.0
  0
ENDBLK
  5
6FD
100
AcDbEntity
  8
0
100
AcDbBlockEnd
  0
BLOCK
  5
6FE
100
AcDbEntity
  8
0
100
AcDbBlockBegin
  2
CS-MGA16-22
 70
               0
 10
0.0
 20
0.0
 30
0.0
  3
CS-MGA16-22
  1

  0
LINE
  5
6FF
100
AcDbEntity
  8
0
  6
CONTINUOUS
 62
               2
100
AcDbLine
 10
117.5
 20
-8.0
 30
0.0
 11
122.5
 21
-8.0
 31
0.0
  0
LINE
  5
700
100
AcDbEntity
  8
0
  6
CONTINUOUS
 62
               2
100
AcDbLine
 10
-2.5
 20
-10.0
 30
0.0
 11
2.5
 21
-10.0
 31
0.0
  0
LINE
  5
701
100
AcDbEntity
  8
0
  6
CONTINUOUS
 62
               2
100
AcDbLine
 10
101.0
 20
2.5
 30
0.0
 11
101.0
 21
-2.5
 31
0.0
  0
LINE
  5
702
100
AcDbEntity
  8
0
  6
CONTINUOUS
 62
               2
100
AcDbLine
 10
36.0
 20
2.5
 30
0.0
 11
36.0
 21
-2.5
 31
0.0
  0
CIRCLE
  5
703
100
AcDbEntity
  8
0
  6
CONTINUOUS
 62
               7
100
AcDbCircle
 10
110.0
 20
-5.9999999999999432
 30
0.0
 40
2.1000000000000001
  0
LINE
  5
704
100
AcDbEntity
  8
0
  6
CONTINUOUS
 62
               2
100
AcDbLine
 10
106.5
 20
-5.9999999999999432
 30
0.0
 11
113.5
 21
-5.9999999999999432
 31
0.0
  0
LINE
  5
705
100
AcDbEntity
  8
0
  6
CONTINUOUS
 62
               2
100
AcDbLine
 10
110.0
 20
-2.4999999999999432
 30
0.0
 11
110.0
 21
-9.4999999999999432
 31
0.0
  0
CIRCLE
  5
706
100
AcDbEntity
  8
0
  6
CONTINUOUS
 62
               2
100
AcDbCircle
 10
110.0
 20
-5.9999999999999432
 30
0.0
 40
2.5
  0
CIRCLE
  5
707
100
AcDbEntity
  8
0
  6
CONTINUOUS
 62
               7
100
AcDbCircle
 10
43.0
 20
-5.9999999999999432
 30
0.0
 40
2.1000000000000001
  0
LINE
  5
708
100
AcDbEntity
  8
0
  6
CONTINUOUS
 62
               2
100
AcDbLine
 10
39.5
 20
-5.9999999999999432
 30
0.0
 11
46.5
 21
-5.9999999999999432
 31
0.0
  0
LINE
  5
709
100
AcDbEntity
  8
0
  6
CONTINUOUS
 62
               2
100
AcDbLine
 10
43.0
 20
-2.4999999999999432
 30
0.0
 11
43.0
 21
-9.4999999999999432
 31
0.0
  0
CIRCLE
  5
70A
100
AcDbEntity
  8
0
  6
CONTINUOUS
 62
               2
100
AcDbCircle
 10
43.0
 20
-5.9999999999999432
 30
0.0
 40
2.5
  0
LINE
  5
70B
100
AcDbEntity
  8
0
  6
CONTINUOUS
 62
               7
100
AcDbLine
 10
31.0
 20
-12.0
 30
0.0
 11
31.0
 21
0.0
 31
0.0
  0
LINE
  5
70C
100
AcDbEntity
  8
0
  6
CONTINUOUS
 62
               7
100
AcDbLine
 10
22.0
 20
-12.0
 30
0.0
 11
22.0
 21
0.0
 31
0.0
  0
LINE
  5
70D
100
AcDbEntity
  8
0
  6
CONTINUOUS
 62
               7
100
AcDbLine
 10
20.0
 20
-14.5
 30
0.0
 11
20.0
 21
0.0
 31
0.0
  0
LINE
  5
70E
100
AcDbEntity
  8
0
  6
CONTINUOUS
 62
               7
100
AcDbLine
 10
118.0
 20
-23.0
 30
0.0
 11
118.0
 21
-14.5
 31
0.0
  0
LINE
  5
70F
100
AcDbEntity
  8
0
  6
CONTINUOUS
 62
               7
100
AcDbLine
 10
120.0
 20
-18.900000000000006
 30
0.0
 11
120.0
 21
0.0
 31
0.0
  0
LINE
  5
710
100
AcDbEntity
  8
0
  6
CONTINUOUS
 62
               7
100
AcDbLine
 10
14.999999987179194
 20
-14.5
 30
0.0
 11
118.0
 21
-14.5
 31
0.0
  0
LINE
  5
711
100
AcDbEntity
  8
0
  6
CONTINUOUS
 62
               7
100
AcDbLine
 10
20.0
 20
0.0
 30
0.0
 11
120.0
 21
0.0
 31
0.0
  0
LINE
  5
712
100
AcDbEntity
  8
0
  6
CONTINUOUS
 62
               7
100
AcDbLine
 10
14.999999987179194
 20
-23.0
 30
0.0
 11
118.0
 21
-23.0
 31
0.0
  0
LINE
  5
713
100
AcDbEntity
  8
0
  6
CONTINUOUS
 62
               7
100
AcDbLine
 10
14.999999987179194
 20
-14.5
 30
0.0
 11
14.999999987179194
 21
-23.0
 31
0.0
  0
LINE
  5
714
100
AcDbEntity
  8
0
  6
CONTINUOUS
 62
               7
100
AcDbLine
 10
40.0
 20
-9.0
 30
0.0
 11
40.0
 21
-12.0
 31
0.0
  0
LINE
  5
715
100
AcDbEntity
  8
0
  6
CONTINUOUS
 62
               7
100
AcDbLine
 10
32.0
 20
-9.0
 30
0.0
 11
32.0
 21
-12.0
 31
0.0
  0
LINE
  5
716
100
AcDbEntity
  8
0
  6
CONTINUOUS
 62
               7
100
AcDbLine
 10
32.0
 20
-9.0
 30
0.0
 11
40.0
 21
-9.0
 31
0.0
  0
LINE
  5
717
100
AcDbEntity
  8
0
  6
CONTINUOUS
 62
               7
100
AcDbLine
 10
105.0
 20
-9.0
 30
0.0
 11
105.0
 21
-12.0
 31
0.0
  0
LINE
  5
718
100
AcDbEntity
  8
0
  6
CONTINUOUS
 62
               7
100
AcDbLine
 10
97.0
 20
-9.0
 30
0.0
 11
105.0
 21
-9.0
 31
0.0
  0
LINE
  5
719
100
AcDbEntity
  8
0
  6
CONTINUOUS
 62
               7
100
AcDbLine
 10
97.0
 20
-9.0
 30
0.0
 11
97.0
 21
-12.0
 31
0.0
  0
LINE
  5
71A
100
AcDbEntity
  8
0
  6
CONTINUOUS
 62
               2
100
AcDbLine
 10
102.5
 20
-18.0
 30
0.0
 11
108.5
 21
-18.0
 31
0.0
  0
LINE
  5
71B
100
AcDbEntity
  8
0
  6
CONTINUOUS
 62
               2
100
AcDbLine
 10
105.5
 20
-15.0
 30
0.0
 11
105.5
 21
-21.0
 31
0.0
  0
CIRCLE
  5
71C
100
AcDbEntity
  8
0
  6
CONTINUOUS
 62
               7
100
AcDbCircle
 10
112.5
 20
-18.0
 30
0.0
 40
1.6499999999999999
  0
CIRCLE
  5
71D
100
AcDbEntity
  8
0
  6
CONTINUOUS
 62
               2
100
AcDbCircle
 10
112.5
 20
-18.0
 30
0.0
 40
2.0
  0
LINE
  5
71E
100
AcDbEntity
  8
0
  6
CONTINUOUS
 62
               2
100
AcDbLine
 10
112.5
 20
-15.0
 30
0.0
 11
112.5
 21
-21.0
 31
0.0
  0
LINE
  5
71F
100
AcDbEntity
  8
0
  6
CONTINUOUS
 62
               2
100
AcDbLine
 10
109.5
 20
-18.0
 30
0.0
 11
115.5
 21
-18.0
 31
0.0
  0
CIRCLE
  5
720
100
AcDbEntity
  8
0
  6
CONTINUOUS
 62
               7
100
AcDbCircle
 10
98.5
 20
-18.0
 30
0.0
 40
1.6499999999999999
  0
CIRCLE
  5
721
100
AcDbEntity
  8
0
  6
CONTINUOUS
 62
               2
100
AcDbCircle
 10
98.5
 20
-18.0
 30
0.0
 40
2.0
  0
LINE
  5
722
100
AcDbEntity
  8
0
  6
CONTINUOUS
 62
               2
100
AcDbLine
 10
98.5
 20
-15.0
 30
0.0
 11
98.5
 21
-21.0
 31
0.0
  0
LINE
  5
723
100
AcDbEntity
  8
0
  6
CONTINUOUS
 62
               2
100
AcDbLine
 10
95.5
 20
-18.0
 30
0.0
 11
101.5
 21
-18.0
 31
0.0
  0
LINE
  5
724
100
AcDbEntity
  8
0
  6
CONTINUOUS
 62
               7
100
AcDbLine
 10
20.0
 20
-12.0
 30
0.0
 11
120.0
 21
-12.0
 31
0.0
  0
LINE
  5
725
100
AcDbEntity
  8
0
  6
CONTINUOUS
 62
               7
100
AcDbLine
 10
118.0
 20
-22.5
 30
0.0
 11
118.79999999999995
 21
-22.5
 31
0.0
  0
LINE
  5
726
100
AcDbEntity
  8
0
  6
CONTINUOUS
 62
               7
100
AcDbLine
 10
118.0
 20
-14.5
 30
0.0
 11
118.79999999999995
 21
-14.5
 31
0.0
  0
LINE
  5
727
100
AcDbEntity
  8
0
  6
CONTINUOUS
 62
               7
100
AcDbLine
 10
118.79999999999995
 20
-14.5
 30
0.0
 11
118.79999999999995
 21
-22.499999986528337
 31
0.0
  0
LINE
  5
728
100
AcDbEntity
  8
0
  6
CONTINUOUS
 62
               7
100
AcDbLine
 10
118.89999999999998
 20
-15.5
 30
0.0
 11
118.79999999999995
 21
-15.5
 31
0.0
  0
ARC
  5
729
100
AcDbEntity
  8
0
  6
CONTINUOUS
 62
               7
100
AcDbCircle
 10
118.89999999999998
 20
-16.0
 30
0.0
 40
0.5
100
AcDbArc
 50
0.0
 51
90.0
  0
ARC
  5
72A
100
AcDbEntity
  8
0
  6
CONTINUOUS
 62
               7
100
AcDbCircle
 10
118.89999999999998
 20
-18.0
 30
0.0
 40
0.5
100
AcDbArc
 50
270.0
 51
0.0
  0
LINE
  5
72B
100
AcDbEntity
  8
0
  6
CONTINUOUS
 62
               7
100
AcDbLine
 10
118.89999999999998
 20
-18.5
 30
0.0
 11
118.79999999999995
 21
-18.5
 31
0.0
  0
LINE
  5
72C
100
AcDbEntity
  8
0
  6
CONTINUOUS
 62
               7
100
AcDbLine
 10
119.39999999999998
 20
-16.0
 30
0.0
 11
119.39999999999998
 21
-18.0
 31
0.0
  0
LINE
  5
72D
100
AcDbEntity
  8
0
  6
CONTINUOUS
 62
               7
100
AcDbLine
 10
120.0
 20
-18.900000000000006
 30
0.0
 11
118.79999999999995
 21
-18.900000000000006
 31
0.0
  0
CIRCLE
  5
72E
100
AcDbEntity
  8
0
  6
CONTINUOUS
 62
               7
100
AcDbCircle
 10
26.5
 20
-6.5
 30
0.0
 40
2.1000000000000001
  0
LINE
  5
72F
100
AcDbEntity
  8
0
  6
CONTINUOUS
 62
               2
100
AcDbLine
 10
23.0
 20
-6.5
 30
0.0
 11
30.0
 21
-6.5
 31
0.0
  0
CIRCLE
  5
730
100
AcDbEntity
  8
0
  6
CONTINUOUS
 62
               2
100
AcDbCircle
 10
26.5
 20
-6.5
 30
0.0
 40
2.5
  0
LINE
  5
731
100
AcDbEntity
  8
0
  6
CONTINUOUS
 62
               2
100
AcDbLine
 10
26.5
 20
-3.0
 30
0.0
 11
26.5
 21
-10.0
 31
0.0
  0
LINE
  5
732
100
AcDbEntity
  8
0
  6
CONTINUOUS
 62
               7
100
AcDbLine
 10
14.999999987179194
 20
-22.300000000000011
 30
0.0
 11
0.0
 21
-22.300000000000011
 31
0.0
  0
LINE
  5
733
100
AcDbEntity
  8
0
  6
CONTINUOUS
 62
               7
100
AcDbLine
 10
14.999999987179194
 20
-22.5
 30
0.0
 11
118.0
 21
-22.5
 31
0.0
  0
CIRCLE
  5
734
100
AcDbEntity
  8
0
  6
CONTINUOUS
 62
               7
100
AcDbCircle
 10
105.5
 20
-18.0
 30
0.0
 40
2.0
  0
CIRCLE
  5
735
100
AcDbEntity
  8
0
  6
CONTINUOUS
 62
               2
100
AcDbCircle
 10
105.0
 20
-4.5
 30
0.0
 40
1.25
  0
CIRCLE
  5
736
100
AcDbEntity
  8
0
  6
CONTINUOUS
 62
               7
100
AcDbCircle
 10
105.0
 20
-4.5
 30
0.0
 40
1.05
  0
LINE
  5
737
100
AcDbEntity
  8
0
  6
CONTINUOUS
 62
               2
100
AcDbLine
 10
105.0
 20
-6.5499999999999829
 30
0.0
 11
105.0
 21
-2.4499999999999886
 31
0.0
  0
LINE
  5
738
100
AcDbEntity
  8
0
  6
CONTINUOUS
 62
               2
100
AcDbLine
 10
102.94999999999993
 20
-4.5
 30
0.0
 11
107.04999999999995
 21
-4.5
 31
0.0
  0
CIRCLE
  5
739
100
AcDbEntity
  8
0
  6
CONTINUOUS
 62
               2
100
AcDbCircle
 10
49.0
 20
-4.5
 30
0.0
 40
1.25
  0
CIRCLE
  5
73A
100
AcDbEntity
  8
0
  6
CONTINUOUS
 62
               7
100
AcDbCircle
 10
49.0
 20
-4.5
 30
0.0
 40
1.05
  0
LINE
  5
73B
100
AcDbEntity
  8
0
  6
CONTINUOUS
 62
               2
100
AcDbLine
 10
49.0
 20
-6.5499999999999829
 30
0.0
 11
49.0
 21
-2.4499999999999886
 31
0.0
  0
LINE
  5
73C
100
AcDbEntity
  8
0
  6
CONTINUOUS
 62
               2
100
AcDbLine
 10
46.949999999999932
 20
-4.5
 30
0.0
 11
51.049999999999955
 21
-4.5
 31
0.0
  0
CIRCLE
  5
73D
100
AcDbEntity
  8
0
  6
CONTINUOUS
 62
               7
100
AcDbCircle
 10
116.0
 20
-16.5
 30
0.0
 40
0.8
  0
CIRCLE
  5
73E
100
AcDbEntity
  8
0
  6
CONTINUOUS
 62
               2
100
AcDbCircle
 10
116.0
 20
-16.5
 30
0.0
 40
1.0
  0
LINE
  5
73F
100
AcDbEntity
  8
0
  6
CONTINUOUS
 62
               2
100
AcDbLine
 10
114.19999999999993
 20
-16.5
 30
0.0
 11
117.79999999999995
 21
-16.5
 31
0.0
  0
LINE
  5
740
100
AcDbEntity
  8
0
  6
CONTINUOUS
 62
               2
100
AcDbLine
 10
116.0
 20
-18.300000000000011
 30
0.0
 11
116.0
 21
-14.699999999999989
 31
0.0
  0
CIRCLE
  5
741
100
AcDbEntity
  8
0
  6
CONTINUOUS
 62
               7
100
AcDbCircle
 10
102.0
 20
-16.5
 30
0.0
 40
0.8
  0
CIRCLE
  5
742
100
AcDbEntity
  8
0
  6
CONTINUOUS
 62
               2
100
AcDbCircle
 10
102.0
 20
-16.5
 30
0.0
 40
1.0
  0
LINE
  5
743
100
AcDbEntity
  8
0
  6
CONTINUOUS
 62
               2
100
AcDbLine
 10
100.19999999999993
 20
-16.5
 30
0.0
 11
103.79999999999995
 21
-16.5
 31
0.0
  0
LINE
  5
744
100
AcDbEntity
  8
0
  6
CONTINUOUS
 62
               2
100
AcDbLine
 10
102.0
 20
-18.300000000000011
 30
0.0
 11
102.0
 21
-14.699999999999989
 31
0.0
  0
CIRCLE
  5
745
100
AcDbEntity
  8
0
  6
CONTINUOUS
 62
               7
100
AcDbCircle
 10
88.5
 20
-18.0
 30
0.0
 40
1.6499999999999999
  0
CIRCLE
  5
746
100
AcDbEntity
  8
0
  6
CONTINUOUS
 62
               2
100
AcDbCircle
 10
88.5
 20
-18.0
 30
0.0
 40
2.0
  0
LINE
  5
747
100
AcDbEntity
  8
0
  6
CONTINUOUS
 62
               2
100
AcDbLine
 10
88.5
 20
-15.0
 30
0.0
 11
88.5
 21
-21.0
 31
0.0
  0
LINE
  5
748
100
AcDbEntity
  8
0
  6
CONTINUOUS
 62
               2
100
AcDbLine
 10
85.5
 20
-18.0
 30
0.0
 11
91.5
 21
-18.0
 31
0.0
  0
LINE
  5
749
100
AcDbEntity
  8
0
  6
CONTINUOUS
 62
               2
100
AcDbLine
 10
5.0
 20
-9.5
 30
0.0
 11
21.213298307512446
 21
-9.5
 31
0.0
  0
LINE
  5
74A
100
AcDbEntity
  8
0
  6
CONTINUOUS
 62
               7
100
AcDbLine
 10
12.0
 20
-12.5
 30
0.0
 11
20.0
 21
-12.5
 31
0.0
  0
LINE
  5
74B
100
AcDbEntity
  8
0
  6
CONTINUOUS
 62
               2
100
AcDbLine
 10
12.5
 20
-5.9999999999999432
 30
0.0
 11
19.5
 21
-5.9999999999999432
 31
0.0
  0
LINE
  5
74C
100
AcDbEntity
  8
0
  6
CONTINUOUS
 62
               7
100
AcDbLine
 10
20.0
 20
-0.2000000000000171
 30
0.0
 11
12.0
 21
-0.2000000000000171
 31
0.0
  0
LINE
  5
74D
100
AcDbEntity
  8
0
  6
CONTINUOUS
 62
               7
100
AcDbLine
 10
13.0
 20
-12.499999999999943
 30
0.0
 11
13.0
 21
-13.5
 31
0.0
  0
LINE
  5
74E
100
AcDbEntity
  8
0
  6
CONTINUOUS
 62
               7
100
AcDbLine
 10
15.999999987179194
 20
-13.5
 30
0.0
 11
15.999999987179194
 21
-14.5
 31
0.0
  0
LINE
  5
74F
100
AcDbEntity
  8
0
  6
CONTINUOUS
 62
               7
100
AcDbLine
 10
8.0
 20
-13.5
 30
0.0
 11
15.999999987179194
 21
-13.5
 31
0.0
  0
LINE
  5
750
100
AcDbEntity
  8
0
  6
CONTINUOUS
 62
               7
100
AcDbLine
 10
0.0
 20
-22.800000000000011
 30
0.0
 11
0.0
 21
-1.5
 31
0.0
  0
LINE
  5
751
100
AcDbEntity
  8
0
  6
CONTINUOUS
 62
               7
100
AcDbLine
 10
0.0
 20
-22.800000000000011
 30
0.0
 11
14.999999987179194
 21
-22.800000000000011
 31
0.0
  0
LINE
  5
752
100
AcDbEntity
  8
0
  6
CONTINUOUS
 62
               7
100
AcDbLine
 10
8.0
 20
-1.5
 30
0.0
 11
8.0
 21
-13.5
 31
0.0
  0
LINE
  5
753
100
AcDbEntity
  8
0
  6
CONTINUOUS
 62
               7
100
AcDbLine
 10
7.9999999871791942
 20
-1.5
 30
0.0
 11
0.0
 21
-1.5
 31
0.0
  0
LINE
  5
754
100
AcDbEntity
  8
0
  6
CONTINUOUS
 62
               7
100
AcDbLine
 10
12.0
 20
-0.2000000000000171
 30
0.0
 11
12.0
 21
-13.5
 31
0.0
  0
CIRCLE
  5
755
100
AcDbEntity
  8
0
  6
CONTINUOUS
 62
               2
100
AcDbCircle
 10
16.0
 20
-5.9999999999999432
 30
0.0
 40
2.5
  0
CIRCLE
  5
756
100
AcDbEntity
  8
0
  6
CONTINUOUS
 62
               7
100
AcDbCircle
 10
16.0
 20
-5.9999999999999432
 30
0.0
 40
2.1000000000000001
  0
LINE
  5
757
100
AcDbEntity
  8
0
  6
CONTINUOUS
 62
               2
100
AcDbLine
 10
16.0
 20
-2.4999999999999432
 30
0.0
 11
16.0
 21
-9.4999999999999432
 31
0.0
  0
LINE
  5
758
100
AcDbEntity
  8
0
  6
CONTINUOUS
 62
               7
100
AcDbLine
 10
10.199999999999932
 20
-11.497498435543775
 30
0.0
 11
12.0
 21
-11.497498435543775
 31
0.0
  0
LINE
  5
759
100
AcDbEntity
  8
0
  6
CONTINUOUS
 62
               7
100
AcDbLine
 10
8.0
 20
-13.241657386773909
 30
0.0
 11
10.199999999999932
 21
-13.241657386773909
 31
0.0
  0
LINE
  5
75A
100
AcDbEntity
  8
0
  6
CONTINUOUS
 62
               7
100
AcDbLine
 10
10.199999999999932
 20
-11.497498435543775
 30
0.0
 11
10.199999999999932
 21
-13.5
 31
0.0
  0
LINE
  5
75B
100
AcDbEntity
  8
0
  6
CONTINUOUS
 62
               2
100
AcDbLine
 10
10.199999999999932
 20
-13.241657386773909
 30
0.0
 11
8.0
 21
-5.7583426132260342
 31
0.0
  0
LINE
  5
75C
100
AcDbEntity
  8
0
  6
CONTINUOUS
 62
               2
100
AcDbLine
 10
10.199999999999932
 20
-5.7583426132260342
 30
0.0
 11
8.0
 21
-13.241657386773909
 31
0.0
  0
LINE
  5
75D
100
AcDbEntity
  8
0
  6
CONTINUOUS
 62
               7
100
AcDbLine
 10
10.199999999999932
 20
-2.0
 30
0.0
 11
10.199999999999932
 21
-7.5025015644561677
 31
0.0
  0
LINE
  5
75E
100
AcDbEntity
  8
0
  6
CONTINUOUS
 62
               7
100
AcDbLine
 10
10.199999999999932
 20
-7.5025015644561677
 30
0.0
 11
12.0
 21
-7.5025015644561677
 31
0.0
  0
LINE
  5
75F
100
AcDbEntity
  8
0
  6
CONTINUOUS
 62
               7
100
AcDbLine
 10
8.0
 20
-2.0
 30
0.0
 11
10.199999999999932
 21
-2.0
 31
0.0
  0
LINE
  5
760
100
AcDbEntity
  8
0
  6
CONTINUOUS
 62
               7
100
AcDbLine
 10
10.199999999999932
 20
-2.6999999999999886
 30
0.0
 11
12.0
 21
-2.6999999999999886
 31
0.0
  0
LINE
  5
761
100
AcDbEntity
  8
0
  6
CONTINUOUS
 62
               7
100
AcDbLine
 10
8.0
 20
-5.7583426132260342
 30
0.0
 11
10.199999999999932
 21
-5.7583426132260342
 31
0.0
  0
LINE
  5
762
100
AcDbEntity
  8
0
  6
CONTINUOUS
 62
               7
100
AcDbLine
 10
20.0
 20
-14.0
 30
0.0
 11
120.0
 21
-14.0
 31
0.0
  0
ENDBLK
  5
763
100
AcDbEntity
  8
0
100
AcDbBlockEnd
  0
BLOCK
  5
764
100
AcDbEntity
  8
0
100
AcDbBlockBegin
  2
CS-MGA16-23
 70
               0
 10
0.0
 20
0.0
 30
0.0
  3
CS-MGA16-23
  1

  0
CIRCLE
  5
765
100
AcDbEntity
  8
0
  6
CONTINUOUS
 62
               2
100
AcDbCircle
 10
110.0
 20
5.9999999999999432
 30
0.0
 40
2.1000000000000001
  0
CIRCLE
  5
766
100
AcDbEntity
  8
0
  6
CONTINUOUS
 62
               7
100
AcDbCircle
 10
110.0
 20
5.9999999999999432
 30
0.0
 40
2.5
  0
LINE
  5
767
100
AcDbEntity
  8
0
  6
CONTINUOUS
 62
               7
100
AcDbLine
 10
108.74999994505072
 20
5.2783122360706329
 30
0.0
 11
110.00000006426001
 21
4.5566243231296539
 31
0.0
  0
LINE
  5
768
100
AcDbEntity
  8
0
  6
CONTINUOUS
 62
               7
100
AcDbLine
 10
109.99999990968854
 20
4.5566243157172721
 30
0.0
 11
111.25000003550429
 21
5.2783122172156141
 31
0.0
  0
LINE
  5
769
100
AcDbEntity
  8
0
  6
CONTINUOUS
 62
               7
100
AcDbLine
 10
111.25000005494928
 20
6.7216877639292534
 30
0.0
 11
109.99999993573999
 21
7.4433756768702324
 31
0.0
  0
LINE
  5
76A
100
AcDbEntity
  8
0
  6
CONTINUOUS
 62
               7
100
AcDbLine
 10
111.24999996463782
 20
5.2783120796465823
 30
0.0
 11
111.24999997124416
 21
6.7216878940859033
 31
0.0
  0
LINE
  5
76B
100
AcDbEntity
  8
0
  6
CONTINUOUS
 62
               7
100
AcDbLine
 10
108.75000003536218
 20
6.721687920353304
 30
0.0
 11
108.75000002875584
 21
5.2783121059140115
 31
0.0
  0
LINE
  5
76C
100
AcDbEntity
  8
0
  6
CONTINUOUS
 62
               7
100
AcDbLine
 10
110.00000009031146
 20
7.4433756842826142
 30
0.0
 11
108.74999996449571
 21
6.7216877827843007
 31
0.0
  0
CIRCLE
  5
76D
100
AcDbEntity
  8
0
  6
CONTINUOUS
 62
               2
100
AcDbCircle
 10
43.0
 20
5.9999999999999432
 30
0.0
 40
2.1000000000000001
  0
CIRCLE
  5
76E
100
AcDbEntity
  8
0
  6
CONTINUOUS
 62
               7
100
AcDbCircle
 10
43.0
 20
5.9999999999999432
 30
0.0
 40
2.5
  0
LINE
  5
76F
100
AcDbEntity
  8
0
  6
CONTINUOUS
 62
               7
100
AcDbLine
 10
41.749999945050718
 20
5.2783122360706329
 30
0.0
 11
43.000000064260007
 21
4.5566243231296539
 31
0.0
  0
LINE
  5
770
100
AcDbEntity
  8
0
  6
CONTINUOUS
 62
               7
100
AcDbLine
 10
42.99999990968854
 20
4.5566243157172721
 30
0.0
 11
44.250000035504286
 21
5.2783122172156141
 31
0.0
  0
LINE
  5
771
100
AcDbEntity
  8
0
  6
CONTINUOUS
 62
               7
100
AcDbLine
 10
44.250000054949282
 20
6.7216877639292534
 30
0.0
 11
42.999999935739993
 21
7.4433756768702324
 31
0.0
  0
LINE
  5
772
100
AcDbEntity
  8
0
  6
CONTINUOUS
 62
               7
100
AcDbLine
 10
44.249999964637823
 20
5.2783120796465823
 30
0.0
 11
44.249999971244165
 21
6.7216878940859033
 31
0.0
  0
LINE
  5
773
100
AcDbEntity
  8
0
  6
CONTINUOUS
 62
               7
100
AcDbLine
 10
41.750000035362177
 20
6.721687920353304
 30
0.0
 11
41.750000028755835
 21
5.2783121059140115
 31
0.0
  0
LINE
  5
774
100
AcDbEntity
  8
0
  6
CONTINUOUS
 62
               7
100
AcDbLine
 10
43.00000009031146
 20
7.4433756842826142
 30
0.0
 11
41.749999964495714
 21
6.7216877827843007
 31
0.0
  0
CIRCLE
  5
775
100
AcDbEntity
  8
0
  6
CONTINUOUS
 62
               2
100
AcDbCircle
 10
16.0
 20
5.9999999999999147
 30
0.0
 40
2.1000000000000001
  0
CIRCLE
  5
776
100
AcDbEntity
  8
0
  6
CONTINUOUS
 62
               7
100
AcDbCircle
 10
16.0
 20
5.9999999999999147
 30
0.0
 40
2.5
  0
LINE
  5
777
100
AcDbEntity
  8
0
  6
CONTINUOUS
 62
               7
100
AcDbLine
 10
14.749999945050718
 20
5.2783122360706045
 30
0.0
 11
16.000000064260007
 21
4.5566243231296255
 31
0.0
  0
LINE
  5
778
100
AcDbEntity
  8
0
  6
CONTINUOUS
 62
               7
100
AcDbLine
 10
15.99999990968854
 20
4.5566243157172437
 30
0.0
 11
17.250000035504286
 21
5.2783122172155856
 31
0.0
  0
LINE
  5
779
100
AcDbEntity
  8
0
  6
CONTINUOUS
 62
               7
100
AcDbLine
 10
17.250000054949282
 20
6.721687763929225
 30
0.0
 11
15.999999935739993
 21
7.443375676870204
 31
0.0
  0
LINE
  5
77A
100
AcDbEntity
  8
0
  6
CONTINUOUS
 62
               7
100
AcDbLine
 10
17.249999964637823
 20
5.2783120796465539
 30
0.0
 11
17.249999971244165
 21
6.7216878940858749
 31
0.0
  0
LINE
  5
77B
100
AcDbEntity
  8
0
  6
CONTINUOUS
 62
               7
100
AcDbLine
 10
14.750000035362177
 20
6.7216879203532756
 30
0.0
 11
14.750000028755835
 21
5.278312105913983
 31
0.0
  0
LINE
  5
77C
100
AcDbEntity
  8
0
  6
CONTINUOUS
 62
               7
100
AcDbLine
 10
16.00000009031146
 20
7.4433756842825858
 30
0.0
 11
14.749999964495714
 21
6.7216877827842723
 31
0.0
  0
LINE
  5
77D
100
AcDbEntity
  8
0
  6
CONTINUOUS
 62
               7
100
AcDbLine
 10
20.0
 20
14.0
 30
0.0
 11
120.0
 21
14.0
 31
0.0
  0
LINE
  5
77E
100
AcDbEntity
  8
0
  6
CONTINUOUS
 62
               7
100
AcDbLine
 10
0.0
 20
22.800000000000011
 30
0.0
 11
0.0
 21
1.5
 31
0.0
  0
LINE
  5
77F
100
AcDbEntity
  8
0
  6
CONTINUOUS
 62
               7
100
AcDbLine
 10
8.0
 20
1.5
 30
0.0
 11
8.0
 21
13.5
 31
0.0
  0
LINE
  5
780
100
AcDbEntity
  8
0
  6
CONTINUOUS
 62
               7
100
AcDbLine
 10
12.0
 20
0.1999999999999886
 30
0.0
 11
12.0
 21
13.5
 31
0.0
  0
LINE
  5
781
100
AcDbEntity
  8
0
  6
CONTINUOUS
 62
               7
100
AcDbLine
 10
10.199999999999932
 20
1.9999999999999716
 30
0.0
 11
10.199999999999932
 21
7.5025015644561677
 31
0.0
  0
LINE
  5
782
100
AcDbEntity
  8
0
  6
CONTINUOUS
 62
               7
100
AcDbLine
 10
10.199999999999932
 20
2.6999999999999886
 30
0.0
 11
12.0
 21
2.6999999999999886
 31
0.0
  0
LINE
  5
783
100
AcDbEntity
  8
0
  6
CONTINUOUS
 62
               7
100
AcDbLine
 10
8.0
 20
1.9999999999999716
 30
0.0
 11
10.199999999999932
 21
1.9999999999999716
 31
0.0
  0
LINE
  5
784
100
AcDbEntity
  8
0
  6
CONTINUOUS
 62
               7
100
AcDbLine
 10
7.9999999871791942
 20
1.5
 30
0.0
 11
0.0
 21
1.5
 31
0.0
  0
LINE
  5
785
100
AcDbEntity
  8
0
  6
CONTINUOUS
 62
               7
100
AcDbLine
 10
20.0
 20
0.1999999999999886
 30
0.0
 11
12.0
 21
0.1999999999999886
 31
0.0
  0
LINE
  5
786
100
AcDbEntity
  8
0
  6
CONTINUOUS
 62
               2
100
AcDbLine
 10
5.0
 20
9.4999999999999716
 30
0.0
 11
21.213298307512446
 21
9.4999999999999716
 31
0.0
  0
LINE
  5
787
100
AcDbEntity
  8
0
  6
CONTINUOUS
 62
               7
100
AcDbLine
 10
12.0
 20
12.5
 30
0.0
 11
20.0
 21
12.5
 31
0.0
  0
LINE
  5
788
100
AcDbEntity
  8
0
  6
CONTINUOUS
 62
               7
100
AcDbLine
 10
15.999999987179194
 20
13.5
 30
0.0
 11
15.999999987179194
 21
14.5
 31
0.0
  0
LINE
  5
789
100
AcDbEntity
  8
0
  6
CONTINUOUS
 62
               7
100
AcDbLine
 10
8.0
 20
5.7583426132260342
 30
0.0
 11
10.199999999999932
 21
5.7583426132260342
 31
0.0
  0
LINE
  5
78A
100
AcDbEntity
  8
0
  6
CONTINUOUS
 62
               7
100
AcDbLine
 10
10.199999999999932
 20
7.5025015644561677
 30
0.0
 11
12.0
 21
7.5025015644561677
 31
0.0
  0
LINE
  5
78B
100
AcDbEntity
  8
0
  6
CONTINUOUS
 62
               2
100
AcDbLine
 10
10.199999999999932
 20
5.7583426132260342
 30
0.0
 11
8.0
 21
13.241657386773909
 31
0.0
  0
LINE
  5
78C
100
AcDbEntity
  8
0
  6
CONTINUOUS
 62
               2
100
AcDbLine
 10
10.199999999999932
 20
13.241657386773909
 30
0.0
 11
8.0
 21
5.7583426132260342
 31
0.0
  0
LINE
  5
78D
100
AcDbEntity
  8
0
  6
CONTINUOUS
 62
               7
100
AcDbLine
 10
10.199999999999932
 20
11.497498435543775
 30
0.0
 11
10.199999999999932
 21
13.5
 31
0.0
  0
LINE
  5
78E
100
AcDbEntity
  8
0
  6
CONTINUOUS
 62
               7
100
AcDbLine
 10
8.0
 20
13.241657386773909
 30
0.0
 11
10.199999999999932
 21
13.241657386773909
 31
0.0
  0
LINE
  5
78F
100
AcDbEntity
  8
0
  6
CONTINUOUS
 62
               7
100
AcDbLine
 10
10.199999999999932
 20
11.497498435543775
 30
0.0
 11
12.0
 21
11.497498435543775
 31
0.0
  0
LINE
  5
790
100
AcDbEntity
  8
0
  6
CONTINUOUS
 62
               7
100
AcDbLine
 10
8.0
 20
13.5
 30
0.0
 11
15.999999987179194
 21
13.5
 31
0.0
  0
LINE
  5
791
100
AcDbEntity
  8
0
  6
CONTINUOUS
 62
               7
100
AcDbLine
 10
13.0
 20
12.499999999999943
 30
0.0
 11
13.0
 21
13.5
 31
0.0
  0
LINE
  5
792
100
AcDbEntity
  8
0
  6
CONTINUOUS
 62
               7
100
AcDbLine
 10
14.999999987179194
 20
22.300000000000011
 30
0.0
 11
0.0
 21
22.300000000000011
 31
0.0
  0
LINE
  5
793
100
AcDbEntity
  8
0
  6
CONTINUOUS
 62
               7
100
AcDbLine
 10
0.0
 20
22.800000000000011
 30
0.0
 11
14.999999987179194
 21
22.800000000000011
 31
0.0
  0
CIRCLE
  5
794
100
AcDbEntity
  8
0
  6
CONTINUOUS
 62
               7
100
AcDbCircle
 10
88.5
 20
18.0
 30
0.0
 40
1.6499999999999999
  0
CIRCLE
  5
795
100
AcDbEntity
  8
0
  6
CONTINUOUS
 62
               2
100
AcDbCircle
 10
88.5
 20
18.0
 30
0.0
 40
2.0
  0
LINE
  5
796
100
AcDbEntity
  8
0
  6
CONTINUOUS
 62
               2
100
AcDbLine
 10
88.5
 20
15.0
 30
0.0
 11
88.5
 21
21.0
 31
0.0
  0
LINE
  5
797
100
AcDbEntity
  8
0
  6
CONTINUOUS
 62
               2
100
AcDbLine
 10
85.5
 20
18.0
 30
0.0
 11
91.5
 21
18.0
 31
0.0
  0
LINE
  5
798
100
AcDbEntity
  8
0
  6
CONTINUOUS
 62
               2
100
AcDbLine
 10
102.94999999999993
 20
4.5
 30
0.0
 11
107.04999999999995
 21
4.5
 31
0.0
  0
LINE
  5
799
100
AcDbEntity
  8
0
  6
CONTINUOUS
 62
               2
100
AcDbLine
 10
105.0
 20
6.5500000000000114
 30
0.0
 11
105.0
 21
2.4499999999999886
 31
0.0
  0
CIRCLE
  5
79A
100
AcDbEntity
  8
0
  6
CONTINUOUS
 62
               7
100
AcDbCircle
 10
105.0
 20
4.5
 30
0.0
 40
1.05
  0
CIRCLE
  5
79B
100
AcDbEntity
  8
0
  6
CONTINUOUS
 62
               2
100
AcDbCircle
 10
105.0
 20
4.5
 30
0.0
 40
1.25
  0
LINE
  5
79C
100
AcDbEntity
  8
0
  6
CONTINUOUS
 62
               2
100
AcDbLine
 10
46.949999999999932
 20
4.5
 30
0.0
 11
51.049999999999955
 21
4.5
 31
0.0
  0
LINE
  5
79D
100
AcDbEntity
  8
0
  6
CONTINUOUS
 62
               2
100
AcDbLine
 10
49.0
 20
6.5500000000000114
 30
0.0
 11
49.0
 21
2.4499999999999886
 31
0.0
  0
CIRCLE
  5
79E
100
AcDbEntity
  8
0
  6
CONTINUOUS
 62
               7
100
AcDbCircle
 10
49.0
 20
4.5
 30
0.0
 40
1.05
  0
CIRCLE
  5
79F
100
AcDbEntity
  8
0
  6
CONTINUOUS
 62
               2
100
AcDbCircle
 10
49.0
 20
4.5
 30
0.0
 40
1.25
  0
LINE
  5
7A0
100
AcDbEntity
  8
0
  6
CONTINUOUS
 62
               2
100
AcDbLine
 10
116.0
 20
18.300000000000011
 30
0.0
 11
116.0
 21
14.699999999999989
 31
0.0
  0
LINE
  5
7A1
100
AcDbEntity
  8
0
  6
CONTINUOUS
 62
               2
100
AcDbLine
 10
114.19999999999993
 20
16.5
 30
0.0
 11
117.79999999999995
 21
16.5
 31
0.0
  0
CIRCLE
  5
7A2
100
AcDbEntity
  8
0
  6
CONTINUOUS
 62
               2
100
AcDbCircle
 10
116.0
 20
16.5
 30
0.0
 40
1.0
  0
CIRCLE
  5
7A3
100
AcDbEntity
  8
0
  6
CONTINUOUS
 62
               7
100
AcDbCircle
 10
116.0
 20
16.5
 30
0.0
 40
0.8
  0
LINE
  5
7A4
100
AcDbEntity
  8
0
  6
CONTINUOUS
 62
               2
100
AcDbLine
 10
102.0
 20
18.300000000000011
 30
0.0
 11
102.0
 21
14.699999999999989
 31
0.0
  0
LINE
  5
7A5
100
AcDbEntity
  8
0
  6
CONTINUOUS
 62
               2
100
AcDbLine
 10
100.19999999999993
 20
16.5
 30
0.0
 11
103.79999999999995
 21
16.5
 31
0.0
  0
CIRCLE
  5
7A6
100
AcDbEntity
  8
0
  6
CONTINUOUS
 62
               2
100
AcDbCircle
 10
102.0
 20
16.5
 30
0.0
 40
1.0
  0
CIRCLE
  5
7A7
100
AcDbEntity
  8
0
  6
CONTINUOUS
 62
               7
100
AcDbCircle
 10
102.0
 20
16.5
 30
0.0
 40
0.8
  0
LINE
  5
7A8
100
AcDbEntity
  8
0
  6
CONTINUOUS
 62
               7
100
AcDbLine
 10
31.0
 20
12.0
 30
0.0
 11
31.0
 21
0.0
 31
0.0
  0
LINE
  5
7A9
100
AcDbEntity
  8
0
  6
CONTINUOUS
 62
               7
100
AcDbLine
 10
22.0
 20
12.0
 30
0.0
 11
22.0
 21
0.0
 31
0.0
  0
LINE
  5
7AA
100
AcDbEntity
  8
0
  6
CONTINUOUS
 62
               7
100
AcDbLine
 10
20.0
 20
14.5
 30
0.0
 11
20.0
 21
0.0
 31
0.0
  0
LINE
  5
7AB
100
AcDbEntity
  8
0
  6
CONTINUOUS
 62
               7
100
AcDbLine
 10
118.0
 20
23.0
 30
0.0
 11
118.0
 21
14.5
 31
0.0
  0
LINE
  5
7AC
100
AcDbEntity
  8
0
  6
CONTINUOUS
 62
               7
100
AcDbLine
 10
120.0
 20
18.900000000000006
 30
0.0
 11
120.0
 21
0.0
 31
0.0
  0
LINE
  5
7AD
100
AcDbEntity
  8
0
  6
CONTINUOUS
 62
               7
100
AcDbLine
 10
14.999999987179194
 20
14.5
 30
0.0
 11
118.0
 21
14.5
 31
0.0
  0
LINE
  5
7AE
100
AcDbEntity
  8
0
  6
CONTINUOUS
 62
               7
100
AcDbLine
 10
20.0
 20
0.0
 30
0.0
 11
120.0
 21
0.0
 31
0.0
  0
LINE
  5
7AF
100
AcDbEntity
  8
0
  6
CONTINUOUS
 62
               7
100
AcDbLine
 10
14.999999987179194
 20
23.0
 30
0.0
 11
118.0
 21
23.0
 31
0.0
  0
LINE
  5
7B0
100
AcDbEntity
  8
0
  6
CONTINUOUS
 62
               7
100
AcDbLine
 10
14.999999987179194
 20
14.5
 30
0.0
 11
14.999999987179194
 21
23.0
 31
0.0
  0
LINE
  5
7B1
100
AcDbEntity
  8
0
  6
CONTINUOUS
 62
               7
100
AcDbLine
 10
40.0
 20
9.0
 30
0.0
 11
40.0
 21
12.0
 31
0.0
  0
LINE
  5
7B2
100
AcDbEntity
  8
0
  6
CONTINUOUS
 62
               7
100
AcDbLine
 10
32.0
 20
9.0
 30
0.0
 11
32.0
 21
12.0
 31
0.0
  0
LINE
  5
7B3
100
AcDbEntity
  8
0
  6
CONTINUOUS
 62
               7
100
AcDbLine
 10
32.0
 20
9.0
 30
0.0
 11
40.0
 21
9.0
 31
0.0
  0
LINE
  5
7B4
100
AcDbEntity
  8
0
  6
CONTINUOUS
 62
               7
100
AcDbLine
 10
105.0
 20
9.0
 30
0.0
 11
105.0
 21
12.0
 31
0.0
  0
LINE
  5
7B5
100
AcDbEntity
  8
0
  6
CONTINUOUS
 62
               7
100
AcDbLine
 10
97.0
 20
9.0
 30
0.0
 11
105.0
 21
9.0
 31
0.0
  0
LINE
  5
7B6
100
AcDbEntity
  8
0
  6
CONTINUOUS
 62
               7
100
AcDbLine
 10
97.0
 20
9.0
 30
0.0
 11
97.0
 21
12.0
 31
0.0
  0
LINE
  5
7B7
100
AcDbEntity
  8
0
  6
CONTINUOUS
 62
               2
100
AcDbLine
 10
102.5
 20
18.0
 30
0.0
 11
108.5
 21
18.0
 31
0.0
  0
LINE
  5
7B8
100
AcDbEntity
  8
0
  6
CONTINUOUS
 62
               2
100
AcDbLine
 10
105.5
 20
15.0
 30
0.0
 11
105.5
 21
21.0
 31
0.0
  0
CIRCLE
  5
7B9
100
AcDbEntity
  8
0
  6
CONTINUOUS
 62
               7
100
AcDbCircle
 10
112.5
 20
18.0
 30
0.0
 40
1.6499999999999999
  0
CIRCLE
  5
7BA
100
AcDbEntity
  8
0
  6
CONTINUOUS
 62
               2
100
AcDbCircle
 10
112.5
 20
18.0
 30
0.0
 40
2.0
  0
LINE
  5
7BB
100
AcDbEntity
  8
0
  6
CONTINUOUS
 62
               2
100
AcDbLine
 10
112.5
 20
15.0
 30
0.0
 11
112.5
 21
21.0
 31
0.0
  0
LINE
  5
7BC
100
AcDbEntity
  8
0
  6
CONTINUOUS
 62
               2
100
AcDbLine
 10
109.5
 20
18.0
 30
0.0
 11
115.5
 21
18.0
 31
0.0
  0
CIRCLE
  5
7BD
100
AcDbEntity
  8
0
  6
CONTINUOUS
 62
               7
100
AcDbCircle
 10
98.5
 20
18.0
 30
0.0
 40
1.6499999999999999
  0
CIRCLE
  5
7BE
100
AcDbEntity
  8
0
  6
CONTINUOUS
 62
               2
100
AcDbCircle
 10
98.5
 20
18.0
 30
0.0
 40
2.0
  0
LINE
  5
7BF
100
AcDbEntity
  8
0
  6
CONTINUOUS
 62
               2
100
AcDbLine
 10
98.5
 20
15.0
 30
0.0
 11
98.5
 21
21.0
 31
0.0
  0
LINE
  5
7C0
100
AcDbEntity
  8
0
  6
CONTINUOUS
 62
               2
100
AcDbLine
 10
95.5
 20
18.0
 30
0.0
 11
101.5
 21
18.0
 31
0.0
  0
LINE
  5
7C1
100
AcDbEntity
  8
0
  6
CONTINUOUS
 62
               7
100
AcDbLine
 10
20.0
 20
12.0
 30
0.0
 11
120.0
 21
12.0
 31
0.0
  0
LINE
  5
7C2
100
AcDbEntity
  8
0
  6
CONTINUOUS
 62
               7
100
AcDbLine
 10
118.0
 20
22.5
 30
0.0
 11
118.79999999999995
 21
22.5
 31
0.0
  0
LINE
  5
7C3
100
AcDbEntity
  8
0
  6
CONTINUOUS
 62
               7
100
AcDbLine
 10
118.0
 20
14.5
 30
0.0
 11
118.79999999999995
 21
14.5
 31
0.0
  0
LINE
  5
7C4
100
AcDbEntity
  8
0
  6
CONTINUOUS
 62
               7
100
AcDbLine
 10
118.79999999999995
 20
14.5
 30
0.0
 11
118.79999999999995
 21
22.499999986528337
 31
0.0
  0
LINE
  5
7C5
100
AcDbEntity
  8
0
  6
CONTINUOUS
 62
               7
100
AcDbLine
 10
118.89999999999998
 20
15.5
 30
0.0
 11
118.79999999999995
 21
15.5
 31
0.0
  0
ARC
  5
7C6
100
AcDbEntity
  8
0
  6
CONTINUOUS
 62
               7
100
AcDbCircle
 10
118.89999999999998
 20
16.0
 30
0.0
 40
0.5
100
AcDbArc
 50
270.0
 51
0.0
  0
ARC
  5
7C7
100
AcDbEntity
  8
0
  6
CONTINUOUS
 62
               7
100
AcDbCircle
 10
118.89999999999998
 20
18.0
 30
0.0
 40
0.5
100
AcDbArc
 50
0.0
 51
90.0
  0
LINE
  5
7C8
100
AcDbEntity
  8
0
  6
CONTINUOUS
 62
               7
100
AcDbLine
 10
118.89999999999998
 20
18.5
 30
0.0
 11
118.79999999999995
 21
18.5
 31
0.0
  0
LINE
  5
7C9
100
AcDbEntity
  8
0
  6
CONTINUOUS
 62
               7
100
AcDbLine
 10
119.39999999999998
 20
16.0
 30
0.0
 11
119.39999999999998
 21
18.0
 31
0.0
  0
LINE
  5
7CA
100
AcDbEntity
  8
0
  6
CONTINUOUS
 62
               7
100
AcDbLine
 10
120.0
 20
18.900000000000006
 30
0.0
 11
118.79999999999995
 21
18.900000000000006
 31
0.0
  0
CIRCLE
  5
7CB
100
AcDbEntity
  8
0
  6
CONTINUOUS
 62
               7
100
AcDbCircle
 10
26.5
 20
6.5
 30
0.0
 40
2.1000000000000001
  0
LINE
  5
7CC
100
AcDbEntity
  8
0
  6
CONTINUOUS
 62
               2
100
AcDbLine
 10
23.0
 20
6.5
 30
0.0
 11
30.0
 21
6.5
 31
0.0
  0
CIRCLE
  5
7CD
100
AcDbEntity
  8
0
  6
CONTINUOUS
 62
               2
100
AcDbCircle
 10
26.5
 20
6.5
 30
0.0
 40
2.5
  0
LINE
  5
7CE
100
AcDbEntity
  8
0
  6
CONTINUOUS
 62
               2
100
AcDbLine
 10
26.5
 20
3.0
 30
0.0
 11
26.5
 21
10.0
 31
0.0
  0
LINE
  5
7CF
100
AcDbEntity
  8
0
  6
CONTINUOUS
 62
               7
100
AcDbLine
 10
14.999999987179194
 20
22.5
 30
0.0
 11
118.0
 21
22.5
 31
0.0
  0
CIRCLE
  5
7D0
100
AcDbEntity
  8
0
  6
CONTINUOUS
 62
               7
100
AcDbCircle
 10
105.5
 20
18.0
 30
0.0
 40
2.0
  0
LINE
  5
7D1
100
AcDbEntity
  8
0
  6
CONTINUOUS
 62
               2
100
AcDbLine
 10
36.0
 20
2.5
 30
0.0
 11
36.0
 21
-2.5
 31
0.0
  0
LINE
  5
7D2
100
AcDbEntity
  8
0
  6
CONTINUOUS
 62
               2
100
AcDbLine
 10
101.0
 20
2.5
 30
0.0
 11
101.0
 21
-2.5
 31
0.0
  0
LINE
  5
7D3
100
AcDbEntity
  8
0
  6
CONTINUOUS
 62
               2
100
AcDbLine
 10
117.5
 20
8.0
 30
0.0
 11
122.5
 21
8.0
 31
0.0
  0
LINE
  5
7D4
100
AcDbEntity
  8
0
  6
CONTINUOUS
 62
               2
100
AcDbLine
 10
-2.5
 20
10.0
 30
0.0
 11
2.5
 21
10.0
 31
0.0
  0
ENDBLK
  5
7D5
100
AcDbEntity
  8
0
100
AcDbBlockEnd
  0
BLOCK
  5
7D6
100
AcDbEntity
  8
0
100
AcDbBlockBegin
  2
CS-MGA16-24
 70
               0
 10
0.0
 20
0.0
 30
0.0
  3
CS-MGA16-24
  1

  0
LINE
  5
7D7
100
AcDbEntity
  8
0
  6
CONTINUOUS
 62
               2
100
AcDbLine
 10
-2.5
 20
14.0
 30
0.0
 11
2.5
 21
14.0
 31
0.0
  0
LINE
  5
7D8
100
AcDbEntity
  8
0
  6
CONTINUOUS
 62
               2
100
AcDbLine
 10
-2.5
 20
-14.0
 30
0.0
 11
2.5
 21
-14.0
 31
0.0
  0
LINE
  5
7D9
100
AcDbEntity
  8
0
  6
CONTINUOUS
 62
               2
100
AcDbLine
 10
117.49999999999994
 20
14.0
 30
0.0
 11
122.49999999999994
 21
14.0
 31
0.0
  0
LINE
  5
7DA
100
AcDbEntity
  8
0
  6
CONTINUOUS
 62
               2
100
AcDbLine
 10
117.49999999999994
 20
-14.0
 30
0.0
 11
122.49999999999994
 21
-14.0
 31
0.0
  0
ARC
  5
7DB
100
AcDbEntity
  8
0
  6
CONTINUOUS
 62
               7
100
AcDbCircle
 10
51.0
 20
16.0
 30
0.0
 40
2.0
100
AcDbArc
 50
0.0
 51
180.0
  0
ARC
  5
7DC
100
AcDbEntity
  8
0
  6
CONTINUOUS
 62
               7
100
AcDbCircle
 10
51.0
 20
15.0
 30
0.0
 40
2.0
100
AcDbArc
 50
180.0
 51
0.0
  0
LINE
  5
7DD
100
AcDbEntity
  8
0
  6
CONTINUOUS
 62
               7
100
AcDbLine
 10
53.0
 20
16.000000012820692
 30
0.0
 11
53.0
 21
15.000000012820692
 31
0.0
  0
LINE
  5
7DE
100
AcDbEntity
  8
0
  6
CONTINUOUS
 62
               7
100
AcDbLine
 10
49.0
 20
16.0
 30
0.0
 11
49.0
 21
15.0
 31
0.0
  0
LINE
  5
7DF
100
AcDbEntity
  8
0
  6
CONTINUOUS
 62
               2
100
AcDbLine
 10
54.0
 20
15.5
 30
0.0
 11
48.0
 21
15.5
 31
0.0
  0
LINE
  5
7E0
100
AcDbEntity
  8
0
  6
CONTINUOUS
 62
               2
100
AcDbLine
 10
51.0
 20
19.0
 30
0.0
 11
51.0
 21
12.0
 31
0.0
  0
LINE
  5
7E1
100
AcDbEntity
  8
0
  6
CONTINUOUS
 62
               2
100
AcDbLine
 10
51.0
 20
-18.5
 30
0.0
 11
51.0
 21
-12.5
 31
0.0
  0
CIRCLE
  5
7E2
100
AcDbEntity
  8
0
  6
CONTINUOUS
 62
               7
100
AcDbCircle
 10
51.0
 20
-15.5
 30
0.0
 40
2.0
  0
LINE
  5
7E3
100
AcDbEntity
  8
0
  6
CONTINUOUS
 62
               2
100
AcDbLine
 10
54.0
 20
-15.5
 30
0.0
 11
48.0
 21
-15.5
 31
0.0
  0
LINE
  5
7E4
100
AcDbEntity
  8
0
  6
CONTINUOUS
 62
               2
100
AcDbLine
 10
97.5
 20
-15.5
 30
0.0
 11
104.5
 21
-15.5
 31
0.0
  0
LINE
  5
7E5
100
AcDbEntity
  8
0
  6
CONTINUOUS
 62
               2
100
AcDbLine
 10
101.0
 20
-12.0
 30
0.0
 11
101.0
 21
-19.0
 31
0.0
  0
LINE
  5
7E6
100
AcDbEntity
  8
0
  6
CONTINUOUS
 62
               2
100
AcDbLine
 10
32.5
 20
-15.5
 30
0.0
 11
39.5
 21
-15.5
 31
0.0
  0
LINE
  5
7E7
100
AcDbEntity
  8
0
  6
CONTINUOUS
 62
               2
100
AcDbLine
 10
36.0
 20
-12.0
 30
0.0
 11
36.0
 21
-19.0
 31
0.0
  0
LINE
  5
7E8
100
AcDbEntity
  8
0
  6
CONTINUOUS
 62
               2
100
AcDbLine
 10
32.5
 20
15.5
 30
0.0
 11
39.5
 21
15.5
 31
0.0
  0
LINE
  5
7E9
100
AcDbEntity
  8
0
  6
CONTINUOUS
 62
               2
100
AcDbLine
 10
36.0
 20
19.0
 30
0.0
 11
36.0
 21
12.0
 31
0.0
  0
LINE
  5
7EA
100
AcDbEntity
  8
0
  6
CONTINUOUS
 62
               7
100
AcDbLine
 10
22.0
 20
-19.5
 30
0.0
 11
22.0
 21
-17.5
 31
0.0
  0
LINE
  5
7EB
100
AcDbEntity
  8
0
  6
CONTINUOUS
 62
               7
100
AcDbLine
 10
20.0
 20
19.5
 30
0.0
 11
20.0
 21
-19.5
 31
0.0
  0
LINE
  5
7EC
100
AcDbEntity
  8
0
  6
CONTINUOUS
 62
               7
100
AcDbLine
 10
21.999999987179194
 20
-17.5
 30
0.0
 11
31.0
 21
-17.5
 31
0.0
  0
LINE
  5
7ED
100
AcDbEntity
  8
0
  6
CONTINUOUS
 62
               7
100
AcDbLine
 10
31.0
 20
-19.5
 30
0.0
 11
31.0
 21
-17.5
 31
0.0
  0
CIRCLE
  5
7EE
100
AcDbEntity
  8
0
  6
CONTINUOUS
 62
               2
100
AcDbCircle
 10
36.0
 20
-15.5
 30
0.0
 40
2.5
  0
CIRCLE
  5
7EF
100
AcDbEntity
  8
0
  6
CONTINUOUS
 62
               7
100
AcDbCircle
 10
36.0
 20
-15.5
 30
0.0
 40
2.1000000000000001
  0
CIRCLE
  5
7F0
100
AcDbEntity
  8
0
  6
CONTINUOUS
 62
               2
100
AcDbCircle
 10
101.0
 20
-15.5
 30
0.0
 40
2.5
  0
CIRCLE
  5
7F1
100
AcDbEntity
  8
0
  6
CONTINUOUS
 62
               7
100
AcDbCircle
 10
101.0
 20
-15.5
 30
0.0
 40
2.1000000000000001
  0
CIRCLE
  5
7F2
100
AcDbEntity
  8
0
  6
CONTINUOUS
 62
               7
100
AcDbCircle
 10
101.0
 20
15.5
 30
0.0
 40
2.1000000000000001
  0
CIRCLE
  5
7F3
100
AcDbEntity
  8
0
  6
CONTINUOUS
 62
               2
100
AcDbCircle
 10
101.0
 20
15.5
 30
0.0
 40
2.5
  0
LINE
  5
7F4
100
AcDbEntity
  8
0
  6
CONTINUOUS
 62
               2
100
AcDbLine
 10
97.5
 20
15.5
 30
0.0
 11
104.5
 21
15.5
 31
0.0
  0
LINE
  5
7F5
100
AcDbEntity
  8
0
  6
CONTINUOUS
 62
               2
100
AcDbLine
 10
101.0
 20
19.0
 30
0.0
 11
101.0
 21
12.0
 31
0.0
  0
CIRCLE
  5
7F6
100
AcDbEntity
  8
0
  6
CONTINUOUS
 62
               7
100
AcDbCircle
 10
36.0
 20
15.5
 30
0.0
 40
2.1000000000000001
  0
CIRCLE
  5
7F7
100
AcDbEntity
  8
0
  6
CONTINUOUS
 62
               2
100
AcDbCircle
 10
36.0
 20
15.5
 30
0.0
 40
2.5
  0
LINE
  5
7F8
100
AcDbEntity
  8
0
  6
CONTINUOUS
 62
               7
100
AcDbLine
 10
31.0
 20
19.5
 30
0.0
 11
120.0
 21
19.5
 31
0.0
  0
LINE
  5
7F9
100
AcDbEntity
  8
0
  6
CONTINUOUS
 62
               7
100
AcDbLine
 10
21.999999987179194
 20
17.5
 30
0.0
 11
31.0
 21
17.5
 31
0.0
  0
LINE
  5
7FA
100
AcDbEntity
  8
0
  6
CONTINUOUS
 62
               7
100
AcDbLine
 10
31.0
 20
19.5
 30
0.0
 11
31.0
 21
17.5
 31
0.0
  0
LINE
  5
7FB
100
AcDbEntity
  8
0
  6
CONTINUOUS
 62
               7
100
AcDbLine
 10
22.0
 20
19.5
 30
0.0
 11
22.0
 21
17.5
 31
0.0
  0
LINE
  5
7FC
100
AcDbEntity
  8
0
  6
CONTINUOUS
 62
               7
100
AcDbLine
 10
20.0
 20
19.5
 30
0.0
 11
22.0
 21
19.5
 31
0.0
  0
LINE
  5
7FD
100
AcDbEntity
  8
0
  6
CONTINUOUS
 62
               7
100
AcDbLine
 10
120.0
 20
19.5
 30
0.0
 11
120.0
 21
-19.5
 31
0.0
  0
LINE
  5
7FE
100
AcDbEntity
  8
0
  6
CENTER
 62
               2
100
AcDbLine
 10
-3.5964301101943192
 20
0.0
 30
0.0
 11
124.0
 21
0.0
 31
0.0
  0
LINE
  5
7FF
100
AcDbEntity
  8
0
  6
CONTINUOUS
 62
               7
100
AcDbLine
 10
31.0
 20
-19.5
 30
0.0
 11
120.0
 21
-19.5
 31
0.0
  0
LINE
  5
800
100
AcDbEntity
  8
0
  6
CONTINUOUS
 62
               7
100
AcDbLine
 10
20.0
 20
-19.5
 30
0.0
 11
22.0
 21
-19.5
 31
0.0
  0
LINE
  5
801
100
AcDbEntity
  8
0
  6
CONTINUOUS
 62
               7
100
AcDbLine
 10
7.9999999871791942
 20
-19.999999988079338
 30
0.0
 11
7.9999999871791942
 21
20.000000011920662
 31
0.0
  0
LINE
  5
802
100
AcDbEntity
  8
0
  6
CONTINUOUS
 62
               7
100
AcDbLine
 10
0.0
 20
-19.999999988079338
 30
0.0
 11
0.0
 21
20.000000011920662
 31
0.0
  0
LINE
  5
803
100
AcDbEntity
  8
0
  6
CONTINUOUS
 62
               7
100
AcDbLine
 10
0.0
 20
20.0
 30
0.0
 11
118.0
 21
20.0
 31
0.0
  0
LINE
  5
804
100
AcDbEntity
  8
0
  6
CONTINUOUS
 62
               7
100
AcDbLine
 10
0.0
 20
-20.0
 30
0.0
 11
118.0
 21
-20.0
 31
0.0
  0
LINE
  5
805
100
AcDbEntity
  8
0
  6
CONTINUOUS
 62
               7
100
AcDbLine
 10
118.0
 20
-19.999999988079338
 30
0.0
 11
118.0
 21
-19.5
 31
0.0
  0
LINE
  5
806
100
AcDbEntity
  8
0
  6
CONTINUOUS
 62
               7
100
AcDbLine
 10
118.0
 20
19.5
 30
0.0
 11
118.0
 21
20.000000011920662
 31
0.0
  0
LINE
  5
807
100
AcDbEntity
  8
0
  6
CONTINUOUS
 62
               7
100
AcDbLine
 10
20.0
 20
10.799999999999983
 30
0.0
 11
120.0
 21
10.799999999999983
 31
0.0
  0
LINE
  5
808
100
AcDbEntity
  8
0
  6
CONTINUOUS
 62
               7
100
AcDbLine
 10
20.0
 20
10.5
 30
0.0
 11
120.0
 21
10.5
 31
0.0
  0
LINE
  5
809
100
AcDbEntity
  8
0
  6
CONTINUOUS
 62
               7
100
AcDbLine
 10
20.0
 20
4.5
 30
0.0
 11
120.0
 21
4.5
 31
0.0
  0
LINE
  5
80A
100
AcDbEntity
  8
0
  6
CONTINUOUS
 62
               7
100
AcDbLine
 10
20.0
 20
4.2000000000000171
 30
0.0
 11
120.0
 21
4.2000000000000171
 31
0.0
  0
LINE
  5
80B
100
AcDbEntity
  8
0
  6
CONTINUOUS
 62
               7
100
AcDbLine
 10
20.0
 20
-4.2000000000000171
 30
0.0
 11
120.0
 21
-4.2000000000000171
 31
0.0
  0
LINE
  5
80C
100
AcDbEntity
  8
0
  6
CONTINUOUS
 62
               7
100
AcDbLine
 10
20.0
 20
-4.5
 30
0.0
 11
120.0
 21
-4.5
 31
0.0
  0
LINE
  5
80D
100
AcDbEntity
  8
0
  6
CONTINUOUS
 62
               7
100
AcDbLine
 10
20.0
 20
-10.5
 30
0.0
 11
120.0
 21
-10.5
 31
0.0
  0
LINE
  5
80E
100
AcDbEntity
  8
0
  6
CONTINUOUS
 62
               7
100
AcDbLine
 10
20.0
 20
-10.799999999999983
 30
0.0
 11
120.0
 21
-10.799999999999983
 31
0.0
  0
LINE
  5
80F
100
AcDbEntity
  8
0
  6
CONTINUOUS
 62
               7
100
AcDbLine
 10
0.5
 20
7.0
 30
0.0
 11
4.0
 21
7.0
 31
0.0
  0
LINE
  5
810
100
AcDbEntity
  8
0
  6
CONTINUOUS
 62
               7
100
AcDbLine
 10
0.5
 20
-7.0
 30
0.0
 11
0.5
 21
7.0
 31
0.0
  0
LINE
  5
811
100
AcDbEntity
  8
0
  6
CONTINUOUS
 62
               7
100
AcDbLine
 10
0.5
 20
-7.0
 30
0.0
 11
4.0
 21
-7.0
 31
0.0
  0
LINE
  5
812
100
AcDbEntity
  8
0
  6
CONTINUOUS
 62
               7
100
AcDbLine
 10
4.0
 20
-8.0
 30
0.0
 11
4.0
 21
8.0
 31
0.0
  0
LINE
  5
813
100
AcDbEntity
  8
0
  6
CONTINUOUS
 62
               7
100
AcDbLine
 10
4.0
 20
4.0
 30
0.0
 11
7.9999999871791942
 21
4.0
 31
0.0
  0
LINE
  5
814
100
AcDbEntity
  8
0
  6
CONTINUOUS
 62
               7
100
AcDbLine
 10
4.0
 20
-3.9999999999999716
 30
0.0
 11
7.9999999871791942
 21
-3.9999999999999716
 31
0.0
  0
LINE
  5
815
100
AcDbEntity
  8
0
  6
CONTINUOUS
 62
               7
100
AcDbLine
 10
8.0
 20
6.5
 30
0.0
 11
12.0
 21
6.5
 31
0.0
  0
LINE
  5
816
100
AcDbEntity
  8
0
  6
CONTINUOUS
 62
               7
100
AcDbLine
 10
8.0
 20
-6.5
 30
0.0
 11
12.0
 21
-6.5
 31
0.0
  0
LINE
  5
817
100
AcDbEntity
  8
0
  6
CONTINUOUS
 62
               7
100
AcDbLine
 10
10.199999999999932
 20
-6.5
 30
0.0
 11
10.199999999999932
 21
6.5
 31
0.0
  0
LINE
  5
818
100
AcDbEntity
  8
0
  6
CONTINUOUS
 62
               7
100
AcDbLine
 10
4.0
 20
4.4000000000000057
 30
0.0
 11
7.9999999871791942
 21
4.4000000000000057
 31
0.0
  0
LINE
  5
819
100
AcDbEntity
  8
0
  6
CONTINUOUS
 62
               7
100
AcDbLine
 10
4.0
 20
-4.4000000000000057
 30
0.0
 11
7.9999999871791942
 21
-4.4000000000000057
 31
0.0
  0
LINE
  5
81A
100
AcDbEntity
  8
0
  6
CONTINUOUS
 62
               7
100
AcDbLine
 10
0.0
 20
8.0
 30
0.0
 11
4.0
 21
8.0
 31
0.0
  0
LINE
  5
81B
100
AcDbEntity
  8
0
  6
CONTINUOUS
 62
               7
100
AcDbLine
 10
0.0
 20
-8.0
 30
0.0
 11
4.0
 21
-8.0
 31
0.0
  0
LINE
  5
81C
100
AcDbEntity
  8
0
  6
CONTINUOUS
 62
               7
100
AcDbLine
 10
12.0
 20
19.299999999999997
 30
0.0
 11
12.0
 21
-19.299999999999983
 31
0.0
  0
LINE
  5
81D
100
AcDbEntity
  8
0
  6
CONTINUOUS
 62
               7
100
AcDbLine
 10
12.0
 20
19.299999999999997
 30
0.0
 11
20.0
 21
19.299999999999997
 31
0.0
  0
LINE
  5
81E
100
AcDbEntity
  8
0
  6
CONTINUOUS
 62
               7
100
AcDbLine
 10
12.0
 20
-19.299999999999983
 30
0.0
 11
20.0
 21
-19.299999999999983
 31
0.0
  0
ENDBLK
  5
81F
100
AcDbEntity
  8
0
100
AcDbBlockEnd
  0
ENDSEC
  0
SECTION
  2
ENTITIES
  0
INSERT
  5
820
100
AcDbEntity
  8
0
  6
ByBlock
100
AcDbBlockReference
  2
CS-MGA16-24
 10
559.99999998717897
 20
-90.000000000000014
 30
0.0
  0
INSERT
  5
821
100
AcDbEntity
  8
0
  6
ByBlock
100
AcDbBlockReference
  2
CS-MGA16-23
 10
559.99999999999977
 20
-10.000000000000057
 30
0.0
  0
INSERT
  5
822
100
AcDbEntity
  8
0
  6
ByBlock
100
AcDbBlockReference
  2
CS-MGA16-22
 10
559.99999999999977
 20
230.0
 30
0.0
  0
INSERT
  5
823
100
AcDbEntity
  8
0
  6
ByBlock
100
AcDbBlockReference
  2
CS-MGA16-21
 10
780.0
 20
110.0
 30
0.0
  0
INSERT
  5
824
100
AcDbEntity
  8
0
  6
ByBlock
100
AcDbBlockReference
  2
CS-MGA16-20
 10
450.0
 20
110.0
 30
0.0
  0
INSERT
  5
825
100
AcDbEntity
  8
0
  6
ByBlock
100
AcDbBlockReference
  2
CS-MGA16-19
 10
559.99999999999977
 20
110.0
 30
0.0
  0
INSERT
  5
826
100
AcDbEntity
  8
0
  6
ByBlock
100
AcDbBlockReference
  2
CS-MGA16-18
 10
159.99999997435827
 20
-90.000000000000014
 30
0.0
  0
INSERT
  5
827
100
AcDbEntity
  8
0
  6
ByBlock
100
AcDbBlockReference
  2
CS-MGA16-17
 10
159.99999999999977
 20
-10.0
 30
0.0
  0
INSERT
  5
828
100
AcDbEntity
  8
0
  6
ByBlock
100
AcDbBlockReference
  2
CS-MGA16-16
 10
159.99999999999977
 20
230.00000000000003
 30
0.0
  0
INSERT
  5
829
100
AcDbEntity
  8
0
  6
ByBlock
100
AcDbBlockReference
  2
CS-MGA16-15
 10
370.0
 20
110.0
 30
0.0
  0
INSERT
  5
82A
100
AcDbEntity
  8
0
  6
ByBlock
100
AcDbBlockReference
  2
CS-MGA16-14
 10
50.0
 20
110.0
 30
0.0
  0
INSERT
  5
82B
100
AcDbEntity
  8
0
  6
ByBlock
100
AcDbBlockReference
  2
CS-MGA16-13
 10
159.99999999999977
 20
110.0
 30
0.0
  0
INSERT
  5
82C
100
AcDbEntity
  8
0
  6
ByBlock
100
AcDbBlockReference
  2
CS-MGA16-12
 10
-259.99999998717931
 20
-89.999999999999986
 30
0.0
  0
INSERT
  5
82D
100
AcDbEntity
  8
0
  6
ByBlock
100
AcDbBlockReference
  2
CS-MGA16-11
 10
-259.9999999743585
 20
-10.0
 30
0.0
  0
INSERT
  5
82E
100
AcDbEntity
  8
0
  6
ByBlock
100
AcDbBlockReference
  2
CS-MGA16-10
 10
-259.9999999743585
 20
230.00000000000006
 30
0.0
  0
INSERT
  5
82F
100
AcDbEntity
  8
0
  6
ByBlock
100
AcDbBlockReference
  2
CS-MGA16-9
 10
-39.999999999999986
 20
110.0
 30
0.0
  0
INSERT
  5
830
100
AcDbEntity
  8
0
  6
ByBlock
100
AcDbBlockReference
  2
CS-MGA16-8
 10
-370.0
 20
110.0
 30
0.0
  0
INSERT
  5
831
100
AcDbEntity
  8
0
  6
ByBlock
100
AcDbBlockReference
  2
CS-MGA16-7
 10
-259.9999999743585
 20
110.0
 30
0.0
  0
INSERT
  5
832
100
AcDbEntity
  8
0
  6
ByBlock
100
AcDbBlockReference
  2
CS-MGA16-6
 10
-659.99999998717931
 20
-89.999999988079324
 30
0.0
  0
INSERT
  5
833
100
AcDbEntity
  8
0
  6
ByBlock
100
AcDbBlockReference
  2
CS-MGA16-5
 10
-659.9999999743585
 20
-10.000000000000014
 30
0.0
  0
INSERT
  5
834
100
AcDbEntity
  8
0
  6
ByBlock
100
AcDbBlockReference
  2
CS-MGA16-4
 10
-659.9999999743585
 20
230.0
 30
0.0
  0
INSERT
  5
835
100
AcDbEntity
  8
0
  6
ByBlock
100
AcDbBlockReference
  2
CS-MGA16-3
 10
-450.0
 20
110.0
 30
0.0
  0
INSERT
  5
836
100
AcDbEntity
  8
0
  6
ByBlock
100
AcDbBlockReference
  2
CS-MGA16-2
 10
-770.0
 20
110.0
 30
0.0
  0
INSERT
  5
837
100
AcDbEntity
  8
0
  6
ByBlock
100
AcDbBlockReference
  2
CS-MGA16-1
 10
-659.9999999743585
 20
110.0
 30
0.0
  0
MTEXT
  5
838
100
AcDbEntity
  8
0
  6
CONTINUOUS
 62
               7
100
AcDbMText
 10
82.218923801820424
 20
-432.00000001691484
 30
0.0
 40
12.5
 41
0.0
 71
               4
 72
               1
  1
\W1.065;\A1;STRETCH LIST
  0
MTEXT
  5
839
100
AcDbEntity
  8
0
  6
CONTINUOUS
 62
               7
100
AcDbMText
 10
-738.28107619817956
 20
-432.00000001691484
 30
0.0
 40
12.5
 41
0.0
 71
               4
 72
               1
  1
\W1.065;\A1;STRETCH LIST
  0
MTEXT
  5
83A
100
AcDbEntity
  8
0
  6
CONTINUOUS
 62
               3
100
AcDbMText
 10
162.02794774710947
 20
250.00000000000003
 30
0.0
 40
9.0
 41
0.0
 71
               4
 72
               1
  1
\W1.065;\A1;STRETCH LINE
  0
MTEXT
  5
83B
100
AcDbEntity
  8
0
  6
CONTINUOUS
 62
               3
100
AcDbMText
 10
-658.47205222724881
 20
250.0
 30
0.0
 40
9.0
 41
0.0
 71
               4
 72
               1
  1
\W1.065;\A1;STRETCH LINE
  0
LINE
  5
83D
100
AcDbEntity
  8
0
  6
DASHED
 62
               2
100
AcDbLine
 10
-410.25
 20
574.5
 30
0.0
 11
-410.25
 21
-574.5
 31
0.0
  0
MTEXT
  5
83E
100
AcDbEntity
  8
0
  6
CONTINUOUS
 62
               7
100
AcDbMText
 10
-714.36956522550383
 20
537.0
 30
0.0
 40
18.0
 41
0.0
 71
               4
 72
               1
  1
\W1.043;\A1;CS-MGA16
  0
MTEXT
  5
83F
100
AcDbEntity
  8
0
  6
CONTINUOUS
 62
               7
100
AcDbMText
 10
-795.06950674479583
 20
562.0
 30
0.0
 40
18.0
 41
0.0
 71
               4
 72
               1
  1
\W1.143;\A1;MINI GUIDE SLIDER
  0
MTEXT
  5
840
100
AcDbEntity
  8
0
  6
CONTINUOUS
 62
               7
100
AcDbMText
 10
144.99999948740006
 20
-482.0
 30
0.0
 40
12.5
 41
0.0
 71
               4
 72
               1
  1
\W1.200;\A1;0
  0
MTEXT
  5
841
100
AcDbEntity
  8
0
  6
CONTINUOUS
 62
               7
100
AcDbMText
 10
139.02777629428439
 20
-457.0
 30
0.0
 40
12.5
 41
0.0
 71
               4
 72
               1
  1
\W1.333;\A1;10
  0
MTEXT
  5
842
100
AcDbEntity
  8
0
  6
CONTINUOUS
 62
               7
100
AcDbMText
 10
182.49999948740006
 20
-482.0
 30
0.0
 40
12.5
 41
0.0
 71
               4
 72
               1
  1
\W1.200;\A1;0
  0
MTEXT
  5
843
100
AcDbEntity
  8
0
  6
CONTINUOUS
 62
               7
100
AcDbMText
 10
176.02272573679932
 20
-457.0
 30
0.0
 40
12.5
 41
0.0
 71
               4
 72
               1
  1
\W1.091;\A1;20
  0
MTEXT
  5
844
100
AcDbEntity
  8
0
  6
CONTINUOUS
 62
               7
100
AcDbMText
 10
213.52272573679932
 20
-482.0
 30
0.0
 40
12.5
 41
0.0
 71
               4
 72
               1
  1
\W1.091;\A1;20
  0
MTEXT
  5
845
100
AcDbEntity
  8
0
  6
CONTINUOUS
 62
               7
100
AcDbMText
 10
213.52272573679932
 20
-457.0
 30
0.0
 40
12.5
 41
0.0
 71
               4
 72
               1
  1
\W1.091;\A1;30
  0
MTEXT
  5
846
100
AcDbEntity
  8
0
  6
CONTINUOUS
 62
               7
100
AcDbMText
 10
251.77272573679932
 20
-482.0
 30
0.0
 40
12.5
 41
0.0
 71
               4
 72
               1
  1
\W1.091;\A1;20
  0
MTEXT
  5
847
100
AcDbEntity
  8
0
  6
CONTINUOUS
 62
               7
100
AcDbMText
 10
251.77272573679932
 20
-457.0
 30
0.0
 40
12.5
 41
0.0
 71
               4
 72
               1
  1
\W1.091;\A1;40
  0
LINE
  5
848
100
AcDbEntity
  8
0
  6
CONTINUOUS
 62
               7
100
AcDbLine
 10
280.0
 20
-494.5
 30
0.0
 11
280.0
 21
-444.5
 31
0.0
  0
LINE
  5
849
100
AcDbEntity
  8
0
  6
CONTINUOUS
 62
               7
100
AcDbLine
 10
242.5
 20
-494.5
 30
0.0
 11
242.5
 21
-444.5
 31
0.0
  0
LINE
  5
84A
100
AcDbEntity
  8
0
  6
CONTINUOUS
 62
               7
100
AcDbLine
 10
205.0
 20
-494.5
 30
0.0
 11
205.0
 21
-444.5
 31
0.0
  0
LINE
  5
84B
100
AcDbEntity
  8
0
  6
CONTINUOUS
 62
               7
100
AcDbLine
 10
167.5
 20
-494.5
 30
0.0
 11
167.5
 21
-444.5
 31
0.0
  0
LINE
  5
84C
100
AcDbEntity
  8
0
  6
CONTINUOUS
 62
               7
100
AcDbLine
 10
30.0
 20
-494.5
 30
0.0
 11
30.0
 21
-444.5
 31
0.0
  0
LINE
  5
84D
100
AcDbEntity
  8
0
  6
CONTINUOUS
 62
               7
100
AcDbLine
 10
30.0
 20
-494.5
 30
0.0
 11
280.0
 21
-494.5
 31
0.0
  0
LINE
  5
84E
100
AcDbEntity
  8
0
  6
CONTINUOUS
 62
               7
100
AcDbLine
 10
30.0
 20
-444.5
 30
0.0
 11
280.0
 21
-444.5
 31
0.0
  0
LINE
  5
84F
100
AcDbEntity
  8
0
  6
CONTINUOUS
 62
               7
100
AcDbLine
 10
30.0
 20
-469.5
 30
0.0
 11
280.0
 21
-469.5
 31
0.0
  0
LINE
  5
850
100
AcDbEntity
  8
0
  6
CONTINUOUS
 62
               7
100
AcDbLine
 10
130.0
 20
-494.5
 30
0.0
 11
130.0
 21
-444.5
 31
0.0
  0
MTEXT
  5
851
100
AcDbEntity
  8
0
  6
CONTINUOUS
 62
               7
100
AcDbMText
 10
38.333326657613121
 20
-482.0
 30
0.0
 40
12.5
 41
0.0
 71
               4
 72
               1
  1
\A1;STRETCH
  0
MTEXT
  5
852
100
AcDbEntity
  8
0
  6
CONTINUOUS
 62
               7
100
AcDbMText
 10
44.583327611287437
 20
-457.0
 30
0.0
 40
12.5
 41
0.0
 71
               4
 72
               1
  1
\A1;STROKE
  0
MTEXT
  5
853
100
AcDbEntity
  8
0
  6
CONTINUOUS
 62
               7
100
AcDbMText
 10
-775.91667238871253
 20
-457.0
 30
0.0
 40
12.5
 41
0.0
 71
               4
 72
               1
  1
\A1;STROKE
  0
MTEXT
  5
854
100
AcDbEntity
  8
0
  6
CONTINUOUS
 62
               7
100
AcDbMText
 10
-782.16667334238684
 20
-482.0
 30
0.0
 40
12.5
 41
0.0
 71
               4
 72
               1
  1
\A1;STRETCH
  0
LINE
  5
855
100
AcDbEntity
  8
0
  6
CONTINUOUS
 62
               7
100
AcDbLine
 10
-690.5
 20
-494.5
 30
0.0
 11
-690.5
 21
-444.5
 31
0.0
  0
LINE
  5
856
100
AcDbEntity
  8
0
  6
CONTINUOUS
 62
               7
100
AcDbLine
 10
-790.5
 20
-469.5
 30
0.0
 11
-540.5
 21
-469.5
 31
0.0
  0
LINE
  5
857
100
AcDbEntity
  8
0
  6
CONTINUOUS
 62
               7
100
AcDbLine
 10
-790.5
 20
-444.5
 30
0.0
 11
-540.5
 21
-444.5
 31
0.0
  0
LINE
  5
858
100
AcDbEntity
  8
0
  6
CONTINUOUS
 62
               7
100
AcDbLine
 10
-790.5
 20
-494.5
 30
0.0
 11
-540.5
 21
-494.5
 31
0.0
  0
LINE
  5
859
100
AcDbEntity
  8
0
  6
CONTINUOUS
 62
               7
100
AcDbLine
 10
-790.5
 20
-494.5
 30
0.0
 11
-790.5
 21
-444.5
 31
0.0
  0
LINE
  5
85A
100
AcDbEntity
  8
0
  6
CONTINUOUS
 62
               7
100
AcDbLine
 10
-653.0
 20
-494.5
 30
0.0
 11
-653.0
 21
-444.5
 31
0.0
  0
LINE
  5
85B
100
AcDbEntity
  8
0
  6
CONTINUOUS
 62
               7
100
AcDbLine
 10
-615.5
 20
-494.5
 30
0.0
 11
-615.5
 21
-444.5
 31
0.0
  0
LINE
  5
85C
100
AcDbEntity
  8
0
  6
CONTINUOUS
 62
               7
100
AcDbLine
 10
-578.0
 20
-494.5
 30
0.0
 11
-578.0
 21
-444.5
 31
0.0
  0
LINE
  5
85D
100
AcDbEntity
  8
0
  6
CONTINUOUS
 62
               7
100
AcDbLine
 10
-540.5
 20
-494.5
 30
0.0
 11
-540.5
 21
-444.5
 31
0.0
  0
MTEXT
  5
85E
100
AcDbEntity
  8
0
  6
CONTINUOUS
 62
               7
100
AcDbMText
 10
-568.72727426320068
 20
-457.0
 30
0.0
 40
12.5
 41
0.0
 71
               4
 72
               1
  1
\W1.091;\A1;40
  0
MTEXT
  5
85F
100
AcDbEntity
  8
0
  6
CONTINUOUS
 62
               7
100
AcDbMText
 10
-568.72727426320068
 20
-482.0
 30
0.0
 40
12.5
 41
0.0
 71
               4
 72
               1
  1
\W1.091;\A1;20
  0
MTEXT
  5
860
100
AcDbEntity
  8
0
  6
CONTINUOUS
 62
               7
100
AcDbMText
 10
-606.97727426320068
 20
-457.0
 30
0.0
 40
12.5
 41
0.0
 71
               4
 72
               1
  1
\W1.091;\A1;30
  0
MTEXT
  5
861
100
AcDbEntity
  8
0
  6
CONTINUOUS
 62
               7
100
AcDbMText
 10
-606.97727426320068
 20
-482.0
 30
0.0
 40
12.5
 41
0.0
 71
               4
 72
               1
  1
\W1.091;\A1;20
  0
MTEXT
  5
862
100
AcDbEntity
  8
0
  6
CONTINUOUS
 62
               7
100
AcDbMText
 10
-644.47727426320068
 20
-457.0
 30
0.0
 40
12.5
 41
0.0
 71
               4
 72
               1
  1
\W1.091;\A1;20
  0
MTEXT
  5
863
100
AcDbEntity
  8
0
  6
CONTINUOUS
 62
               7
100
AcDbMText
 10
-638.00000051259997
 20
-482.0
 30
0.0
 40
12.5
 41
0.0
 71
               4
 72
               1
  1
\W1.200;\A1;0
  0
MTEXT
  5
864
100
AcDbEntity
  8
0
  6
CONTINUOUS
 62
               7
100
AcDbMText
 10
-681.47222370571558
 20
-457.0
 30
0.0
 40
12.5
 41
0.0
 71
               4
 72
               1
  1
\W1.333;\A1;10
  0
MTEXT
  5
865
100
AcDbEntity
  8
0
  6
CONTINUOUS
 62
               7
100
AcDbMText
 10
-675.50000051259997
 20
-482.0
 30
0.0
 40
12.5
 41
0.0
 71
               4
 72
               1
  1
\W1.200;\A1;0
  0
LINE
  5
866
100
AcDbEntity
  8
0
  6
DASHED
 62
               2
100
AcDbLine
 10
410.25
 20
574.5
 30
0.0
 11
410.25
 21
-574.5
 31
0.0
  0
LINE
  5
867
100
AcDbEntity
  8
0
  6
CONTINUOUS
 62
               7
100
AcDbLine
 10
0.0
 20
574.5
 30
0.0
 11
0.0
 21
-574.5
 31
0.0
  0
MTEXT
  5
868
100
AcDbEntity
  8
0
  6
CONTINUOUS
 62
               7
100
AcDbMText
 10
23.588128894485738
 20
484.5
 30
0.0
 40
12.5
 41
0.0
 71
               4
 72
               1
  1
\W1.122;\A1;MODEL:CS-MGA16*st(10,20)-L
  0
MTEXT
  5
869
100
AcDbEntity
  8
0
  6
CONTINUOUS
 62
               7
100
AcDbMText
 10
433.80496393411931
 20
484.5
 30
0.0
 40
12.5
 41
0.0
 71
               4
 72
               1
  1
\W1.106;\A1;MODEL:CS-MGA16*st(50,60)-L
  0
MTEXT
  5
86A
100
AcDbEntity
  8
0
  6
CONTINUOUS
 62
               7
100
AcDbMText
 10
-386.69503606588069
 20
484.5
 30
0.0
 40
12.5
 41
0.0
 71
               4
 72
               1
  1
\W1.106;\A1;MODEL:CS-MGA16*st(50,60)-R
  0
LINE
  5
86B
100
AcDbEntity
  8
0
  6
CONTINUOUS
 62
               7
100
AcDbLine
 10
-820.5
 20
-574.5
 30
0.0
 11
820.5
 21
-574.5
 31
0.0
  0
LINE
  5
86C
100
AcDbEntity
  8
0
  6
CONTINUOUS
 62
               7
100
AcDbLine
 10
-820.5
 20
574.5
 30
0.0
 11
-820.5
 21
-574.5
 31
0.0
  0
LINE
  5
86D
100
AcDbEntity
  8
0
  6
CONTINUOUS
 62
               7
100
AcDbLine
 10
820.5
 20
574.5
 30
0.0
 11
820.5
 21
-574.5
 31
0.0
  0
LINE
  5
86E
100
AcDbEntity
  8
0
  6
CONTINUOUS
 62
               7
100
AcDbLine
 10
-820.5
 20
574.5
 30
0.0
 11
820.5
 21
574.5
 31
0.0
  0
LINE
  5
86F
100
AcDbEntity
  8
0
  6
CONTINUOUS
 62
               7
100
AcDbLine
 10
-820.5
 20
524.5
 30
0.0
 11
-470.5
 21
524.5
 31
0.0
  0
LINE
  5
870
100
AcDbEntity
  8
0
  6
CONTINUOUS
 62
               7
100
AcDbLine
 10
470.5
 20
-524.5
 30
0.0
 11
820.5
 21
-524.5
 31
0.0
  0
LINE
  5
871
100
AcDbEntity
  8
0
  6
CONTINUOUS
 62
               7
100
AcDbLine
 10
470.5
 20
574.5
 30
0.0
 11
470.5
 21
524.5
 31
0.0
  0
LINE
  5
872
100
AcDbEntity
  8
0
  6
CONTINUOUS
 62
               7
100
AcDbLine
 10
-470.5
 20
574.5
 30
0.0
 11
-470.5
 21
524.5
 31
0.0
  0
LINE
  5
873
100
AcDbEntity
  8
0
  6
CONTINUOUS
 62
               7
100
AcDbLine
 10
470.5
 20
-524.5
 30
0.0
 11
470.5
 21
-574.5
 31
0.0
  0
LINE
  5
874
100
AcDbEntity
  8
0
  6
CONTINUOUS
 62
               7
100
AcDbLine
 10
470.5
 20
524.5
 30
0.0
 11
820.5
 21
524.5
 31
0.0
  0
MTEXT
  5
875
100
AcDbEntity
  8
0
  6
CONTINUOUS
 62
               7
100
AcDbMText
 10
-796.91187110551425
 20
484.5
 30
0.0
 40
12.5
 41
0.0
 71
               4
 72
               1
  1
\W1.122;\A1;MODEL:CS-MGA16*st(10,20)-R
  0
MTEXT
  5
876
100
AcDbEntity
  8
0
  6
CONTINUOUS
 62
               7
100
AcDbMText
 10
487.66954021788825
 20
-549.5
 30
0.0
 40
25.0
 41
0.0
 71
               4
 72
               1
  1
\W1.121;\A1;KOGANEI CORP.
  0
MTEXT
  5
877
100
AcDbEntity
  8
0
  6
CONTINUOUS
 62
               7
100
AcDbMText
 10
577.43442619106395
 20
549.5
 30
0.0
 40
18.0
 41
0.0
 71
               4
 72
               1
  1
\W1.311;\A1;Ver. 1.0
  0
ENDSEC
  0
SECTION
  2
OBJECTS
  0
DICTIONARY
  5
19
100
AcDbDictionary
  3
ACAD_GROUP
350
1A
  3
ACAD_MLINESTYLE
350
1B
  0
DICTIONARY
  5
1A
102
{ACAD_REACTORS
330
19
102
}
100
AcDbDictionary
  0
DICTIONARY
  5
1B
102
{ACAD_REACTORS
330
19
102
}
100
AcDbDictionary
  3
STANDARD
350
1C
  0
MLINESTYLE
  5
1C
102
{ACAD_REACTORS
330
1B
102
}
100
AcDbMlineStyle
  2
Standard
 70
               0
  3

 62
               0
 51
90.0
 52
90.0
 71
               2
 49
0.5
 62
             256
  6
ByLayer
 49
-0.5
 62
             256
  6
ByLayer
  0
ENDSEC
  0
EOF
