  0
SECTION
  2
HEADER
  9
$ACADVER
  1
AC1012
  9
$DWGCODEPAGE
  3
dos932
  9
$INSBASE
 10
0.0
 20
0.0
 30
0.0
  9
$EXTMIN
 10
-194.25
 20
-133.5
 30
0.0
  9
$EXTMAX
 10
196.25000429153442
 20
132.60000610351562
 30
0.0
  9
$LIMMIN
 10
-194.25
 20
-133.5
  9
$LIMMAX
 10
196.25000429153442
 20
132.60000610351562
  9
$ORTHOMODE
 70
               0
  9
$REGENMODE
 70
               1
  9
$FILLMODE
 70
               1
  9
$QTEXTMODE
 70
               0
  9
$MIRRTEXT
 70
               1
  9
$DRAGMODE
 70
               2
  9
$LTSCALE
 40
1.0
  9
$OSMODE
 70
               0
  9
$ATTMODE
 70
               1
  9
$TEXTSIZE
 40
3.2000000476837158
  9
$TRACEWID
 40
0.05
  9
$TEXTSTYLE
  7
MX_NOTE_STANDARD
  9
$CLAYER
  8
0
  9
$CELTYPE
  6
CONTINUOUS
  9
$CECOLOR
 62
             256
  9
$CELTSCALE
 40
1.0
  9
$DELOBJ
 70
               1
  9
$DISPSILH
 70
               0
  9
$DIMSCALE
 40
1.0
  9
$DIMASZ
 40
2.5
  9
$DIMEXO
 40
1.5
  9
$DIMDLI
 40
3.75
  9
$DIMRND
 40
0.0
  9
$DIMDLE
 40
0.0
  9
$DIMEXE
 40
1.5
  9
$DIMTP
 40
0.0
  9
$DIMTM
 40
0.0
  9
$DIMTXT
 40
3.2000000476837158
  9
$DIMCEN
 40
2.5
  9
$DIMTSZ
 40
0.0
  9
$DIMTOL
 70
               0
  9
$DIMLIM
 70
               0
  9
$DIMTIH
 70
               0
  9
$DIMTOH
 70
               0
  9
$DIMSE1
 70
               0
  9
$DIMSE2
 70
               0
  9
$DIMTAD
 70
               1
  9
$DIMZIN
 70
               8
  9
$DIMBLK
  1

  9
$DIMASO
 70
               1
  9
$DIMSHO
 70
               1
  9
$DIMPOST
  1

  9
$DIMAPOST
  1

  9
$DIMALT
 70
               0
  9
$DIMALTD
 70
               4
  9
$DIMALTF
 40
0.0394
  9
$DIMLFAC
 40
1.0
  9
$DIMTOFL
 70
               1
  9
$DIMTVP
 40
0.0
  9
$DIMTIX
 70
               0
  9
$DIMSOXD
 70
               0
  9
$DIMSAH
 70
               0
  9
$DIMBLK1
  1

  9
$DIMBLK2
  1

  9
$DIMSTYLE
  2
MXDIMSTYLE
  9
$DIMCLRD
 70
               0
  9
$DIMCLRE
 70
               0
  9
$DIMCLRT
 70
               0
  9
$DIMTFAC
 40
1.0
  9
$DIMGAP
 40
1.0
  9
$DIMJUST
 70
               0
  9
$DIMSD1
 70
               0
  9
$DIMSD2
 70
               0
  9
$DIMTOLJ
 70
               1
  9
$DIMTZIN
 70
               0
  9
$DIMALTZ
 70
               0
  9
$DIMALTTZ
 70
               0
  9
$DIMFIT
 70
               3
  9
$DIMUPT
 70
               1
  9
$DIMUNIT
 70
               2
  9
$DIMDEC
 70
               4
  9
$DIMTDEC
 70
               4
  9
$DIMALTU
 70
               8
  9
$DIMALTTD
 70
               4
  9
$DIMTXSTY
  7
MX_NOTE_STANDARD
  9
$DIMAUNIT
 70
               0
  9
$LUNITS
 70
               2
  9
$LUPREC
 70
               4
  9
$SKETCHINC
 40
0.1
  9
$FILLETRAD
 40
0.0
  9
$AUNITS
 70
               0
  9
$AUPREC
 70
               0
  9
$MENU
  1
acad
  9
$ELEVATION
 40
0.0
  9
$PELEVATION
 40
0.0
  9
$THICKNESS
 40
0.0
  9
$LIMCHECK
 70
               0
  9
$BLIPMODE
 70
               1
  9
$CHAMFERA
 40
0.0
  9
$CHAMFERB
 40
0.0
  9
$CHAMFERC
 40
0.0
  9
$CHAMFERD
 40
0.0
  9
$SKPOLY
 70
               0
  9
$TDCREATE
 40
2452220.697372685
  9
$TDUPDATE
 40
2452220.697372685
  9
$TDINDWG
 40
0.0000000000
  9
$TDUSRTIMER
 40
0.0000000000
  9
$USRTIMER
 70
               1
  9
$ANGBASE
 50
0.0
  9
$ANGDIR
 70
               0
  9
$PDMODE
 70
               0
  9
$PDSIZE
 40
0.0
  9
$PLINEWID
 40
0.0
  9
$COORDS
 70
               1
  9
$SPLFRAME
 70
               0
  9
$SPLINETYPE
 70
               6
  9
$SPLINESEGS
 70
               8
  9
$ATTDIA
 70
               0
  9
$ATTREQ
 70
               1
  9
$HANDLING
 70
               1
  9
$HANDSEED
  5
294
  9
$SURFTAB1
 70
               6
  9
$SURFTAB2
 70
               6
  9
$SURFTYPE
 70
               6
  9
$SURFU
 70
               6
  9
$SURFV
 70
               6
  9
$UCSNAME
  2

  9
$UCSORG
 10
0.0
 20
0.0
 30
0.0
  9
$UCSXDIR
 10
1.0
 20
0.0
 30
0.0
  9
$UCSYDIR
 10
0.0
 20
1.0
 30
0.0
  9
$PUCSNAME
  2

  9
$PUCSORG
 10
0.0
 20
0.0
 30
0.0
  9
$PUCSXDIR
 10
1.0
 20
0.0
 30
0.0
  9
$PUCSYDIR
 10
0.0
 20
1.0
 30
0.0
  9
$USERI1
 70
               0
  9
$USERI2
 70
               0
  9
$USERI3
 70
               0
  9
$USERI4
 70
               0
  9
$USERI5
 70
               0
  9
$USERR1
 40
0.0
  9
$USERR2
 40
0.0
  9
$USERR3
 40
0.0
  9
$USERR4
 40
0.0
  9
$USERR5
 40
0.0
  9
$WORLDVIEW
 70
               1
  9
$SHADEDGE
 70
               3
  9
$SHADEDIF
 70
              70
  9
$TILEMODE
 70
               1
  9
$MAXACTVP
 70
              16
  9
$PINSBASE
 10
0.0
 20
0.0
 30
0.0
  9
$PLIMCHECK
 70
               0
  9
$PEXTMIN
 10
1.0000000000000000E+20
 20
1.0000000000000000E+20
 30
1.0000000000000000E+20
  9
$PEXTMAX
 10
-1.0000000000000000E+20
 20
-1.0000000000000000E+20
 30
-1.0000000000000000E+20
  9
$PLIMMIN
 10
0.0
 20
0.0
  9
$PLIMMAX
 10
12.0
 20
9.0
  9
$UNITMODE
 70
               0
  9
$VISRETAIN
 70
               0
  9
$PLINEGEN
 70
               1
  9
$PSLTSCALE
 70
               0
  9
$TREEDEPTH
 70
            3020
  9
$PICKSTYLE
 70
               1
  9
$CMLSTYLE
  2
Standard
  9
$CMLJUST
 70
               0
  9
$CMLSCALE
 40
1.0
  9
$SAVEIMAGES
 70
               0
  0
ENDSEC
  0
SECTION
  2
CLASSES
  0
CLASS
  1
LWPOLYLINE
  2
AcDbPolyline
  3
"AutoCAD"
 90
        0
280
               0
281
               1
  0
CLASS
  1
IMAGE
  2
AcDbRasterImage
  3
ISM
 90
      127
280
               0
281
               1
  0
CLASS
  1
OLE2FRAME
  2
AcDbOle2Frame
  3
""
 90
        0
280
               0
281
               1
  0
CLASS
  1
HATCH
  2
AcDbHatch
  3
"ACAD_SEDONA"
 90
        0
280
               0
281
               1
  0
CLASS
  1
DICTIONARYVAR
  2
AcDbDictionaryVar
  3
"AutoCAD"
 90
        0
280
               0
281
               0
  0
CLASS
  1
RASTERVARIABLES
  2
AcDbRasterVariables
  3
ISM
 90
        0
280
               0
281
               0
  0
CLASS
  1
IMAGEDEF
  2
AcDbRasterImageDef
  3
ISM
 90
        0
280
               0
281
               0
  0
CLASS
  1
IMAGEDEF_REACTOR
  2
AcDbRasterImageDefReactor
  3
ISM
 90
        1
280
               0
281
               0
  0
CLASS
  1
IDBUFFER
  2
AcDbIdBuffer
  3
"Acad"
 90
        0
280
               0
281
               0
  0
CLASS
  1
SPATIAL_FILTER
  2
AcDbSpatialFilter
  3
"Acad"
 90
        0
280
               0
281
               0
  0
CLASS
  1
XRECORD
  2
AcDbXrecord
  3
"<Built In>"
 90
        0
280
               0
281
               0
  0
CLASS
  1
SORTENTSTABLE
  2
AcDbSortentsTable
  3
"AutoCAD"
 90
        0
280
               0
281
               0
  0
CLASS
  1
LAYER_INDEX
  2
AcDbLayerIndex
  3
"Acad"
 90
        0
280
               0
281
               0
  0
CLASS
  1
SPATIAL_INDEX
  2
AcDbSpatialIndex
  3
"Acad"
 90
        0
280
               0
281
               0
  0
CLASS
  1
OBJECT_PTR
  2
CAseDLPNTableRecord
  3
"ASE-LPNTableRecord"
 90
        1
280
               0
281
               0
  0
CLASS
  1
LAYOUT
  2
AcDbLayout
  3
"AutoCAD 2000"
 90
        1
280
               0
281
               0
  0
CLASS
  1
PLOTSETTINGS
  2
AcDbPlotSettings
  3
"AutoCAD 2000"
 90
        1
280
               0
281
               0
  0
CLASS
  1
ACDBDICTIONARYWDFLT
  2
AcDbDictionaryWithDefault
  3
"AutoCAD 2000"
 90
        1
280
               0
281
               0
  0
CLASS
  1
ACDBPLACEHOLDER
  2
AcDbPlaceHolder
  3
"AutoCAD 2000"
 90
        1
280
               0
281
               0
  0
CLASS
  1
VBA_PROJECT
  2
AcDbVbaProject
  3
"acadvba"
 90
        1
280
               0
281
               0
  0
CLASS
  1
WIPEOUT
  2
AcDbWipeout
  3
WipeOut|AutoCAD Express Tool|expresstools@autodesk.com
 90
      127
280
               0
281
               1
  0
CLASS
  1
WIPEOUTVARIABLES
  2
AcDbWipeoutVariables
  3
WipeOut|AutoCAD Express Tool|expresstools@autodesk.com
 90
        0
280
               0
281
               0
  0
CLASS
  1
RTEXT
  2
RText
  3
RText|AutoCAD Express Tool|expresstools@autodesk.com
 90
        0
280
               0
281
               1
  0
CLASS
  1
ARCALIGNEDTEXT
  2
AcDbArcAlignedText
  3
ATEXT|AutoCAD Express Tool|expresstools@autodesk.com
 90
        0
280
               0
281
               1
  0
ENDSEC
  0
SECTION
  2
TABLES
  0
TABLE
  2
VPORT
  5
7
100
AcDbSymbolTable
 70
               1
  0
VPORT
  5
15
100
AcDbSymbolTableRecord
100
AcDbViewportTableRecord
  2
*ACTIVE
 70
               0
 10
0.0
 20
0.0
 11
1.0
 21
1.0
 12
1.0000021457672119
 22
-0.4499969482421875
 13
0.0
 23
0.0
 14
1.0
 24
1.0
 15
0.0
 25
0.0
 16
0.0
 26
0.0
 36
1.0
 17
0.0
 27
0.0
 37
0.0
 40
268.76100616455079
 41
1.7320508075688772
 42
50.0
 43
0.0
 44
0.0
 50
0.0
 51
0.0
 71
               0
 72
             100
 73
               1
 74
               1
 75
               0
 76
               0
 77
               0
 78
               0
  0
ENDTAB
  0
TABLE
  2
LTYPE
  5
4
100
AcDbSymbolTable
 70
               4
  0
LTYPE
  5
11
100
AcDbSymbolTableRecord
100
AcDbLinetypeTableRecord
  2
BYBLOCK
 70
              64
  3

 72
              65
 73
               0
 40
0.0
  0
LTYPE
  5
12
100
AcDbSymbolTableRecord
100
AcDbLinetypeTableRecord
  2
BYLAYER
 70
              64
  3

 72
              65
 73
               0
 40
0.0
  0
LTYPE
  5
13
100
AcDbSymbolTableRecord
100
AcDbLinetypeTableRecord
  2
CONTINUOUS
 70
              64
  3
Solid line
 72
              65
 73
               0
 40
0.0
  0
LTYPE
  5
44
100
AcDbSymbolTableRecord
100
AcDbLinetypeTableRecord
  2
CENTER
 70
              64
  3
Center ____ _ ____ _ ____ _ ____ _ ____ _ ____
 72
              65
 73
               4
 40
50.800000000000004
 49
31.75
 74
               0
 49
-6.3499999999999996
 74
               0
 49
6.3499999999999996
 74
               0
 49
-6.3499999999999996
 74
               0
  0
ENDTAB
  0
TABLE
  2
LAYER
  5
2
100
AcDbSymbolTable
 70
               2
  0
LAYER
  5
14
100
AcDbSymbolTableRecord
100
AcDbLayerTableRecord
  2
0
 70
               0
 62
               7
  6
CONTINUOUS
  0
LAYER
  5
1D
100
AcDbSymbolTableRecord
100
AcDbLayerTableRecord
  2
DEFPOINTS
 70
               0
 62
               7
  6
CONTINUOUS
  0
ENDTAB
  0
TABLE
  2
STYLE
  5
3
100
AcDbSymbolTable
 70
               1
  0
STYLE
  5
17
100
AcDbSymbolTableRecord
100
AcDbTextStyleTableRecord
  2
MX_NOTE_STANDARD
 70
               0
 40
3.2000000476837158
 41
1.0
 50
0.0
 71
               0
 42
3.2000000476837158
  3
txt.shx
  4
extfont.shx
  0
ENDTAB
  0
TABLE
  2
VIEW
  5
5
100
AcDbSymbolTable
 70
               0
  0
ENDTAB
  0
TABLE
  2
UCS
  5
6
100
AcDbSymbolTable
 70
               0
  0
ENDTAB
  0
TABLE
  2
APPID
  5
8
100
AcDbSymbolTable
 70
               1
  0
APPID
  5
16
100
AcDbSymbolTableRecord
100
AcDbRegAppTableRecord
  2
ACAD
 70
               0
  0
ENDTAB
  0
TABLE
  2
DIMSTYLE
  5
9
100
AcDbSymbolTable
 70
               1
  0
DIMSTYLE
105
18
100
AcDbSymbolTableRecord
100
AcDbDimStyleTableRecord
  2
MXDIMSTYLE
 70
               0
  3

  4

  5

  6

  7

 40
1.0
 41
2.5
 42
1.5
 43
3.75
 44
1.5
 45
0.0
 46
0.0
 47
0.0
 48
0.0
 71
               0
 72
               0
 73
               0
 74
               0
 75
               0
 76
               0
 77
               1
 78
               8
140
3.2000000476837158
141
2.5
142
0.0
143
0.0394
144
1.0
145
0.0
146
1.0
147
1.0
170
               0
171
               4
172
               1
173
               0
174
               0
175
               0
176
               0
177
               0
178
               0
270
               2
271
               4
272
               4
273
               8
274
               4
275
               0
280
               0
281
               0
282
               0
283
               1
284
               0
285
               0
286
               0
287
               3
288
               1
340
17
  0
ENDTAB
  0
TABLE
  2
BLOCK_RECORD
  5
1
100
AcDbSymbolTable
 70
               4
  0
BLOCK_RECORD
  5
A
100
AcDbSymbolTableRecord
100
AcDbBlockTableRecord
  2
*MODEL_SPACE
  0
BLOCK_RECORD
  5
B
100
AcDbSymbolTableRecord
100
AcDbBlockTableRecord
  2
*PAPER_SPACE
  0
BLOCK_RECORD
  5
1E
100
AcDbSymbolTableRecord
100
AcDbBlockTableRecord
  2
MS_1
  0
BLOCK_RECORD
  5
1F
100
AcDbSymbolTableRecord
100
AcDbBlockTableRecord
  2
MS_2
  0
BLOCK_RECORD
  5
20
100
AcDbSymbolTableRecord
100
AcDbBlockTableRecord
  2
MS_3
  0
BLOCK_RECORD
  5
21
100
AcDbSymbolTableRecord
100
AcDbBlockTableRecord
  2
MS_4
  0
ENDTAB
  0
ENDSEC
  0
SECTION
  2
BLOCKS
  0
BLOCK
  5
D
100
AcDbEntity
  8
0
100
AcDbBlockBegin
  2
*MODEL_SPACE
 70
               0
 10
0.0
 20
0.0
 30
0.0
  3
*MODEL_SPACE
  1

  0
ENDBLK
  5
E
100
AcDbEntity
  8
0
100
AcDbBlockEnd
  0
BLOCK
  5
F
100
AcDbEntity
 67
               1
  8
0
100
AcDbBlockBegin
  2
*PAPER_SPACE
 70
               0
 10
0.0
 20
0.0
 30
0.0
  3
*PAPER_SPACE
  1

  0
ENDBLK
  5
10
100
AcDbEntity
 67
               1
  8
0
100
AcDbBlockEnd
  0
BLOCK
  5
22
100
AcDbEntity
  8
0
100
AcDbBlockBegin
  2
MS_1
 70
               0
 10
0.0
 20
0.0
 30
0.0
  3
MS_1
  1

  0
LINE
  5
23
100
AcDbEntity
  8
0
  6
CONTINUOUS
 62
               7
100
AcDbLine
 10
47.590000000000003
 20
9.0
 30
0.0
 11
48.060000000000002
 21
-11.0
 31
0.0
  0
LINE
  5
24
100
AcDbEntity
  8
0
  6
CONTINUOUS
 62
               7
100
AcDbLine
 10
15.399999999999999
 20
9.0
 30
0.0
 11
14.93
 21
-11.0
 31
0.0
  0
LINE
  5
25
100
AcDbEntity
  8
0
  6
CONTINUOUS
 62
               7
100
AcDbLine
 10
61.0
 20
-7.0
 30
0.0
 11
61.0
 21
7.0
 31
0.0
  0
LINE
  5
26
100
AcDbEntity
  8
0
  6
CONTINUOUS
 62
               7
100
AcDbLine
 10
62.0
 20
12.0
 30
0.0
 11
63.0
 21
11.0
 31
0.0
  0
LINE
  5
27
100
AcDbEntity
  8
0
  6
CONTINUOUS
 62
               7
100
AcDbLine
 10
62.0
 20
12.0
 30
0.0
 11
62.0
 21
-12.0
 31
0.0
  0
LINE
  5
28
100
AcDbEntity
  8
0
  6
CONTINUOUS
 62
               7
100
AcDbLine
 10
63.0
 20
-12.0
 30
0.0
 11
63.0
 21
11.0
 31
0.0
  0
LINE
  5
29
100
AcDbEntity
  8
0
  6
CONTINUOUS
 62
               7
100
AcDbLine
 10
1.0
 20
12.0
 30
0.0
 11
1.0
 21
-12.0
 31
0.0
  0
LINE
  5
2A
100
AcDbEntity
  8
0
  6
CONTINUOUS
 62
               7
100
AcDbLine
 10
61.5
 20
-30.0
 30
0.0
 11
62.5
 21
-29.0
 31
0.0
  0
LINE
  5
2B
100
AcDbEntity
  8
0
  6
CONTINUOUS
 62
               7
100
AcDbLine
 10
62.5
 20
-12.0
 30
0.0
 11
62.5
 21
-29.0
 31
0.0
  0
LINE
  5
2C
100
AcDbEntity
  8
0
  6
CONTINUOUS
 62
               7
100
AcDbLine
 10
16.399999999999999
 20
10.0
 30
0.0
 11
15.399999999999999
 21
9.0
 31
0.0
  0
LINE
  5
2D
100
AcDbEntity
  8
0
  6
CONTINUOUS
 62
               7
100
AcDbLine
 10
47.590000000000003
 20
9.0
 30
0.0
 11
46.590000000000003
 21
10.0
 31
0.0
  0
LINE
  5
2E
100
AcDbEntity
  8
0
  6
CONTINUOUS
 62
               7
100
AcDbLine
 10
15.399999999999999
 20
9.0
 30
0.0
 11
47.590000000000003
 21
9.0
 31
0.0
  0
LINE
  5
2F
100
AcDbEntity
  8
0
  6
CONTINUOUS
 62
               7
100
AcDbLine
 10
16.399999999999999
 20
10.0
 30
0.0
 11
46.590000000000003
 21
10.0
 31
0.0
  0
LINE
  5
30
100
AcDbEntity
  8
0
  6
CONTINUOUS
 62
               7
100
AcDbLine
 10
62.0
 20
12.0
 30
0.0
 11
1.0
 21
12.0
 31
0.0
  0
LINE
  5
31
100
AcDbEntity
  8
0
  6
CONTINUOUS
 62
               7
100
AcDbLine
 10
4.3699999999999974
 20
-12.0
 30
0.0
 11
5.3699999999999974
 21
-11.0
 31
0.0
  0
LINE
  5
32
100
AcDbEntity
  8
0
  6
CONTINUOUS
 62
               7
100
AcDbLine
 10
0.0
 20
11.0
 30
0.0
 11
63.0
 21
11.0
 31
0.0
  0
LINE
  5
33
100
AcDbEntity
  8
0
  6
CONTINUOUS
 62
               7
100
AcDbLine
 10
0.0
 20
-12.0
 30
0.0
 11
63.0
 21
-12.0
 31
0.0
  0
LINE
  5
34
100
AcDbEntity
  8
0
  6
CONTINUOUS
 62
               7
100
AcDbLine
 10
0.5
 20
-29.0
 30
0.0
 11
62.5
 21
-29.0
 31
0.0
  0
LINE
  5
35
100
AcDbEntity
  8
0
  6
CONTINUOUS
 62
               7
100
AcDbLine
 10
1.5
 20
-30.0
 30
0.0
 11
0.5
 21
-29.0
 31
0.0
  0
LINE
  5
36
100
AcDbEntity
  8
0
  6
CONTINUOUS
 62
               7
100
AcDbLine
 10
0.5
 20
-12.0
 30
0.0
 11
0.5
 21
-29.0
 31
0.0
  0
LINE
  5
37
100
AcDbEntity
  8
0
  6
CONTINUOUS
 62
               7
100
AcDbLine
 10
58.619999999999997
 20
-12.0
 30
0.0
 11
57.619999999999997
 21
-11.0
 31
0.0
  0
LINE
  5
38
100
AcDbEntity
  8
0
  6
CONTINUOUS
 62
               7
100
AcDbLine
 10
58.619999999999997
 20
-12.0
 30
0.0
 11
57.619999999999997
 21
-11.0
 31
0.0
  0
LINE
  5
39
100
AcDbEntity
  8
0
  6
CONTINUOUS
 62
               7
100
AcDbLine
 10
5.3699999999999974
 20
-11.0
 30
0.0
 11
57.619999999999997
 21
-11.0
 31
0.0
  0
LINE
  5
3A
100
AcDbEntity
  8
0
  6
CONTINUOUS
 62
               7
100
AcDbLine
 10
58.0
 20
-7.0
 30
0.0
 11
61.0
 21
-7.0
 31
0.0
  0
LINE
  5
3B
100
AcDbEntity
  8
0
  6
CONTINUOUS
 62
               7
100
AcDbLine
 10
58.0
 20
7.0
 30
0.0
 11
61.0
 21
7.0
 31
0.0
  0
LINE
  5
3C
100
AcDbEntity
  8
0
  6
CONTINUOUS
 62
               7
100
AcDbLine
 10
2.0
 20
-7.0
 30
0.0
 11
5.0
 21
-7.0
 31
0.0
  0
LINE
  5
3D
100
AcDbEntity
  8
0
  6
CONTINUOUS
 62
               7
100
AcDbLine
 10
2.0
 20
7.0
 30
0.0
 11
4.7000000000000028
 21
7.0
 31
0.0
  0
LINE
  5
3E
100
AcDbEntity
  8
0
  6
CONTINUOUS
 62
               7
100
AcDbLine
 10
5.0
 20
-7.0
 30
0.0
 11
5.0
 21
7.0
 31
0.0
  0
LINE
  5
3F
100
AcDbEntity
  8
0
  6
CONTINUOUS
 62
               7
100
AcDbLine
 10
2.0
 20
-7.0
 30
0.0
 11
2.0
 21
7.0
 31
0.0
  0
LINE
  5
40
100
AcDbEntity
  8
0
  6
CONTINUOUS
 62
               7
100
AcDbLine
 10
58.0
 20
-7.0
 30
0.0
 11
58.0
 21
7.0
 31
0.0
  0
LINE
  5
41
100
AcDbEntity
  8
0
  6
CONTINUOUS
 62
               7
100
AcDbLine
 10
1.0
 20
12.0
 30
0.0
 11
0.0
 21
11.0
 31
0.0
  0
LINE
  5
42
100
AcDbEntity
  8
0
  6
CONTINUOUS
 62
               7
100
AcDbLine
 10
0.0
 20
-12.0
 30
0.0
 11
0.0
 21
11.0
 31
0.0
  0
LINE
  5
43
100
AcDbEntity
  8
0
  6
CONTINUOUS
 62
               7
100
AcDbLine
 10
1.5
 20
-30.0
 30
0.0
 11
61.5
 21
-30.0
 31
0.0
  0
LINE
  5
45
100
AcDbEntity
  8
0
  6
CENTER
 62
               2
100
AcDbLine
 10
31.5
 20
-138.91
 30
0.0
 11
31.5
 21
15.870000000000005
 31
0.0
  0
LINE
  5
46
100
AcDbEntity
  8
0
  6
CONTINUOUS
 62
               7
100
AcDbLine
 10
57.030000000000001
 20
-101.86999999999999
 30
0.0
 11
57.659999999999997
 21
-29.999999999999993
 31
0.0
  0
LINE
  5
47
100
AcDbEntity
  8
0
  6
CONTINUOUS
 62
               7
100
AcDbLine
 10
5.4499999999999886
 20
-41.969999999999992
 30
0.0
 11
5.3499999999999943
 21
-29.999999999999993
 31
0.0
  0
LINE
  5
48
100
AcDbEntity
  8
0
  6
CONTINUOUS
 62
               7
100
AcDbLine
 10
2.0999999999999943
 20
-32.409999999999989
 30
0.0
 11
2.5900000000000034
 21
-31.899999999999991
 31
0.0
  0
LINE
  5
49
100
AcDbEntity
  8
0
  6
CONTINUOUS
 62
               7
100
AcDbLine
 10
2.5900000000000034
 20
-31.899999999999991
 30
0.0
 11
2.9199999999999875
 21
-45.939999999999991
 31
0.0
  0
SPLINE
  5
4A
100
AcDbEntity
  8
0
  6
CONTINUOUS
 62
               7
100
AcDbSpline
210
0.0
220
0.0
230
1.0
 70
               0
 71
               3
 72
               0
 73
               0
 74
               9
 44
0.000001
 12
0.3840036972876371
 22
-0.9233315550057979
 32
0.0
 13
-0.3618056786451168
 23
-0.9322535335948835
 33
0.0
 11
5.4499999999999886
 21
-41.969999999999992
 31
0.0
 11
6.1510945701685031
 21
-43.858021355045935
 31
0.0
 11
6.7013764794542334
 21
-45.802060693740643
 31
0.0
 11
7.0859701490128417
 21
-47.787569685565025
 31
0.0
 11
7.289999999999992
 21
-49.79999999999999
 31
0.0
 11
7.2766195616523186
 21
-52.352587555451557
 31
0.0
 11
6.977168509244696
 21
-54.892315602392991
 31
0.0
 11
6.4141332022147273
 21
-57.385885848137924
 31
0.0
 11
5.6100000000000136
 21
-59.79999999999999
 31
0.0
  0
ARC
  5
4B
100
AcDbEntity
  8
0
  6
CONTINUOUS
 62
               7
100
AcDbCircle
 10
3.0672710666199237
 20
-55.640669035310609
 30
0.0
 40
0.2974174741863255
100
AcDbArc
 50
181.7978521253597
 51
217.08221753099235
  0
ARC
  5
4C
100
AcDbEntity
  8
0
  6
CONTINUOUS
 62
               7
100
AcDbCircle
 10
52.015852069994722
 20
-61.295852069994709
 30
0.0
 40
1.00415649709456
100
AcDbArc
 50
270.23667581654814
 51
359.76332418345004
  0
ARC
  5
4D
100
AcDbEntity
  8
0
  6
CONTINUOUS
 62
               7
100
AcDbCircle
 10
50.203040011613481
 20
-60.793040011613485
 30
0.0
 40
1.0069840414076543
100
AcDbArc
 50
270.39601534754814
 51
359.60398465245083
  0
ARC
  5
4E
100
AcDbEntity
  8
0
  6
CONTINUOUS
 62
               7
100
AcDbCircle
 10
52.872298386297587
 20
-35.297701613702408
 30
0.0
 40
0.9977042610733835
100
AcDbArc
 50
359.86800903217784
 51
90.131990967821139
  0
ARC
  5
4F
100
AcDbEntity
  8
0
  6
CONTINUOUS
 62
               7
100
AcDbCircle
 10
52.283374835955655
 20
-35.796625164044343
 30
0.0
 40
0.996630878070792
100
AcDbArc
 50
359.80598210370124
 51
90.194017896298135
  0
ARC
  5
50
100
AcDbEntity
  8
0
  6
CONTINUOUS
 62
               7
100
AcDbCircle
 10
52.024795859469322
 20
-36.295204140530664
 30
0.0
 40
0.9952156960164208
100
AcDbArc
 50
359.72389546171843
 51
90.276104538280578
  0
ARC
  5
51
100
AcDbEntity
  8
0
  6
CONTINUOUS
 62
               7
100
AcDbCircle
 10
50.21195857277101
 20
-36.798041427228966
 30
0.0
 40
0.9980433489947009
100
AcDbArc
 50
359.88756197234392
 51
90.112438027654662
  0
ARC
  5
52
100
AcDbEntity
  8
0
  6
CONTINUOUS
 62
               7
100
AcDbCircle
 10
46.553582285079528
 20
-61.29641771492048
 30
0.0
 40
1.0035886785390702
100
AcDbArc
 50
180.20451630863607
 51
269.79548369136234
  0
ARC
  5
53
100
AcDbEntity
  8
0
  6
CONTINUOUS
 62
               7
100
AcDbCircle
 10
46.553582285079528
 20
-60.79641771492048
 30
0.0
 40
1.0035886785390702
100
AcDbArc
 50
180.20451630863607
 51
269.79548369136234
  0
ARC
  5
54
100
AcDbEntity
  8
0
  6
CONTINUOUS
 62
               7
100
AcDbCircle
 10
46.143595718457675
 20
-35.293595718457652
 30
0.0
 40
0.9936163578360959
100
AcDbArc
 50
89.63070168783473
 51
180.36929831216506
  0
ARC
  5
55
100
AcDbEntity
  8
0
  6
CONTINUOUS
 62
               7
100
AcDbCircle
 10
46.143595718457675
 20
-35.793595718457652
 30
0.0
 40
0.9936163578360959
100
AcDbArc
 50
89.63070168783473
 51
180.36929831216506
  0
ARC
  5
56
100
AcDbEntity
  8
0
  6
CONTINUOUS
 62
               7
100
AcDbCircle
 10
46.544633412310105
 20
-36.294633412310091
 30
0.0
 40
0.994647890032987
100
AcDbArc
 50
89.690861137919356
 51
180.30913886207964
  0
ARC
  5
57
100
AcDbEntity
  8
0
  6
CONTINUOUS
 62
               7
100
AcDbCircle
 10
46.544633412310105
 20
-36.794633412310091
 30
0.0
 40
0.994647890032987
100
AcDbArc
 50
89.690861137919356
 51
180.30913886207964
  0
ARC
  5
58
100
AcDbEntity
  8
0
  6
CONTINUOUS
 62
               7
100
AcDbCircle
 10
52.868381653236654
 20
-94.288381653236641
 30
0.0
 40
1.0016196541697764
100
AcDbArc
 50
270.09257454093103
 51
359.90742545906795
  0
ARC
  5
59
100
AcDbEntity
  8
0
  6
CONTINUOUS
 62
               7
100
AcDbCircle
 10
52.279453892272628
 20
-93.789453892272618
 30
0.0
 40
1.0005462567628007
100
AcDbArc
 50
270.03127258662903
 51
359.96872741336944
  0
ARC
  5
5A
100
AcDbEntity
  8
0
  6
CONTINUOUS
 62
               7
100
AcDbCircle
 10
52.020869350745016
 20
-93.290869350745012
 30
0.0
 40
0.9991310274690672
100
AcDbArc
 50
269.95014654382408
 51
0.0498534561753052
  0
ARC
  5
5B
100
AcDbEntity
  8
0
  6
CONTINUOUS
 62
               7
100
AcDbCircle
 10
52.024803457337271
 20
-67.295196542662708
 30
0.0
 40
0.9952081348794439
100
AcDbArc
 50
359.7234559370653
 51
90.276544062933311
  0
ARC
  5
5C
100
AcDbEntity
  8
0
  6
CONTINUOUS
 62
               7
100
AcDbCircle
 10
50.208043168032631
 20
-92.78804316803263
 30
0.0
 40
1.0019587428219845
100
AcDbArc
 50
270.11189910265574
 51
359.88810089734318
  0
ARC
  5
5D
100
AcDbEntity
  8
0
  6
CONTINUOUS
 62
               7
100
AcDbCircle
 10
50.211966149108534
 20
-67.798033850891443
 30
0.0
 40
0.9980357875685388
100
AcDbArc
 50
359.88712617314582
 51
90.112873826853161
  0
ARC
  5
5E
100
AcDbEntity
  8
0
  6
CONTINUOUS
 62
               7
100
AcDbCircle
 10
46.147528535276308
 20
-94.29247146472369
 30
0.0
 40
0.9975315969072657
100
AcDbArc
 50
179.85804495497251
 51
270.14195504502624
  0
ARC
  5
5F
100
AcDbEntity
  8
0
  6
CONTINUOUS
 62
               7
100
AcDbCircle
 10
46.147528535276308
 20
-93.79247146472369
 30
0.0
 40
0.9975315969072657
100
AcDbArc
 50
179.85804495497251
 51
270.14195504502624
  0
ARC
  5
60
100
AcDbEntity
  8
0
  6
CONTINUOUS
 62
               7
100
AcDbCircle
 10
46.548562158261973
 20
-93.291437841738016
 30
0.0
 40
0.9985631934442989
100
AcDbArc
 50
179.91749917060264
 51
270.08250082939708
  0
ARC
  5
61
100
AcDbEntity
  8
0
  6
CONTINUOUS
 62
               7
100
AcDbCircle
 10
46.548562158261973
 20
-92.791437841738016
 30
0.0
 40
0.9985631934442989
100
AcDbArc
 50
179.91749917060264
 51
270.08250082939708
  0
ARC
  5
62
100
AcDbEntity
  8
0
  6
CONTINUOUS
 62
               7
100
AcDbCircle
 10
46.544625810104407
 20
-67.294625810104407
 30
0.0
 40
0.994640328984747
100
AcDbArc
 50
89.690420860087727
 51
180.30957913991085
  0
ARC
  5
63
100
AcDbEntity
  8
0
  6
CONTINUOUS
 62
               7
100
AcDbCircle
 10
46.544625810104407
 20
-67.794625810104407
 30
0.0
 40
0.994640328984747
100
AcDbArc
 50
89.690420860087727
 51
180.30957913991085
  0
ARC
  5
64
100
AcDbEntity
  8
0
  6
CONTINUOUS
 62
               7
100
AcDbCircle
 10
10.984170708309534
 20
-61.295829291690438
 30
0.0
 40
1.0041793695524235
100
AcDbArc
 50
180.23797010574188
 51
269.7620298942573
  0
ARC
  5
65
100
AcDbEntity
  8
0
  6
CONTINUOUS
 62
               7
100
AcDbCircle
 10
12.801997592991285
 20
-60.798002407008724
 30
0.0
 40
1.0019995842005374
100
AcDbArc
 50
180.11422532025387
 51
269.88577467974466
  0
ARC
  5
66
100
AcDbEntity
  8
0
  6
CONTINUOUS
 62
               7
100
AcDbCircle
 10
10.13270397440229
 20
-35.292703974402293
 30
0.0
 40
0.9927307856532137
100
AcDbArc
 50
89.578903723558881
 51
180.42109627644052
  0
ARC
  5
67
100
AcDbEntity
  8
0
  6
CONTINUOUS
 62
               7
100
AcDbCircle
 10
10.721625216787885
 20
-35.791625216787878
 30
0.0
 40
0.9916605808256565
100
AcDbArc
 50
89.51611927944451
 51
180.48388072055531
  0
ARC
  5
68
100
AcDbEntity
  8
0
  6
CONTINUOUS
 62
               7
100
AcDbCircle
 10
10.975227123476259
 20
-36.295227123476252
 30
0.0
 40
0.9952385682102308
100
AcDbArc
 50
89.725224948142738
 51
180.27477505185706
  0
ARC
  5
69
100
AcDbEntity
  8
0
  6
CONTINUOUS
 62
               7
100
AcDbCircle
 10
12.793034463416802
 20
-36.793034463416774
 30
0.0
 40
0.9930588926309196
100
AcDbArc
 50
89.598111326692589
 51
180.40188867330721
  0
ARC
  5
6A
100
AcDbEntity
  8
0
  6
CONTINUOUS
 62
               7
100
AcDbCircle
 10
16.451447370407777
 20
-61.291447370407752
 30
0.0
 40
1.0085888925277515
100
AcDbArc
 50
270.48586243210701
 51
359.51413756789117
  0
ARC
  5
6B
100
AcDbEntity
  8
0
  6
CONTINUOUS
 62
               7
100
AcDbCircle
 10
16.451447370407777
 20
-60.791447370407752
 30
0.0
 40
1.0085888925277515
100
AcDbArc
 50
270.48586243210701
 51
359.51413756789117
  0
ARC
  5
6C
100
AcDbEntity
  8
0
  6
CONTINUOUS
 62
               7
100
AcDbCircle
 10
16.861394525930876
 20
-35.298605474069134
 30
0.0
 40
0.9986064477778152
100
AcDbArc
 50
359.91998802290169
 51
90.080011977097712
  0
ARC
  5
6D
100
AcDbEntity
  8
0
  6
CONTINUOUS
 62
               7
100
AcDbCircle
 10
16.861394525930876
 20
-35.798605474069134
 30
0.0
 40
0.9986064477778152
100
AcDbArc
 50
359.91998802290169
 51
90.080011977097712
  0
ARC
  5
6E
100
AcDbEntity
  8
0
  6
CONTINUOUS
 62
               7
100
AcDbCircle
 10
16.460351674424004
 20
-36.299648325575987
 30
0.0
 40
0.9996483874352031
100
AcDbArc
 50
359.97984345202997
 51
90.020156547968611
  0
ARC
  5
6F
100
AcDbEntity
  8
0
  6
CONTINUOUS
 62
               7
100
AcDbCircle
 10
16.460351674424004
 20
-36.799648325575987
 30
0.0
 40
0.9996483874352031
100
AcDbArc
 50
359.97984345202997
 51
90.020156547968611
  0
ARC
  5
70
100
AcDbEntity
  8
0
  6
CONTINUOUS
 62
               7
100
AcDbCircle
 10
10.136640292805794
 20
-94.293359707194185
 30
0.0
 40
0.9966459556314296
100
AcDbArc
 50
179.80685477513643
 51
270.19314522486286
  0
ARC
  5
71
100
AcDbEntity
  8
0
  6
CONTINUOUS
 62
               7
100
AcDbCircle
 10
10.725565775204643
 20
-93.794434224795353
 30
0.0
 40
0.9955756501182413
100
AcDbArc
 50
179.74480773394015
 51
270.25519226605826
  0
ARC
  5
72
100
AcDbEntity
  8
0
  6
CONTINUOUS
 62
               7
100
AcDbCircle
 10
10.979153542134185
 20
-93.290846457865797
 30
0.0
 40
0.9991539006830785
100
AcDbArc
 50
179.95146046168134
 51
270.04853953831719
  0
ARC
  5
73
100
AcDbEntity
  8
0
  6
CONTINUOUS
 62
               7
100
AcDbCircle
 10
10.975219525782933
 20
-67.295219525782926
 30
0.0
 40
0.9952310070698958
100
AcDbArc
 50
89.724785453793004
 51
180.2752145462066
  0
ARC
  5
74
100
AcDbEntity
  8
0
  6
CONTINUOUS
 62
               7
100
AcDbCircle
 10
12.796969483743766
 20
-92.793030516256238
 30
0.0
 40
0.9969740897059782
100
AcDbArc
 50
179.82583693957724
 51
270.17416306042168
  0
ARC
  5
75
100
AcDbEntity
  8
0
  6
CONTINUOUS
 62
               7
100
AcDbCircle
 10
12.793026849046157
 20
-67.793026849046129
 30
0.0
 40
0.9930513318860818
100
AcDbArc
 50
89.597668931964861
 51
180.40233106803515
  0
ARC
  5
76
100
AcDbEntity
  8
0
  6
CONTINUOUS
 62
               7
100
AcDbCircle
 10
16.857481325104004
 20
-94.287481325103968
 30
0.0
 40
1.0025218387838297
100
AcDbArc
 50
270.14394658324017
 51
359.85605341675762
  0
ARC
  5
77
100
AcDbEntity
  8
0
  6
CONTINUOUS
 62
               7
100
AcDbCircle
 10
16.857481325104004
 20
-93.787481325103968
 30
0.0
 40
1.0025218387838297
100
AcDbArc
 50
270.14394658324017
 51
359.85605341675762
  0
ARC
  5
78
100
AcDbEntity
  8
0
  6
CONTINUOUS
 62
               7
100
AcDbCircle
 10
16.456442545300547
 20
-93.286442545300531
 30
0.0
 40
1.0035637599907639
100
AcDbArc
 50
270.20310375393154
 51
359.79689624606704
  0
ARC
  5
79
100
AcDbEntity
  8
0
  6
CONTINUOUS
 62
               7
100
AcDbCircle
 10
16.456442545300547
 20
-92.786442545300531
 30
0.0
 40
1.0035637599907639
100
AcDbArc
 50
270.20310375393154
 51
359.79689624606704
  0
ARC
  5
7A
100
AcDbEntity
  8
0
  6
CONTINUOUS
 62
               7
100
AcDbCircle
 10
16.460359238592474
 20
-67.299640761407517
 30
0.0
 40
0.9996408259569036
100
AcDbArc
 50
359.97940974888593
 51
90.020590251113134
  0
ARC
  5
7B
100
AcDbEntity
  8
0
  6
CONTINUOUS
 62
               7
100
AcDbCircle
 10
16.460359238592474
 20
-67.799640761407517
 30
0.0
 40
0.9996408259569036
100
AcDbArc
 50
359.97940974888593
 51
90.020590251113134
  0
ARC
  5
7C
100
AcDbEntity
  8
0
  6
CONTINUOUS
 62
               7
100
AcDbCircle
 10
47.030391275706251
 20
-101.79007185051032
 30
0.0
 40
9.9999281571445611
100
AcDbArc
 50
269.99775813923321
 51
359.54203727057086
  0
ARC
  5
7D
100
AcDbEntity
  8
0
  6
CONTINUOUS
 62
               7
100
AcDbCircle
 10
15.974670180195005
 20
-101.79504988909794
 30
0.0
 40
9.9949512019821256
100
AcDbArc
 50
180.42965345096147
 51
269.97322832107187
  0
LINE
  5
7E
100
AcDbEntity
  8
0
  6
CONTINUOUS
 62
               7
100
AcDbLine
 10
25.0
 20
-129.07999999999998
 30
0.0
 11
38.0
 21
-129.07999999999998
 31
0.0
  0
LINE
  5
7F
100
AcDbEntity
  8
0
  6
CONTINUOUS
 62
               7
100
AcDbLine
 10
28.650000000000006
 20
-131.47999999999999
 30
0.0
 11
28.650000000000006
 21
-129.57999999999998
 31
0.0
  0
LINE
  5
80
100
AcDbEntity
  8
0
  6
CONTINUOUS
 62
               7
100
AcDbLine
 10
34.349999999999994
 20
-131.47999999999999
 30
0.0
 11
34.349999999999994
 21
-129.57999999999998
 31
0.0
  0
LINE
  5
81
100
AcDbEntity
  8
0
  6
CONTINUOUS
 62
               7
100
AcDbLine
 10
34.75
 20
-131.68000000000001
 30
0.0
 11
34.330000000000013
 21
-134.07999999999998
 31
0.0
  0
LINE
  5
82
100
AcDbEntity
  8
0
  6
CONTINUOUS
 62
               7
100
AcDbLine
 10
34.75
 20
-134.28
 30
0.0
 11
34.330000000000013
 21
-136.68000000000001
 31
0.0
  0
LINE
  5
83
100
AcDbEntity
  8
0
  6
CONTINUOUS
 62
               7
100
AcDbLine
 10
28.25
 20
-134.28
 30
0.0
 11
28.680000000000007
 21
-136.68000000000001
 31
0.0
  0
LINE
  5
84
100
AcDbEntity
  8
0
  6
CONTINUOUS
 62
               7
100
AcDbLine
 10
28.25
 20
-131.68000000000001
 30
0.0
 11
28.680000000000007
 21
-134.07999999999998
 31
0.0
  0
LINE
  5
85
100
AcDbEntity
  8
0
  6
CONTINUOUS
 62
               7
100
AcDbLine
 10
34.75
 20
-131.68000000000001
 30
0.0
 11
34.75
 21
-131.47999999999999
 31
0.0
  0
LINE
  5
86
100
AcDbEntity
  8
0
  6
CONTINUOUS
 62
               7
100
AcDbLine
 10
28.25
 20
-131.68000000000001
 30
0.0
 11
28.25
 21
-131.47999999999999
 31
0.0
  0
LINE
  5
87
100
AcDbEntity
  8
0
  6
CONTINUOUS
 62
               7
100
AcDbLine
 10
34.75
 20
-134.28
 30
0.0
 11
28.25
 21
-134.28
 31
0.0
  0
LINE
  5
88
100
AcDbEntity
  8
0
  6
CONTINUOUS
 62
               7
100
AcDbLine
 10
34.75
 20
-131.68000000000001
 30
0.0
 11
28.25
 21
-131.68000000000001
 31
0.0
  0
LINE
  5
89
100
AcDbEntity
  8
0
  6
CONTINUOUS
 62
               7
100
AcDbLine
 10
34.75
 20
-131.47999999999999
 30
0.0
 11
28.25
 21
-131.47999999999999
 31
0.0
  0
LINE
  5
8A
100
AcDbEntity
  8
0
  6
CONTINUOUS
 62
               7
100
AcDbLine
 10
34.75
 20
-134.07999999999998
 30
0.0
 11
28.25
 21
-134.07999999999998
 31
0.0
  0
LINE
  5
8B
100
AcDbEntity
  8
0
  6
CONTINUOUS
 62
               7
100
AcDbLine
 10
34.75
 20
-134.28
 30
0.0
 11
34.75
 21
-134.07999999999998
 31
0.0
  0
LINE
  5
8C
100
AcDbEntity
  8
0
  6
CONTINUOUS
 62
               7
100
AcDbLine
 10
28.25
 20
-134.28
 30
0.0
 11
28.25
 21
-134.07999999999998
 31
0.0
  0
LINE
  5
8D
100
AcDbEntity
  8
0
  6
CONTINUOUS
 62
               7
100
AcDbLine
 10
34.330000000000013
 20
-136.68000000000001
 30
0.0
 11
28.680000000000007
 21
-136.68000000000001
 31
0.0
  0
LINE
  5
8E
100
AcDbEntity
  8
0
  6
CONTINUOUS
 62
               7
100
AcDbLine
 10
37.5
 20
-129.57999999999998
 30
0.0
 11
38.0
 21
-129.07999999999998
 31
0.0
  0
LINE
  5
8F
100
AcDbEntity
  8
0
  6
CONTINUOUS
 62
               7
100
AcDbLine
 10
25.0
 20
-129.07999999999998
 30
0.0
 11
25.5
 21
-129.57999999999998
 31
0.0
  0
LINE
  5
90
100
AcDbEntity
  8
0
  6
CONTINUOUS
 62
               7
100
AcDbLine
 10
25.0
 20
-129.07999999999998
 30
0.0
 11
25.0
 21
-128.07999999999998
 31
0.0
  0
LINE
  5
91
100
AcDbEntity
  8
0
  6
CONTINUOUS
 62
               7
100
AcDbLine
 10
38.0
 20
-129.07999999999998
 30
0.0
 11
38.0
 21
-128.07999999999998
 31
0.0
  0
LINE
  5
92
100
AcDbEntity
  8
0
  6
CONTINUOUS
 62
               7
100
AcDbLine
 10
37.5
 20
-129.57999999999998
 30
0.0
 11
25.5
 21
-129.57999999999998
 31
0.0
  0
LINE
  5
93
100
AcDbEntity
  8
0
  6
CONTINUOUS
 62
               7
100
AcDbLine
 10
39.25
 20
-115.07999999999998
 30
0.0
 11
23.75
 21
-115.07999999999998
 31
0.0
  0
LINE
  5
94
100
AcDbEntity
  8
0
  6
CONTINUOUS
 62
               7
100
AcDbLine
 10
25.240000000000009
 20
-127.57999999999998
 30
0.0
 11
24.490000000000009
 21
-127.57999999999998
 31
0.0
  0
LINE
  5
95
100
AcDbEntity
  8
0
  6
CONTINUOUS
 62
               7
100
AcDbLine
 10
38.52000000000001
 20
-127.57999999999998
 30
0.0
 11
37.759999999999991
 21
-127.57999999999998
 31
0.0
  0
LINE
  5
96
100
AcDbEntity
  8
0
  6
CONTINUOUS
 62
               7
100
AcDbLine
 10
29.659999999999997
 20
-127.57999999999998
 30
0.0
 11
27.849999999999994
 21
-127.57999999999998
 31
0.0
  0
LINE
  5
97
100
AcDbEntity
  8
0
  6
CONTINUOUS
 62
               7
100
AcDbLine
 10
25.069999999999993
 20
-127.07999999999998
 30
0.0
 11
25.240000000000009
 21
-127.57999999999998
 31
0.0
  0
LINE
  5
98
100
AcDbEntity
  8
0
  6
CONTINUOUS
 62
               7
100
AcDbLine
 10
37.939999999999998
 20
-127.07999999999998
 30
0.0
 11
37.759999999999991
 21
-127.57999999999998
 31
0.0
  0
LINE
  5
99
100
AcDbEntity
  8
0
  6
CONTINUOUS
 62
               7
100
AcDbLine
 10
38.52000000000001
 20
-117.86999999999999
 30
0.0
 11
39.110000000000014
 21
-117.57999999999998
 31
0.0
  0
LINE
  5
9A
100
AcDbEntity
  8
0
  6
CONTINUOUS
 62
               7
100
AcDbLine
 10
35.159999999999997
 20
-117.86999999999999
 30
0.0
 11
35.819999999999993
 21
-117.57999999999998
 31
0.0
  0
LINE
  5
9B
100
AcDbEntity
  8
0
  6
CONTINUOUS
 62
               7
100
AcDbLine
 10
33.349999999999994
 20
-117.86999999999999
 30
0.0
 11
33.0
 21
-117.57999999999998
 31
0.0
  0
LINE
  5
9C
100
AcDbEntity
  8
0
  6
CONTINUOUS
 62
               7
100
AcDbLine
 10
29.659999999999997
 20
-117.86999999999999
 30
0.0
 11
30.0
 21
-117.57999999999998
 31
0.0
  0
LINE
  5
9D
100
AcDbEntity
  8
0
  6
CONTINUOUS
 62
               7
100
AcDbLine
 10
27.849999999999994
 20
-117.86999999999999
 30
0.0
 11
27.189999999999998
 21
-117.57999999999998
 31
0.0
  0
LINE
  5
9E
100
AcDbEntity
  8
0
  6
CONTINUOUS
 62
               7
100
AcDbLine
 10
24.490000000000009
 20
-117.86999999999999
 30
0.0
 11
23.900000000000006
 21
-117.57999999999998
 31
0.0
  0
LINE
  5
9F
100
AcDbEntity
  8
0
  6
CONTINUOUS
 62
               7
100
AcDbLine
 10
24.490000000000009
 20
-127.57999999999998
 30
0.0
 11
23.900000000000006
 21
-127.07999999999998
 31
0.0
  0
LINE
  5
A0
100
AcDbEntity
  8
0
  6
CONTINUOUS
 62
               7
100
AcDbLine
 10
27.849999999999994
 20
-127.57999999999998
 30
0.0
 11
27.189999999999998
 21
-127.07999999999998
 31
0.0
  0
LINE
  5
A1
100
AcDbEntity
  8
0
  6
CONTINUOUS
 62
               7
100
AcDbLine
 10
30.0
 20
-127.07999999999998
 30
0.0
 11
29.659999999999997
 21
-127.57999999999998
 31
0.0
  0
LINE
  5
A2
100
AcDbEntity
  8
0
  6
CONTINUOUS
 62
               7
100
AcDbLine
 10
33.349999999999994
 20
-127.57999999999998
 30
0.0
 11
33.0
 21
-127.07999999999998
 31
0.0
  0
LINE
  5
A3
100
AcDbEntity
  8
0
  6
CONTINUOUS
 62
               7
100
AcDbLine
 10
35.159999999999997
 20
-127.57999999999998
 30
0.0
 11
35.819999999999993
 21
-127.07999999999998
 31
0.0
  0
LINE
  5
A4
100
AcDbEntity
  8
0
  6
CONTINUOUS
 62
               7
100
AcDbLine
 10
38.52000000000001
 20
-127.57999999999998
 30
0.0
 11
39.110000000000014
 21
-127.07999999999998
 31
0.0
  0
LINE
  5
A5
100
AcDbEntity
  8
0
  6
CONTINUOUS
 62
               7
100
AcDbLine
 10
35.159999999999997
 20
-127.57999999999998
 30
0.0
 11
33.349999999999994
 21
-127.57999999999998
 31
0.0
  0
LINE
  5
A6
100
AcDbEntity
  8
0
  6
CONTINUOUS
 62
               7
100
AcDbLine
 10
37.939999999999998
 20
-127.07999999999998
 30
0.0
 11
35.819999999999993
 21
-127.07999999999998
 31
0.0
  0
LINE
  5
A7
100
AcDbEntity
  8
0
  6
CONTINUOUS
 62
               7
100
AcDbLine
 10
23.900000000000006
 20
-127.07999999999998
 30
0.0
 11
23.75
 21
-127.07999999999998
 31
0.0
  0
LINE
  5
A8
100
AcDbEntity
  8
0
  6
CONTINUOUS
 62
               7
100
AcDbLine
 10
27.189999999999998
 20
-127.07999999999998
 30
0.0
 11
25.069999999999993
 21
-127.07999999999998
 31
0.0
  0
LINE
  5
A9
100
AcDbEntity
  8
0
  6
CONTINUOUS
 62
               7
100
AcDbLine
 10
33.0
 20
-127.07999999999998
 30
0.0
 11
30.0
 21
-127.07999999999998
 31
0.0
  0
LINE
  5
AA
100
AcDbEntity
  8
0
  6
CONTINUOUS
 62
               7
100
AcDbLine
 10
25.069999999999993
 20
-117.86999999999999
 30
0.0
 11
24.490000000000009
 21
-117.86999999999999
 31
0.0
  0
LINE
  5
AB
100
AcDbEntity
  8
0
  6
CONTINUOUS
 62
               7
100
AcDbLine
 10
25.069999999999993
 20
-117.57999999999998
 30
0.0
 11
23.900000000000006
 21
-117.57999999999998
 31
0.0
  0
LINE
  5
AC
100
AcDbEntity
  8
0
  6
CONTINUOUS
 62
               7
100
AcDbLine
 10
35.159999999999997
 20
-117.86999999999999
 30
0.0
 11
33.349999999999994
 21
-117.86999999999999
 31
0.0
  0
LINE
  5
AD
100
AcDbEntity
  8
0
  6
CONTINUOUS
 62
               7
100
AcDbLine
 10
35.819999999999993
 20
-117.57999999999998
 30
0.0
 11
33.0
 21
-117.57999999999998
 31
0.0
  0
LINE
  5
AE
100
AcDbEntity
  8
0
  6
CONTINUOUS
 62
               7
100
AcDbLine
 10
29.659999999999997
 20
-117.86999999999999
 30
0.0
 11
27.849999999999994
 21
-117.86999999999999
 31
0.0
  0
LINE
  5
AF
100
AcDbEntity
  8
0
  6
CONTINUOUS
 62
               7
100
AcDbLine
 10
30.0
 20
-117.57999999999998
 30
0.0
 11
27.189999999999998
 21
-117.57999999999998
 31
0.0
  0
LINE
  5
B0
100
AcDbEntity
  8
0
  6
CONTINUOUS
 62
               7
100
AcDbLine
 10
39.25
 20
-127.07999999999998
 30
0.0
 11
39.110000000000014
 21
-127.07999999999998
 31
0.0
  0
LINE
  5
B1
100
AcDbEntity
  8
0
  6
CONTINUOUS
 62
               7
100
AcDbLine
 10
38.52000000000001
 20
-117.86999999999999
 30
0.0
 11
37.939999999999998
 21
-117.86999999999999
 31
0.0
  0
LINE
  5
B2
100
AcDbEntity
  8
0
  6
CONTINUOUS
 62
               7
100
AcDbLine
 10
39.110000000000014
 20
-117.57999999999998
 30
0.0
 11
37.939999999999998
 21
-117.57999999999998
 31
0.0
  0
LINE
  5
B3
100
AcDbEntity
  8
0
  6
CONTINUOUS
 62
               7
100
AcDbLine
 10
39.110000000000014
 20
-117.57999999999998
 30
0.0
 11
39.110000000000014
 21
-127.07999999999998
 31
0.0
  0
LINE
  5
B4
100
AcDbEntity
  8
0
  6
CONTINUOUS
 62
               7
100
AcDbLine
 10
38.52000000000001
 20
-117.86999999999999
 30
0.0
 11
38.52000000000001
 21
-127.57999999999998
 31
0.0
  0
LINE
  5
B5
100
AcDbEntity
  8
0
  6
CONTINUOUS
 62
               7
100
AcDbLine
 10
37.939999999999998
 20
-117.57999999999998
 30
0.0
 11
37.939999999999998
 21
-127.07999999999998
 31
0.0
  0
LINE
  5
B6
100
AcDbEntity
  8
0
  6
CONTINUOUS
 62
               7
100
AcDbLine
 10
35.819999999999993
 20
-117.57999999999998
 30
0.0
 11
35.819999999999993
 21
-127.07999999999998
 31
0.0
  0
LINE
  5
B7
100
AcDbEntity
  8
0
  6
CONTINUOUS
 62
               7
100
AcDbLine
 10
35.159999999999997
 20
-117.86999999999999
 30
0.0
 11
35.159999999999997
 21
-127.57999999999998
 31
0.0
  0
LINE
  5
B8
100
AcDbEntity
  8
0
  6
CONTINUOUS
 62
               7
100
AcDbLine
 10
23.900000000000006
 20
-117.57999999999998
 30
0.0
 11
23.900000000000006
 21
-127.07999999999998
 31
0.0
  0
LINE
  5
B9
100
AcDbEntity
  8
0
  6
CONTINUOUS
 62
               7
100
AcDbLine
 10
24.490000000000009
 20
-117.86999999999999
 30
0.0
 11
24.490000000000009
 21
-127.57999999999998
 31
0.0
  0
LINE
  5
BA
100
AcDbEntity
  8
0
  6
CONTINUOUS
 62
               7
100
AcDbLine
 10
25.069999999999993
 20
-117.57999999999998
 30
0.0
 11
25.069999999999993
 21
-127.07999999999998
 31
0.0
  0
LINE
  5
BB
100
AcDbEntity
  8
0
  6
CONTINUOUS
 62
               7
100
AcDbLine
 10
27.189999999999998
 20
-117.57999999999998
 30
0.0
 11
27.189999999999998
 21
-127.07999999999998
 31
0.0
  0
LINE
  5
BC
100
AcDbEntity
  8
0
  6
CONTINUOUS
 62
               7
100
AcDbLine
 10
27.849999999999994
 20
-117.86999999999999
 30
0.0
 11
27.849999999999994
 21
-127.57999999999998
 31
0.0
  0
LINE
  5
BD
100
AcDbEntity
  8
0
  6
CONTINUOUS
 62
               7
100
AcDbLine
 10
29.659999999999997
 20
-117.86999999999999
 30
0.0
 11
29.659999999999997
 21
-127.57999999999998
 31
0.0
  0
LINE
  5
BE
100
AcDbEntity
  8
0
  6
CONTINUOUS
 62
               7
100
AcDbLine
 10
33.349999999999994
 20
-117.86999999999999
 30
0.0
 11
33.349999999999994
 21
-127.57999999999998
 31
0.0
  0
LINE
  5
BF
100
AcDbEntity
  8
0
  6
CONTINUOUS
 62
               7
100
AcDbLine
 10
33.0
 20
-117.57999999999998
 30
0.0
 11
33.0
 21
-127.07999999999998
 31
0.0
  0
LINE
  5
C0
100
AcDbEntity
  8
0
  6
CONTINUOUS
 62
               7
100
AcDbLine
 10
30.0
 20
-117.57999999999998
 30
0.0
 11
30.0
 21
-127.07999999999998
 31
0.0
  0
LINE
  5
C1
100
AcDbEntity
  8
0
  6
CONTINUOUS
 62
               2
100
AcDbLine
 10
36.75
 20
-113.28999999999999
 30
0.0
 11
36.75
 21
-114.57999999999998
 31
0.0
  0
LINE
  5
C2
100
AcDbEntity
  8
0
  6
CONTINUOUS
 62
               2
100
AcDbLine
 10
26.25
 20
-113.28999999999999
 30
0.0
 11
26.25
 21
-114.57999999999998
 31
0.0
  0
LINE
  5
C3
100
AcDbEntity
  8
0
  6
CONTINUOUS
 62
               7
100
AcDbLine
 10
25.5
 20
-113.28999999999999
 30
0.0
 11
25.5
 21
-114.57999999999998
 31
0.0
  0
LINE
  5
C4
100
AcDbEntity
  8
0
  6
CONTINUOUS
 62
               7
100
AcDbLine
 10
37.5
 20
-113.28999999999999
 30
0.0
 11
37.5
 21
-114.57999999999998
 31
0.0
  0
LINE
  5
C5
100
AcDbEntity
  8
0
  6
CONTINUOUS
 62
               7
100
AcDbLine
 10
24.25
 20
-114.57999999999998
 30
0.0
 11
23.75
 21
-115.07999999999998
 31
0.0
  0
LINE
  5
C6
100
AcDbEntity
  8
0
  6
CONTINUOUS
 62
               7
100
AcDbLine
 10
38.75
 20
-114.57999999999998
 30
0.0
 11
39.25
 21
-115.07999999999998
 31
0.0
  0
LINE
  5
C7
100
AcDbEntity
  8
0
  6
CONTINUOUS
 62
               7
100
AcDbLine
 10
38.75
 20
-114.57999999999998
 30
0.0
 11
24.25
 21
-114.57999999999998
 31
0.0
  0
LINE
  5
C8
100
AcDbEntity
  8
0
  6
CONTINUOUS
 62
               7
100
AcDbLine
 10
24.75
 20
-128.07999999999998
 30
0.0
 11
23.75
 21
-127.07999999999998
 31
0.0
  0
LINE
  5
C9
100
AcDbEntity
  8
0
  6
CONTINUOUS
 62
               7
100
AcDbLine
 10
39.25
 20
-127.07999999999998
 30
0.0
 11
38.25
 21
-128.07999999999998
 31
0.0
  0
LINE
  5
CA
100
AcDbEntity
  8
0
  6
CONTINUOUS
 62
               7
100
AcDbLine
 10
23.75
 20
-115.07999999999998
 30
0.0
 11
23.75
 21
-127.07999999999998
 31
0.0
  0
LINE
  5
CB
100
AcDbEntity
  8
0
  6
CONTINUOUS
 62
               7
100
AcDbLine
 10
39.25
 20
-115.07999999999998
 30
0.0
 11
39.25
 21
-127.07999999999998
 31
0.0
  0
LINE
  5
CC
100
AcDbEntity
  8
0
  6
CONTINUOUS
 62
               7
100
AcDbLine
 10
38.25
 20
-128.07999999999998
 30
0.0
 11
24.75
 21
-128.07999999999998
 31
0.0
  0
LINE
  5
CD
100
AcDbEntity
  8
0
  6
CONTINUOUS
 62
               7
100
AcDbLine
 10
23.930000000000007
 20
-113.28999999999999
 30
0.0
 11
23.430000000000007
 21
-112.78999999999999
 31
0.0
  0
LINE
  5
CE
100
AcDbEntity
  8
0
  6
CONTINUOUS
 62
               7
100
AcDbLine
 10
39.080000000000013
 20
-113.28999999999999
 30
0.0
 11
39.580000000000013
 21
-112.78999999999999
 31
0.0
  0
LINE
  5
CF
100
AcDbEntity
  8
0
  6
CONTINUOUS
 62
               7
100
AcDbLine
 10
39.580000000000013
 20
-112.78999999999999
 30
0.0
 11
39.580000000000013
 21
-111.78999999999999
 31
0.0
  0
LINE
  5
D0
100
AcDbEntity
  8
0
  6
CONTINUOUS
 62
               7
100
AcDbLine
 10
23.430000000000007
 20
-112.78999999999999
 30
0.0
 11
23.430000000000007
 21
-111.78999999999999
 31
0.0
  0
LINE
  5
D1
100
AcDbEntity
  8
0
  6
CONTINUOUS
 62
               7
100
AcDbLine
 10
23.930000000000007
 20
-113.28999999999999
 30
0.0
 11
39.080000000000013
 21
-113.28999999999999
 31
0.0
  0
LINE
  5
D2
100
AcDbEntity
  8
0
  6
CONTINUOUS
 62
               7
100
AcDbLine
 10
23.430000000000007
 20
-112.78999999999999
 30
0.0
 11
39.580000000000013
 21
-112.78999999999999
 31
0.0
  0
LINE
  5
D3
100
AcDbEntity
  8
0
  6
CONTINUOUS
 62
               7
100
AcDbLine
 10
2.6100000000000136
 20
-54.409999999999989
 30
0.0
 11
2.7599999999999909
 21
-54.54999999999999
 31
0.0
  0
LINE
  5
D4
100
AcDbEntity
  8
0
  6
CONTINUOUS
 62
               7
100
AcDbLine
 10
2.0999999999999943
 20
-32.409999999999989
 30
0.0
 11
2.6100000000000136
 21
-54.409999999999989
 31
0.0
  0
LINE
  5
D5
100
AcDbEntity
  8
0
  6
CONTINUOUS
 62
               7
100
AcDbLine
 10
2.6899999999999977
 20
-46.29999999999999
 30
0.0
 11
5.4499999999999886
 21
-41.969999999999992
 31
0.0
  0
LINE
  5
D6
100
AcDbEntity
  8
0
  6
CONTINUOUS
 62
               7
100
AcDbLine
 10
5.6100000000000136
 20
-59.79999999999999
 30
0.0
 11
2.8300000000000125
 21
-55.819999999999993
 31
0.0
  0
LINE
  5
D7
100
AcDbEntity
  8
0
  6
CONTINUOUS
 62
               7
100
AcDbLine
 10
2.7700000000000102
 20
-55.679999999999993
 30
0.0
 11
2.6899999999999977
 21
-46.29999999999999
 31
0.0
  0
LINE
  5
D8
100
AcDbEntity
  8
0
  6
CONTINUOUS
 62
               7
100
AcDbLine
 10
52.870000000000005
 20
-34.29999999999999
 30
0.0
 11
46.150000000000006
 21
-34.29999999999999
 31
0.0
  0
LINE
  5
D9
100
AcDbEntity
  8
0
  6
CONTINUOUS
 62
               7
100
AcDbLine
 10
52.870000000000005
 20
-95.289999999999992
 30
0.0
 11
46.150000000000006
 21
-95.289999999999992
 31
0.0
  0
LINE
  5
DA
100
AcDbEntity
  8
0
  6
CONTINUOUS
 62
               7
100
AcDbLine
 10
52.280000000000001
 20
-34.79999999999999
 30
0.0
 11
46.150000000000006
 21
-34.79999999999999
 31
0.0
  0
LINE
  5
DB
100
AcDbEntity
  8
0
  6
CONTINUOUS
 62
               7
100
AcDbLine
 10
53.870000000000005
 20
-35.29999999999999
 30
0.0
 11
53.870000000000005
 21
-94.289999999999992
 31
0.0
  0
LINE
  5
DC
100
AcDbEntity
  8
0
  6
CONTINUOUS
 62
               7
100
AcDbLine
 10
53.019999999999996
 20
-36.29999999999999
 30
0.0
 11
53.019999999999996
 21
-61.29999999999999
 31
0.0
  0
LINE
  5
DD
100
AcDbEntity
  8
0
  6
CONTINUOUS
 62
               7
100
AcDbLine
 10
51.209999999999994
 20
-36.79999999999999
 30
0.0
 11
51.209999999999994
 21
-60.79999999999999
 31
0.0
  0
LINE
  5
DE
100
AcDbEntity
  8
0
  6
CONTINUOUS
 62
               7
100
AcDbLine
 10
45.550000000000011
 20
-36.29999999999999
 30
0.0
 11
45.550000000000011
 21
-61.29999999999999
 31
0.0
  0
LINE
  5
DF
100
AcDbEntity
  8
0
  6
CONTINUOUS
 62
               7
100
AcDbLine
 10
45.150000000000006
 20
-35.29999999999999
 30
0.0
 11
45.150000000000006
 21
-94.289999999999992
 31
0.0
  0
LINE
  5
E0
100
AcDbEntity
  8
0
  6
CONTINUOUS
 62
               7
100
AcDbLine
 10
52.280000000000001
 20
-94.789999999999992
 30
0.0
 11
46.150000000000006
 21
-94.789999999999992
 31
0.0
  0
LINE
  5
E1
100
AcDbEntity
  8
0
  6
CONTINUOUS
 62
               7
100
AcDbLine
 10
53.280000000000001
 20
-35.79999999999999
 30
0.0
 11
53.280000000000001
 21
-93.789999999999992
 31
0.0
  0
LINE
  5
E2
100
AcDbEntity
  8
0
  6
CONTINUOUS
 62
               7
100
AcDbLine
 10
53.019999999999996
 20
-67.299999999999983
 30
0.0
 11
53.019999999999996
 21
-93.289999999999992
 31
0.0
  0
LINE
  5
E3
100
AcDbEntity
  8
0
  6
CONTINUOUS
 62
               7
100
AcDbLine
 10
51.209999999999994
 20
-67.799999999999983
 30
0.0
 11
51.209999999999994
 21
-92.789999999999992
 31
0.0
  0
LINE
  5
E4
100
AcDbEntity
  8
0
  6
CONTINUOUS
 62
               7
100
AcDbLine
 10
45.550000000000011
 20
-67.299999999999983
 30
0.0
 11
45.550000000000011
 21
-93.289999999999992
 31
0.0
  0
LINE
  5
E5
100
AcDbEntity
  8
0
  6
CONTINUOUS
 62
               7
100
AcDbLine
 10
52.019999999999996
 20
-94.289999999999992
 30
0.0
 11
46.550000000000011
 21
-94.289999999999992
 31
0.0
  0
LINE
  5
E6
100
AcDbEntity
  8
0
  6
CONTINUOUS
 62
               7
100
AcDbLine
 10
52.019999999999996
 20
-66.299999999999983
 30
0.0
 11
46.550000000000011
 21
-66.299999999999983
 31
0.0
  0
LINE
  5
E7
100
AcDbEntity
  8
0
  6
CONTINUOUS
 62
               7
100
AcDbLine
 10
52.019999999999996
 20
-62.29999999999999
 30
0.0
 11
46.550000000000011
 21
-62.29999999999999
 31
0.0
  0
LINE
  5
E8
100
AcDbEntity
  8
0
  6
CONTINUOUS
 62
               7
100
AcDbLine
 10
52.019999999999996
 20
-35.29999999999999
 30
0.0
 11
46.550000000000011
 21
-35.29999999999999
 31
0.0
  0
LINE
  5
E9
100
AcDbEntity
  8
0
  6
CONTINUOUS
 62
               7
100
AcDbLine
 10
50.209999999999994
 20
-93.789999999999992
 30
0.0
 11
46.550000000000011
 21
-93.789999999999992
 31
0.0
  0
LINE
  5
EA
100
AcDbEntity
  8
0
  6
CONTINUOUS
 62
               7
100
AcDbLine
 10
50.209999999999994
 20
-35.79999999999999
 30
0.0
 11
46.550000000000011
 21
-35.79999999999999
 31
0.0
  0
LINE
  5
EB
100
AcDbEntity
  8
0
  6
CONTINUOUS
 62
               7
100
AcDbLine
 10
50.209999999999994
 20
-61.79999999999999
 30
0.0
 11
46.550000000000011
 21
-61.79999999999999
 31
0.0
  0
LINE
  5
EC
100
AcDbEntity
  8
0
  6
CONTINUOUS
 62
               7
100
AcDbLine
 10
50.209999999999994
 20
-66.799999999999983
 30
0.0
 11
46.550000000000011
 21
-66.799999999999983
 31
0.0
  0
LINE
  5
ED
100
AcDbEntity
  8
0
  6
CONTINUOUS
 62
               7
100
AcDbLine
 10
10.139999999999986
 20
-34.29999999999999
 30
0.0
 11
16.860000000000014
 21
-34.29999999999999
 31
0.0
  0
LINE
  5
EE
100
AcDbEntity
  8
0
  6
CONTINUOUS
 62
               7
100
AcDbLine
 10
10.139999999999986
 20
-95.289999999999992
 30
0.0
 11
16.860000000000014
 21
-95.289999999999992
 31
0.0
  0
LINE
  5
EF
100
AcDbEntity
  8
0
  6
CONTINUOUS
 62
               7
100
AcDbLine
 10
10.72999999999999
 20
-34.79999999999999
 30
0.0
 11
16.860000000000014
 21
-34.79999999999999
 31
0.0
  0
LINE
  5
F0
100
AcDbEntity
  8
0
  6
CONTINUOUS
 62
               7
100
AcDbLine
 10
9.1399999999999864
 20
-35.29999999999999
 30
0.0
 11
9.1399999999999864
 21
-94.289999999999992
 31
0.0
  0
LINE
  5
F1
100
AcDbEntity
  8
0
  6
CONTINUOUS
 62
               7
100
AcDbLine
 10
9.9799999999999898
 20
-36.29999999999999
 30
0.0
 11
9.9799999999999898
 21
-61.29999999999999
 31
0.0
  0
LINE
  5
F2
100
AcDbEntity
  8
0
  6
CONTINUOUS
 62
               7
100
AcDbLine
 10
11.800000000000011
 20
-36.79999999999999
 30
0.0
 11
11.800000000000011
 21
-60.79999999999999
 31
0.0
  0
LINE
  5
F3
100
AcDbEntity
  8
0
  6
CONTINUOUS
 62
               7
100
AcDbLine
 10
17.460000000000008
 20
-36.29999999999999
 30
0.0
 11
17.460000000000008
 21
-61.29999999999999
 31
0.0
  0
LINE
  5
F4
100
AcDbEntity
  8
0
  6
CONTINUOUS
 62
               7
100
AcDbLine
 10
17.860000000000014
 20
-35.29999999999999
 30
0.0
 11
17.860000000000014
 21
-94.289999999999992
 31
0.0
  0
LINE
  5
F5
100
AcDbEntity
  8
0
  6
CONTINUOUS
 62
               7
100
AcDbLine
 10
10.72999999999999
 20
-94.789999999999992
 30
0.0
 11
16.860000000000014
 21
-94.789999999999992
 31
0.0
  0
LINE
  5
F6
100
AcDbEntity
  8
0
  6
CONTINUOUS
 62
               7
100
AcDbLine
 10
9.7299999999999898
 20
-35.79999999999999
 30
0.0
 11
9.7299999999999898
 21
-93.789999999999992
 31
0.0
  0
LINE
  5
F7
100
AcDbEntity
  8
0
  6
CONTINUOUS
 62
               7
100
AcDbLine
 10
9.9799999999999898
 20
-67.299999999999983
 30
0.0
 11
9.9799999999999898
 21
-93.289999999999992
 31
0.0
  0
LINE
  5
F8
100
AcDbEntity
  8
0
  6
CONTINUOUS
 62
               7
100
AcDbLine
 10
11.800000000000011
 20
-67.799999999999983
 30
0.0
 11
11.800000000000011
 21
-92.789999999999992
 31
0.0
  0
LINE
  5
F9
100
AcDbEntity
  8
0
  6
CONTINUOUS
 62
               7
100
AcDbLine
 10
17.460000000000008
 20
-67.299999999999983
 30
0.0
 11
17.460000000000008
 21
-93.289999999999992
 31
0.0
  0
LINE
  5
FA
100
AcDbEntity
  8
0
  6
CONTINUOUS
 62
               7
100
AcDbLine
 10
10.97999999999999
 20
-94.289999999999992
 30
0.0
 11
16.460000000000008
 21
-94.289999999999992
 31
0.0
  0
LINE
  5
FB
100
AcDbEntity
  8
0
  6
CONTINUOUS
 62
               7
100
AcDbLine
 10
10.97999999999999
 20
-66.299999999999983
 30
0.0
 11
16.460000000000008
 21
-66.299999999999983
 31
0.0
  0
LINE
  5
FC
100
AcDbEntity
  8
0
  6
CONTINUOUS
 62
               7
100
AcDbLine
 10
10.97999999999999
 20
-62.29999999999999
 30
0.0
 11
16.460000000000008
 21
-62.29999999999999
 31
0.0
  0
LINE
  5
FD
100
AcDbEntity
  8
0
  6
CONTINUOUS
 62
               7
100
AcDbLine
 10
10.97999999999999
 20
-35.29999999999999
 30
0.0
 11
16.460000000000008
 21
-35.29999999999999
 31
0.0
  0
LINE
  5
FE
100
AcDbEntity
  8
0
  6
CONTINUOUS
 62
               7
100
AcDbLine
 10
5.9799999999999898
 20
-101.86999999999999
 30
0.0
 11
5.6100000000000136
 21
-59.79999999999999
 31
0.0
  0
LINE
  5
FF
100
AcDbEntity
  8
0
  6
CONTINUOUS
 62
               7
100
AcDbLine
 10
12.800000000000011
 20
-93.789999999999992
 30
0.0
 11
16.460000000000008
 21
-93.789999999999992
 31
0.0
  0
LINE
  5
100
100
AcDbEntity
  8
0
  6
CONTINUOUS
 62
               7
100
AcDbLine
 10
12.800000000000011
 20
-35.79999999999999
 30
0.0
 11
16.460000000000008
 21
-35.79999999999999
 31
0.0
  0
LINE
  5
101
100
AcDbEntity
  8
0
  6
CONTINUOUS
 62
               7
100
AcDbLine
 10
12.800000000000011
 20
-61.79999999999999
 30
0.0
 11
16.460000000000008
 21
-61.79999999999999
 31
0.0
  0
LINE
  5
102
100
AcDbEntity
  8
0
  6
CONTINUOUS
 62
               7
100
AcDbLine
 10
12.800000000000011
 20
-66.799999999999983
 30
0.0
 11
16.460000000000008
 21
-66.799999999999983
 31
0.0
  0
LINE
  5
103
100
AcDbEntity
  8
0
  6
CONTINUOUS
 62
               7
100
AcDbLine
 10
47.030000000000001
 20
-111.78999999999999
 30
0.0
 11
15.969999999999999
 21
-111.78999999999999
 31
0.0
  0
LINE
  5
104
100
AcDbEntity
  8
0
  6
CONTINUOUS
 62
               7
100
AcDbLine
 10
3.039999999999992
 20
-29.999999999999993
 30
0.0
 11
3.0900000000000034
 21
-31.889999999999993
 31
0.0
  0
LINE
  5
105
100
AcDbEntity
  8
0
  6
CONTINUOUS
 62
               7
100
AcDbLine
 10
3.6200000000000045
 20
-29.999999999999993
 30
0.0
 11
3.6599999999999966
 21
-31.86999999999999
 31
0.0
  0
LINE
  5
106
100
AcDbEntity
  8
0
  6
CONTINUOUS
 62
               7
100
AcDbLine
 10
2.5900000000000034
 20
-31.899999999999991
 30
0.0
 11
3.6599999999999966
 21
-31.86999999999999
 31
0.0
  0
LINE
  5
107
100
AcDbEntity
  8
0
  6
CENTER
 62
               2
100
AcDbLine
 10
73.1645423197171
 20
0.0
 30
0.0
 11
-12.655311718917716
 21
0.0
 31
0.0
  0
ENDBLK
  5
108
100
AcDbEntity
  8
0
100
AcDbBlockEnd
  0
BLOCK
  5
109
100
AcDbEntity
  8
0
100
AcDbBlockBegin
  2
MS_2
 70
               0
 10
0.0
 20
0.0
 30
0.0
  3
MS_2
  1

  0
CIRCLE
  5
10A
100
AcDbEntity
  8
0
  6
CONTINUOUS
 62
               2
100
AcDbCircle
 10
-0.000030517578125
 20
0.00006103515625
 30
0.0
 40
8.3310003280639648
  0
CIRCLE
  5
10B
100
AcDbEntity
  8
0
  6
CONTINUOUS
 62
               7
100
AcDbCircle
 10
-0.000030517578125
 20
0.00006103515625
 30
0.0
 40
7.4749994277954102
  0
ARC
  5
10C
100
AcDbEntity
  8
0
  6
CONTINUOUS
 62
               7
100
AcDbCircle
 10
15.499984741443768
 20
10.499984741443768
 30
0.0
 40
0.4999847416765988
100
AcDbArc
 50
179.99825144489222
 51
270.00174855510676
  0
ARC
  5
10D
100
AcDbEntity
  8
0
  6
CONTINUOUS
 62
               7
100
AcDbCircle
 10
23.330869214589427
 20
-9.9990715004147255
 30
0.0
 40
1.0009288770017717
100
AcDbArc
 50
180.6255882495262
 51
269.95024388358695
  0
ARC
  5
10E
100
AcDbEntity
  8
0
  6
CONTINUOUS
 62
               7
100
AcDbCircle
 10
-23.330865403617352
 20
-9.9990753498814566
 30
0.0
 40
1.0009250242342573
100
AcDbArc
 50
270.04953815703124
 51
359.37462970985314
  0
CIRCLE
  5
10F
100
AcDbEntity
  8
0
  6
CONTINUOUS
 62
               7
100
AcDbCircle
 10
-0.000030517578125
 20
0.00006103515625
 30
0.0
 40
10.25
  0
ARC
  5
110
100
AcDbEntity
  8
0
  6
CONTINUOUS
 62
               7
100
AcDbCircle
 10
16.000017167274564
 20
-9.9999828327254363
 30
0.0
 40
1.0000171674219187
100
AcDbArc
 50
180.00098359549207
 51
269.9990164045069
  0
ARC
  5
111
100
AcDbEntity
  8
0
  6
CONTINUOUS
 62
               7
100
AcDbCircle
 10
-16.000043869107685
 20
-9.9999561308923148
 30
0.0
 40
1.0000438700698924
100
AcDbArc
 50
270.00251340445828
 51
359.99748659554024
  0
ARC
  5
112
100
AcDbEntity
  8
0
  6
CONTINUOUS
 62
               7
100
AcDbCircle
 10
-15.499984741443768
 20
10.499984741443768
 30
0.0
 40
0.4999847416765988
100
AcDbArc
 50
269.99825144489193
 51
0.0017485551073899
  0
LINE
  5
113
100
AcDbEntity
  8
0
  6
CONTINUOUS
 62
               7
100
AcDbLine
 10
22.0
 20
9.0
 30
0.0
 11
22.329999999999984
 21
-10.01
 31
0.0
  0
LINE
  5
114
100
AcDbEntity
  8
0
  6
CONTINUOUS
 62
               7
100
AcDbLine
 10
-22.0
 20
9.0
 30
0.0
 11
-22.329999999999998
 21
-10.01
 31
0.0
  0
LINE
  5
115
100
AcDbEntity
  8
0
  6
CENTER
 62
               2
100
AcDbLine
 10
-26.236559112519807
 20
0.0
 30
0.0
 11
25.961830744849451
 21
0.0
 31
0.0
  0
LINE
  5
116
100
AcDbEntity
  8
0
  6
CONTINUOUS
 62
               7
100
AcDbLine
 10
21.0
 20
10.0
 30
0.0
 11
22.0
 21
9.0
 31
0.0
  0
LINE
  5
117
100
AcDbEntity
  8
0
  6
CONTINUOUS
 62
               7
100
AcDbLine
 10
-22.0
 20
9.0
 30
0.0
 11
-21.0
 21
10.0
 31
0.0
  0
LINE
  5
118
100
AcDbEntity
  8
0
  6
CONTINUOUS
 62
               7
100
AcDbLine
 10
15.0
 20
9.0
 30
0.0
 11
22.0
 21
9.0
 31
0.0
  0
LINE
  5
119
100
AcDbEntity
  8
0
  6
CONTINUOUS
 62
               7
100
AcDbLine
 10
-22.0
 20
9.0
 30
0.0
 11
-15.0
 21
9.0
 31
0.0
  0
LINE
  5
11A
100
AcDbEntity
  8
0
  6
CONTINUOUS
 62
               7
100
AcDbLine
 10
-21.0
 20
10.0
 30
0.0
 11
-15.5
 21
10.0
 31
0.0
  0
LINE
  5
11B
100
AcDbEntity
  8
0
  6
CONTINUOUS
 62
               7
100
AcDbLine
 10
15.5
 20
10.0
 30
0.0
 11
21.0
 21
10.0
 31
0.0
  0
LINE
  5
11C
100
AcDbEntity
  8
0
  6
CONTINUOUS
 62
               7
100
AcDbLine
 10
-31.0
 20
-29.0
 30
0.0
 11
31.0
 21
-29.0
 31
0.0
  0
LINE
  5
11D
100
AcDbEntity
  8
0
  6
CONTINUOUS
 62
               7
100
AcDbLine
 10
30.0
 20
-30.0
 30
0.0
 11
31.0
 21
-29.0
 31
0.0
  0
LINE
  5
11E
100
AcDbEntity
  8
0
  6
CONTINUOUS
 62
               7
100
AcDbLine
 10
31.0
 20
-12.0
 30
0.0
 11
31.0
 21
-29.0
 31
0.0
  0
LINE
  5
11F
100
AcDbEntity
  8
0
  6
CONTINUOUS
 62
               7
100
AcDbLine
 10
-30.0
 20
-30.0
 30
0.0
 11
-31.0
 21
-29.0
 31
0.0
  0
LINE
  5
120
100
AcDbEntity
  8
0
  6
CONTINUOUS
 62
               7
100
AcDbLine
 10
-31.0
 20
-12.0
 30
0.0
 11
-31.0
 21
-29.0
 31
0.0
  0
LINE
  5
121
100
AcDbEntity
  8
0
  6
CONTINUOUS
 62
               7
100
AcDbLine
 10
14.0
 20
12.0
 30
0.0
 11
14.0
 21
-11.0
 31
0.0
  0
LINE
  5
122
100
AcDbEntity
  8
0
  6
CONTINUOUS
 62
               7
100
AcDbLine
 10
-14.0
 20
12.0
 30
0.0
 11
-14.0
 21
-11.0
 31
0.0
  0
LINE
  5
123
100
AcDbEntity
  8
0
  6
CONTINUOUS
 62
               7
100
AcDbLine
 10
-15.0
 20
11.0
 30
0.0
 11
15.0
 21
11.0
 31
0.0
  0
LINE
  5
124
100
AcDbEntity
  8
0
  6
CONTINUOUS
 62
               7
100
AcDbLine
 10
14.0
 20
12.0
 30
0.0
 11
15.0
 21
11.0
 31
0.0
  0
LINE
  5
125
100
AcDbEntity
  8
0
  6
CONTINUOUS
 62
               7
100
AcDbLine
 10
-15.0
 20
11.0
 30
0.0
 11
-14.0
 21
12.0
 31
0.0
  0
LINE
  5
126
100
AcDbEntity
  8
0
  6
CONTINUOUS
 62
               7
100
AcDbLine
 10
-14.0
 20
12.0
 30
0.0
 11
14.0
 21
12.0
 31
0.0
  0
LINE
  5
127
100
AcDbEntity
  8
0
  6
CONTINUOUS
 62
               7
100
AcDbLine
 10
-15.0
 20
11.0
 30
0.0
 11
-15.0
 21
-10.0
 31
0.0
  0
LINE
  5
128
100
AcDbEntity
  8
0
  6
CONTINUOUS
 62
               7
100
AcDbLine
 10
15.0
 20
11.0
 30
0.0
 11
15.0
 21
-10.0
 31
0.0
  0
LINE
  5
129
100
AcDbEntity
  8
0
  6
CONTINUOUS
 62
               7
100
AcDbLine
 10
-31.0
 20
-12.0
 30
0.0
 11
31.0
 21
-12.0
 31
0.0
  0
LINE
  5
12A
100
AcDbEntity
  8
0
  6
CONTINUOUS
 62
               7
100
AcDbLine
 10
30.0
 20
-11.0
 30
0.0
 11
31.0
 21
-12.0
 31
0.0
  0
LINE
  5
12B
100
AcDbEntity
  8
0
  6
CONTINUOUS
 62
               7
100
AcDbLine
 10
-31.0
 20
-12.0
 30
0.0
 11
-30.0
 21
-11.0
 31
0.0
  0
LINE
  5
12C
100
AcDbEntity
  8
0
  6
CONTINUOUS
 62
               7
100
AcDbLine
 10
-30.0
 20
-11.0
 30
0.0
 11
30.0
 21
-11.0
 31
0.0
  0
LINE
  5
12D
100
AcDbEntity
  8
0
  6
CONTINUOUS
 62
               7
100
AcDbLine
 10
-30.0
 20
-30.0
 30
0.0
 11
30.0
 21
-30.0
 31
0.0
  0
LINE
  5
12E
100
AcDbEntity
  8
0
  6
CONTINUOUS
 62
               7
100
AcDbLine
 10
-15.530000000000001
 20
-111.78999999999999
 30
0.0
 11
15.530000000000001
 21
-111.78999999999999
 31
0.0
  0
LINE
  5
12F
100
AcDbEntity
  8
0
  6
CONTINUOUS
 62
               7
100
AcDbLine
 10
-25.530000000000001
 20
-101.86999999999999
 30
0.0
 11
-26.160000000000011
 21
-29.999999999999993
 31
0.0
  0
LINE
  5
130
100
AcDbEntity
  8
0
  6
CONTINUOUS
 62
               7
100
AcDbLine
 10
-7.5700000000000074
 20
-113.28999999999999
 30
0.0
 11
7.5799999999999841
 21
-113.28999999999999
 31
0.0
  0
LINE
  5
131
100
AcDbEntity
  8
0
  6
CONTINUOUS
 62
               7
100
AcDbLine
 10
6.75
 20
-128.07999999999998
 30
0.0
 11
-6.75
 21
-128.07999999999998
 31
0.0
  0
LINE
  5
132
100
AcDbEntity
  8
0
  6
CONTINUOUS
 62
               7
100
AcDbLine
 10
7.25
 20
-114.57999999999998
 30
0.0
 11
-7.25
 21
-114.57999999999998
 31
0.0
  0
LINE
  5
133
100
AcDbEntity
  8
0
  6
CONTINUOUS
 62
               7
100
AcDbLine
 10
1.5
 20
-127.07999999999998
 30
0.0
 11
-1.5
 21
-127.07999999999998
 31
0.0
  0
LINE
  5
134
100
AcDbEntity
  8
0
  6
CONTINUOUS
 62
               7
100
AcDbLine
 10
7.75
 20
-115.07999999999998
 30
0.0
 11
-7.75
 21
-115.07999999999998
 31
0.0
  0
LINE
  5
135
100
AcDbEntity
  8
0
  6
CONTINUOUS
 62
               7
100
AcDbLine
 10
6.0
 20
-129.57999999999998
 30
0.0
 11
-6.0
 21
-129.57999999999998
 31
0.0
  0
LINE
  5
136
100
AcDbEntity
  8
0
  6
CONTINUOUS
 62
               7
100
AcDbLine
 10
2.8299999999999841
 20
-136.68000000000001
 30
0.0
 11
-2.8300000000000125
 21
-136.68000000000001
 31
0.0
  0
LINE
  5
137
100
AcDbEntity
  8
0
  6
CONTINUOUS
 62
               7
100
AcDbLine
 10
3.25
 20
-134.07999999999998
 30
0.0
 11
-3.25
 21
-134.07999999999998
 31
0.0
  0
LINE
  5
138
100
AcDbEntity
  8
0
  6
CONTINUOUS
 62
               7
100
AcDbLine
 10
3.25
 20
-131.47999999999999
 30
0.0
 11
-3.25
 21
-131.47999999999999
 31
0.0
  0
LINE
  5
139
100
AcDbEntity
  8
0
  6
CONTINUOUS
 62
               7
100
AcDbLine
 10
3.25
 20
-131.68000000000001
 30
0.0
 11
-3.25
 21
-131.68000000000001
 31
0.0
  0
LINE
  5
13A
100
AcDbEntity
  8
0
  6
CONTINUOUS
 62
               7
100
AcDbLine
 10
3.25
 20
-134.28
 30
0.0
 11
-3.25
 21
-134.28
 31
0.0
  0
LINE
  5
13B
100
AcDbEntity
  8
0
  6
CONTINUOUS
 62
               7
100
AcDbLine
 10
-6.5
 20
-129.07999999999998
 30
0.0
 11
6.5
 21
-129.07999999999998
 31
0.0
  0
LINE
  5
13C
100
AcDbEntity
  8
0
  6
CONTINUOUS
 62
               7
100
AcDbLine
 10
-8.0700000000000074
 20
-112.78999999999999
 30
0.0
 11
8.0799999999999841
 21
-112.78999999999999
 31
0.0
  0
ARC
  5
13D
100
AcDbEntity
  8
0
  6
CONTINUOUS
 62
               7
100
AcDbCircle
 10
-20.51766808950039
 20
-61.297668089500377
 30
0.0
 40
1.0023346230737458
100
AcDbArc
 50
180.13329755081858
 51
269.8667024491802
  0
ARC
  5
13E
100
AcDbEntity
  8
0
  6
CONTINUOUS
 62
               7
100
AcDbCircle
 10
-18.69982959945375
 20
-60.79982959945373
 30
0.0
 40
1.0001704150619544
100
AcDbArc
 50
180.0097615686557
 51
269.99023843134353
  0
ARC
  5
13F
100
AcDbEntity
  8
0
  6
CONTINUOUS
 62
               7
100
AcDbCircle
 10
-21.369146705702107
 20
-35.290853294297875
 30
0.0
 40
0.9908955106600177
100
AcDbArc
 50
89.471109647615464
 51
180.52889035238434
  0
ARC
  5
140
100
AcDbEntity
  8
0
  6
CONTINUOUS
 62
               7
100
AcDbCircle
 10
-20.785209769206858
 20
-35.794790230793126
 30
0.0
 40
0.9948038726184429
100
AcDbArc
 50
89.699941706646655
 51
180.30005829335312
  0
ARC
  5
141
100
AcDbEntity
  8
0
  6
CONTINUOUS
 62
               7
100
AcDbCircle
 10
-20.526628209435316
 20
-36.293371790564677
 30
0.0
 40
0.9933939034693213
100
AcDbArc
 50
89.617703266602575
 51
180.38229673339723
  0
ARC
  5
142
100
AcDbEntity
  8
0
  6
CONTINUOUS
 62
               7
100
AcDbCircle
 10
-18.708809196426998
 20
-36.791190803572988
 30
0.0
 40
0.9912299486140317
100
AcDbArc
 50
89.490797850550919
 51
180.5092021494489
  0
ARC
  5
143
100
AcDbEntity
  8
0
  6
CONTINUOUS
 62
               7
100
AcDbCircle
 10
-15.055408204824957
 20
-61.294591795175045
 30
0.0
 40
1.0054227503934605
100
AcDbArc
 50
270.30819752725307
 51
359.69180247274551
  0
ARC
  5
144
100
AcDbEntity
  8
0
  6
CONTINUOUS
 62
               7
100
AcDbCircle
 10
-15.055408204824957
 20
-60.794591795175045
 30
0.0
 40
1.0054227503934605
100
AcDbArc
 50
270.30819752725307
 51
359.69180247274551
  0
ARC
  5
145
100
AcDbEntity
  8
0
  6
CONTINUOUS
 62
               7
100
AcDbCircle
 10
-14.645436139105527
 20
-35.295436139105504
 30
0.0
 40
0.9954466012115169
100
AcDbArc
 50
359.73731299769526
 51
90.262687002303338
  0
ARC
  5
146
100
AcDbEntity
  8
0
  6
CONTINUOUS
 62
               7
100
AcDbCircle
 10
-14.645436139105527
 20
-35.795436139105504
 30
0.0
 40
0.9954466012115169
100
AcDbArc
 50
359.73731299769526
 51
90.262687002303338
  0
ARC
  5
147
100
AcDbEntity
  8
0
  6
CONTINUOUS
 62
               7
100
AcDbCircle
 10
-15.046475730656553
 20
-36.296475730656525
 30
0.0
 40
0.996481962838206
100
AcDbArc
 50
359.79736092800425
 51
90.202639071994341
  0
ARC
  5
148
100
AcDbEntity
  8
0
  6
CONTINUOUS
 62
               7
100
AcDbCircle
 10
-15.046475730656553
 20
-36.796475730656525
 30
0.0
 40
0.996481962838206
100
AcDbArc
 50
359.79736092800425
 51
90.202639071994341
  0
ARC
  5
149
100
AcDbEntity
  8
0
  6
CONTINUOUS
 62
               7
100
AcDbCircle
 10
-21.365205025764226
 20
-94.295205025764218
 30
0.0
 40
0.9948085911661331
100
AcDbArc
 50
179.70021633115311
 51
270.29978366884546
  0
ARC
  5
14A
100
AcDbEntity
  8
0
  6
CONTINUOUS
 62
               7
100
AcDbCircle
 10
-20.781283545862038
 20
-93.791283545862029
 30
0.0
 40
0.9987172789412911
100
AcDbArc
 50
179.92636376429834
 51
270.07363623570097
  0
ARC
  5
14B
100
AcDbEntity
  8
0
  6
CONTINUOUS
 62
               7
100
AcDbCircle
 10
-20.522696424072777
 20
-93.292696424072759
 30
0.0
 40
0.9973072211009184
100
AcDbArc
 50
179.84508895142403
 51
270.15491104857517
  0
ARC
  5
14C
100
AcDbEntity
  8
0
  6
CONTINUOUS
 62
               7
100
AcDbCircle
 10
-20.526635821238031
 20
-67.293364178761976
 30
0.0
 40
0.9933863426537406
100
AcDbArc
 50
89.617261319306905
 51
180.38273868069209
  0
ARC
  5
14D
100
AcDbEntity
  8
0
  6
CONTINUOUS
 62
               7
100
AcDbCircle
 10
-18.704868843909054
 20
-92.794868843909043
 30
0.0
 40
0.9951430668320545
100
AcDbArc
 50
179.7196731511649
 51
270.28032684883374
  0
ARC
  5
14E
100
AcDbEntity
  8
0
  6
CONTINUOUS
 62
               7
100
AcDbCircle
 10
-18.70881682484729
 20
-67.791183175152696
 30
0.0
 40
0.9912223883196899
100
AcDbArc
 50
89.490353002463948
 51
180.50964699753587
  0
ARC
  5
14F
100
AcDbEntity
  8
0
  6
CONTINUOUS
 62
               7
100
AcDbCircle
 10
-14.649359832219901
 20
-94.290640167780097
 30
0.0
 40
0.9993600372585305
100
AcDbArc
 50
269.96329759734044
 51
0.0367024026587671
  0
ARC
  5
150
100
AcDbEntity
  8
0
  6
CONTINUOUS
 62
               7
100
AcDbCircle
 10
-14.649359832219901
 20
-93.790640167780097
 30
0.0
 40
0.9993600372585305
100
AcDbArc
 50
269.96329759734044
 51
0.0367024026587671
  0
ARC
  5
151
100
AcDbEntity
  8
0
  6
CONTINUOUS
 62
               7
100
AcDbCircle
 10
-15.05039535463608
 20
-93.289604645363923
 30
0.0
 40
1.0003954327578257
100
AcDbArc
 50
270.02264319878418
 51
359.97735680121428
  0
ARC
  5
152
100
AcDbEntity
  8
0
  6
CONTINUOUS
 62
               7
100
AcDbCircle
 10
-15.05039535463608
 20
-92.789604645363923
 30
0.0
 40
1.0003954327578257
100
AcDbArc
 50
270.02264319878418
 51
359.97735680121428
  0
ARC
  5
153
100
AcDbEntity
  8
0
  6
CONTINUOUS
 62
               7
100
AcDbCircle
 10
-15.046468142444866
 20
-67.296468142444851
 30
0.0
 40
0.996474401540397
100
AcDbArc
 50
359.79692307686798
 51
90.203076923131206
  0
ARC
  5
154
100
AcDbEntity
  8
0
  6
CONTINUOUS
 62
               7
100
AcDbCircle
 10
-15.046468142444866
 20
-67.796468142444851
 30
0.0
 40
0.996474401540397
100
AcDbArc
 50
359.79692307686798
 51
90.203076923131206
  0
ARC
  5
155
100
AcDbEntity
  8
0
  6
CONTINUOUS
 62
               7
100
AcDbCircle
 10
-15.532203094743423
 20
-101.79189828099135
 30
0.0
 40
9.9981019617360403
100
AcDbArc
 50
180.44757939071411
 51
270.01262519947926
  0
LINE
  5
156
100
AcDbEntity
  8
0
  6
CONTINUOUS
 62
               7
100
AcDbLine
 10
-2.8500000000000085
 20
-131.47999999999999
 30
0.0
 11
-2.8500000000000085
 21
-129.57999999999998
 31
0.0
  0
LINE
  5
157
100
AcDbEntity
  8
0
  6
CONTINUOUS
 62
               7
100
AcDbLine
 10
-3.25
 20
-134.28
 30
0.0
 11
-2.8300000000000125
 21
-136.68000000000001
 31
0.0
  0
LINE
  5
158
100
AcDbEntity
  8
0
  6
CONTINUOUS
 62
               7
100
AcDbLine
 10
-3.25
 20
-131.68000000000001
 30
0.0
 11
-2.8300000000000125
 21
-134.07999999999998
 31
0.0
  0
LINE
  5
159
100
AcDbEntity
  8
0
  6
CONTINUOUS
 62
               7
100
AcDbLine
 10
-3.25
 20
-131.68000000000001
 30
0.0
 11
-3.25
 21
-131.47999999999999
 31
0.0
  0
LINE
  5
15A
100
AcDbEntity
  8
0
  6
CONTINUOUS
 62
               7
100
AcDbLine
 10
-3.25
 20
-134.28
 30
0.0
 11
-3.25
 21
-134.07999999999998
 31
0.0
  0
LINE
  5
15B
100
AcDbEntity
  8
0
  6
CONTINUOUS
 62
               7
100
AcDbLine
 10
-6.5
 20
-129.07999999999998
 30
0.0
 11
-6.0
 21
-129.57999999999998
 31
0.0
  0
LINE
  5
15C
100
AcDbEntity
  8
0
  6
CONTINUOUS
 62
               7
100
AcDbLine
 10
-6.5
 20
-129.07999999999998
 30
0.0
 11
-6.5
 21
-128.07999999999998
 31
0.0
  0
LINE
  5
15D
100
AcDbEntity
  8
0
  6
CONTINUOUS
 62
               7
100
AcDbLine
 10
-6.2600000000000051
 20
-127.57999999999998
 30
0.0
 11
-7.0100000000000051
 21
-127.57999999999998
 31
0.0
  0
LINE
  5
15E
100
AcDbEntity
  8
0
  6
CONTINUOUS
 62
               7
100
AcDbLine
 10
-1.8400000000000034
 20
-127.57999999999998
 30
0.0
 11
-3.6599999999999966
 21
-127.57999999999998
 31
0.0
  0
LINE
  5
15F
100
AcDbEntity
  8
0
  6
CONTINUOUS
 62
               7
100
AcDbLine
 10
-6.4399999999999977
 20
-127.07999999999998
 30
0.0
 11
-6.2600000000000051
 21
-127.57999999999998
 31
0.0
  0
LINE
  5
160
100
AcDbEntity
  8
0
  6
CONTINUOUS
 62
               7
100
AcDbLine
 10
-1.8400000000000034
 20
-117.86999999999999
 30
0.0
 11
-1.5
 21
-117.57999999999998
 31
0.0
  0
LINE
  5
161
100
AcDbEntity
  8
0
  6
CONTINUOUS
 62
               7
100
AcDbLine
 10
-3.6599999999999966
 20
-117.86999999999999
 30
0.0
 11
-4.3200000000000074
 21
-117.57999999999998
 31
0.0
  0
LINE
  5
162
100
AcDbEntity
  8
0
  6
CONTINUOUS
 62
               7
100
AcDbLine
 10
-7.0100000000000051
 20
-117.86999999999999
 30
0.0
 11
-7.6000000000000085
 21
-117.57999999999998
 31
0.0
  0
LINE
  5
163
100
AcDbEntity
  8
0
  6
CONTINUOUS
 62
               7
100
AcDbLine
 10
-7.0100000000000051
 20
-127.57999999999998
 30
0.0
 11
-7.6000000000000085
 21
-127.07999999999998
 31
0.0
  0
LINE
  5
164
100
AcDbEntity
  8
0
  6
CONTINUOUS
 62
               7
100
AcDbLine
 10
-3.6599999999999966
 20
-127.57999999999998
 30
0.0
 11
-4.3100000000000023
 21
-127.07999999999998
 31
0.0
  0
LINE
  5
165
100
AcDbEntity
  8
0
  6
CONTINUOUS
 62
               7
100
AcDbLine
 10
-1.5
 20
-127.07999999999998
 30
0.0
 11
-1.8400000000000034
 21
-127.57999999999998
 31
0.0
  0
LINE
  5
166
100
AcDbEntity
  8
0
  6
CONTINUOUS
 62
               7
100
AcDbLine
 10
-7.6000000000000085
 20
-127.07999999999998
 30
0.0
 11
-7.75
 21
-127.07999999999998
 31
0.0
  0
LINE
  5
167
100
AcDbEntity
  8
0
  6
CONTINUOUS
 62
               7
100
AcDbLine
 10
-4.3100000000000023
 20
-127.07999999999998
 30
0.0
 11
-6.4399999999999977
 21
-127.07999999999998
 31
0.0
  0
LINE
  5
168
100
AcDbEntity
  8
0
  6
CONTINUOUS
 62
               7
100
AcDbLine
 10
-6.4399999999999977
 20
-117.86999999999999
 30
0.0
 11
-7.0100000000000051
 21
-117.86999999999999
 31
0.0
  0
LINE
  5
169
100
AcDbEntity
  8
0
  6
CONTINUOUS
 62
               7
100
AcDbLine
 10
-6.4399999999999977
 20
-117.57999999999998
 30
0.0
 11
-7.6000000000000085
 21
-117.57999999999998
 31
0.0
  0
LINE
  5
16A
100
AcDbEntity
  8
0
  6
CONTINUOUS
 62
               7
100
AcDbLine
 10
-1.8400000000000034
 20
-117.86999999999999
 30
0.0
 11
-3.6599999999999966
 21
-117.86999999999999
 31
0.0
  0
LINE
  5
16B
100
AcDbEntity
  8
0
  6
CONTINUOUS
 62
               7
100
AcDbLine
 10
-1.5
 20
-117.57999999999998
 30
0.0
 11
-4.3100000000000023
 21
-117.57999999999998
 31
0.0
  0
LINE
  5
16C
100
AcDbEntity
  8
0
  6
CONTINUOUS
 62
               7
100
AcDbLine
 10
-7.6000000000000085
 20
-117.57999999999998
 30
0.0
 11
-7.6000000000000085
 21
-127.07999999999998
 31
0.0
  0
LINE
  5
16D
100
AcDbEntity
  8
0
  6
CONTINUOUS
 62
               7
100
AcDbLine
 10
-7.0100000000000051
 20
-117.86999999999999
 30
0.0
 11
-7.0100000000000051
 21
-127.57999999999998
 31
0.0
  0
LINE
  5
16E
100
AcDbEntity
  8
0
  6
CONTINUOUS
 62
               7
100
AcDbLine
 10
-6.4399999999999977
 20
-117.57999999999998
 30
0.0
 11
-6.4399999999999977
 21
-127.07999999999998
 31
0.0
  0
LINE
  5
16F
100
AcDbEntity
  8
0
  6
CONTINUOUS
 62
               7
100
AcDbLine
 10
-4.3100000000000023
 20
-117.57999999999998
 30
0.0
 11
-4.3100000000000023
 21
-127.07999999999998
 31
0.0
  0
LINE
  5
170
100
AcDbEntity
  8
0
  6
CONTINUOUS
 62
               7
100
AcDbLine
 10
-3.6599999999999966
 20
-117.86999999999999
 30
0.0
 11
-3.6599999999999966
 21
-127.57999999999998
 31
0.0
  0
LINE
  5
171
100
AcDbEntity
  8
0
  6
CONTINUOUS
 62
               7
100
AcDbLine
 10
-1.8400000000000034
 20
-117.86999999999999
 30
0.0
 11
-1.8400000000000034
 21
-127.57999999999998
 31
0.0
  0
LINE
  5
172
100
AcDbEntity
  8
0
  6
CONTINUOUS
 62
               7
100
AcDbLine
 10
-1.5
 20
-117.57999999999998
 30
0.0
 11
-1.5
 21
-127.07999999999998
 31
0.0
  0
LINE
  5
173
100
AcDbEntity
  8
0
  6
CONTINUOUS
 62
               2
100
AcDbLine
 10
-5.25
 20
-113.28999999999999
 30
0.0
 11
-5.25
 21
-114.57999999999998
 31
0.0
  0
LINE
  5
174
100
AcDbEntity
  8
0
  6
CONTINUOUS
 62
               7
100
AcDbLine
 10
-6.0
 20
-113.28999999999999
 30
0.0
 11
-6.0
 21
-114.57999999999998
 31
0.0
  0
LINE
  5
175
100
AcDbEntity
  8
0
  6
CONTINUOUS
 62
               7
100
AcDbLine
 10
-7.25
 20
-114.57999999999998
 30
0.0
 11
-7.75
 21
-115.07999999999998
 31
0.0
  0
LINE
  5
176
100
AcDbEntity
  8
0
  6
CONTINUOUS
 62
               7
100
AcDbLine
 10
-6.75
 20
-128.07999999999998
 30
0.0
 11
-7.75
 21
-127.07999999999998
 31
0.0
  0
LINE
  5
177
100
AcDbEntity
  8
0
  6
CONTINUOUS
 62
               7
100
AcDbLine
 10
-7.75
 20
-115.07999999999998
 30
0.0
 11
-7.75
 21
-127.07999999999998
 31
0.0
  0
LINE
  5
178
100
AcDbEntity
  8
0
  6
CONTINUOUS
 62
               7
100
AcDbLine
 10
-7.5700000000000074
 20
-113.28999999999999
 30
0.0
 11
-8.0700000000000074
 21
-112.78999999999999
 31
0.0
  0
LINE
  5
179
100
AcDbEntity
  8
0
  6
CONTINUOUS
 62
               7
100
AcDbLine
 10
-8.0700000000000074
 20
-112.78999999999999
 30
0.0
 11
-8.0700000000000074
 21
-111.78999999999999
 31
0.0
  0
LINE
  5
17A
100
AcDbEntity
  8
0
  6
CONTINUOUS
 62
               7
100
AcDbLine
 10
-21.359999999999999
 20
-34.29999999999999
 30
0.0
 11
-14.650000000000006
 21
-34.29999999999999
 31
0.0
  0
LINE
  5
17B
100
AcDbEntity
  8
0
  6
CONTINUOUS
 62
               7
100
AcDbLine
 10
-21.359999999999999
 20
-95.289999999999992
 30
0.0
 11
-14.650000000000006
 21
-95.289999999999992
 31
0.0
  0
LINE
  5
17C
100
AcDbEntity
  8
0
  6
CONTINUOUS
 62
               7
100
AcDbLine
 10
-20.780000000000001
 20
-34.79999999999999
 30
0.0
 11
-14.650000000000006
 21
-34.79999999999999
 31
0.0
  0
LINE
  5
17D
100
AcDbEntity
  8
0
  6
CONTINUOUS
 62
               7
100
AcDbLine
 10
-22.359999999999999
 20
-35.29999999999999
 30
0.0
 11
-22.359999999999999
 21
-94.289999999999992
 31
0.0
  0
LINE
  5
17E
100
AcDbEntity
  8
0
  6
CONTINUOUS
 62
               7
100
AcDbLine
 10
-21.52000000000001
 20
-36.29999999999999
 30
0.0
 11
-21.52000000000001
 21
-61.29999999999999
 31
0.0
  0
LINE
  5
17F
100
AcDbEntity
  8
0
  6
CONTINUOUS
 62
               7
100
AcDbLine
 10
-19.700000000000003
 20
-36.79999999999999
 30
0.0
 11
-19.700000000000003
 21
-60.79999999999999
 31
0.0
  0
LINE
  5
180
100
AcDbEntity
  8
0
  6
CONTINUOUS
 62
               7
100
AcDbLine
 10
-14.050000000000011
 20
-36.29999999999999
 30
0.0
 11
-14.050000000000011
 21
-61.29999999999999
 31
0.0
  0
LINE
  5
181
100
AcDbEntity
  8
0
  6
CONTINUOUS
 62
               7
100
AcDbLine
 10
-13.650000000000006
 20
-35.29999999999999
 30
0.0
 11
-13.650000000000006
 21
-94.289999999999992
 31
0.0
  0
LINE
  5
182
100
AcDbEntity
  8
0
  6
CONTINUOUS
 62
               7
100
AcDbLine
 10
-20.780000000000001
 20
-94.789999999999992
 30
0.0
 11
-14.650000000000006
 21
-94.789999999999992
 31
0.0
  0
LINE
  5
183
100
AcDbEntity
  8
0
  6
CONTINUOUS
 62
               7
100
AcDbLine
 10
-21.780000000000001
 20
-35.79999999999999
 30
0.0
 11
-21.780000000000001
 21
-93.789999999999992
 31
0.0
  0
LINE
  5
184
100
AcDbEntity
  8
0
  6
CONTINUOUS
 62
               7
100
AcDbLine
 10
-21.52000000000001
 20
-67.299999999999983
 30
0.0
 11
-21.52000000000001
 21
-93.289999999999992
 31
0.0
  0
LINE
  5
185
100
AcDbEntity
  8
0
  6
CONTINUOUS
 62
               7
100
AcDbLine
 10
-19.700000000000003
 20
-67.799999999999983
 30
0.0
 11
-19.700000000000003
 21
-92.789999999999992
 31
0.0
  0
LINE
  5
186
100
AcDbEntity
  8
0
  6
CONTINUOUS
 62
               7
100
AcDbLine
 10
-14.050000000000011
 20
-67.299999999999983
 30
0.0
 11
-14.050000000000011
 21
-93.289999999999992
 31
0.0
  0
LINE
  5
187
100
AcDbEntity
  8
0
  6
CONTINUOUS
 62
               7
100
AcDbLine
 10
-20.52000000000001
 20
-94.289999999999992
 30
0.0
 11
-15.050000000000011
 21
-94.289999999999992
 31
0.0
  0
LINE
  5
188
100
AcDbEntity
  8
0
  6
CONTINUOUS
 62
               7
100
AcDbLine
 10
-20.52000000000001
 20
-66.299999999999983
 30
0.0
 11
-15.050000000000011
 21
-66.299999999999983
 31
0.0
  0
LINE
  5
189
100
AcDbEntity
  8
0
  6
CONTINUOUS
 62
               7
100
AcDbLine
 10
-20.52000000000001
 20
-62.29999999999999
 30
0.0
 11
-15.050000000000011
 21
-62.29999999999999
 31
0.0
  0
LINE
  5
18A
100
AcDbEntity
  8
0
  6
CONTINUOUS
 62
               7
100
AcDbLine
 10
-20.52000000000001
 20
-35.29999999999999
 30
0.0
 11
-15.050000000000011
 21
-35.29999999999999
 31
0.0
  0
LINE
  5
18B
100
AcDbEntity
  8
0
  6
CONTINUOUS
 62
               7
100
AcDbLine
 10
-18.700000000000003
 20
-93.789999999999992
 30
0.0
 11
-15.050000000000011
 21
-93.789999999999992
 31
0.0
  0
LINE
  5
18C
100
AcDbEntity
  8
0
  6
CONTINUOUS
 62
               7
100
AcDbLine
 10
-18.700000000000003
 20
-35.79999999999999
 30
0.0
 11
-15.050000000000011
 21
-35.79999999999999
 31
0.0
  0
LINE
  5
18D
100
AcDbEntity
  8
0
  6
CONTINUOUS
 62
               7
100
AcDbLine
 10
-18.700000000000003
 20
-61.79999999999999
 30
0.0
 11
-15.050000000000011
 21
-61.79999999999999
 31
0.0
  0
LINE
  5
18E
100
AcDbEntity
  8
0
  6
CONTINUOUS
 62
               7
100
AcDbLine
 10
-18.700000000000003
 20
-66.799999999999983
 30
0.0
 11
-15.050000000000011
 21
-66.799999999999983
 31
0.0
  0
LINE
  5
18F
100
AcDbEntity
  8
0
  6
CONTINUOUS
 62
               7
100
AcDbLine
 10
25.530000000000001
 20
-101.86999999999999
 30
0.0
 11
26.159999999999997
 21
-29.999999999999993
 31
0.0
  0
LINE
  5
190
100
AcDbEntity
  8
0
  6
CONTINUOUS
 62
               7
100
AcDbLine
 10
13.649999999999977
 20
-35.29999999999999
 30
0.0
 11
13.649999999999977
 21
-94.289999999999992
 31
0.0
  0
LINE
  5
191
100
AcDbEntity
  8
0
  6
CONTINUOUS
 62
               7
100
AcDbLine
 10
22.370000000000005
 20
-35.29999999999999
 30
0.0
 11
22.370000000000005
 21
-94.289999999999992
 31
0.0
  0
ARC
  5
192
100
AcDbEntity
  8
0
  6
CONTINUOUS
 62
               7
100
AcDbCircle
 10
15.042786815728107
 20
-36.2927868157281
 30
0.0
 40
0.9928130194104493
100
AcDbArc
 50
89.583719548814557
 51
180.41628045118483
  0
ARC
  5
193
100
AcDbEntity
  8
0
  6
CONTINUOUS
 62
               7
100
AcDbCircle
 10
14.641743392701073
 20
-35.791743392701086
 30
0.0
 40
0.9917777616635555
100
AcDbArc
 50
89.52300380766269
 51
180.47699619233668
  0
ARC
  5
194
100
AcDbEntity
  8
0
  6
CONTINUOUS
 62
               7
100
AcDbCircle
 10
20.522937148308444
 20
-36.297062851691543
 30
0.0
 40
0.9970671778087352
100
AcDbArc
 50
359.83121854874594
 51
90.168781451253054
  0
ARC
  5
195
100
AcDbEntity
  8
0
  6
CONTINUOUS
 62
               7
100
AcDbCircle
 10
20.781521194814644
 20
-35.798478805185333
 30
0.0
 40
0.9984799639642299
100
AcDbArc
 50
359.91270923848219
 51
90.087290761516812
  0
ARC
  5
196
100
AcDbEntity
  8
0
  6
CONTINUOUS
 62
               7
100
AcDbCircle
 10
20.514009893881621
 20
-61.294009893881622
 30
0.0
 40
1.0060079398192465
100
AcDbArc
 50
270.34116015777295
 51
359.65883984222586
  0
ARC
  5
197
100
AcDbEntity
  8
0
  6
CONTINUOUS
 62
               7
100
AcDbCircle
 10
18.701200245305301
 20
-60.791200245305284
 30
0.0
 40
1.008838134070468
100
AcDbArc
 50
270.49977809270763
 51
359.50022190729095
  0
ARC
  5
198
100
AcDbEntity
  8
0
  6
CONTINUOUS
 62
               7
100
AcDbCircle
 10
18.71010233908089
 20
-36.7998976609191
 30
0.0
 40
0.9998976661562868
100
AcDbArc
 50
359.99413580246886
 51
90.005864197530144
  0
ARC
  5
199
100
AcDbEntity
  8
0
  6
CONTINUOUS
 62
               7
100
AcDbCircle
 10
15.051752155473736
 20
-61.298247844526259
 30
0.0
 40
1.0017536878120636
100
AcDbArc
 50
180.10021541832543
 51
269.89978458167354
  0
ARC
  5
19A
100
AcDbEntity
  8
0
  6
CONTINUOUS
 62
               7
100
AcDbCircle
 10
15.051752155473736
 20
-60.798247844526259
 30
0.0
 40
1.0017536878120636
100
AcDbArc
 50
180.10021541832543
 51
269.89978458167354
  0
ARC
  5
19B
100
AcDbEntity
  8
0
  6
CONTINUOUS
 62
               7
100
AcDbCircle
 10
15.042786815728107
 20
-36.7927868157281
 30
0.0
 40
0.9928130194104493
100
AcDbArc
 50
89.583719548814557
 51
180.41628045118483
  0
ARC
  5
19C
100
AcDbEntity
  8
0
  6
CONTINUOUS
 62
               7
100
AcDbCircle
 10
21.366527524467131
 20
-94.286527524467104
 30
0.0
 40
1.0034784836948021
100
AcDbArc
 50
270.19826891438743
 51
359.80173108561104
  0
ARC
  5
19D
100
AcDbEntity
  8
0
  6
CONTINUOUS
 62
               7
100
AcDbCircle
 10
20.777609399920181
 20
-93.787609399920171
 30
0.0
 40
1.002393450745326
100
AcDbArc
 50
270.13664437334199
 51
359.8633556266567
  0
ARC
  5
19E
100
AcDbEntity
  8
0
  6
CONTINUOUS
 62
               7
100
AcDbCircle
 10
20.519019820643194
 20
-93.289019820643176
 30
0.0
 40
1.0009806592620891
100
AcDbArc
 50
270.05610512927075
 51
359.9438948707276
  0
ARC
  5
19F
100
AcDbEntity
  8
0
  6
CONTINUOUS
 62
               7
100
AcDbCircle
 10
20.52294473206544
 20
-67.297055267934553
 30
0.0
 40
0.9970596164538006
100
AcDbArc
 50
359.83078146818269
 51
90.169218531816284
  0
ARC
  5
1A0
100
AcDbEntity
  8
0
  6
CONTINUOUS
 62
               7
100
AcDbCircle
 10
18.706196080959728
 20
-92.786196080959712
 30
0.0
 40
1.0038111264977505
100
AcDbArc
 50
270.217121550554
 51
359.78287844944475
  0
ARC
  5
1A1
100
AcDbEntity
  8
0
  6
CONTINUOUS
 62
               7
100
AcDbCircle
 10
18.710109901362728
 20
-67.799890098637263
 30
0.0
 40
0.9998901046770973
100
AcDbArc
 50
359.99370242366575
 51
90.006297576333239
  0
ARC
  5
1A2
100
AcDbEntity
  8
0
  6
CONTINUOUS
 62
               7
100
AcDbCircle
 10
14.645681572850265
 20
-94.294318427149733
 30
0.0
 40
0.9956909376541572
100
AcDbArc
 50
179.75150077581887
 51
270.24849922418014
  0
ARC
  5
1A3
100
AcDbEntity
  8
0
  6
CONTINUOUS
 62
               7
100
AcDbCircle
 10
14.645681572850265
 20
-93.794318427149733
 30
0.0
 40
0.9956909376541572
100
AcDbArc
 50
179.75150077581887
 51
270.24849922418014
  0
ARC
  5
1A4
100
AcDbEntity
  8
0
  6
CONTINUOUS
 62
               7
100
AcDbCircle
 10
15.046720897138073
 20
-93.293279102861916
 30
0.0
 40
0.9967262910685659
100
AcDbArc
 50
179.8115038248979
 51
270.18849617510119
  0
ARC
  5
1A5
100
AcDbEntity
  8
0
  6
CONTINUOUS
 62
               7
100
AcDbCircle
 10
15.046720897138073
 20
-92.793279102861916
 30
0.0
 40
0.9967262910685659
100
AcDbArc
 50
179.8115038248979
 51
270.18849617510119
  0
ARC
  5
1A6
100
AcDbEntity
  8
0
  6
CONTINUOUS
 62
               7
100
AcDbCircle
 10
15.042779199471681
 20
-67.292779199471681
 30
0.0
 40
0.9928054587198438
100
AcDbArc
 50
89.583276825320397
 51
180.41672317467899
  0
ARC
  5
1A7
100
AcDbEntity
  8
0
  6
CONTINUOUS
 62
               7
100
AcDbCircle
 10
15.042779199471681
 20
-67.792779199471681
 30
0.0
 40
0.9928054587198438
100
AcDbArc
 50
89.583276825320397
 51
180.41672317467899
  0
ARC
  5
1A8
100
AcDbEntity
  8
0
  6
CONTINUOUS
 62
               7
100
AcDbCircle
 10
15.528556409564004
 20
-101.78822218706048
 30
0.0
 40
10.001777917118645
100
AcDbArc
 50
270.00826969367785
 51
359.53152571612628
  0
LINE
  5
1A9
100
AcDbEntity
  8
0
  6
CONTINUOUS
 62
               7
100
AcDbLine
 10
2.8499999999999943
 20
-131.47999999999999
 30
0.0
 11
2.8499999999999943
 21
-129.57999999999998
 31
0.0
  0
LINE
  5
1AA
100
AcDbEntity
  8
0
  6
CONTINUOUS
 62
               7
100
AcDbLine
 10
3.25
 20
-131.68000000000001
 30
0.0
 11
2.8299999999999841
 21
-134.07999999999998
 31
0.0
  0
LINE
  5
1AB
100
AcDbEntity
  8
0
  6
CONTINUOUS
 62
               7
100
AcDbLine
 10
3.25
 20
-134.28
 30
0.0
 11
2.8299999999999841
 21
-136.68000000000001
 31
0.0
  0
LINE
  5
1AC
100
AcDbEntity
  8
0
  6
CONTINUOUS
 62
               7
100
AcDbLine
 10
3.25
 20
-131.68000000000001
 30
0.0
 11
3.25
 21
-131.47999999999999
 31
0.0
  0
LINE
  5
1AD
100
AcDbEntity
  8
0
  6
CONTINUOUS
 62
               7
100
AcDbLine
 10
3.25
 20
-134.28
 30
0.0
 11
3.25
 21
-134.07999999999998
 31
0.0
  0
LINE
  5
1AE
100
AcDbEntity
  8
0
  6
CONTINUOUS
 62
               7
100
AcDbLine
 10
6.0
 20
-129.57999999999998
 30
0.0
 11
6.5
 21
-129.07999999999998
 31
0.0
  0
LINE
  5
1AF
100
AcDbEntity
  8
0
  6
CONTINUOUS
 62
               7
100
AcDbLine
 10
6.5
 20
-129.07999999999998
 30
0.0
 11
6.5
 21
-128.07999999999998
 31
0.0
  0
LINE
  5
1B0
100
AcDbEntity
  8
0
  6
CONTINUOUS
 62
               7
100
AcDbLine
 10
7.0099999999999909
 20
-127.57999999999998
 30
0.0
 11
6.2599999999999909
 21
-127.57999999999998
 31
0.0
  0
LINE
  5
1B1
100
AcDbEntity
  8
0
  6
CONTINUOUS
 62
               7
100
AcDbLine
 10
6.4399999999999977
 20
-127.07999999999998
 30
0.0
 11
6.2599999999999909
 21
-127.57999999999998
 31
0.0
  0
LINE
  5
1B2
100
AcDbEntity
  8
0
  6
CONTINUOUS
 62
               7
100
AcDbLine
 10
7.0099999999999909
 20
-117.86999999999999
 30
0.0
 11
7.5999999999999943
 21
-117.57999999999998
 31
0.0
  0
LINE
  5
1B3
100
AcDbEntity
  8
0
  6
CONTINUOUS
 62
               7
100
AcDbLine
 10
3.6599999999999966
 20
-117.86999999999999
 30
0.0
 11
4.3199999999999932
 21
-117.57999999999998
 31
0.0
  0
LINE
  5
1B4
100
AcDbEntity
  8
0
  6
CONTINUOUS
 62
               7
100
AcDbLine
 10
1.8400000000000034
 20
-117.86999999999999
 30
0.0
 11
1.5
 21
-117.57999999999998
 31
0.0
  0
LINE
  5
1B5
100
AcDbEntity
  8
0
  6
CONTINUOUS
 62
               7
100
AcDbLine
 10
1.8400000000000034
 20
-127.57999999999998
 30
0.0
 11
1.5
 21
-127.07999999999998
 31
0.0
  0
LINE
  5
1B6
100
AcDbEntity
  8
0
  6
CONTINUOUS
 62
               7
100
AcDbLine
 10
3.6599999999999966
 20
-127.57999999999998
 30
0.0
 11
4.3199999999999932
 21
-127.07999999999998
 31
0.0
  0
LINE
  5
1B7
100
AcDbEntity
  8
0
  6
CONTINUOUS
 62
               7
100
AcDbLine
 10
7.0099999999999909
 20
-127.57999999999998
 30
0.0
 11
7.5999999999999943
 21
-127.07999999999998
 31
0.0
  0
LINE
  5
1B8
100
AcDbEntity
  8
0
  6
CONTINUOUS
 62
               7
100
AcDbLine
 10
3.6599999999999966
 20
-127.57999999999998
 30
0.0
 11
1.8400000000000034
 21
-127.57999999999998
 31
0.0
  0
LINE
  5
1B9
100
AcDbEntity
  8
0
  6
CONTINUOUS
 62
               7
100
AcDbLine
 10
6.4399999999999977
 20
-127.07999999999998
 30
0.0
 11
4.3199999999999932
 21
-127.07999999999998
 31
0.0
  0
LINE
  5
1BA
100
AcDbEntity
  8
0
  6
CONTINUOUS
 62
               7
100
AcDbLine
 10
3.6599999999999966
 20
-117.86999999999999
 30
0.0
 11
1.8400000000000034
 21
-117.86999999999999
 31
0.0
  0
LINE
  5
1BB
100
AcDbEntity
  8
0
  6
CONTINUOUS
 62
               7
100
AcDbLine
 10
4.3199999999999932
 20
-117.57999999999998
 30
0.0
 11
1.5
 21
-117.57999999999998
 31
0.0
  0
LINE
  5
1BC
100
AcDbEntity
  8
0
  6
CONTINUOUS
 62
               7
100
AcDbLine
 10
7.75
 20
-127.07999999999998
 30
0.0
 11
7.5999999999999943
 21
-127.07999999999998
 31
0.0
  0
LINE
  5
1BD
100
AcDbEntity
  8
0
  6
CONTINUOUS
 62
               7
100
AcDbLine
 10
7.0099999999999909
 20
-117.86999999999999
 30
0.0
 11
6.4399999999999977
 21
-117.86999999999999
 31
0.0
  0
LINE
  5
1BE
100
AcDbEntity
  8
0
  6
CONTINUOUS
 62
               7
100
AcDbLine
 10
7.5999999999999943
 20
-117.57999999999998
 30
0.0
 11
6.4399999999999977
 21
-117.57999999999998
 31
0.0
  0
LINE
  5
1BF
100
AcDbEntity
  8
0
  6
CONTINUOUS
 62
               7
100
AcDbLine
 10
7.5999999999999943
 20
-117.57999999999998
 30
0.0
 11
7.5999999999999943
 21
-127.07999999999998
 31
0.0
  0
LINE
  5
1C0
100
AcDbEntity
  8
0
  6
CONTINUOUS
 62
               7
100
AcDbLine
 10
7.0099999999999909
 20
-117.86999999999999
 30
0.0
 11
7.0099999999999909
 21
-127.57999999999998
 31
0.0
  0
LINE
  5
1C1
100
AcDbEntity
  8
0
  6
CONTINUOUS
 62
               7
100
AcDbLine
 10
6.4399999999999977
 20
-117.57999999999998
 30
0.0
 11
6.4399999999999977
 21
-127.07999999999998
 31
0.0
  0
LINE
  5
1C2
100
AcDbEntity
  8
0
  6
CONTINUOUS
 62
               7
100
AcDbLine
 10
4.3199999999999932
 20
-117.57999999999998
 30
0.0
 11
4.3199999999999932
 21
-127.07999999999998
 31
0.0
  0
LINE
  5
1C3
100
AcDbEntity
  8
0
  6
CONTINUOUS
 62
               7
100
AcDbLine
 10
3.6599999999999966
 20
-117.86999999999999
 30
0.0
 11
3.6599999999999966
 21
-127.57999999999998
 31
0.0
  0
LINE
  5
1C4
100
AcDbEntity
  8
0
  6
CONTINUOUS
 62
               7
100
AcDbLine
 10
1.8400000000000034
 20
-117.86999999999999
 30
0.0
 11
1.8400000000000034
 21
-127.57999999999998
 31
0.0
  0
LINE
  5
1C5
100
AcDbEntity
  8
0
  6
CONTINUOUS
 62
               7
100
AcDbLine
 10
1.5
 20
-117.57999999999998
 30
0.0
 11
1.5
 21
-127.07999999999998
 31
0.0
  0
LINE
  5
1C6
100
AcDbEntity
  8
0
  6
CONTINUOUS
 62
               2
100
AcDbLine
 10
5.25
 20
-113.28999999999999
 30
0.0
 11
5.25
 21
-114.57999999999998
 31
0.0
  0
LINE
  5
1C7
100
AcDbEntity
  8
0
  6
CONTINUOUS
 62
               7
100
AcDbLine
 10
6.0
 20
-113.28999999999999
 30
0.0
 11
6.0
 21
-114.57999999999998
 31
0.0
  0
LINE
  5
1C8
100
AcDbEntity
  8
0
  6
CONTINUOUS
 62
               7
100
AcDbLine
 10
7.25
 20
-114.57999999999998
 30
0.0
 11
7.75
 21
-115.07999999999998
 31
0.0
  0
LINE
  5
1C9
100
AcDbEntity
  8
0
  6
CONTINUOUS
 62
               7
100
AcDbLine
 10
7.75
 20
-127.07999999999998
 30
0.0
 11
6.75
 21
-128.07999999999998
 31
0.0
  0
LINE
  5
1CA
100
AcDbEntity
  8
0
  6
CONTINUOUS
 62
               7
100
AcDbLine
 10
7.75
 20
-115.07999999999998
 30
0.0
 11
7.75
 21
-127.07999999999998
 31
0.0
  0
LINE
  5
1CB
100
AcDbEntity
  8
0
  6
CONTINUOUS
 62
               7
100
AcDbLine
 10
7.5799999999999841
 20
-113.28999999999999
 30
0.0
 11
8.0799999999999841
 21
-112.78999999999999
 31
0.0
  0
LINE
  5
1CC
100
AcDbEntity
  8
0
  6
CONTINUOUS
 62
               7
100
AcDbLine
 10
8.0799999999999841
 20
-112.78999999999999
 30
0.0
 11
8.0799999999999841
 21
-111.78999999999999
 31
0.0
  0
LINE
  5
1CD
100
AcDbEntity
  8
0
  6
CONTINUOUS
 62
               7
100
AcDbLine
 10
21.370000000000005
 20
-95.289999999999992
 30
0.0
 11
14.649999999999977
 21
-95.289999999999992
 31
0.0
  0
LINE
  5
1CE
100
AcDbEntity
  8
0
  6
CONTINUOUS
 62
               7
100
AcDbLine
 10
21.519999999999982
 20
-36.29999999999999
 30
0.0
 11
21.519999999999982
 21
-61.29999999999999
 31
0.0
  0
LINE
  5
1CF
100
AcDbEntity
  8
0
  6
CONTINUOUS
 62
               7
100
AcDbLine
 10
19.70999999999998
 20
-36.79999999999999
 30
0.0
 11
19.70999999999998
 21
-60.79999999999999
 31
0.0
  0
LINE
  5
1D0
100
AcDbEntity
  8
0
  6
CONTINUOUS
 62
               7
100
AcDbLine
 10
14.050000000000011
 20
-36.29999999999999
 30
0.0
 11
14.050000000000011
 21
-61.29999999999999
 31
0.0
  0
LINE
  5
1D1
100
AcDbEntity
  8
0
  6
CONTINUOUS
 62
               7
100
AcDbLine
 10
20.780000000000001
 20
-94.789999999999992
 30
0.0
 11
14.649999999999977
 21
-94.789999999999992
 31
0.0
  0
LINE
  5
1D2
100
AcDbEntity
  8
0
  6
CONTINUOUS
 62
               7
100
AcDbLine
 10
21.780000000000001
 20
-35.79999999999999
 30
0.0
 11
21.780000000000001
 21
-93.789999999999992
 31
0.0
  0
LINE
  5
1D3
100
AcDbEntity
  8
0
  6
CONTINUOUS
 62
               7
100
AcDbLine
 10
21.519999999999982
 20
-67.299999999999983
 30
0.0
 11
21.519999999999982
 21
-93.289999999999992
 31
0.0
  0
LINE
  5
1D4
100
AcDbEntity
  8
0
  6
CONTINUOUS
 62
               7
100
AcDbLine
 10
19.70999999999998
 20
-67.799999999999983
 30
0.0
 11
19.70999999999998
 21
-92.789999999999992
 31
0.0
  0
LINE
  5
1D5
100
AcDbEntity
  8
0
  6
CONTINUOUS
 62
               7
100
AcDbLine
 10
14.050000000000011
 20
-67.299999999999983
 30
0.0
 11
14.050000000000011
 21
-93.289999999999992
 31
0.0
  0
LINE
  5
1D6
100
AcDbEntity
  8
0
  6
CONTINUOUS
 62
               7
100
AcDbLine
 10
20.519999999999982
 20
-94.289999999999992
 30
0.0
 11
15.050000000000011
 21
-94.289999999999992
 31
0.0
  0
LINE
  5
1D7
100
AcDbEntity
  8
0
  6
CONTINUOUS
 62
               7
100
AcDbLine
 10
20.519999999999982
 20
-66.299999999999983
 30
0.0
 11
15.050000000000011
 21
-66.299999999999983
 31
0.0
  0
LINE
  5
1D8
100
AcDbEntity
  8
0
  6
CONTINUOUS
 62
               7
100
AcDbLine
 10
20.519999999999982
 20
-62.29999999999999
 30
0.0
 11
15.050000000000011
 21
-62.29999999999999
 31
0.0
  0
LINE
  5
1D9
100
AcDbEntity
  8
0
  6
CONTINUOUS
 62
               7
100
AcDbLine
 10
18.70999999999998
 20
-93.789999999999992
 30
0.0
 11
15.050000000000011
 21
-93.789999999999992
 31
0.0
  0
LINE
  5
1DA
100
AcDbEntity
  8
0
  6
CONTINUOUS
 62
               7
100
AcDbLine
 10
18.70999999999998
 20
-35.79999999999999
 30
0.0
 11
15.050000000000011
 21
-35.79999999999999
 31
0.0
  0
LINE
  5
1DB
100
AcDbEntity
  8
0
  6
CONTINUOUS
 62
               7
100
AcDbLine
 10
18.70999999999998
 20
-61.79999999999999
 30
0.0
 11
15.050000000000011
 21
-61.79999999999999
 31
0.0
  0
LINE
  5
1DC
100
AcDbEntity
  8
0
  6
CONTINUOUS
 62
               7
100
AcDbLine
 10
18.70999999999998
 20
-66.799999999999983
 30
0.0
 11
15.050000000000011
 21
-66.799999999999983
 31
0.0
  0
LINE
  5
1DD
100
AcDbEntity
  8
0
  6
CONTINUOUS
 62
               7
100
AcDbLine
 10
20.519999999999982
 20
-35.29999999999999
 30
0.0
 11
15.050000000000011
 21
-35.29999999999999
 31
0.0
  0
LINE
  5
1DE
100
AcDbEntity
  8
0
  6
CONTINUOUS
 62
               7
100
AcDbLine
 10
20.780000000000001
 20
-34.79999999999999
 30
0.0
 11
14.649999999999977
 21
-34.79999999999999
 31
0.0
  0
LINE
  5
1DF
100
AcDbEntity
  8
0
  6
CONTINUOUS
 62
               7
100
AcDbLine
 10
21.370000000000005
 20
-34.29999999999999
 30
0.0
 11
14.649999999999977
 21
-34.29999999999999
 31
0.0
  0
ARC
  5
1E0
100
AcDbEntity
  8
0
  6
CONTINUOUS
 62
               7
100
AcDbCircle
 10
14.641743392701073
 20
-35.291743392701086
 30
0.0
 40
0.9917777616635555
100
AcDbArc
 50
89.52300380766269
 51
180.47699619233668
  0
ARC
  5
1E1
100
AcDbEntity
  8
0
  6
CONTINUOUS
 62
               7
100
AcDbCircle
 10
21.370435080383629
 20
-35.299564919616351
 30
0.0
 40
0.9995650143050225
100
AcDbArc
 50
359.9750608813207
 51
90.024939118678262
  0
LINE
  5
1E2
100
AcDbEntity
  8
0
  6
CENTER
 62
               2
100
AcDbLine
 10
0.0
 20
-138.91
 30
0.0
 11
0.0
 21
15.870000000000005
 31
0.0
  0
ENDBLK
  5
1E3
100
AcDbEntity
  8
0
100
AcDbBlockEnd
  0
BLOCK
  5
1E4
100
AcDbEntity
  8
0
100
AcDbBlockBegin
  2
MS_3
 70
               0
 10
0.0
 20
0.0
 30
0.0
  3
MS_3
  1

  0
ARC
  5
1E5
100
AcDbEntity
  8
0
  6
CONTINUOUS
 62
               7
100
AcDbCircle
 10
31.495000000000001
 20
0.0000003897253151
 30
0.0
 40
22.001114442040421
100
AcDbArc
 50
222.9831824676051
 51
317.0168175323937
  0
ARC
  5
1E6
100
AcDbEntity
  8
0
  6
CONTINUOUS
 62
               7
100
AcDbCircle
 10
31.495000000000001
 20
0.0000004165670617
 30
0.0
 40
21.280484898070632
100
AcDbArc
 50
224.81913749686493
 51
315.18086250313388
  0
ARC
  5
1E7
100
AcDbEntity
  8
0
  6
CONTINUOUS
 62
               7
100
AcDbCircle
 10
31.495000000000001
 20
-0.0000003897253151
 30
0.0
 40
22.001114442040421
100
AcDbArc
 50
42.983182467605509
 51
137.0168175323941
  0
ARC
  5
1E8
100
AcDbEntity
  8
0
  6
CONTINUOUS
 62
               7
100
AcDbCircle
 10
31.495000000000001
 20
-0.0000004165670617
 30
0.0
 40
21.280484898070632
100
AcDbArc
 50
44.819137496865338
 51
135.18086250313428
  0
ARC
  5
1E9
100
AcDbEntity
  8
0
  6
CONTINUOUS
 62
               7
100
AcDbCircle
 10
31.494999999999997
 20
0.0000001963498164
 30
0.0
 40
30.996219622568404
100
AcDbArc
 50
208.94239190933527
 51
331.05760809066351
  0
ARC
  5
1EA
100
AcDbEntity
  8
0
  6
CONTINUOUS
 62
               7
100
AcDbCircle
 10
31.494999999999997
 20
0.0000002095555658
 30
0.0
 40
30.003670296926458
100
AcDbArc
 50
209.99595395812736
 51
330.00404604187145
  0
ARC
  5
1EB
100
AcDbEntity
  8
0
  6
CONTINUOUS
 62
               7
100
AcDbCircle
 10
31.494999999999997
 20
-0.0000001963498164
 30
0.0
 40
30.996219622568404
100
AcDbArc
 50
28.942391909335672
 51
151.0576080906639
  0
ARC
  5
1EC
100
AcDbEntity
  8
0
  6
CONTINUOUS
 62
               7
100
AcDbCircle
 10
31.494999999999997
 20
-0.0000002095555658
 30
0.0
 40
30.003670296926458
100
AcDbArc
 50
29.995953958127771
 51
150.00404604187185
  0
LINE
  5
1ED
100
AcDbEntity
  8
0
  6
CENTER
 62
               2
100
AcDbLine
 10
67.159999999999997
 20
0.0
 30
0.0
 11
-3.8400000000000034
 21
0.0
 31
0.0
  0
LINE
  5
1EE
100
AcDbEntity
  8
0
  6
CONTINUOUS
 62
               7
100
AcDbLine
 10
62.0
 20
-15.0
 30
0.0
 11
63.0
 21
-14.0
 31
0.0
  0
LINE
  5
1EF
100
AcDbEntity
  8
0
  6
CONTINUOUS
 62
               7
100
AcDbLine
 10
63.0
 20
14.0
 30
0.0
 11
62.0
 21
15.0
 31
0.0
  0
LINE
  5
1F0
100
AcDbEntity
  8
0
  6
CONTINUOUS
 62
               7
100
AcDbLine
 10
0.0
 20
14.0
 30
0.0
 11
1.0
 21
15.0
 31
0.0
  0
LINE
  5
1F1
100
AcDbEntity
  8
0
  6
CONTINUOUS
 62
               7
100
AcDbLine
 10
0.0
 20
-14.0
 30
0.0
 11
1.0
 21
-15.0
 31
0.0
  0
LINE
  5
1F2
100
AcDbEntity
  8
0
  6
CONTINUOUS
 62
               7
100
AcDbLine
 10
1.0
 20
15.0
 30
0.0
 11
62.0
 21
15.0
 31
0.0
  0
LINE
  5
1F3
100
AcDbEntity
  8
0
  6
CONTINUOUS
 62
               7
100
AcDbLine
 10
0.0
 20
14.0
 30
0.0
 11
63.0
 21
14.0
 31
0.0
  0
LINE
  5
1F4
100
AcDbEntity
  8
0
  6
CONTINUOUS
 62
               7
100
AcDbLine
 10
0.0
 20
-14.0
 30
0.0
 11
63.0
 21
-14.0
 31
0.0
  0
LINE
  5
1F5
100
AcDbEntity
  8
0
  6
CONTINUOUS
 62
               7
100
AcDbLine
 10
1.0
 20
-15.0
 30
0.0
 11
62.0
 21
-15.0
 31
0.0
  0
LINE
  5
1F6
100
AcDbEntity
  8
0
  6
CONTINUOUS
 62
               7
100
AcDbLine
 10
63.0
 20
14.0
 30
0.0
 11
63.0
 21
-14.0
 31
0.0
  0
LINE
  5
1F7
100
AcDbEntity
  8
0
  6
CONTINUOUS
 62
               7
100
AcDbLine
 10
62.0
 20
15.0
 30
0.0
 11
62.0
 21
-15.0
 31
0.0
  0
LINE
  5
1F8
100
AcDbEntity
  8
0
  6
CONTINUOUS
 62
               7
100
AcDbLine
 10
0.0
 20
14.0
 30
0.0
 11
0.0
 21
-14.0
 31
0.0
  0
LINE
  5
1F9
100
AcDbEntity
  8
0
  6
CONTINUOUS
 62
               7
100
AcDbLine
 10
1.0
 20
15.0
 30
0.0
 11
1.0
 21
-15.0
 31
0.0
  0
LINE
  5
1FA
100
AcDbEntity
  8
0
  6
CENTER
 62
               2
100
AcDbLine
 10
31.5
 20
37.5
 30
0.0
 11
31.5
 21
-37.5
 31
0.0
  0
ENDBLK
  5
1FB
100
AcDbEntity
  8
0
100
AcDbBlockEnd
  0
BLOCK
  5
1FC
100
AcDbEntity
  8
0
100
AcDbBlockBegin
  2
MS_4
 70
               0
 10
0.0
 20
0.0
 30
0.0
  3
MS_4
  1

  0
LINE
  5
1FD
100
AcDbEntity
  8
0
  6
CENTER
 62
             200
100
AcDbLine
 10
0.0
 20
0.0
 30
0.0
 11
0.0
 21
-28.009999999999998
 31
0.0
  0
LINE
  5
1FE
100
AcDbEntity
  8
0
  6
CONTINUOUS
 62
               4
100
AcDbLine
 10
-6.5046463154223773
 20
-17.789986234469865
 30
0.0
 11
6.4953536845718247
 21
-17.789998516679105
 31
0.0
  0
LINE
  5
1FF
100
AcDbEntity
  8
0
  6
CONTINUOUS
 62
               4
100
AcDbLine
 10
-2.8546485829087942
 20
-20.189989682935234
 30
0.0
 11
-2.8546467878166624
 21
-18.289989682936081
 31
0.0
  0
LINE
  5
200
100
AcDbEntity
  8
0
  6
CONTINUOUS
 62
               4
100
AcDbLine
 10
2.8453514170886649
 20
-20.189995068211601
 30
0.0
 11
2.8453532121807825
 21
-18.289995068212434
 31
0.0
  0
LINE
  5
201
100
AcDbEntity
  8
0
  6
CONTINUOUS
 62
               4
100
AcDbLine
 10
3.2453512281314261
 20
-20.389995446125639
 30
0.0
 11
2.8153489606468298
 21
-22.789995039866866
 31
0.0
  0
LINE
  5
202
100
AcDbEntity
  8
0
  6
CONTINUOUS
 62
               4
100
AcDbLine
 10
3.2453487716895779
 20
-22.989995446124468
 30
0.0
 11
2.8153465042049817
 21
-25.38999503986571
 31
0.0
  0
LINE
  5
203
100
AcDbEntity
  8
0
  6
CONTINUOUS
 62
               4
100
AcDbLine
 10
-3.2546512283075231
 20
-22.989989305019847
 30
0.0
 11
-2.8246534957924894
 21
-25.389989711276471
 31
0.0
  0
LINE
  5
204
100
AcDbEntity
  8
0
  6
CONTINUOUS
 62
               4
100
AcDbLine
 10
-3.2546487718656749
 20
-20.389989305021018
 30
0.0
 11
-2.8246510393506412
 21
-22.789989711277627
 31
0.0
  0
LINE
  5
205
100
AcDbEntity
  8
0
  6
CONTINUOUS
 62
               4
100
AcDbLine
 10
3.2453512281314261
 20
-20.389995446125639
 30
0.0
 11
3.2453514170884858
 21
-20.189995446125721
 31
0.0
  0
LINE
  5
206
100
AcDbEntity
  8
0
  6
CONTINUOUS
 62
               4
100
AcDbLine
 10
-3.2546487718656749
 20
-20.389989305021018
 30
0.0
 11
-3.2546485829086151
 21
-20.189989305021101
 31
0.0
  0
LINE
  5
207
100
AcDbEntity
  8
0
  6
CONTINUOUS
 62
               4
100
AcDbLine
 10
3.2453487716895779
 20
-22.989995446124468
 30
0.0
 11
-3.2546512283075231
 21
-22.989989305019847
 31
0.0
  0
LINE
  5
208
100
AcDbEntity
  8
0
  6
CONTINUOUS
 62
               4
100
AcDbLine
 10
3.2453512281314261
 20
-20.389995446125639
 30
0.0
 11
-3.2546487718656749
 21
-20.389989305021018
 31
0.0
  0
LINE
  5
209
100
AcDbEntity
  8
0
  6
CONTINUOUS
 62
               4
100
AcDbLine
 10
3.2453514170884858
 20
-20.189995446125721
 30
0.0
 11
-3.2546485829086151
 21
-20.189989305021101
 31
0.0
  0
LINE
  5
20A
100
AcDbEntity
  8
0
  6
CONTINUOUS
 62
               4
100
AcDbLine
 10
3.2453489606466377
 20
-22.789995446124564
 30
0.0
 11
-3.2546510393504633
 21
-22.789989305019944
 31
0.0
  0
LINE
  5
20B
100
AcDbEntity
  8
0
  6
CONTINUOUS
 62
               4
100
AcDbLine
 10
3.2453487716895779
 20
-22.989995446124468
 30
0.0
 11
3.2453489606466377
 21
-22.789995446124564
 31
0.0
  0
LINE
  5
20C
100
AcDbEntity
  8
0
  6
CONTINUOUS
 62
               4
100
AcDbLine
 10
-3.2546512283075231
 20
-22.989989305019847
 30
0.0
 11
-3.2546510393504633
 21
-22.789989305019944
 31
0.0
  0
LINE
  5
20D
100
AcDbEntity
  8
0
  6
CONTINUOUS
 62
               4
100
AcDbLine
 10
2.8153465042049817
 20
-25.38999503986571
 30
0.0
 11
-2.8246534957924894
 21
-25.389989711276471
 31
0.0
  0
LINE
  5
20E
100
AcDbEntity
  8
0
  6
CONTINUOUS
 62
               4
100
AcDbLine
 10
5.9953532121793813
 20
-18.289998044286207
 30
0.0
 11
6.4953536845718247
 21
-17.789998516679105
 31
0.0
  0
LINE
  5
20F
100
AcDbEntity
  8
0
  6
CONTINUOUS
 62
               4
100
AcDbLine
 10
-6.5046463154223773
 20
-17.789986234469865
 30
0.0
 11
-6.0046467878152612
 21
-18.289986706862308
 31
0.0
  0
LINE
  5
210
100
AcDbEntity
  8
0
  6
CONTINUOUS
 62
               4
100
AcDbLine
 10
-6.5046463154223773
 20
-17.789986234469865
 30
0.0
 11
-6.50464537063705
 21
-16.789986234470319
 31
0.0
  0
LINE
  5
211
100
AcDbEntity
  8
0
  6
CONTINUOUS
 62
               4
100
AcDbLine
 10
6.4953536845718247
 20
-17.789998516679105
 30
0.0
 11
6.495354629357152
 21
-16.789998516679546
 31
0.0
  0
LINE
  5
212
100
AcDbEntity
  8
0
  6
CONTINUOUS
 62
               4
100
AcDbLine
 10
5.9953532121793813
 20
-18.289998044286207
 30
0.0
 11
-6.0046467878152612
 21
-18.289986706862308
 31
0.0
  0
LINE
  5
213
100
AcDbEntity
  8
0
  6
CONTINUOUS
 62
               4
100
AcDbLine
 10
7.7453669115658244
 20
-3.7899996976669996
 30
0.0
 11
-7.754633088427255
 21
-3.7899850534944619
 31
0.0
  0
LINE
  5
214
100
AcDbEntity
  8
0
  6
CONTINUOUS
 62
               4
100
AcDbLine
 10
-6.264644898244498
 20
-16.289986461219016
 30
0.0
 11
-7.0146448982441569
 21
-16.289985752630017
 31
0.0
  0
LINE
  5
215
100
AcDbEntity
  8
0
  6
CONTINUOUS
 62
               4
100
AcDbLine
 10
7.0053551017495863
 20
-16.289998998520289
 30
0.0
 11
6.2553551017499132
 21
-16.28999828993129
 31
0.0
  0
LINE
  5
216
100
AcDbEntity
  8
0
  6
CONTINUOUS
 62
               4
100
AcDbLine
 10
-1.8446448982464716
 20
-16.289990637170149
 30
0.0
 11
-3.6546448982456639
 21
-16.289988927108709
 31
0.0
  0
LINE
  5
217
100
AcDbEntity
  8
0
  6
CONTINUOUS
 62
               4
100
AcDbLine
 10
-6.4346444258517579
 20
-15.789986300605733
 30
0.0
 11
-6.264644898244498
 21
-16.289986461219016
 31
0.0
  0
LINE
  5
218
100
AcDbEntity
  8
0
  6
CONTINUOUS
 62
               4
100
AcDbLine
 10
6.4253555741425004
 20
-15.789998450545028
 30
0.0
 11
6.2553551017499132
 21
-16.28999828993129
 31
0.0
  0
LINE
  5
219
100
AcDbEntity
  8
0
  6
CONTINUOUS
 62
               4
100
AcDbLine
 10
7.0053642756150936
 20
-6.5799989985246157
 30
0.0
 11
7.5953645496025786
 21
-6.2899995559480857
 31
0.0
  0
LINE
  5
21A
100
AcDbEntity
  8
0
  6
CONTINUOUS
 62
               4
100
AcDbLine
 10
3.6453642756166005
 20
-6.5799958240459233
 30
0.0
 11
4.3053645496040502
 21
-6.2899964476043664
 31
0.0
  0
LINE
  5
21B
100
AcDbEntity
  8
0
  6
CONTINUOUS
 62
               4
100
AcDbLine
 10
1.8353642756174082
 20
-6.5799941139844833
 30
0.0
 11
1.4953645496052985
 21
-6.2899937927575991
 31
0.0
  0
LINE
  5
21C
100
AcDbEntity
  8
0
  6
CONTINUOUS
 62
               4
100
AcDbLine
 10
-1.8446357243809501
 20
-6.5799906371744896
 30
0.0
 11
-1.5046354503933657
 21
-6.2899909584016314
 31
0.0
  0
LINE
  5
21D
100
AcDbEntity
  8
0
  6
CONTINUOUS
 62
               4
100
AcDbLine
 10
-3.6546357243801424
 20
-6.5799889271130496
 30
0.0
 11
-4.3146354503921032
 21
-6.289988303554864
 31
0.0
  0
LINE
  5
21E
100
AcDbEntity
  8
0
  6
CONTINUOUS
 62
               4
100
AcDbLine
 10
-7.0146357243786497
 20
-6.5799857526343573
 30
0.0
 11
-7.6046354503906457
 21
-6.2899851952111447
 31
0.0
  0
LINE
  5
21F
100
AcDbEntity
  8
0
  6
CONTINUOUS
 62
               4
100
AcDbLine
 10
-7.0146448982441569
 20
-16.289985752630017
 30
0.0
 11
-7.6046444258512338
 21
-15.789985195206896
 31
0.0
  0
LINE
  5
220
100
AcDbEntity
  8
0
  6
CONTINUOUS
 62
               4
100
AcDbLine
 10
-3.6546448982456639
 20
-16.289988927108709
 30
0.0
 11
-4.3146444258527055
 21
-15.789988303550615
 31
0.0
  0
LINE
  5
221
100
AcDbEntity
  8
0
  6
CONTINUOUS
 62
               4
100
AcDbLine
 10
-1.5046444258539537
 20
-15.789990958397382
 30
0.0
 11
-1.8446448982464716
 21
-16.289990637170149
 31
0.0
  0
LINE
  5
222
100
AcDbEntity
  8
0
  6
CONTINUOUS
 62
               4
100
AcDbLine
 10
1.8353551017518868
 20
-16.289994113980157
 30
0.0
 11
1.4953555741447104
 21
-15.789993792753364
 31
0.0
  0
LINE
  5
223
100
AcDbEntity
  8
0
  6
CONTINUOUS
 62
               4
100
AcDbLine
 10
3.645355101751079
 20
-16.289995824041597
 30
0.0
 11
4.3053555741434479
 21
-15.789996447600132
 31
0.0
  0
LINE
  5
224
100
AcDbEntity
  8
0
  6
CONTINUOUS
 62
               4
100
AcDbLine
 10
7.0053551017495863
 20
-16.289998998520289
 30
0.0
 11
7.5953555741419763
 21
-15.789999555943851
 31
0.0
  0
LINE
  5
225
100
AcDbEntity
  8
0
  6
CONTINUOUS
 62
               4
100
AcDbLine
 10
3.645355101751079
 20
-16.289995824041597
 30
0.0
 11
1.8353551017518868
 21
-16.289994113980157
 31
0.0
  0
LINE
  5
226
100
AcDbEntity
  8
0
  6
CONTINUOUS
 62
               4
100
AcDbLine
 10
6.4253555741425004
 20
-15.789998450545028
 30
0.0
 11
4.3053555741434479
 21
-15.789996447600132
 31
0.0
  0
LINE
  5
227
100
AcDbEntity
  8
0
  6
CONTINUOUS
 62
               4
100
AcDbLine
 10
-7.6046444258512338
 20
-15.789985195206896
 30
0.0
 11
-7.7546444258511826
 21
-15.789985053489104
 31
0.0
  0
LINE
  5
228
100
AcDbEntity
  8
0
  6
CONTINUOUS
 62
               4
100
AcDbLine
 10
-4.3146444258527055
 20
-15.789988303550615
 30
0.0
 11
-6.4346444258517579
 21
-15.789986300605733
 31
0.0
  0
LINE
  5
229
100
AcDbEntity
  8
0
  6
CONTINUOUS
 62
               4
100
AcDbLine
 10
1.4953555741447104
 20
-15.789993792753364
 30
0.0
 11
-1.5046444258539537
 21
-15.789990958397382
 31
0.0
  0
LINE
  5
22A
100
AcDbEntity
  8
0
  6
CONTINUOUS
 62
               4
100
AcDbLine
 10
-6.4346357243789072
 20
-6.5799863006098462
 30
0.0
 11
-7.0146357243786497
 21
-6.5799857526343573
 31
0.0
  0
LINE
  5
22B
100
AcDbEntity
  8
0
  6
CONTINUOUS
 62
               4
100
AcDbLine
 10
-6.4346354503911556
 20
-6.2899863006099679
 30
0.0
 11
-7.6046354503906457
 21
-6.2899851952111447
 31
0.0
  0
LINE
  5
22C
100
AcDbEntity
  8
0
  6
CONTINUOUS
 62
               4
100
AcDbLine
 10
3.6453642756166005
 20
-6.5799958240459233
 30
0.0
 11
1.8353642756174082
 21
-6.5799941139844833
 31
0.0
  0
LINE
  5
22D
100
AcDbEntity
  8
0
  6
CONTINUOUS
 62
               4
100
AcDbLine
 10
4.3053645496040502
 20
-6.2899964476043664
 30
0.0
 11
1.4953645496052985
 21
-6.2899937927575991
 31
0.0
  0
LINE
  5
22E
100
AcDbEntity
  8
0
  6
CONTINUOUS
 62
               4
100
AcDbLine
 10
-1.8446357243809501
 20
-6.5799906371744896
 30
0.0
 11
-3.6546357243801424
 21
-6.5799889271130496
 31
0.0
  0
LINE
  5
22F
100
AcDbEntity
  8
0
  6
CONTINUOUS
 62
               4
100
AcDbLine
 10
-1.5046354503933657
 20
-6.2899909584016314
 30
0.0
 11
-4.3146354503921032
 21
-6.289988303554864
 31
0.0
  0
LINE
  5
230
100
AcDbEntity
  8
0
  6
CONTINUOUS
 62
               4
100
AcDbLine
 10
7.7453555741419109
 20
-15.789999697661642
 30
0.0
 11
7.5953555741419763
 21
-15.789999555943851
 31
0.0
  0
LINE
  5
231
100
AcDbEntity
  8
0
  6
CONTINUOUS
 62
               4
100
AcDbLine
 10
7.0053642756150936
 20
-6.5799989985246157
 30
0.0
 11
6.4253642756153511
 21
-6.5799984505491267
 31
0.0
  0
LINE
  5
232
100
AcDbEntity
  8
0
  6
CONTINUOUS
 62
               4
100
AcDbLine
 10
7.5953645496025786
 20
-6.2899995559480857
 30
0.0
 11
6.4253645496031027
 21
-6.2899984505492625
 31
0.0
  0
LINE
  5
233
100
AcDbEntity
  8
0
  6
CONTINUOUS
 62
               4
100
AcDbLine
 10
7.5953645496025786
 20
-6.2899995559480857
 30
0.0
 11
7.5953555741419763
 21
-15.789999555943851
 31
0.0
  0
LINE
  5
234
100
AcDbEntity
  8
0
  6
CONTINUOUS
 62
               4
100
AcDbLine
 10
7.0053642756150936
 20
-6.5799989985246157
 30
0.0
 11
7.0053551017495863
 21
-16.289998998520289
 31
0.0
  0
LINE
  5
235
100
AcDbEntity
  8
0
  6
CONTINUOUS
 62
               4
100
AcDbLine
 10
6.4253645496031027
 20
-6.2899984505492625
 30
0.0
 11
6.4253555741425004
 21
-15.789998450545028
 31
0.0
  0
LINE
  5
236
100
AcDbEntity
  8
0
  6
CONTINUOUS
 62
               4
100
AcDbLine
 10
4.3053645496040502
 20
-6.2899964476043664
 30
0.0
 11
4.3053555741434479
 21
-15.789996447600132
 31
0.0
  0
LINE
  5
237
100
AcDbEntity
  8
0
  6
CONTINUOUS
 62
               4
100
AcDbLine
 10
3.6453642756166005
 20
-6.5799958240459233
 30
0.0
 11
3.645355101751079
 21
-16.289995824041597
 31
0.0
  0
LINE
  5
238
100
AcDbEntity
  8
0
  6
CONTINUOUS
 62
               4
100
AcDbLine
 10
-7.6046354503906457
 20
-6.2899851952111447
 30
0.0
 11
-7.6046444258512338
 21
-15.789985195206896
 31
0.0
  0
LINE
  5
239
100
AcDbEntity
  8
0
  6
CONTINUOUS
 62
               4
100
AcDbLine
 10
-7.0146357243786497
 20
-6.5799857526343573
 30
0.0
 11
-7.0146448982441569
 21
-16.289985752630017
 31
0.0
  0
LINE
  5
23A
100
AcDbEntity
  8
0
  6
CONTINUOUS
 62
               4
100
AcDbLine
 10
-6.4346354503911556
 20
-6.2899863006099679
 30
0.0
 11
-6.4346444258517579
 21
-15.789986300605733
 31
0.0
  0
LINE
  5
23B
100
AcDbEntity
  8
0
  6
CONTINUOUS
 62
               4
100
AcDbLine
 10
-4.3146354503921032
 20
-6.289988303554864
 30
0.0
 11
-4.3146444258527055
 21
-15.789988303550615
 31
0.0
  0
LINE
  5
23C
100
AcDbEntity
  8
0
  6
CONTINUOUS
 62
               4
100
AcDbLine
 10
-3.6546357243801424
 20
-6.5799889271130496
 30
0.0
 11
-3.6546448982456639
 21
-16.289988927108709
 31
0.0
  0
LINE
  5
23D
100
AcDbEntity
  8
0
  6
CONTINUOUS
 62
               4
100
AcDbLine
 10
-1.8446357243809501
 20
-6.5799906371744896
 30
0.0
 11
-1.8446448982464716
 21
-16.289990637170149
 31
0.0
  0
LINE
  5
23E
100
AcDbEntity
  8
0
  6
CONTINUOUS
 62
               4
100
AcDbLine
 10
1.8353642756174082
 20
-6.5799941139844833
 30
0.0
 11
1.8353551017518868
 21
-16.289994113980157
 31
0.0
  0
LINE
  5
23F
100
AcDbEntity
  8
0
  6
CONTINUOUS
 62
               4
100
AcDbLine
 10
1.4953645496052985
 20
-6.2899937927575991
 30
0.0
 11
1.4953555741447104
 21
-15.789993792753364
 31
0.0
  0
LINE
  5
240
100
AcDbEntity
  8
0
  6
CONTINUOUS
 62
               4
100
AcDbLine
 10
-1.5046354503933657
 20
-6.2899909584016314
 30
0.0
 11
-1.5046444258539537
 21
-15.789990958397382
 31
0.0
  0
LINE
  5
241
100
AcDbEntity
  8
0
  6
CONTINUOUS
 62
             200
100
AcDbLine
 10
5.2453686027326683
 20
-1.9999973357044922
 30
0.0
 11
5.2453673839596036
 21
-3.2899973357039158
 31
0.0
  0
LINE
  5
242
100
AcDbEntity
  8
0
  6
CONTINUOUS
 62
             200
100
AcDbLine
 10
-5.2546313972626422
 20
-1.9999874154585768
 30
0.0
 11
-5.2546326160357069
 21
-3.2899874154580004
 31
0.0
  0
LINE
  5
243
100
AcDbEntity
  8
0
  6
CONTINUOUS
 62
               4
100
AcDbLine
 10
-6.0046313972623011
 20
-1.9999867068695778
 30
0.0
 11
-6.00463261603538
 21
-3.2899867068690014
 31
0.0
  0
LINE
  5
244
100
AcDbEntity
  8
0
  6
CONTINUOUS
 62
               4
100
AcDbLine
 10
5.9953686027323414
 20
-1.9999980442934913
 30
0.0
 11
5.9953673839592625
 21
-3.2899980442929149
 31
0.0
  0
LINE
  5
245
100
AcDbEntity
  8
0
  6
CONTINUOUS
 62
               4
100
AcDbLine
 10
-7.2546326160348116
 20
-3.2899855258873458
 30
0.0
 11
-7.754633088427255
 21
-3.7899850534944619
 31
0.0
  0
LINE
  5
246
100
AcDbEntity
  8
0
  6
CONTINUOUS
 62
               4
100
AcDbLine
 10
7.2453673839587083
 20
-3.2899992252745704
 30
0.0
 11
7.7453669115658244
 21
-3.7899996976669996
 31
0.0
  0
LINE
  5
247
100
AcDbEntity
  8
0
  6
CONTINUOUS
 62
               4
100
AcDbLine
 10
7.2453673839587083
 20
-3.2899992252745704
 30
0.0
 11
-7.2546326160348116
 21
-3.2899855258873458
 31
0.0
  0
LINE
  5
248
100
AcDbEntity
  8
0
  6
CONTINUOUS
 62
               4
100
AcDbLine
 10
-6.7546453706369363
 20
-16.789985998273977
 30
0.0
 11
-7.7546444258511826
 21
-15.789985053489104
 31
0.0
  0
LINE
  5
249
100
AcDbEntity
  8
0
  6
CONTINUOUS
 62
               4
100
AcDbLine
 10
7.7453555741419109
 20
-15.789999697661642
 30
0.0
 11
6.7453546293570383
 21
-16.789998752875874
 31
0.0
  0
LINE
  5
24A
100
AcDbEntity
  8
0
  6
CONTINUOUS
 62
               4
100
AcDbLine
 10
-7.754633088427255
 20
-3.7899850534944619
 30
0.0
 11
-7.7546444258511826
 21
-15.789985053489104
 31
0.0
  0
LINE
  5
24B
100
AcDbEntity
  8
0
  6
CONTINUOUS
 62
               4
100
AcDbLine
 10
7.7453669115658244
 20
-3.7899996976669996
 30
0.0
 11
7.7453555741419109
 21
-15.789999697661642
 31
0.0
  0
LINE
  5
24C
100
AcDbEntity
  8
0
  6
CONTINUOUS
 62
               4
100
AcDbLine
 10
6.7453546293570383
 20
-16.789998752875874
 30
0.0
 11
-6.7546453706369363
 21
-16.789985998273977
 31
0.0
  0
LINE
  5
24D
100
AcDbEntity
  8
0
  6
CONTINUOUS
 62
               4
100
AcDbLine
 10
-7.5746313972616122
 20
-1.9999852235566209
 30
0.0
 11
-8.0746309248687282
 21
-1.4999847511641775
 31
0.0
  0
LINE
  5
24E
100
AcDbEntity
  8
0
  6
CONTINUOUS
 62
               4
100
AcDbLine
 10
7.5653686027316382
 20
-1.9999995276064482
 30
0.0
 11
8.0653690751240816
 21
-1.4999999999993321
 31
0.0
  0
LINE
  5
24F
100
AcDbEntity
  8
0
  6
CONTINUOUS
 62
               4
100
AcDbLine
 10
-7.5746313972616122
 20
-1.9999852235566209
 30
0.0
 11
7.5653686027316382
 21
-1.9999995276064482
 31
0.0
  0
LINE
  5
250
100
AcDbEntity
  8
0
  6
CONTINUOUS
 62
               4
100
AcDbLine
 10
8.0653690751240816
 20
-1.4999999999993321
 30
0.0
 11
8.0653704923020655
 21
0.0
 31
0.0
  0
LINE
  5
251
100
AcDbEntity
  8
0
  6
CONTINUOUS
 62
               4
100
AcDbLine
 10
-8.0746309248687282
 20
-1.4999847511641775
 30
0.0
 11
-8.0746295076907302
 21
0.0000152488351546
 31
0.0
  0
ENDBLK
  5
252
100
AcDbEntity
  8
0
100
AcDbBlockEnd
  0
ENDSEC
  0
SECTION
  2
ENTITIES
  0
INSERT
  5
253
100
AcDbEntity
  8
0
100
AcDbBlockReference
  2
MS_4
 10
-120.59999999999999
 20
-88.989999999999995
 30
0.0
  0
INSERT
  5
254
100
AcDbEntity
  8
0
100
AcDbBlockReference
  2
MS_3
 10
-42.104629516601562
 20
85.057586669921875
 30
0.0
  0
INSERT
  5
255
100
AcDbEntity
  8
0
100
AcDbBlockReference
  2
MS_2
 10
120.89537048339844
 20
22.400588989257813
 30
0.0
  0
INSERT
  5
256
100
AcDbEntity
  8
0
100
AcDbBlockReference
  2
MS_1
 10
-42.104644775390625
 20
22.400588989257813
 30
0.0
  0
MTEXT
  5
257
100
AcDbEntity
  8
0
  6
CONTINUOUS
 62
               7
100
AcDbMText
 10
137.50455163152421
 20
125.10000610351562
 30
0.0
 40
4.5
 41
0.0
 71
               4
 72
               1
  1
\W1.273;\A1;Ver.1.0
  7
MX_NOTE_STANDARD
  0
MTEXT
  5
258
100
AcDbEntity
  8
0
  6
CONTINUOUS
 62
               7
100
AcDbMText
 10
-171.22115384793935
 20
125.10000610351562
 30
0.0
 40
4.5
 41
0.0
 71
               4
 72
               1
  1
\W1.038;\A1;CS-FILTER
  7
MX_NOTE_STANDARD
  0
LINE
  5
259
100
AcDbEntity
  8
0
  6
CONTINUOUS
 62
               7
100
AcDbLine
 10
-146.40000000000001
 20
-78.989999999999995
 30
0.0
 11
-146.40000000000001
 21
-52.079999999999998
 31
0.0
  0
LINE
  5
25A
100
AcDbEntity
  8
0
  6
CONTINUOUS
 62
               7
100
AcDbLine
 10
-136.40000000000001
 20
-88.989999999999995
 30
0.0
 11
-104.8
 21
-88.989999999999995
 31
0.0
  0
LINE
  5
25B
100
AcDbEntity
  8
0
  6
CONTINUOUS
 62
               7
100
AcDbLine
 10
-94.799999999999997
 20
-78.989999999999995
 30
0.0
 11
-94.799999999999997
 21
-65.909999999999997
 31
0.0
  0
ARC
  5
25C
100
AcDbEntity
  8
0
  6
CONTINUOUS
 62
               7
100
AcDbCircle
 10
-136.4070337045635
 20
-78.997033704563506
 30
0.0
 40
9.9929687708272983
100
AcDbArc
 50
179.95967148218378
 51
270.04032851781523
  0
ARC
  5
25D
100
AcDbEntity
  8
0
  6
CONTINUOUS
 62
               7
100
AcDbCircle
 10
-104.79757509818424
 20
-78.992424901815752
 30
0.0
 40
9.9975753922629842
100
AcDbArc
 50
269.98610296639998
 51
0.0138970335993939
  0
MTEXT
  5
25E
100
AcDbEntity
  8
0
  6
CONTINUOUS
 62
               7
100
AcDbMText
 10
-142.01814505266103
 20
-37.30267333984375
 30
0.0
 40
4.5
 41
0.0
 71
               4
 72
               1
  1
\W1.154;\A1;OPTION:-F1
  7
MX_NOTE_STANDARD
  0
MTEXT
  5
25F
100
AcDbEntity
  8
0
  6
CONTINUOUS
 62
               7
100
AcDbMText
 10
37.5833740234375
 20
23.52557373046875
 30
0.0
 40
4.5
 41
0.0
 71
               7
 72
               1
  1
\A1;OUT
  7
MX_NOTE_STANDARD
  0
MTEXT
  5
260
100
AcDbEntity
  8
0
  6
CONTINUOUS
 62
               7
100
AcDbMText
 10
-70.266656504869459
 20
23.525604248046875
 30
0.0
 40
4.5
 41
0.0
 71
               7
 72
               1
  1
\W1.200;\A1;IN
  7
MX_NOTE_STANDARD
  0
LINE
  5
261
100
AcDbEntity
  8
0
  6
CONTINUOUS
 62
               7
100
AcDbLine
 10
-142.96000000000001
 20
-53.001999999999995
 30
0.0
 11
-142.96000000000001
 21
-71.489999999999995
 31
0.0
  0
LINE
  5
262
100
AcDbEntity
  8
0
  6
CONTINUOUS
 62
               7
100
AcDbLine
 10
-134.23999999999998
 20
-55.339162790697678
 30
0.0
 11
-134.23999999999998
 21
-71.489999999999995
 31
0.0
  0
LINE
  5
263
100
AcDbEntity
  8
0
  6
CONTINUOUS
 62
               7
100
AcDbLine
 10
-142.37
 20
-53.160133720930226
 30
0.0
 11
-142.37
 21
-70.989999999999995
 31
0.0
  0
LINE
  5
264
100
AcDbEntity
  8
0
  6
CONTINUOUS
 62
               7
100
AcDbLine
 10
-142.12
 20
-53.227139534883719
 30
0.0
 11
-142.12
 21
-70.489999999999995
 31
0.0
  0
LINE
  5
265
100
AcDbEntity
  8
0
  6
CONTINUOUS
 62
               7
100
AcDbLine
 10
-140.29999999999998
 20
-53.714941860465117
 30
0.0
 11
-140.29999999999998
 21
-69.989999999999995
 31
0.0
  0
LINE
  5
266
100
AcDbEntity
  8
0
  6
CONTINUOUS
 62
               7
100
AcDbLine
 10
-134.63999999999999
 20
-55.231953488372099
 30
0.0
 11
-134.63999999999999
 21
-70.489999999999995
 31
0.0
  0
LINE
  5
267
100
AcDbEntity
  8
0
  6
CONTINUOUS
 62
               7
100
AcDbLine
 10
-139.29999999999998
 20
-70.989999999999995
 30
0.0
 11
-135.63999999999999
 21
-70.989999999999995
 31
0.0
  0
LINE
  5
268
100
AcDbEntity
  8
0
  6
CONTINUOUS
 62
               7
100
AcDbLine
 10
-141.12
 20
-71.489999999999995
 30
0.0
 11
-135.63999999999999
 21
-71.489999999999995
 31
0.0
  0
LINE
  5
269
100
AcDbEntity
  8
0
  6
CONTINUOUS
 62
               7
100
AcDbLine
 10
-141.37
 20
-71.989999999999995
 30
0.0
 11
-135.23999999999998
 21
-71.989999999999995
 31
0.0
  0
LINE
  5
26A
100
AcDbEntity
  8
0
  6
CONTINUOUS
 62
               7
100
AcDbLine
 10
-141.96000000000001
 20
-72.489999999999995
 30
0.0
 11
-135.23999999999998
 21
-72.489999999999995
 31
0.0
  0
ARC
  5
26B
100
AcDbEntity
  8
0
  6
CONTINUOUS
 62
               7
100
AcDbCircle
 10
-135.64355745469945
 20
-69.986442545300534
 30
0.0
 40
1.0035637599907639
100
AcDbArc
 50
270.20310375393154
 51
359.79689624606704
  0
ARC
  5
26C
100
AcDbEntity
  8
0
  6
CONTINUOUS
 62
               7
100
AcDbCircle
 10
-135.64355745469945
 20
-70.486442545300534
 30
0.0
 40
1.0035637599907639
100
AcDbArc
 50
270.20310375393154
 51
359.79689624606704
  0
ARC
  5
26D
100
AcDbEntity
  8
0
  6
CONTINUOUS
 62
               7
100
AcDbCircle
 10
-135.24251867489599
 20
-70.987481325103971
 30
0.0
 40
1.0025218387838297
100
AcDbArc
 50
270.14394658324017
 51
359.85605341675762
  0
ARC
  5
26E
100
AcDbEntity
  8
0
  6
CONTINUOUS
 62
               7
100
AcDbCircle
 10
-135.24251867489599
 20
-71.487481325103971
 30
0.0
 40
1.0025218387838297
100
AcDbArc
 50
270.14394658324017
 51
359.85605341675762
  0
ARC
  5
26F
100
AcDbEntity
  8
0
  6
CONTINUOUS
 62
               7
100
AcDbCircle
 10
-139.30303051625623
 20
-69.993030516256241
 30
0.0
 40
0.9969740897059782
100
AcDbArc
 50
179.82583693957724
 51
270.17416306042168
  0
ARC
  5
270
100
AcDbEntity
  8
0
  6
CONTINUOUS
 62
               7
100
AcDbCircle
 10
-141.12084645786581
 20
-70.4908464578658
 30
0.0
 40
0.9991539006830785
100
AcDbArc
 50
179.95146046168134
 51
270.04853953831719
  0
ARC
  5
271
100
AcDbEntity
  8
0
  6
CONTINUOUS
 62
               7
100
AcDbCircle
 10
-141.37443422479535
 20
-70.994434224795356
 30
0.0
 40
0.9955756501182413
100
AcDbArc
 50
179.74480773394015
 51
270.25519226605826
  0
ARC
  5
272
100
AcDbEntity
  8
0
  6
CONTINUOUS
 62
               7
100
AcDbCircle
 10
-141.9633597071942
 20
-71.493359707194188
 30
0.0
 40
0.9966459556314296
100
AcDbArc
 50
179.80685477513643
 51
270.19314522486286
  0
LINE
  5
273
100
AcDbEntity
  8
0
  6
CONTINUOUS
 62
               7
100
AcDbLine
 10
-98.22999999999999
 20
-64.990680232558134
 30
0.0
 11
-98.22999999999999
 21
-71.489999999999995
 31
0.0
  0
LINE
  5
274
100
AcDbEntity
  8
0
  6
CONTINUOUS
 62
               7
100
AcDbLine
 10
-106.94999999999999
 20
-62.653517441860458
 30
0.0
 11
-106.94999999999999
 21
-71.489999999999995
 31
0.0
  0
LINE
  5
275
100
AcDbEntity
  8
0
  6
CONTINUOUS
 62
               7
100
AcDbLine
 10
-98.819999999999993
 20
-64.832546511627896
 30
0.0
 11
-98.819999999999993
 21
-70.989999999999995
 31
0.0
  0
LINE
  5
276
100
AcDbEntity
  8
0
  6
CONTINUOUS
 62
               7
100
AcDbLine
 10
-99.079999999999998
 20
-64.762860465116276
 30
0.0
 11
-99.079999999999998
 21
-70.489999999999995
 31
0.0
  0
LINE
  5
277
100
AcDbEntity
  8
0
  6
CONTINUOUS
 62
               7
100
AcDbLine
 10
-100.89
 20
-64.277738372093026
 30
0.0
 11
-100.89
 21
-69.989999999999995
 31
0.0
  0
LINE
  5
278
100
AcDbEntity
  8
0
  6
CONTINUOUS
 62
               7
100
AcDbLine
 10
-106.54999999999998
 20
-62.760726744186044
 30
0.0
 11
-106.54999999999998
 21
-70.489999999999995
 31
0.0
  0
LINE
  5
279
100
AcDbEntity
  8
0
  6
CONTINUOUS
 62
               7
100
AcDbLine
 10
-101.89
 20
-70.989999999999995
 30
0.0
 11
-105.54999999999998
 21
-70.989999999999995
 31
0.0
  0
LINE
  5
27A
100
AcDbEntity
  8
0
  6
CONTINUOUS
 62
               7
100
AcDbLine
 10
-100.08
 20
-71.489999999999995
 30
0.0
 11
-105.54999999999998
 21
-71.489999999999995
 31
0.0
  0
LINE
  5
27B
100
AcDbEntity
  8
0
  6
CONTINUOUS
 62
               7
100
AcDbLine
 10
-99.819999999999993
 20
-71.989999999999995
 30
0.0
 11
-105.94999999999999
 21
-71.989999999999995
 31
0.0
  0
LINE
  5
27C
100
AcDbEntity
  8
0
  6
CONTINUOUS
 62
               7
100
AcDbLine
 10
-99.22999999999999
 20
-72.489999999999995
 30
0.0
 11
-105.94999999999999
 21
-72.489999999999995
 31
0.0
  0
ARC
  5
27D
100
AcDbEntity
  8
0
  6
CONTINUOUS
 62
               7
100
AcDbCircle
 10
-105.55143784173802
 20
-69.991437841738019
 30
0.0
 40
0.9985631934442989
100
AcDbArc
 50
179.91749917060264
 51
270.08250082939708
  0
ARC
  5
27E
100
AcDbEntity
  8
0
  6
CONTINUOUS
 62
               7
100
AcDbCircle
 10
-105.55143784173802
 20
-70.491437841738019
 30
0.0
 40
0.9985631934442989
100
AcDbArc
 50
179.91749917060264
 51
270.08250082939708
  0
ARC
  5
27F
100
AcDbEntity
  8
0
  6
CONTINUOUS
 62
               7
100
AcDbCircle
 10
-105.95247146472369
 20
-70.992471464723693
 30
0.0
 40
0.9975315969072657
100
AcDbArc
 50
179.85804495497251
 51
270.14195504502624
  0
ARC
  5
280
100
AcDbEntity
  8
0
  6
CONTINUOUS
 62
               7
100
AcDbCircle
 10
-105.95247146472369
 20
-71.492471464723693
 30
0.0
 40
0.9975315969072657
100
AcDbArc
 50
179.85804495497251
 51
270.14195504502624
  0
ARC
  5
281
100
AcDbEntity
  8
0
  6
CONTINUOUS
 62
               7
100
AcDbCircle
 10
-101.89195683196736
 20
-69.988043168032632
 30
0.0
 40
1.0019587428219845
100
AcDbArc
 50
270.11189910265574
 51
359.88810089734318
  0
ARC
  5
282
100
AcDbEntity
  8
0
  6
CONTINUOUS
 62
               7
100
AcDbCircle
 10
-100.07913064925498
 20
-70.490869350745015
 30
0.0
 40
0.9991310274690672
100
AcDbArc
 50
269.95014654382408
 51
0.0498534561753052
  0
ARC
  5
283
100
AcDbEntity
  8
0
  6
CONTINUOUS
 62
               7
100
AcDbCircle
 10
-99.820546107727367
 20
-70.989453892272621
 30
0.0
 40
1.0005462567628007
100
AcDbArc
 50
270.03127258662903
 51
359.96872741336944
  0
ARC
  5
284
100
AcDbEntity
  8
0
  6
CONTINUOUS
 62
               7
100
AcDbCircle
 10
-99.231618346763341
 20
-71.488381653236644
 30
0.0
 40
1.0016196541697764
100
AcDbArc
 50
270.09257454093103
 51
359.90742545906795
  0
MTEXT
  5
285
100
AcDbEntity
  8
0
  6
CONTINUOUS
 62
               7
100
AcDbMText
 10
-178.4399999995172
 20
107.60000610351562
 30
0.0
 40
4.5
 41
0.0
 71
               4
 72
               1
  1
\W1.080;\A1;MODEL:CS-MMF150-03
  7
MX_NOTE_STANDARD
  0
LINE
  5
286
100
AcDbEntity
  8
0
  6
CENTER
 62
               2
100
AcDbLine
 10
-120.59999999999999
 20
-48.990000000000002
 30
0.0
 11
-120.59999999999999
 21
-88.989999999999995
 31
0.0
  0
LINE
  5
287
100
AcDbEntity
  8
0
  6
CONTINUOUS
 62
               7
100
AcDbLine
 10
-194.25
 20
132.60000610351562
 30
0.0
 11
194.80000305175781
 21
132.60000610351562
 31
0.0
  0
LINE
  5
288
100
AcDbEntity
  8
0
  6
CONTINUOUS
 62
               7
100
AcDbLine
 10
194.80000305175781
 20
132.60000610351562
 30
0.0
 11
194.80000305175781
 21
-133.5
 31
0.0
  0
LINE
  5
289
100
AcDbEntity
  8
0
  6
CONTINUOUS
 62
               7
100
AcDbLine
 10
-194.25
 20
132.60000610351562
 30
0.0
 11
-194.25
 21
-133.5
 31
0.0
  0
LINE
  5
28A
100
AcDbEntity
  8
0
  6
CONTINUOUS
 62
               7
100
AcDbLine
 10
-194.25
 20
-133.5
 30
0.0
 11
194.80000305175781
 21
-133.5
 31
0.0
  0
LINE
  5
28B
100
AcDbEntity
  8
0
  6
CONTINUOUS
 62
               7
100
AcDbLine
 10
109.80000305175781
 20
-118.5
 30
0.0
 11
109.80000305175781
 21
-133.5
 31
0.0
  0
LINE
  5
28C
100
AcDbEntity
  8
0
  6
CONTINUOUS
 62
               7
100
AcDbLine
 10
109.80000305175781
 20
-118.5
 30
0.0
 11
194.80000305175781
 21
-118.5
 31
0.0
  0
LINE
  5
28D
100
AcDbEntity
  8
0
  6
CONTINUOUS
 62
               7
100
AcDbLine
 10
109.80000305175781
 20
132.60000610351562
 30
0.0
 11
109.80000305175781
 21
117.60000610351562
 31
0.0
  0
LINE
  5
28E
100
AcDbEntity
  8
0
  6
CONTINUOUS
 62
               7
100
AcDbLine
 10
109.80000305175781
 20
117.60000610351562
 30
0.0
 11
194.80000305175781
 21
117.60000610351562
 31
0.0
  0
LINE
  5
28F
100
AcDbEntity
  8
0
  6
CONTINUOUS
 62
               7
100
AcDbLine
 10
-194.25
 20
117.60000610351562
 30
0.0
 11
-109.25
 21
117.60000610351562
 31
0.0
  0
LINE
  5
290
100
AcDbEntity
  8
0
  6
CONTINUOUS
 62
               7
100
AcDbLine
 10
-109.25
 20
132.60000610351562
 30
0.0
 11
-109.25
 21
117.60000610351562
 31
0.0
  0
MTEXT
  5
291
100
AcDbEntity
  8
0
  6
CONTINUOUS
 62
               7
100
AcDbMText
 10
115.5267259825148
 20
-126.0
 30
0.0
 40
6.3000001907348633
 41
0.0
 71
               4
 72
               1
  1
\W1.121;\A1;KOGANEI CORP.
  7
MX_NOTE_STANDARD
  0
ENDSEC
  0
SECTION
  2
OBJECTS
  0
DICTIONARY
  5
19
100
AcDbDictionary
  3
ACAD_GROUP
350
1A
  3
ACAD_MLINESTYLE
350
1B
  0
DICTIONARY
  5
1A
102
{ACAD_REACTORS
330
19
102
}
100
AcDbDictionary
  0
DICTIONARY
  5
1B
102
{ACAD_REACTORS
330
19
102
}
100
AcDbDictionary
  3
STANDARD
350
1C
  0
MLINESTYLE
  5
1C
102
{ACAD_REACTORS
330
1B
102
}
100
AcDbMlineStyle
  2
Standard
 70
               0
  3

 62
               0
 51
90.0
 52
90.0
 71
               2
 49
0.5
 62
             256
  6
ByLayer
 49
-0.5
 62
             256
  6
ByLayer
  0
ENDSEC
  0
EOF
