  0
SECTION
  2
HEADER
  9
$ACADVER
  1
AC1012
  9
$DWGCODEPAGE
  3
dos932
  9
$INSBASE
 10
0.0
 20
0.0
 30
0.0
  9
$EXTMIN
 10
-281.25
 20
-195.0
 30
0.0
  9
$EXTMAX
 10
285.59998798370361
 20
195.5
 30
0.0
  9
$LIMMIN
 10
-281.25
 20
-195.0
  9
$LIMMAX
 10
285.59998798370361
 20
195.5
  9
$ORTHOMODE
 70
               0
  9
$REGENMODE
 70
               1
  9
$FILLMODE
 70
               1
  9
$QTEXTMODE
 70
               0
  9
$MIRRTEXT
 70
               1
  9
$DRAGMODE
 70
               2
  9
$LTSCALE
 40
1.0
  9
$OSMODE
 70
               0
  9
$ATTMODE
 70
               1
  9
$TEXTSIZE
 40
3.2000000476837158
  9
$TRACEWID
 40
0.05
  9
$TEXTSTYLE
  7
MX_NOTE_STANDARD
  9
$CLAYER
  8
0
  9
$CELTYPE
  6
CONTINUOUS
  9
$CECOLOR
 62
             256
  9
$CELTSCALE
 40
1.0
  9
$DELOBJ
 70
               1
  9
$DISPSILH
 70
               0
  9
$DIMSCALE
 40
1.0
  9
$DIMASZ
 40
2.5
  9
$DIMEXO
 40
1.5
  9
$DIMDLI
 40
3.75
  9
$DIMRND
 40
0.0
  9
$DIMDLE
 40
0.0
  9
$DIMEXE
 40
1.5
  9
$DIMTP
 40
0.0
  9
$DIMTM
 40
0.0
  9
$DIMTXT
 40
3.2000000476837158
  9
$DIMCEN
 40
2.5
  9
$DIMTSZ
 40
0.0
  9
$DIMTOL
 70
               0
  9
$DIMLIM
 70
               0
  9
$DIMTIH
 70
               0
  9
$DIMTOH
 70
               0
  9
$DIMSE1
 70
               0
  9
$DIMSE2
 70
               0
  9
$DIMTAD
 70
               1
  9
$DIMZIN
 70
               8
  9
$DIMBLK
  1

  9
$DIMASO
 70
               1
  9
$DIMSHO
 70
               1
  9
$DIMPOST
  1

  9
$DIMAPOST
  1

  9
$DIMALT
 70
               0
  9
$DIMALTD
 70
               4
  9
$DIMALTF
 40
0.0394
  9
$DIMLFAC
 40
1.0
  9
$DIMTOFL
 70
               1
  9
$DIMTVP
 40
0.0
  9
$DIMTIX
 70
               0
  9
$DIMSOXD
 70
               0
  9
$DIMSAH
 70
               0
  9
$DIMBLK1
  1

  9
$DIMBLK2
  1

  9
$DIMSTYLE
  2
MXDIMSTYLE
  9
$DIMCLRD
 70
               0
  9
$DIMCLRE
 70
               0
  9
$DIMCLRT
 70
               0
  9
$DIMTFAC
 40
1.0
  9
$DIMGAP
 40
1.0
  9
$DIMJUST
 70
               0
  9
$DIMSD1
 70
               0
  9
$DIMSD2
 70
               0
  9
$DIMTOLJ
 70
               1
  9
$DIMTZIN
 70
               0
  9
$DIMALTZ
 70
               0
  9
$DIMALTTZ
 70
               0
  9
$DIMFIT
 70
               3
  9
$DIMUPT
 70
               1
  9
$DIMUNIT
 70
               2
  9
$DIMDEC
 70
               4
  9
$DIMTDEC
 70
               4
  9
$DIMALTU
 70
               8
  9
$DIMALTTD
 70
               4
  9
$DIMTXSTY
  7
MX_NOTE_STANDARD
  9
$DIMAUNIT
 70
               0
  9
$LUNITS
 70
               2
  9
$LUPREC
 70
               4
  9
$SKETCHINC
 40
0.1
  9
$FILLETRAD
 40
0.0
  9
$AUNITS
 70
               0
  9
$AUPREC
 70
               0
  9
$MENU
  1
acad
  9
$ELEVATION
 40
0.0
  9
$PELEVATION
 40
0.0
  9
$THICKNESS
 40
0.0
  9
$LIMCHECK
 70
               0
  9
$BLIPMODE
 70
               1
  9
$CHAMFERA
 40
0.0
  9
$CHAMFERB
 40
0.0
  9
$CHAMFERC
 40
0.0
  9
$CHAMFERD
 40
0.0
  9
$SKPOLY
 70
               0
  9
$TDCREATE
 40
2452220.697384259
  9
$TDUPDATE
 40
2452220.697384259
  9
$TDINDWG
 40
0.0000000000
  9
$TDUSRTIMER
 40
0.0000000000
  9
$USRTIMER
 70
               1
  9
$ANGBASE
 50
0.0
  9
$ANGDIR
 70
               0
  9
$PDMODE
 70
               0
  9
$PDSIZE
 40
0.0
  9
$PLINEWID
 40
0.0
  9
$COORDS
 70
               1
  9
$SPLFRAME
 70
               0
  9
$SPLINETYPE
 70
               6
  9
$SPLINESEGS
 70
               8
  9
$ATTDIA
 70
               0
  9
$ATTREQ
 70
               1
  9
$HANDLING
 70
               1
  9
$HANDSEED
  5
298
  9
$SURFTAB1
 70
               6
  9
$SURFTAB2
 70
               6
  9
$SURFTYPE
 70
               6
  9
$SURFU
 70
               6
  9
$SURFV
 70
               6
  9
$UCSNAME
  2

  9
$UCSORG
 10
0.0
 20
0.0
 30
0.0
  9
$UCSXDIR
 10
1.0
 20
0.0
 30
0.0
  9
$UCSYDIR
 10
0.0
 20
1.0
 30
0.0
  9
$PUCSNAME
  2

  9
$PUCSORG
 10
0.0
 20
0.0
 30
0.0
  9
$PUCSXDIR
 10
1.0
 20
0.0
 30
0.0
  9
$PUCSYDIR
 10
0.0
 20
1.0
 30
0.0
  9
$USERI1
 70
               0
  9
$USERI2
 70
               0
  9
$USERI3
 70
               0
  9
$USERI4
 70
               0
  9
$USERI5
 70
               0
  9
$USERR1
 40
0.0
  9
$USERR2
 40
0.0
  9
$USERR3
 40
0.0
  9
$USERR4
 40
0.0
  9
$USERR5
 40
0.0
  9
$WORLDVIEW
 70
               1
  9
$SHADEDGE
 70
               3
  9
$SHADEDIF
 70
              70
  9
$TILEMODE
 70
               1
  9
$MAXACTVP
 70
              16
  9
$PINSBASE
 10
0.0
 20
0.0
 30
0.0
  9
$PLIMCHECK
 70
               0
  9
$PEXTMIN
 10
1.0000000000000000E+20
 20
1.0000000000000000E+20
 30
1.0000000000000000E+20
  9
$PEXTMAX
 10
-1.0000000000000000E+20
 20
-1.0000000000000000E+20
 30
-1.0000000000000000E+20
  9
$PLIMMIN
 10
0.0
 20
0.0
  9
$PLIMMAX
 10
12.0
 20
9.0
  9
$UNITMODE
 70
               0
  9
$VISRETAIN
 70
               0
  9
$PLINEGEN
 70
               1
  9
$PSLTSCALE
 70
               0
  9
$TREEDEPTH
 70
            3020
  9
$PICKSTYLE
 70
               1
  9
$CMLSTYLE
  2
Standard
  9
$CMLJUST
 70
               0
  9
$CMLSCALE
 40
1.0
  9
$SAVEIMAGES
 70
               0
  0
ENDSEC
  0
SECTION
  2
CLASSES
  0
CLASS
  1
LWPOLYLINE
  2
AcDbPolyline
  3
"AutoCAD"
 90
        0
280
               0
281
               1
  0
CLASS
  1
IMAGE
  2
AcDbRasterImage
  3
ISM
 90
      127
280
               0
281
               1
  0
CLASS
  1
OLE2FRAME
  2
AcDbOle2Frame
  3
""
 90
        0
280
               0
281
               1
  0
CLASS
  1
HATCH
  2
AcDbHatch
  3
"ACAD_SEDONA"
 90
        0
280
               0
281
               1
  0
CLASS
  1
DICTIONARYVAR
  2
AcDbDictionaryVar
  3
"AutoCAD"
 90
        0
280
               0
281
               0
  0
CLASS
  1
RASTERVARIABLES
  2
AcDbRasterVariables
  3
ISM
 90
        0
280
               0
281
               0
  0
CLASS
  1
IMAGEDEF
  2
AcDbRasterImageDef
  3
ISM
 90
        0
280
               0
281
               0
  0
CLASS
  1
IMAGEDEF_REACTOR
  2
AcDbRasterImageDefReactor
  3
ISM
 90
        1
280
               0
281
               0
  0
CLASS
  1
IDBUFFER
  2
AcDbIdBuffer
  3
"Acad"
 90
        0
280
               0
281
               0
  0
CLASS
  1
SPATIAL_FILTER
  2
AcDbSpatialFilter
  3
"Acad"
 90
        0
280
               0
281
               0
  0
CLASS
  1
XRECORD
  2
AcDbXrecord
  3
"<Built In>"
 90
        0
280
               0
281
               0
  0
CLASS
  1
SORTENTSTABLE
  2
AcDbSortentsTable
  3
"AutoCAD"
 90
        0
280
               0
281
               0
  0
CLASS
  1
LAYER_INDEX
  2
AcDbLayerIndex
  3
"Acad"
 90
        0
280
               0
281
               0
  0
CLASS
  1
SPATIAL_INDEX
  2
AcDbSpatialIndex
  3
"Acad"
 90
        0
280
               0
281
               0
  0
CLASS
  1
OBJECT_PTR
  2
CAseDLPNTableRecord
  3
"ASE-LPNTableRecord"
 90
        1
280
               0
281
               0
  0
CLASS
  1
LAYOUT
  2
AcDbLayout
  3
"AutoCAD 2000"
 90
        1
280
               0
281
               0
  0
CLASS
  1
PLOTSETTINGS
  2
AcDbPlotSettings
  3
"AutoCAD 2000"
 90
        1
280
               0
281
               0
  0
CLASS
  1
ACDBDICTIONARYWDFLT
  2
AcDbDictionaryWithDefault
  3
"AutoCAD 2000"
 90
        1
280
               0
281
               0
  0
CLASS
  1
ACDBPLACEHOLDER
  2
AcDbPlaceHolder
  3
"AutoCAD 2000"
 90
        1
280
               0
281
               0
  0
CLASS
  1
VBA_PROJECT
  2
AcDbVbaProject
  3
"acadvba"
 90
        1
280
               0
281
               0
  0
CLASS
  1
WIPEOUT
  2
AcDbWipeout
  3
WipeOut|AutoCAD Express Tool|expresstools@autodesk.com
 90
      127
280
               0
281
               1
  0
CLASS
  1
WIPEOUTVARIABLES
  2
AcDbWipeoutVariables
  3
WipeOut|AutoCAD Express Tool|expresstools@autodesk.com
 90
        0
280
               0
281
               0
  0
CLASS
  1
RTEXT
  2
RText
  3
RText|AutoCAD Express Tool|expresstools@autodesk.com
 90
        0
280
               0
281
               1
  0
CLASS
  1
ARCALIGNEDTEXT
  2
AcDbArcAlignedText
  3
ATEXT|AutoCAD Express Tool|expresstools@autodesk.com
 90
        0
280
               0
281
               1
  0
ENDSEC
  0
SECTION
  2
TABLES
  0
TABLE
  2
VPORT
  5
7
100
AcDbSymbolTable
 70
               1
  0
VPORT
  5
15
100
AcDbSymbolTableRecord
100
AcDbViewportTableRecord
  2
*ACTIVE
 70
               0
 10
0.0
 20
0.0
 11
1.0
 21
1.0
 12
2.1749939918518066
 22
0.25
 13
0.0
 23
0.0
 14
1.0
 24
1.0
 15
0.0
 25
0.0
 16
0.0
 26
0.0
 36
1.0
 17
0.0
 27
0.0
 37
0.0
 40
394.40500000000003
 41
1.7320508075688772
 42
50.0
 43
0.0
 44
0.0
 50
0.0
 51
0.0
 71
               0
 72
             100
 73
               1
 74
               1
 75
               0
 76
               0
 77
               0
 78
               0
  0
ENDTAB
  0
TABLE
  2
LTYPE
  5
4
100
AcDbSymbolTable
 70
               4
  0
LTYPE
  5
11
100
AcDbSymbolTableRecord
100
AcDbLinetypeTableRecord
  2
BYBLOCK
 70
              64
  3

 72
              65
 73
               0
 40
0.0
  0
LTYPE
  5
12
100
AcDbSymbolTableRecord
100
AcDbLinetypeTableRecord
  2
BYLAYER
 70
              64
  3

 72
              65
 73
               0
 40
0.0
  0
LTYPE
  5
13
100
AcDbSymbolTableRecord
100
AcDbLinetypeTableRecord
  2
CONTINUOUS
 70
              64
  3
Solid line
 72
              65
 73
               0
 40
0.0
  0
LTYPE
  5
23
100
AcDbSymbolTableRecord
100
AcDbLinetypeTableRecord
  2
CENTER
 70
              64
  3
Center ____ _ ____ _ ____ _ ____ _ ____ _ ____
 72
              65
 73
               4
 40
50.800000000000004
 49
31.75
 74
               0
 49
-6.3499999999999996
 74
               0
 49
6.3499999999999996
 74
               0
 49
-6.3499999999999996
 74
               0
  0
ENDTAB
  0
TABLE
  2
LAYER
  5
2
100
AcDbSymbolTable
 70
               2
  0
LAYER
  5
14
100
AcDbSymbolTableRecord
100
AcDbLayerTableRecord
  2
0
 70
               0
 62
               7
  6
CONTINUOUS
  0
LAYER
  5
1D
100
AcDbSymbolTableRecord
100
AcDbLayerTableRecord
  2
DEFPOINTS
 70
               0
 62
               7
  6
CONTINUOUS
  0
ENDTAB
  0
TABLE
  2
STYLE
  5
3
100
AcDbSymbolTable
 70
               1
  0
STYLE
  5
17
100
AcDbSymbolTableRecord
100
AcDbTextStyleTableRecord
  2
MX_NOTE_STANDARD
 70
               0
 40
3.2000000476837158
 41
1.0
 50
0.0
 71
               0
 42
3.2000000476837158
  3
txt.shx
  4
extfont.shx
  0
ENDTAB
  0
TABLE
  2
VIEW
  5
5
100
AcDbSymbolTable
 70
               0
  0
ENDTAB
  0
TABLE
  2
UCS
  5
6
100
AcDbSymbolTable
 70
               0
  0
ENDTAB
  0
TABLE
  2
APPID
  5
8
100
AcDbSymbolTable
 70
               1
  0
APPID
  5
16
100
AcDbSymbolTableRecord
100
AcDbRegAppTableRecord
  2
ACAD
 70
               0
  0
ENDTAB
  0
TABLE
  2
DIMSTYLE
  5
9
100
AcDbSymbolTable
 70
               1
  0
DIMSTYLE
105
18
100
AcDbSymbolTableRecord
100
AcDbDimStyleTableRecord
  2
MXDIMSTYLE
 70
               0
  3

  4

  5

  6

  7

 40
1.0
 41
2.5
 42
1.5
 43
3.75
 44
1.5
 45
0.0
 46
0.0
 47
0.0
 48
0.0
 71
               0
 72
               0
 73
               0
 74
               0
 75
               0
 76
               0
 77
               1
 78
               8
140
3.2000000476837158
141
2.5
142
0.0
143
0.0394
144
1.0
145
0.0
146
1.0
147
1.0
170
               0
171
               4
172
               1
173
               0
174
               0
175
               0
176
               0
177
               0
178
               0
270
               2
271
               4
272
               4
273
               8
274
               4
275
               0
280
               0
281
               0
282
               0
283
               1
284
               0
285
               0
286
               0
287
               3
288
               1
340
17
  0
ENDTAB
  0
TABLE
  2
BLOCK_RECORD
  5
1
100
AcDbSymbolTable
 70
               4
  0
BLOCK_RECORD
  5
A
100
AcDbSymbolTableRecord
100
AcDbBlockTableRecord
  2
*MODEL_SPACE
  0
BLOCK_RECORD
  5
B
100
AcDbSymbolTableRecord
100
AcDbBlockTableRecord
  2
*PAPER_SPACE
  0
BLOCK_RECORD
  5
1E
100
AcDbSymbolTableRecord
100
AcDbBlockTableRecord
  2
MS_1
  0
BLOCK_RECORD
  5
1F
100
AcDbSymbolTableRecord
100
AcDbBlockTableRecord
  2
MS_2
  0
BLOCK_RECORD
  5
20
100
AcDbSymbolTableRecord
100
AcDbBlockTableRecord
  2
MS_3
  0
BLOCK_RECORD
  5
21
100
AcDbSymbolTableRecord
100
AcDbBlockTableRecord
  2
MS_4
  0
ENDTAB
  0
ENDSEC
  0
SECTION
  2
BLOCKS
  0
BLOCK
  5
D
100
AcDbEntity
  8
0
100
AcDbBlockBegin
  2
*MODEL_SPACE
 70
               0
 10
0.0
 20
0.0
 30
0.0
  3
*MODEL_SPACE
  1

  0
ENDBLK
  5
E
100
AcDbEntity
  8
0
100
AcDbBlockEnd
  0
BLOCK
  5
F
100
AcDbEntity
 67
               1
  8
0
100
AcDbBlockBegin
  2
*PAPER_SPACE
 70
               0
 10
0.0
 20
0.0
 30
0.0
  3
*PAPER_SPACE
  1

  0
ENDBLK
  5
10
100
AcDbEntity
 67
               1
  8
0
100
AcDbBlockEnd
  0
BLOCK
  5
22
100
AcDbEntity
  8
0
100
AcDbBlockBegin
  2
MS_1
 70
               0
 10
0.0
 20
0.0
 30
0.0
  3
MS_1
  1

  0
LINE
  5
24
100
AcDbEntity
  8
0
  6
CENTER
 62
               2
100
AcDbLine
 10
40.0
 20
21.0
 30
0.0
 11
40.0
 21
-219.75
 31
0.0
  0
LINE
  5
25
100
AcDbEntity
  8
0
  6
CONTINUOUS
 62
               7
100
AcDbLine
 10
1.5
 20
-99.5
 30
0.0
 11
0.5
 21
-98.5
 31
0.0
  0
LINE
  5
26
100
AcDbEntity
  8
0
  6
CONTINUOUS
 62
               7
100
AcDbLine
 10
79.5
 20
-98.5
 30
0.0
 11
78.5
 21
-99.5
 31
0.0
  0
LINE
  5
27
100
AcDbEntity
  8
0
  6
CONTINUOUS
 62
               7
100
AcDbLine
 10
78.5
 20
-36.0
 30
0.0
 11
79.5
 21
-37.0
 31
0.0
  0
LINE
  5
28
100
AcDbEntity
  8
0
  6
CONTINUOUS
 62
               7
100
AcDbLine
 10
0.5
 20
-37.0
 30
0.0
 11
1.5
 21
-36.0
 31
0.0
  0
LINE
  5
29
100
AcDbEntity
  8
0
  6
CONTINUOUS
 62
               7
100
AcDbLine
 10
79.5
 20
-37.0
 30
0.0
 11
79.5
 21
-98.5
 31
0.0
  0
LINE
  5
2A
100
AcDbEntity
  8
0
  6
CONTINUOUS
 62
               7
100
AcDbLine
 10
0.5
 20
-37.0
 30
0.0
 11
0.5
 21
-98.5
 31
0.0
  0
LINE
  5
2B
100
AcDbEntity
  8
0
  6
CONTINUOUS
 62
               7
100
AcDbLine
 10
0.5
 20
-98.5
 30
0.0
 11
79.5
 21
-98.5
 31
0.0
  0
LINE
  5
2C
100
AcDbEntity
  8
0
  6
CONTINUOUS
 62
               7
100
AcDbLine
 10
0.5
 20
-37.0
 30
0.0
 11
79.5
 21
-37.0
 31
0.0
  0
LINE
  5
2D
100
AcDbEntity
  8
0
  6
CONTINUOUS
 62
               7
100
AcDbLine
 10
1.5
 20
-99.5
 30
0.0
 11
78.5
 21
-99.5
 31
0.0
  0
LINE
  5
2E
100
AcDbEntity
  8
0
  6
CONTINUOUS
 62
               7
100
AcDbLine
 10
15.0
 20
-10.0
 30
0.0
 11
14.289999999999999
 21
-9.2899999999999991
 31
0.0
  0
LINE
  5
2F
100
AcDbEntity
  8
0
  6
CONTINUOUS
 62
               7
100
AcDbLine
 10
5.0
 20
-10.0
 30
0.0
 11
5.7000000000000028
 21
-9.2899999999999991
 31
0.0
  0
LINE
  5
30
100
AcDbEntity
  8
0
  6
CONTINUOUS
 62
               7
100
AcDbLine
 10
5.0
 20
10.0
 30
0.0
 11
5.7000000000000028
 21
9.2899999999999991
 31
0.0
  0
LINE
  5
31
100
AcDbEntity
  8
0
  6
CONTINUOUS
 62
               7
100
AcDbLine
 10
15.0
 20
10.0
 30
0.0
 11
14.289999999999999
 21
9.2899999999999991
 31
0.0
  0
LINE
  5
32
100
AcDbEntity
  8
0
  6
CONTINUOUS
 62
               7
100
AcDbLine
 10
14.289999999999999
 20
-9.2899999999999991
 30
0.0
 11
5.7000000000000028
 21
-9.2899999999999991
 31
0.0
  0
LINE
  5
33
100
AcDbEntity
  8
0
  6
CONTINUOUS
 62
               7
100
AcDbLine
 10
14.289999999999999
 20
9.2899999999999991
 30
0.0
 11
14.289999999999999
 21
-9.2899999999999991
 31
0.0
  0
LINE
  5
34
100
AcDbEntity
  8
0
  6
CONTINUOUS
 62
               7
100
AcDbLine
 10
14.289999999999999
 20
9.2899999999999991
 30
0.0
 11
5.7000000000000028
 21
9.2899999999999991
 31
0.0
  0
LINE
  5
35
100
AcDbEntity
  8
0
  6
CONTINUOUS
 62
               7
100
AcDbLine
 10
5.7000000000000028
 20
9.2899999999999991
 30
0.0
 11
5.7000000000000028
 21
-9.2899999999999991
 31
0.0
  0
LINE
  5
36
100
AcDbEntity
  8
0
  6
CONTINUOUS
 62
               7
100
AcDbLine
 10
15.0
 20
-10.0
 30
0.0
 11
5.0
 21
-10.0
 31
0.0
  0
LINE
  5
37
100
AcDbEntity
  8
0
  6
CONTINUOUS
 62
               7
100
AcDbLine
 10
15.0
 20
10.0
 30
0.0
 11
5.0
 21
10.0
 31
0.0
  0
LINE
  5
38
100
AcDbEntity
  8
0
  6
CONTINUOUS
 62
               7
100
AcDbLine
 10
15.0
 20
10.0
 30
0.0
 11
15.0
 21
-10.0
 31
0.0
  0
LINE
  5
39
100
AcDbEntity
  8
0
  6
CONTINUOUS
 62
               7
100
AcDbLine
 10
5.0
 20
10.0
 30
0.0
 11
5.0
 21
-10.0
 31
0.0
  0
LINE
  5
3A
100
AcDbEntity
  8
0
  6
CONTINUOUS
 62
               7
100
AcDbLine
 10
65.0
 20
-10.0
 30
0.0
 11
65.700000000000003
 21
-9.2899999999999991
 31
0.0
  0
LINE
  5
3B
100
AcDbEntity
  8
0
  6
CONTINUOUS
 62
               7
100
AcDbLine
 10
75.0
 20
-10.0
 30
0.0
 11
74.290000000000006
 21
-9.2899999999999991
 31
0.0
  0
LINE
  5
3C
100
AcDbEntity
  8
0
  6
CONTINUOUS
 62
               7
100
AcDbLine
 10
75.0
 20
10.0
 30
0.0
 11
74.290000000000006
 21
9.2899999999999991
 31
0.0
  0
LINE
  5
3D
100
AcDbEntity
  8
0
  6
CONTINUOUS
 62
               7
100
AcDbLine
 10
65.0
 20
10.0
 30
0.0
 11
65.700000000000003
 21
9.2899999999999991
 31
0.0
  0
LINE
  5
3E
100
AcDbEntity
  8
0
  6
CONTINUOUS
 62
               7
100
AcDbLine
 10
65.700000000000003
 20
-9.2899999999999991
 30
0.0
 11
74.290000000000006
 21
-9.2899999999999991
 31
0.0
  0
LINE
  5
3F
100
AcDbEntity
  8
0
  6
CONTINUOUS
 62
               7
100
AcDbLine
 10
65.700000000000003
 20
9.2899999999999991
 30
0.0
 11
65.700000000000003
 21
-9.2899999999999991
 31
0.0
  0
LINE
  5
40
100
AcDbEntity
  8
0
  6
CONTINUOUS
 62
               7
100
AcDbLine
 10
65.700000000000003
 20
9.2899999999999991
 30
0.0
 11
74.290000000000006
 21
9.2899999999999991
 31
0.0
  0
LINE
  5
41
100
AcDbEntity
  8
0
  6
CONTINUOUS
 62
               7
100
AcDbLine
 10
74.290000000000006
 20
9.2899999999999991
 30
0.0
 11
74.290000000000006
 21
-9.2899999999999991
 31
0.0
  0
LINE
  5
42
100
AcDbEntity
  8
0
  6
CONTINUOUS
 62
               7
100
AcDbLine
 10
65.0
 20
-10.0
 30
0.0
 11
75.0
 21
-10.0
 31
0.0
  0
LINE
  5
43
100
AcDbEntity
  8
0
  6
CONTINUOUS
 62
               7
100
AcDbLine
 10
65.0
 20
10.0
 30
0.0
 11
75.0
 21
10.0
 31
0.0
  0
LINE
  5
44
100
AcDbEntity
  8
0
  6
CONTINUOUS
 62
               7
100
AcDbLine
 10
65.0
 20
10.0
 30
0.0
 11
65.0
 21
-10.0
 31
0.0
  0
LINE
  5
45
100
AcDbEntity
  8
0
  6
CONTINUOUS
 62
               7
100
AcDbLine
 10
75.0
 20
10.0
 30
0.0
 11
75.0
 21
-10.0
 31
0.0
  0
LINE
  5
46
100
AcDbEntity
  8
0
  6
CONTINUOUS
 62
               7
100
AcDbLine
 10
19.689999999999998
 20
12.0
 30
0.0
 11
20.689999999999998
 21
13.0
 31
0.0
  0
LINE
  5
47
100
AcDbEntity
  8
0
  6
CONTINUOUS
 62
               7
100
AcDbLine
 10
59.299999999999997
 20
13.0
 30
0.0
 11
60.299999999999997
 21
12.0
 31
0.0
  0
LINE
  5
48
100
AcDbEntity
  8
0
  6
CONTINUOUS
 62
               7
100
AcDbLine
 10
19.689999999999998
 20
12.0
 30
0.0
 11
60.299999999999997
 21
12.0
 31
0.0
  0
LINE
  5
49
100
AcDbEntity
  8
0
  6
CONTINUOUS
 62
               7
100
AcDbLine
 10
79.0
 20
16.0
 30
0.0
 11
80.0
 21
15.0
 31
0.0
  0
LINE
  5
4A
100
AcDbEntity
  8
0
  6
CONTINUOUS
 62
               7
100
AcDbLine
 10
1.0
 20
16.0
 30
0.0
 11
0.0
 21
15.0
 31
0.0
  0
LINE
  5
4B
100
AcDbEntity
  8
0
  6
CONTINUOUS
 62
               7
100
AcDbLine
 10
0.0
 20
15.0
 30
0.0
 11
80.0
 21
15.0
 31
0.0
  0
LINE
  5
4C
100
AcDbEntity
  8
0
  6
CONTINUOUS
 62
               7
100
AcDbLine
 10
79.0
 20
16.0
 30
0.0
 11
79.0
 21
-16.0
 31
0.0
  0
LINE
  5
4D
100
AcDbEntity
  8
0
  6
CONTINUOUS
 62
               7
100
AcDbLine
 10
1.0
 20
16.0
 30
0.0
 11
1.0
 21
-16.0
 31
0.0
  0
LINE
  5
4E
100
AcDbEntity
  8
0
  6
CONTINUOUS
 62
               7
100
AcDbLine
 10
20.689999999999998
 20
13.0
 30
0.0
 11
59.299999999999997
 21
13.0
 31
0.0
  0
LINE
  5
4F
100
AcDbEntity
  8
0
  6
CONTINUOUS
 62
               7
100
AcDbLine
 10
60.299999999999997
 20
12.0
 30
0.0
 11
60.299999999999997
 21
-15.0
 31
0.0
  0
LINE
  5
50
100
AcDbEntity
  8
0
  6
CONTINUOUS
 62
               7
100
AcDbLine
 10
19.689999999999998
 20
12.0
 30
0.0
 11
19.689999999999998
 21
-15.0
 31
0.0
  0
LINE
  5
51
100
AcDbEntity
  8
0
  6
CONTINUOUS
 62
               7
100
AcDbLine
 10
80.0
 20
15.0
 30
0.0
 11
80.0
 21
-16.0
 31
0.0
  0
LINE
  5
52
100
AcDbEntity
  8
0
  6
CONTINUOUS
 62
               7
100
AcDbLine
 10
0.0
 20
15.0
 30
0.0
 11
0.0
 21
-16.0
 31
0.0
  0
LINE
  5
53
100
AcDbEntity
  8
0
  6
CONTINUOUS
 62
               7
100
AcDbLine
 10
1.0
 20
16.0
 30
0.0
 11
79.0
 21
16.0
 31
0.0
  0
LINE
  5
54
100
AcDbEntity
  8
0
  6
CONTINUOUS
 62
               7
100
AcDbLine
 10
0.0
 20
-16.0
 30
0.0
 11
80.0
 21
-16.0
 31
0.0
  0
LINE
  5
55
100
AcDbEntity
  8
0
  6
CONTINUOUS
 62
               7
100
AcDbLine
 10
74.060000000000002
 20
-16.0
 30
0.0
 11
73.060000000000002
 21
-15.0
 31
0.0
  0
LINE
  5
56
100
AcDbEntity
  8
0
  6
CONTINUOUS
 62
               7
100
AcDbLine
 10
5.9300000000000068
 20
-16.0
 30
0.0
 11
6.9300000000000068
 21
-15.0
 31
0.0
  0
LINE
  5
57
100
AcDbEntity
  8
0
  6
CONTINUOUS
 62
               7
100
AcDbLine
 10
6.9300000000000068
 20
-15.0
 30
0.0
 11
73.060000000000002
 21
-15.0
 31
0.0
  0
LINE
  5
58
100
AcDbEntity
  8
0
  6
CONTINUOUS
 62
               7
100
AcDbLine
 10
0.5
 20
-35.0
 30
0.0
 11
79.5
 21
-35.0
 31
0.0
  0
LINE
  5
59
100
AcDbEntity
  8
0
  6
CONTINUOUS
 62
               7
100
AcDbLine
 10
79.5
 20
-35.0
 30
0.0
 11
78.5
 21
-36.0
 31
0.0
  0
LINE
  5
5A
100
AcDbEntity
  8
0
  6
CONTINUOUS
 62
               7
100
AcDbLine
 10
0.5
 20
-35.0
 30
0.0
 11
1.5
 21
-36.0
 31
0.0
  0
LINE
  5
5B
100
AcDbEntity
  8
0
  6
CONTINUOUS
 62
               7
100
AcDbLine
 10
79.5
 20
-16.0
 30
0.0
 11
79.5
 21
-35.0
 31
0.0
  0
LINE
  5
5C
100
AcDbEntity
  8
0
  6
CONTINUOUS
 62
               7
100
AcDbLine
 10
0.5
 20
-16.0
 30
0.0
 11
0.5
 21
-35.0
 31
0.0
  0
LINE
  5
5D
100
AcDbEntity
  8
0
  6
CONTINUOUS
 62
               7
100
AcDbLine
 10
1.5
 20
-36.0
 30
0.0
 11
78.5
 21
-36.0
 31
0.0
  0
LINE
  5
5E
100
AcDbEntity
  8
0
  6
CONTINUOUS
 62
               7
100
AcDbLine
 10
21.590000000000018
 20
-198.69
 30
0.0
 11
58.420000000000016
 21
-198.69
 31
0.0
  0
LINE
  5
5F
100
AcDbEntity
  8
0
  6
CONTINUOUS
 62
               7
100
AcDbLine
 10
5.960000000000008
 20
-111.56999999999999
 30
0.0
 11
5.8500000000000085
 21
-99.5
 31
0.0
  0
LINE
  5
60
100
AcDbEntity
  8
0
  6
CONTINUOUS
 62
               7
100
AcDbLine
 10
2.6000000000000085
 20
-102.01999999999998
 30
0.0
 11
3.1400000000000148
 21
-124.00999999999999
 31
0.0
  0
LINE
  5
61
100
AcDbEntity
  8
0
  6
CONTINUOUS
 62
               7
100
AcDbLine
 10
3.0800000000000125
 20
-101.5
 30
0.0
 11
3.4300000000000068
 21
-115.53
 31
0.0
  0
LINE
  5
62
100
AcDbEntity
  8
0
  6
CONTINUOUS
 62
               7
100
AcDbLine
 10
32.430000000000007
 20
-200.19
 30
0.0
 11
47.580000000000013
 21
-200.19
 31
0.0
  0
LINE
  5
63
100
AcDbEntity
  8
0
  6
CONTINUOUS
 62
               7
100
AcDbLine
 10
46.75
 20
-214.97999999999999
 30
0.0
 11
33.25
 21
-214.97999999999999
 31
0.0
  0
LINE
  5
64
100
AcDbEntity
  8
0
  6
CONTINUOUS
 62
               7
100
AcDbLine
 10
47.25
 20
-201.47999999999999
 30
0.0
 11
32.75
 21
-201.47999999999999
 31
0.0
  0
LINE
  5
65
100
AcDbEntity
  8
0
  6
CONTINUOUS
 62
               7
100
AcDbLine
 10
35.690000000000026
 20
-213.97999999999999
 30
0.0
 11
33.560000000000002
 21
-213.97999999999999
 31
0.0
  0
LINE
  5
66
100
AcDbEntity
  8
0
  6
CONTINUOUS
 62
               7
100
AcDbLine
 10
47.75
 20
-201.97999999999999
 30
0.0
 11
32.25
 21
-201.97999999999999
 31
0.0
  0
LINE
  5
67
100
AcDbEntity
  8
0
  6
CONTINUOUS
 62
               7
100
AcDbLine
 10
46.0
 20
-216.47999999999999
 30
0.0
 11
34.0
 21
-216.47999999999999
 31
0.0
  0
LINE
  5
68
100
AcDbEntity
  8
0
  6
CONTINUOUS
 62
               7
100
AcDbLine
 10
33.5
 20
-215.97999999999999
 30
0.0
 11
46.5
 21
-215.97999999999999
 31
0.0
  0
LINE
  5
69
100
AcDbEntity
  8
0
  6
CONTINUOUS
 62
               7
100
AcDbLine
 10
31.930000000000007
 20
-199.69
 30
0.0
 11
48.080000000000013
 21
-199.69
 31
0.0
  0
SPLINE
  5
6A
100
AcDbEntity
  8
0
  6
CONTINUOUS
 62
               7
100
AcDbSpline
210
0.0
220
0.0
230
1.0
 70
               0
 71
               3
 72
               0
 73
               0
 74
               7
 44
0.000001
 12
0.2877408856535137
 22
-0.9577082973031671
 32
0.0
 13
-0.2684302567849027
 23
-0.9632991213752825
 33
0.0
 11
5.960000000000008
 21
-111.56999999999999
 31
0.0
 11
6.8732865532966168
 21
-115.43916420636775
 31
0.0
 11
7.3000000000000114
 21
-119.39999999999999
 31
0.0
 11
7.3010093400423921
 21
-121.92851907904307
 31
0.0
 11
7.0964308739955069
 21
-124.4503216399637
 31
0.0
 11
6.6961369709508745
 21
-126.94696338090249
 31
0.0
 11
6.1100000000000136
 21
-129.39999999999998
 31
0.0
  0
ARC
  5
6B
100
AcDbEntity
  8
0
  6
CONTINUOUS
 62
               7
100
AcDbCircle
 10
3.5771519490184716
 20
-125.2371816650523
 30
0.0
 40
0.307419305666818
100
AcDbArc
 50
182.38973109971155
 51
216.49033855664038
  0
ARC
  5
6C
100
AcDbEntity
  8
0
  6
CONTINUOUS
 62
               7
100
AcDbCircle
 10
13.145727608295189
 20
-138.19427239170483
 30
0.0
 40
1.0057439174978482
100
AcDbArc
 50
180.32629534236506
 51
269.67370465763406
  0
ARC
  5
6D
100
AcDbEntity
  8
0
  6
CONTINUOUS
 62
               7
100
AcDbCircle
 10
14.977852562754549
 20
-137.69214743724547
 30
0.0
 40
1.0078831534422494
100
AcDbArc
 50
180.4464041834666
 51
269.55359581653215
  0
ARC
  5
6E
100
AcDbEntity
  8
0
  6
CONTINUOUS
 62
               7
100
AcDbCircle
 10
20.039424834839565
 20
-138.19942483483953
 30
0.0
 40
1.0005753304728304
100
AcDbArc
 50
270.03293558918244
 51
359.96706441081596
  0
ARC
  5
6F
100
AcDbEntity
  8
0
  6
CONTINUOUS
 62
               7
100
AcDbCircle
 10
20.039424834839565
 20
-137.69942483483953
 30
0.0
 40
1.0005753304728304
100
AcDbArc
 50
270.03293558918244
 51
359.96706441081596
  0
ARC
  5
70
100
AcDbEntity
  8
0
  6
CONTINUOUS
 62
               7
100
AcDbCircle
 10
12.279616238671778
 20
-105.19961623867175
 30
0.0
 40
0.9996163123364122
100
AcDbArc
 50
89.978003655285249
 51
180.02199634471373
  0
ARC
  5
71
100
AcDbEntity
  8
0
  6
CONTINUOUS
 62
               7
100
AcDbCircle
 10
12.878266020596229
 20
-105.69826602059621
 30
0.0
 40
0.998267526548658
100
AcDbArc
 50
89.900477828922774
 51
180.09952217107701
  0
ARC
  5
72
100
AcDbEntity
  8
0
  6
CONTINUOUS
 62
               7
100
AcDbCircle
 10
13.136812011169326
 20
-106.1968120111693
 30
0.0
 40
0.9968171090446738
100
AcDbArc
 50
89.816758144640929
 51
180.18324185535886
  0
ARC
  5
73
100
AcDbEntity
  8
0
  6
CONTINUOUS
 62
               7
100
AcDbCircle
 10
14.968955976133074
 20
-106.69895597613305
 30
0.0
 40
0.9989565216954142
100
AcDbArc
 50
89.940119343657969
 51
180.05988065634099
  0
ARC
  5
74
100
AcDbEntity
  8
0
  6
CONTINUOUS
 62
               7
100
AcDbCircle
 10
20.435129241186729
 20
-105.19487075881327
 30
0.0
 40
0.9948839811037549
100
AcDbArc
 50
359.7046035722488
 51
90.295396427750205
  0
ARC
  5
75
100
AcDbEntity
  8
0
  6
CONTINUOUS
 62
               7
100
AcDbCircle
 10
20.435129241186729
 20
-105.69487075881327
 30
0.0
 40
0.9948839811037549
100
AcDbArc
 50
359.7046035722488
 51
90.295396427750205
  0
ARC
  5
76
100
AcDbEntity
  8
0
  6
CONTINUOUS
 62
               7
100
AcDbCircle
 10
20.048386696597689
 20
-106.19161330340231
 30
0.0
 40
0.9916487685487582
100
AcDbArc
 50
359.51542515569503
 51
90.48457484430358
  0
ARC
  5
77
100
AcDbEntity
  8
0
  6
CONTINUOUS
 62
               7
100
AcDbCircle
 10
20.048386696597689
 20
-106.69161330340231
 30
0.0
 40
0.9916487685487582
100
AcDbArc
 50
359.51542515569503
 51
90.48457484430358
  0
ARC
  5
78
100
AcDbEntity
  8
0
  6
CONTINUOUS
 62
               7
100
AcDbCircle
 10
12.283522111209521
 20
-181.18647788879048
 30
0.0
 40
1.003528292054471
100
AcDbArc
 50
180.20109300673093
 51
269.79890699326842
  0
ARC
  5
79
100
AcDbEntity
  8
0
  6
CONTINUOUS
 62
               7
100
AcDbCircle
 10
12.882177161275123
 20
-180.68782283872488
 30
0.0
 40
1.0021795261392363
100
AcDbArc
 50
180.12447096278495
 51
269.87552903721405
  0
ARC
  5
7A
100
AcDbEntity
  8
0
  6
CONTINUOUS
 62
               7
100
AcDbCircle
 10
13.140728832404108
 20
-180.1892711675959
 30
0.0
 40
1.0007290978089647
100
AcDbArc
 50
180.04172860018758
 51
269.95827139981185
  0
ARC
  5
7B
100
AcDbEntity
  8
0
  6
CONTINUOUS
 62
               7
100
AcDbCircle
 10
13.136808692405566
 20
-146.19680869240554
 30
0.0
 40
0.9968138009174133
100
AcDbArc
 50
89.816566776584637
 51
180.18343322341497
  0
ARC
  5
7C
100
AcDbEntity
  8
0
  6
CONTINUOUS
 62
               7
100
AcDbCircle
 10
14.97286442398736
 20
-179.68713557601265
 30
0.0
 40
1.0028685147237617
100
AcDbArc
 50
180.16365019536548
 51
269.8363498046333
  0
ARC
  5
7D
100
AcDbEntity
  8
0
  6
CONTINUOUS
 62
               7
100
AcDbCircle
 10
20.43120482361023
 20
-181.19120482361021
 30
0.0
 40
0.9987959030649976
100
AcDbArc
 50
269.9308854547225
 51
0.0691145452768935
  0
ARC
  5
7E
100
AcDbEntity
  8
0
  6
CONTINUOUS
 62
               7
100
AcDbCircle
 10
20.43120482361023
 20
-180.69120482361021
 30
0.0
 40
0.9987959030649976
100
AcDbArc
 50
269.9308854547225
 51
0.0691145452768935
  0
ARC
  5
7F
100
AcDbEntity
  8
0
  6
CONTINUOUS
 62
               7
100
AcDbCircle
 10
20.044449500213133
 20
-180.19444950021312
 30
0.0
 40
0.9955604430058689
100
AcDbArc
 50
269.74392470724956
 51
0.256075292749815
  0
ARC
  5
80
100
AcDbEntity
  8
0
  6
CONTINUOUS
 62
               7
100
AcDbCircle
 10
20.044449500213133
 20
-179.69444950021312
 30
0.0
 40
0.9955604430058689
100
AcDbArc
 50
269.74392470724956
 51
0.256075292749815
  0
ARC
  5
81
100
AcDbEntity
  8
0
  6
CONTINUOUS
 62
               7
100
AcDbCircle
 10
20.048390032659711
 20
-146.1916099673403
 30
0.0
 40
0.9916454608259224
100
AcDbArc
 50
359.51523077978385
 51
90.48476922021527
  0
ARC
  5
82
100
AcDbEntity
  8
0
  6
CONTINUOUS
 62
               7
100
AcDbCircle
 10
20.048390032659711
 20
-146.6916099673403
 30
0.0
 40
0.9916454608259224
100
AcDbArc
 50
359.51523077978385
 51
90.48476922021527
  0
ARC
  5
83
100
AcDbEntity
  8
0
  6
CONTINUOUS
 62
               7
100
AcDbCircle
 10
14.968952664478948
 20
-146.69895266447892
 30
0.0
 40
0.9989532135096508
100
AcDbArc
 50
89.9399292026159
 51
180.06007079738347
  0
ARC
  5
84
100
AcDbEntity
  8
0
  6
CONTINUOUS
 62
               7
100
AcDbCircle
 10
21.588812203452889
 20
-183.69062992254248
 30
0.0
 40
14.999370124488166
100
AcDbArc
 50
180.49418417423837
 51
270.00453723913523
  0
LINE
  5
85
100
AcDbEntity
  8
0
  6
CONTINUOUS
 62
               7
100
AcDbLine
 10
33.5
 20
-215.97999999999999
 30
0.0
 11
34.0
 21
-216.47999999999999
 31
0.0
  0
LINE
  5
86
100
AcDbEntity
  8
0
  6
CONTINUOUS
 62
               7
100
AcDbLine
 10
33.5
 20
-215.97999999999999
 30
0.0
 11
33.5
 21
-214.97999999999999
 31
0.0
  0
LINE
  5
87
100
AcDbEntity
  8
0
  6
CONTINUOUS
 62
               7
100
AcDbLine
 10
33.740000000000009
 20
-214.47999999999999
 30
0.0
 11
32.990000000000009
 21
-214.47999999999999
 31
0.0
  0
LINE
  5
88
100
AcDbEntity
  8
0
  6
CONTINUOUS
 62
               7
100
AcDbLine
 10
33.560000000000002
 20
-213.97999999999999
 30
0.0
 11
33.740000000000009
 21
-214.47999999999999
 31
0.0
  0
LINE
  5
89
100
AcDbEntity
  8
0
  6
CONTINUOUS
 62
               7
100
AcDbLine
 10
32.990000000000009
 20
-204.76999999999998
 30
0.0
 11
32.400000000000006
 21
-204.47999999999999
 31
0.0
  0
LINE
  5
8A
100
AcDbEntity
  8
0
  6
CONTINUOUS
 62
               7
100
AcDbLine
 10
32.990000000000009
 20
-214.47999999999999
 30
0.0
 11
32.400000000000006
 21
-213.97999999999999
 31
0.0
  0
LINE
  5
8B
100
AcDbEntity
  8
0
  6
CONTINUOUS
 62
               7
100
AcDbLine
 10
32.400000000000006
 20
-213.97999999999999
 30
0.0
 11
32.25
 21
-213.97999999999999
 31
0.0
  0
LINE
  5
8C
100
AcDbEntity
  8
0
  6
CONTINUOUS
 62
               7
100
AcDbLine
 10
33.560000000000002
 20
-204.76999999999998
 30
0.0
 11
32.990000000000009
 21
-204.76999999999998
 31
0.0
  0
LINE
  5
8D
100
AcDbEntity
  8
0
  6
CONTINUOUS
 62
               7
100
AcDbLine
 10
33.560000000000002
 20
-204.47999999999999
 30
0.0
 11
32.400000000000006
 21
-204.47999999999999
 31
0.0
  0
LINE
  5
8E
100
AcDbEntity
  8
0
  6
CONTINUOUS
 62
               7
100
AcDbLine
 10
32.400000000000006
 20
-204.47999999999999
 30
0.0
 11
32.400000000000006
 21
-213.97999999999999
 31
0.0
  0
LINE
  5
8F
100
AcDbEntity
  8
0
  6
CONTINUOUS
 62
               7
100
AcDbLine
 10
32.990000000000009
 20
-204.76999999999998
 30
0.0
 11
32.990000000000009
 21
-214.47999999999999
 31
0.0
  0
LINE
  5
90
100
AcDbEntity
  8
0
  6
CONTINUOUS
 62
               7
100
AcDbLine
 10
33.560000000000002
 20
-204.47999999999999
 30
0.0
 11
33.560000000000002
 21
-213.97999999999999
 31
0.0
  0
LINE
  5
91
100
AcDbEntity
  8
0
  6
CONTINUOUS
 62
               2
100
AcDbLine
 10
34.75
 20
-200.19
 30
0.0
 11
34.75
 21
-201.47999999999999
 31
0.0
  0
LINE
  5
92
100
AcDbEntity
  8
0
  6
CONTINUOUS
 62
               7
100
AcDbLine
 10
34.0
 20
-200.19
 30
0.0
 11
34.0
 21
-201.47999999999999
 31
0.0
  0
LINE
  5
93
100
AcDbEntity
  8
0
  6
CONTINUOUS
 62
               7
100
AcDbLine
 10
32.75
 20
-201.47999999999999
 30
0.0
 11
32.25
 21
-201.97999999999999
 31
0.0
  0
LINE
  5
94
100
AcDbEntity
  8
0
  6
CONTINUOUS
 62
               7
100
AcDbLine
 10
33.25
 20
-214.97999999999999
 30
0.0
 11
32.25
 21
-213.97999999999999
 31
0.0
  0
LINE
  5
95
100
AcDbEntity
  8
0
  6
CONTINUOUS
 62
               7
100
AcDbLine
 10
32.25
 20
-201.97999999999999
 30
0.0
 11
32.25
 21
-213.97999999999999
 31
0.0
  0
LINE
  5
96
100
AcDbEntity
  8
0
  6
CONTINUOUS
 62
               7
100
AcDbLine
 10
32.430000000000007
 20
-200.19
 30
0.0
 11
31.930000000000007
 21
-199.69
 31
0.0
  0
LINE
  5
97
100
AcDbEntity
  8
0
  6
CONTINUOUS
 62
               7
100
AcDbLine
 10
31.930000000000007
 20
-199.69
 30
0.0
 11
31.930000000000007
 21
-198.69
 31
0.0
  0
LINE
  5
98
100
AcDbEntity
  8
0
  6
CONTINUOUS
 62
               7
100
AcDbLine
 10
3.1400000000000148
 20
-124.00999999999999
 30
0.0
 11
3.2600000000000193
 21
-124.13
 31
0.0
  0
LINE
  5
99
100
AcDbEntity
  8
0
  6
CONTINUOUS
 62
               7
100
AcDbLine
 10
5.960000000000008
 20
-111.56999999999999
 30
0.0
 11
3.1900000000000119
 21
-115.89999999999999
 31
0.0
  0
LINE
  5
9A
100
AcDbEntity
  8
0
  6
CONTINUOUS
 62
               7
100
AcDbLine
 10
3.2700000000000102
 20
-125.24999999999999
 30
0.0
 11
3.1900000000000119
 21
-115.89999999999999
 31
0.0
  0
LINE
  5
9B
100
AcDbEntity
  8
0
  6
CONTINUOUS
 62
               7
100
AcDbLine
 10
6.1100000000000136
 20
-129.39999999999998
 30
0.0
 11
3.3300000000000125
 21
-125.41999999999999
 31
0.0
  0
LINE
  5
9C
100
AcDbEntity
  8
0
  6
CONTINUOUS
 62
               7
100
AcDbLine
 10
11.280000000000015
 20
-105.19999999999999
 30
0.0
 11
11.280000000000015
 21
-181.19
 31
0.0
  0
LINE
  5
9D
100
AcDbEntity
  8
0
  6
CONTINUOUS
 62
               7
100
AcDbLine
 10
11.88000000000001
 20
-105.69999999999999
 30
0.0
 11
11.88000000000001
 21
-180.69
 31
0.0
  0
LINE
  5
9E
100
AcDbEntity
  8
0
  6
CONTINUOUS
 62
               7
100
AcDbLine
 10
12.140000000000015
 20
-106.19999999999999
 30
0.0
 11
12.140000000000015
 21
-138.19999999999999
 31
0.0
  0
LINE
  5
9F
100
AcDbEntity
  8
0
  6
CONTINUOUS
 62
               7
100
AcDbLine
 10
13.970000000000013
 20
-106.69999999999999
 30
0.0
 11
13.970000000000013
 21
-137.69999999999999
 31
0.0
  0
LINE
  5
A0
100
AcDbEntity
  8
0
  6
CONTINUOUS
 62
               7
100
AcDbLine
 10
21.040000000000006
 20
-106.19999999999999
 30
0.0
 11
21.040000000000006
 21
-138.19999999999999
 31
0.0
  0
LINE
  5
A1
100
AcDbEntity
  8
0
  6
CONTINUOUS
 62
               7
100
AcDbLine
 10
21.430000000000007
 20
-105.19999999999999
 30
0.0
 11
21.430000000000007
 21
-181.19
 31
0.0
  0
LINE
  5
A2
100
AcDbEntity
  8
0
  6
CONTINUOUS
 62
               7
100
AcDbLine
 10
12.280000000000015
 20
-104.19999999999999
 30
0.0
 11
20.430000000000007
 21
-104.19999999999999
 31
0.0
  0
LINE
  5
A3
100
AcDbEntity
  8
0
  6
CONTINUOUS
 62
               7
100
AcDbLine
 10
12.88000000000001
 20
-104.69999999999999
 30
0.0
 11
20.430000000000007
 21
-104.69999999999999
 31
0.0
  0
LINE
  5
A4
100
AcDbEntity
  8
0
  6
CONTINUOUS
 62
               7
100
AcDbLine
 10
20.430000000000007
 20
-182.19
 30
0.0
 11
12.280000000000015
 21
-182.19
 31
0.0
  0
LINE
  5
A5
100
AcDbEntity
  8
0
  6
CONTINUOUS
 62
               7
100
AcDbLine
 10
20.430000000000007
 20
-181.69
 30
0.0
 11
12.88000000000001
 21
-181.69
 31
0.0
  0
LINE
  5
A6
100
AcDbEntity
  8
0
  6
CONTINUOUS
 62
               7
100
AcDbLine
 10
21.040000000000006
 20
-146.19999999999999
 30
0.0
 11
21.040000000000006
 21
-180.19
 31
0.0
  0
LINE
  5
A7
100
AcDbEntity
  8
0
  6
CONTINUOUS
 62
               7
100
AcDbLine
 10
13.970000000000013
 20
-146.69999999999999
 30
0.0
 11
13.970000000000013
 21
-179.69
 31
0.0
  0
LINE
  5
A8
100
AcDbEntity
  8
0
  6
CONTINUOUS
 62
               7
100
AcDbLine
 10
12.140000000000015
 20
-146.19999999999999
 30
0.0
 11
12.140000000000015
 21
-180.19
 31
0.0
  0
LINE
  5
A9
100
AcDbEntity
  8
0
  6
CONTINUOUS
 62
               7
100
AcDbLine
 10
20.040000000000006
 20
-180.69
 30
0.0
 11
14.970000000000013
 21
-180.69
 31
0.0
  0
LINE
  5
AA
100
AcDbEntity
  8
0
  6
CONTINUOUS
 62
               7
100
AcDbLine
 10
20.040000000000006
 20
-138.69999999999999
 30
0.0
 11
14.970000000000013
 21
-138.69999999999999
 31
0.0
  0
LINE
  5
AB
100
AcDbEntity
  8
0
  6
CONTINUOUS
 62
               7
100
AcDbLine
 10
20.040000000000006
 20
-145.69999999999999
 30
0.0
 11
14.970000000000013
 21
-145.69999999999999
 31
0.0
  0
LINE
  5
AC
100
AcDbEntity
  8
0
  6
CONTINUOUS
 62
               7
100
AcDbLine
 10
14.970000000000013
 20
-105.69999999999999
 30
0.0
 11
20.040000000000006
 21
-105.69999999999999
 31
0.0
  0
LINE
  5
AD
100
AcDbEntity
  8
0
  6
CONTINUOUS
 62
               7
100
AcDbLine
 10
6.5900000000000176
 20
-183.81999999999999
 30
0.0
 11
6.1100000000000136
 21
-129.39999999999998
 31
0.0
  0
LINE
  5
AE
100
AcDbEntity
  8
0
  6
CONTINUOUS
 62
               7
100
AcDbLine
 10
13.140000000000015
 20
-105.19999999999999
 30
0.0
 11
20.040000000000006
 21
-105.19999999999999
 31
0.0
  0
LINE
  5
AF
100
AcDbEntity
  8
0
  6
CONTINUOUS
 62
               7
100
AcDbLine
 10
20.040000000000006
 20
-139.19999999999999
 30
0.0
 11
13.140000000000015
 21
-139.19999999999999
 31
0.0
  0
LINE
  5
B0
100
AcDbEntity
  8
0
  6
CONTINUOUS
 62
               7
100
AcDbLine
 10
20.040000000000006
 20
-145.19999999999999
 30
0.0
 11
13.140000000000015
 21
-145.19999999999999
 31
0.0
  0
LINE
  5
B1
100
AcDbEntity
  8
0
  6
CONTINUOUS
 62
               7
100
AcDbLine
 10
20.040000000000006
 20
-181.19
 30
0.0
 11
13.140000000000015
 21
-181.19
 31
0.0
  0
LINE
  5
B2
100
AcDbEntity
  8
0
  6
CONTINUOUS
 62
               7
100
AcDbLine
 10
73.420000000000016
 20
-183.81999999999999
 30
0.0
 11
74.150000000000006
 21
-99.5
 31
0.0
  0
ARC
  5
B3
100
AcDbEntity
  8
0
  6
CONTINUOUS
 62
               7
100
AcDbCircle
 10
66.859231747357313
 20
-138.19923174735729
 30
0.0
 40
1.0007685475221786
100
AcDbArc
 50
270.04398383468208
 51
359.95601616531644
  0
ARC
  5
B4
100
AcDbEntity
  8
0
  6
CONTINUOUS
 62
               7
100
AcDbCircle
 10
65.027117415776985
 20
-137.69711741577697
 30
0.0
 40
1.002886726918669
100
AcDbArc
 50
270.16468473761705
 51
359.83531526238147
  0
ARC
  5
B5
100
AcDbEntity
  8
0
  6
CONTINUOUS
 62
               7
100
AcDbCircle
 10
59.965533549541362
 20
-138.19446645045866
 30
0.0
 40
1.0055487752584353
100
AcDbArc
 50
180.31530109973403
 51
269.68469890026432
  0
ARC
  5
B6
100
AcDbEntity
  8
0
  6
CONTINUOUS
 62
               7
100
AcDbCircle
 10
59.965533549541362
 20
-137.69446645045866
 30
0.0
 40
1.0055487752584353
100
AcDbArc
 50
180.31530109973403
 51
269.68469890026432
  0
ARC
  5
B7
100
AcDbEntity
  8
0
  6
CONTINUOUS
 62
               7
100
AcDbCircle
 10
67.725401533214267
 20
-105.19459846678573
 30
0.0
 40
0.9946131341851545
100
AcDbArc
 50
359.6888372305192
 51
90.311162769480603
  0
ARC
  5
B8
100
AcDbEntity
  8
0
  6
CONTINUOUS
 62
               7
100
AcDbCircle
 10
67.126745068130333
 20
-105.69325493186966
 30
0.0
 40
0.9932778340562718
100
AcDbArc
 50
359.61091761697543
 51
90.38908238302399
  0
ARC
  5
B9
100
AcDbEntity
  8
0
  6
CONTINUOUS
 62
               7
100
AcDbCircle
 10
66.868191870934282
 20
-106.19180812906571
 30
0.0
 40
0.9918419589986338
100
AcDbArc
 50
359.5267744392126
 51
90.473225560785551
  0
ARC
  5
BA
100
AcDbEntity
  8
0
  6
CONTINUOUS
 62
               7
100
AcDbCircle
 10
65.036058528758218
 20
-106.69394147124177
 30
0.0
 40
0.9939599358248765
100
AcDbArc
 50
359.65076029232335
 51
90.34923970767565
  0
ARC
  5
BB
100
AcDbEntity
  8
0
  6
CONTINUOUS
 62
               7
100
AcDbCircle
 10
59.569889884081249
 20
-105.19988988408122
 30
0.0
 40
0.999889890144662
100
AcDbArc
 50
89.993690127805053
 51
180.00630987219392
  0
ARC
  5
BC
100
AcDbEntity
  8
0
  6
CONTINUOUS
 62
               7
100
AcDbCircle
 10
59.569889884081249
 20
-105.69988988408122
 30
0.0
 40
0.999889890144662
100
AcDbArc
 50
89.993690127805053
 51
180.00630987219392
  0
ARC
  5
BD
100
AcDbEntity
  8
0
  6
CONTINUOUS
 62
               7
100
AcDbCircle
 10
59.956616214304034
 20
-106.19661621430402
 30
0.0
 40
0.9966219587282553
100
AcDbArc
 50
89.805465843940127
 51
180.19453415605886
  0
ARC
  5
BE
100
AcDbEntity
  8
0
  6
CONTINUOUS
 62
               7
100
AcDbCircle
 10
59.956616214304034
 20
-106.69661621430402
 30
0.0
 40
0.9966219587282553
100
AcDbArc
 50
89.805465843940127
 51
180.19453415605886
  0
ARC
  5
BF
100
AcDbEntity
  8
0
  6
CONTINUOUS
 62
               7
100
AcDbCircle
 10
67.721476048998852
 20
-181.19147604899885
 30
0.0
 40
0.9985250419711891
100
AcDbArc
 50
269.91530366767483
 51
0.0846963323253586
  0
ARC
  5
C0
100
AcDbEntity
  8
0
  6
CONTINUOUS
 62
               7
100
AcDbCircle
 10
67.122814316827572
 20
-180.69281431682754
 30
0.0
 40
0.997189654530819
100
AcDbArc
 50
269.83829686784185
 51
0.1617031321571165
  0
ARC
  5
C1
100
AcDbEntity
  8
0
  6
CONTINUOUS
 62
               7
100
AcDbCircle
 10
66.86425543998476
 20
-180.19425543998474
 30
0.0
 40
0.9957536530535159
100
AcDbArc
 50
269.75514074939917
 51
0.2448592506006225
  0
ARC
  5
C2
100
AcDbEntity
  8
0
  6
CONTINUOUS
 62
               7
100
AcDbCircle
 10
66.868195206346513
 20
-146.19180479365349
 30
0.0
 40
0.9918386512538874
100
AcDbArc
 50
359.52658017686093
 51
90.473419823138272
  0
ARC
  5
C3
100
AcDbEntity
  8
0
  6
CONTINUOUS
 62
               7
100
AcDbCircle
 10
65.032130469766258
 20
-179.69213046976625
 30
0.0
 40
0.9978718045271724
100
AcDbArc
 50
269.87767264475286
 51
0.1223273552471013
  0
ARC
  5
C4
100
AcDbEntity
  8
0
  6
CONTINUOUS
 62
               7
100
AcDbCircle
 10
59.573794689742698
 20
-181.18620531025732
 30
0.0
 40
1.003801862334325
100
AcDbArc
 50
180.21659675363117
 51
269.78340324636821
  0
ARC
  5
C5
100
AcDbEntity
  8
0
  6
CONTINUOUS
 62
               7
100
AcDbCircle
 10
59.573794689742698
 20
-180.68620531025732
 30
0.0
 40
1.003801862334325
100
AcDbArc
 50
180.21659675363117
 51
269.78340324636821
  0
ARC
  5
C6
100
AcDbEntity
  8
0
  6
CONTINUOUS
 62
               7
100
AcDbCircle
 10
59.960533801077872
 20
-180.1894661989221
 30
0.0
 40
1.0005339434736435
100
AcDbArc
 50
180.03056822860592
 51
269.96943177139349
  0
ARC
  5
C7
100
AcDbEntity
  8
0
  6
CONTINUOUS
 62
               7
100
AcDbCircle
 10
59.960533801077872
 20
-179.6894661989221
 30
0.0
 40
1.0005339434736435
100
AcDbArc
 50
180.03056822860572
 51
269.96943177139349
  0
ARC
  5
C8
100
AcDbEntity
  8
0
  6
CONTINUOUS
 62
               7
100
AcDbCircle
 10
59.956612894890299
 20
-146.19661289489028
 30
0.0
 40
0.9966186506094725
100
AcDbArc
 50
89.805274363438244
 51
180.19472563656069
  0
ARC
  5
C9
100
AcDbEntity
  8
0
  6
CONTINUOUS
 62
               7
100
AcDbCircle
 10
59.956612894890299
 20
-146.69661289489028
 30
0.0
 40
0.9966186506094725
100
AcDbArc
 50
89.805274363438244
 51
180.19472563656069
  0
ARC
  5
CA
100
AcDbEntity
  8
0
  6
CONTINUOUS
 62
               7
100
AcDbCircle
 10
65.036061857063004
 20
-146.69393814293699
 30
0.0
 40
0.9939566278747196
100
AcDbArc
 50
359.6505672691685
 51
90.349432730830017
  0
ARC
  5
CB
100
AcDbEntity
  8
0
  6
CONTINUOUS
 62
               7
100
AcDbCircle
 10
58.421168132194026
 20
-183.69061008627506
 30
0.0
 40
14.999389959211207
100
AcDbArc
 50
269.99553788221459
 51
359.50574070440939
  0
LINE
  5
CC
100
AcDbEntity
  8
0
  6
CONTINUOUS
 62
               7
100
AcDbLine
 10
68.719999999999999
 20
-105.19999999999999
 30
0.0
 11
68.719999999999999
 21
-181.19
 31
0.0
  0
LINE
  5
CD
100
AcDbEntity
  8
0
  6
CONTINUOUS
 62
               7
100
AcDbLine
 10
68.120000000000005
 20
-105.69999999999999
 30
0.0
 11
68.120000000000005
 21
-180.69
 31
0.0
  0
LINE
  5
CE
100
AcDbEntity
  8
0
  6
CONTINUOUS
 62
               7
100
AcDbLine
 10
67.860000000000014
 20
-106.19999999999999
 30
0.0
 11
67.860000000000014
 21
-138.19999999999999
 31
0.0
  0
LINE
  5
CF
100
AcDbEntity
  8
0
  6
CONTINUOUS
 62
               7
100
AcDbLine
 10
66.030000000000001
 20
-106.69999999999999
 30
0.0
 11
66.030000000000001
 21
-137.69999999999999
 31
0.0
  0
LINE
  5
D0
100
AcDbEntity
  8
0
  6
CONTINUOUS
 62
               7
100
AcDbLine
 10
58.960000000000008
 20
-106.19999999999999
 30
0.0
 11
58.960000000000008
 21
-138.19999999999999
 31
0.0
  0
LINE
  5
D1
100
AcDbEntity
  8
0
  6
CONTINUOUS
 62
               7
100
AcDbLine
 10
58.570000000000022
 20
-105.19999999999999
 30
0.0
 11
58.570000000000022
 21
-181.19
 31
0.0
  0
LINE
  5
D2
100
AcDbEntity
  8
0
  6
CONTINUOUS
 62
               7
100
AcDbLine
 10
67.719999999999999
 20
-104.19999999999999
 30
0.0
 11
59.570000000000022
 21
-104.19999999999999
 31
0.0
  0
LINE
  5
D3
100
AcDbEntity
  8
0
  6
CONTINUOUS
 62
               7
100
AcDbLine
 10
67.120000000000005
 20
-104.69999999999999
 30
0.0
 11
59.570000000000022
 21
-104.69999999999999
 31
0.0
  0
LINE
  5
D4
100
AcDbEntity
  8
0
  6
CONTINUOUS
 62
               7
100
AcDbLine
 10
59.570000000000022
 20
-182.19
 30
0.0
 11
67.719999999999999
 21
-182.19
 31
0.0
  0
LINE
  5
D5
100
AcDbEntity
  8
0
  6
CONTINUOUS
 62
               7
100
AcDbLine
 10
59.570000000000022
 20
-181.69
 30
0.0
 11
67.120000000000005
 21
-181.69
 31
0.0
  0
LINE
  5
D6
100
AcDbEntity
  8
0
  6
CONTINUOUS
 62
               7
100
AcDbLine
 10
58.960000000000008
 20
-146.19999999999999
 30
0.0
 11
58.960000000000008
 21
-180.19
 31
0.0
  0
LINE
  5
D7
100
AcDbEntity
  8
0
  6
CONTINUOUS
 62
               7
100
AcDbLine
 10
66.030000000000001
 20
-146.69999999999999
 30
0.0
 11
66.030000000000001
 21
-179.69
 31
0.0
  0
LINE
  5
D8
100
AcDbEntity
  8
0
  6
CONTINUOUS
 62
               7
100
AcDbLine
 10
67.860000000000014
 20
-146.19999999999999
 30
0.0
 11
67.860000000000014
 21
-180.19
 31
0.0
  0
LINE
  5
D9
100
AcDbEntity
  8
0
  6
CONTINUOUS
 62
               7
100
AcDbLine
 10
59.960000000000008
 20
-180.69
 30
0.0
 11
65.030000000000001
 21
-180.69
 31
0.0
  0
LINE
  5
DA
100
AcDbEntity
  8
0
  6
CONTINUOUS
 62
               7
100
AcDbLine
 10
59.960000000000008
 20
-138.69999999999999
 30
0.0
 11
65.030000000000001
 21
-138.69999999999999
 31
0.0
  0
LINE
  5
DB
100
AcDbEntity
  8
0
  6
CONTINUOUS
 62
               7
100
AcDbLine
 10
59.960000000000008
 20
-145.69999999999999
 30
0.0
 11
65.030000000000001
 21
-145.69999999999999
 31
0.0
  0
LINE
  5
DC
100
AcDbEntity
  8
0
  6
CONTINUOUS
 62
               7
100
AcDbLine
 10
65.030000000000001
 20
-105.69999999999999
 30
0.0
 11
59.960000000000008
 21
-105.69999999999999
 31
0.0
  0
LINE
  5
DD
100
AcDbEntity
  8
0
  6
CONTINUOUS
 62
               7
100
AcDbLine
 10
66.860000000000014
 20
-105.19999999999999
 30
0.0
 11
59.960000000000008
 21
-105.19999999999999
 31
0.0
  0
LINE
  5
DE
100
AcDbEntity
  8
0
  6
CONTINUOUS
 62
               7
100
AcDbLine
 10
59.960000000000008
 20
-139.19999999999999
 30
0.0
 11
66.860000000000014
 21
-139.19999999999999
 31
0.0
  0
LINE
  5
DF
100
AcDbEntity
  8
0
  6
CONTINUOUS
 62
               7
100
AcDbLine
 10
59.960000000000008
 20
-145.19999999999999
 30
0.0
 11
66.860000000000014
 21
-145.19999999999999
 31
0.0
  0
LINE
  5
E0
100
AcDbEntity
  8
0
  6
CONTINUOUS
 62
               7
100
AcDbLine
 10
59.960000000000008
 20
-181.19
 30
0.0
 11
66.860000000000014
 21
-181.19
 31
0.0
  0
LINE
  5
E1
100
AcDbEntity
  8
0
  6
CONTINUOUS
 62
               7
100
AcDbLine
 10
3.5400000000000063
 20
-99.5
 30
0.0
 11
3.5800000000000125
 21
-101.48999999999998
 31
0.0
  0
LINE
  5
E2
100
AcDbEntity
  8
0
  6
CONTINUOUS
 62
               7
100
AcDbLine
 10
4.1100000000000136
 20
-99.5
 30
0.0
 11
4.1600000000000108
 21
-101.47999999999999
 31
0.0
  0
LINE
  5
E3
100
AcDbEntity
  8
0
  6
CONTINUOUS
 62
               7
100
AcDbLine
 10
2.6000000000000085
 20
-102.01999999999998
 30
0.0
 11
3.0800000000000125
 21
-101.5
 31
0.0
  0
LINE
  5
E4
100
AcDbEntity
  8
0
  6
CONTINUOUS
 62
               7
100
AcDbLine
 10
3.0800000000000125
 20
-101.5
 30
0.0
 11
4.1600000000000108
 21
-101.47999999999999
 31
0.0
  0
LINE
  5
E5
100
AcDbEntity
  8
0
  6
CONTINUOUS
 62
               7
100
AcDbLine
 10
46.5
 20
-215.97999999999999
 30
0.0
 11
46.5
 21
-214.97999999999999
 31
0.0
  0
LINE
  5
E6
100
AcDbEntity
  8
0
  6
CONTINUOUS
 62
               7
100
AcDbLine
 10
47.010000000000019
 20
-214.47999999999999
 30
0.0
 11
46.260000000000019
 21
-214.47999999999999
 31
0.0
  0
LINE
  5
E7
100
AcDbEntity
  8
0
  6
CONTINUOUS
 62
               7
100
AcDbLine
 10
38.160000000000025
 20
-214.47999999999999
 30
0.0
 11
36.340000000000003
 21
-214.47999999999999
 31
0.0
  0
LINE
  5
E8
100
AcDbEntity
  8
0
  6
CONTINUOUS
 62
               7
100
AcDbLine
 10
46.440000000000026
 20
-213.97999999999999
 30
0.0
 11
46.260000000000019
 21
-214.47999999999999
 31
0.0
  0
LINE
  5
E9
100
AcDbEntity
  8
0
  6
CONTINUOUS
 62
               7
100
AcDbLine
 10
47.010000000000019
 20
-204.76999999999998
 30
0.0
 11
47.600000000000023
 21
-204.47999999999999
 31
0.0
  0
LINE
  5
EA
100
AcDbEntity
  8
0
  6
CONTINUOUS
 62
               7
100
AcDbLine
 10
43.660000000000025
 20
-204.76999999999998
 30
0.0
 11
44.320000000000022
 21
-204.47999999999999
 31
0.0
  0
LINE
  5
EB
100
AcDbEntity
  8
0
  6
CONTINUOUS
 62
               7
100
AcDbLine
 10
41.840000000000003
 20
-204.76999999999998
 30
0.0
 11
41.5
 21
-204.47999999999999
 31
0.0
  0
LINE
  5
EC
100
AcDbEntity
  8
0
  6
CONTINUOUS
 62
               7
100
AcDbLine
 10
38.160000000000025
 20
-204.76999999999998
 30
0.0
 11
38.5
 21
-204.47999999999999
 31
0.0
  0
LINE
  5
ED
100
AcDbEntity
  8
0
  6
CONTINUOUS
 62
               7
100
AcDbLine
 10
36.340000000000003
 20
-204.76999999999998
 30
0.0
 11
35.690000000000026
 21
-204.47999999999999
 31
0.0
  0
LINE
  5
EE
100
AcDbEntity
  8
0
  6
CONTINUOUS
 62
               7
100
AcDbLine
 10
36.340000000000003
 20
-214.47999999999999
 30
0.0
 11
35.690000000000026
 21
-213.97999999999999
 31
0.0
  0
LINE
  5
EF
100
AcDbEntity
  8
0
  6
CONTINUOUS
 62
               7
100
AcDbLine
 10
38.5
 20
-213.97999999999999
 30
0.0
 11
38.160000000000025
 21
-214.47999999999999
 31
0.0
  0
LINE
  5
F0
100
AcDbEntity
  8
0
  6
CONTINUOUS
 62
               7
100
AcDbLine
 10
41.840000000000003
 20
-214.47999999999999
 30
0.0
 11
41.5
 21
-213.97999999999999
 31
0.0
  0
LINE
  5
F1
100
AcDbEntity
  8
0
  6
CONTINUOUS
 62
               7
100
AcDbLine
 10
43.660000000000025
 20
-214.47999999999999
 30
0.0
 11
44.320000000000022
 21
-213.97999999999999
 31
0.0
  0
LINE
  5
F2
100
AcDbEntity
  8
0
  6
CONTINUOUS
 62
               7
100
AcDbLine
 10
47.010000000000019
 20
-214.47999999999999
 30
0.0
 11
47.600000000000023
 21
-213.97999999999999
 31
0.0
  0
LINE
  5
F3
100
AcDbEntity
  8
0
  6
CONTINUOUS
 62
               7
100
AcDbLine
 10
43.660000000000025
 20
-214.47999999999999
 30
0.0
 11
41.840000000000003
 21
-214.47999999999999
 31
0.0
  0
LINE
  5
F4
100
AcDbEntity
  8
0
  6
CONTINUOUS
 62
               7
100
AcDbLine
 10
46.440000000000026
 20
-213.97999999999999
 30
0.0
 11
44.320000000000022
 21
-213.97999999999999
 31
0.0
  0
LINE
  5
F5
100
AcDbEntity
  8
0
  6
CONTINUOUS
 62
               7
100
AcDbLine
 10
41.5
 20
-213.97999999999999
 30
0.0
 11
38.5
 21
-213.97999999999999
 31
0.0
  0
LINE
  5
F6
100
AcDbEntity
  8
0
  6
CONTINUOUS
 62
               7
100
AcDbLine
 10
43.660000000000025
 20
-204.76999999999998
 30
0.0
 11
41.840000000000003
 21
-204.76999999999998
 31
0.0
  0
LINE
  5
F7
100
AcDbEntity
  8
0
  6
CONTINUOUS
 62
               7
100
AcDbLine
 10
44.320000000000022
 20
-204.47999999999999
 30
0.0
 11
41.5
 21
-204.47999999999999
 31
0.0
  0
LINE
  5
F8
100
AcDbEntity
  8
0
  6
CONTINUOUS
 62
               7
100
AcDbLine
 10
38.160000000000025
 20
-204.76999999999998
 30
0.0
 11
36.340000000000003
 21
-204.76999999999998
 31
0.0
  0
LINE
  5
F9
100
AcDbEntity
  8
0
  6
CONTINUOUS
 62
               7
100
AcDbLine
 10
38.5
 20
-204.47999999999999
 30
0.0
 11
35.690000000000026
 21
-204.47999999999999
 31
0.0
  0
LINE
  5
FA
100
AcDbEntity
  8
0
  6
CONTINUOUS
 62
               7
100
AcDbLine
 10
47.75
 20
-213.97999999999999
 30
0.0
 11
47.600000000000023
 21
-213.97999999999999
 31
0.0
  0
LINE
  5
FB
100
AcDbEntity
  8
0
  6
CONTINUOUS
 62
               7
100
AcDbLine
 10
47.010000000000019
 20
-204.76999999999998
 30
0.0
 11
46.440000000000026
 21
-204.76999999999998
 31
0.0
  0
LINE
  5
FC
100
AcDbEntity
  8
0
  6
CONTINUOUS
 62
               7
100
AcDbLine
 10
47.600000000000023
 20
-204.47999999999999
 30
0.0
 11
46.440000000000026
 21
-204.47999999999999
 31
0.0
  0
LINE
  5
FD
100
AcDbEntity
  8
0
  6
CONTINUOUS
 62
               7
100
AcDbLine
 10
47.600000000000023
 20
-204.47999999999999
 30
0.0
 11
47.600000000000023
 21
-213.97999999999999
 31
0.0
  0
LINE
  5
FE
100
AcDbEntity
  8
0
  6
CONTINUOUS
 62
               7
100
AcDbLine
 10
47.010000000000019
 20
-204.76999999999998
 30
0.0
 11
47.010000000000019
 21
-214.47999999999999
 31
0.0
  0
LINE
  5
FF
100
AcDbEntity
  8
0
  6
CONTINUOUS
 62
               7
100
AcDbLine
 10
46.440000000000026
 20
-204.47999999999999
 30
0.0
 11
46.440000000000026
 21
-213.97999999999999
 31
0.0
  0
LINE
  5
100
100
AcDbEntity
  8
0
  6
CONTINUOUS
 62
               7
100
AcDbLine
 10
44.320000000000022
 20
-204.47999999999999
 30
0.0
 11
44.320000000000022
 21
-213.97999999999999
 31
0.0
  0
LINE
  5
101
100
AcDbEntity
  8
0
  6
CONTINUOUS
 62
               7
100
AcDbLine
 10
43.660000000000025
 20
-204.76999999999998
 30
0.0
 11
43.660000000000025
 21
-214.47999999999999
 31
0.0
  0
LINE
  5
102
100
AcDbEntity
  8
0
  6
CONTINUOUS
 62
               7
100
AcDbLine
 10
35.690000000000026
 20
-204.47999999999999
 30
0.0
 11
35.690000000000026
 21
-213.97999999999999
 31
0.0
  0
LINE
  5
103
100
AcDbEntity
  8
0
  6
CONTINUOUS
 62
               7
100
AcDbLine
 10
36.340000000000003
 20
-204.76999999999998
 30
0.0
 11
36.340000000000003
 21
-214.47999999999999
 31
0.0
  0
LINE
  5
104
100
AcDbEntity
  8
0
  6
CONTINUOUS
 62
               7
100
AcDbLine
 10
38.160000000000025
 20
-204.76999999999998
 30
0.0
 11
38.160000000000025
 21
-214.47999999999999
 31
0.0
  0
LINE
  5
105
100
AcDbEntity
  8
0
  6
CONTINUOUS
 62
               7
100
AcDbLine
 10
41.840000000000003
 20
-204.76999999999998
 30
0.0
 11
41.840000000000003
 21
-214.47999999999999
 31
0.0
  0
LINE
  5
106
100
AcDbEntity
  8
0
  6
CONTINUOUS
 62
               7
100
AcDbLine
 10
41.5
 20
-204.47999999999999
 30
0.0
 11
41.5
 21
-213.97999999999999
 31
0.0
  0
LINE
  5
107
100
AcDbEntity
  8
0
  6
CONTINUOUS
 62
               7
100
AcDbLine
 10
38.5
 20
-204.47999999999999
 30
0.0
 11
38.5
 21
-213.97999999999999
 31
0.0
  0
LINE
  5
108
100
AcDbEntity
  8
0
  6
CONTINUOUS
 62
               2
100
AcDbLine
 10
45.25
 20
-200.19
 30
0.0
 11
45.25
 21
-201.47999999999999
 31
0.0
  0
LINE
  5
109
100
AcDbEntity
  8
0
  6
CONTINUOUS
 62
               7
100
AcDbLine
 10
46.0
 20
-200.19
 30
0.0
 11
46.0
 21
-201.47999999999999
 31
0.0
  0
LINE
  5
10A
100
AcDbEntity
  8
0
  6
CONTINUOUS
 62
               7
100
AcDbLine
 10
47.25
 20
-201.47999999999999
 30
0.0
 11
47.75
 21
-201.97999999999999
 31
0.0
  0
LINE
  5
10B
100
AcDbEntity
  8
0
  6
CONTINUOUS
 62
               7
100
AcDbLine
 10
47.75
 20
-213.97999999999999
 30
0.0
 11
46.75
 21
-214.97999999999999
 31
0.0
  0
LINE
  5
10C
100
AcDbEntity
  8
0
  6
CONTINUOUS
 62
               7
100
AcDbLine
 10
47.75
 20
-201.97999999999999
 30
0.0
 11
47.75
 21
-213.97999999999999
 31
0.0
  0
LINE
  5
10D
100
AcDbEntity
  8
0
  6
CONTINUOUS
 62
               7
100
AcDbLine
 10
47.580000000000013
 20
-200.19
 30
0.0
 11
48.080000000000013
 21
-199.69
 31
0.0
  0
LINE
  5
10E
100
AcDbEntity
  8
0
  6
CONTINUOUS
 62
               7
100
AcDbLine
 10
48.080000000000013
 20
-199.69
 30
0.0
 11
48.080000000000013
 21
-198.69
 31
0.0
  0
LINE
  5
10F
100
AcDbEntity
  8
0
  6
CONTINUOUS
 62
               7
100
AcDbLine
 10
46.0
 20
-216.47999999999999
 30
0.0
 11
46.5
 21
-215.97999999999999
 31
0.0
  0
LINE
  5
110
100
AcDbEntity
  8
0
  6
CENTER
 62
               2
100
AcDbLine
 10
-10.199409029723711
 20
0.0
 30
0.0
 11
90.160431273581935
 21
0.0
 31
0.0
  0
ENDBLK
  5
111
100
AcDbEntity
  8
0
100
AcDbBlockEnd
  0
BLOCK
  5
112
100
AcDbEntity
  8
0
100
AcDbBlockBegin
  2
MS_2
 70
               0
 10
0.0
 20
0.0
 30
0.0
  3
MS_2
  1

  0
CIRCLE
  5
113
100
AcDbEntity
  8
0
  6
CONTINUOUS
 62
               2
100
AcDbCircle
 10
0.0
 20
0.0
 30
0.0
 40
10.477499961853027
  0
CIRCLE
  5
114
100
AcDbEntity
  8
0
  6
CONTINUOUS
 62
               7
100
AcDbCircle
 10
0.0
 20
0.0
 30
0.0
 40
9.3155002593994141
  0
ARC
  5
115
100
AcDbEntity
  8
0
  6
CONTINUOUS
 62
               7
100
AcDbCircle
 10
-22.000106814375613
 20
15.000106814375613
 30
0.0
 40
2.0001068172277883
100
AcDbArc
 50
270.00305984303583
 51
359.99694015696275
  0
CIRCLE
  5
116
100
AcDbEntity
  8
0
  6
CONTINUOUS
 62
               7
100
AcDbCircle
 10
0.0
 20
0.0
 30
0.0
 40
13.5
  0
ARC
  5
117
100
AcDbEntity
  8
0
  6
CONTINUOUS
 62
               7
100
AcDbCircle
 10
-30.000103000362287
 20
-13.499896999637713
 30
0.0
 40
1.5001030038984027
100
AcDbArc
 50
270.00393405388547
 51
359.99606594611311
  0
ARC
  5
118
100
AcDbEntity
  8
0
  6
CONTINUOUS
 62
               7
100
AcDbCircle
 10
20.987133601356902
 20
14.00359077444962
 30
0.0
 40
2.0036320859064087
100
AcDbArc
 50
240.48363807656852
 51
270.36792952735277
  0
ARC
  5
119
100
AcDbEntity
  8
0
  6
CONTINUOUS
 62
               7
100
AcDbCircle
 10
-22.000091554829851
 20
-12.999908445170149
 30
0.0
 40
2.0000915569253266
100
AcDbArc
 50
270.0026227326079
 51
359.99737726739068
  0
ARC
  5
11A
100
AcDbEntity
  8
0
  6
CONTINUOUS
 62
               7
100
AcDbCircle
 10
22.000095369705377
 20
-12.999904630294623
 30
0.0
 40
2.0000953719791141
100
AcDbArc
 50
180.00273201052775
 51
269.9972679894712
  0
ARC
  5
11B
100
AcDbEntity
  8
0
  6
CONTINUOUS
 62
               7
100
AcDbCircle
 10
30.0001106303001
 20
-13.499889369699908
 30
0.0
 40
1.5001106343794768
100
AcDbArc
 50
180.00422545453736
 51
269.9957745454617
  0
ARC
  5
11C
100
AcDbEntity
  8
0
  6
CONTINUOUS
 62
               7
100
AcDbCircle
 10
22.000106814375613
 20
15.000106814375613
 30
0.0
 40
2.0001068172277883
100
AcDbArc
 50
180.00305984303603
 51
269.99694015696292
  0
ARC
  5
11D
100
AcDbEntity
  8
0
  6
CONTINUOUS
 62
               7
100
AcDbCircle
 10
-20.987136571234629
 20
14.003602197056253
 30
0.0
 40
2.0036434892086543
100
AcDbArc
 50
269.63215749443265
 51
299.51627490164361
  0
LINE
  5
11E
100
AcDbEntity
  8
0
  6
CONTINUOUS
 62
               7
100
AcDbLine
 10
-38.5
 20
-99.5
 30
0.0
 11
-39.5
 21
-98.5
 31
0.0
  0
LINE
  5
11F
100
AcDbEntity
  8
0
  6
CONTINUOUS
 62
               7
100
AcDbLine
 10
39.5
 20
-98.5
 30
0.0
 11
38.5
 21
-99.5
 31
0.0
  0
LINE
  5
120
100
AcDbEntity
  8
0
  6
CONTINUOUS
 62
               7
100
AcDbLine
 10
38.5
 20
-36.0
 30
0.0
 11
39.5
 21
-37.0
 31
0.0
  0
LINE
  5
121
100
AcDbEntity
  8
0
  6
CONTINUOUS
 62
               7
100
AcDbLine
 10
-39.5
 20
-37.0
 30
0.0
 11
-38.5
 21
-36.0
 31
0.0
  0
LINE
  5
122
100
AcDbEntity
  8
0
  6
CONTINUOUS
 62
               7
100
AcDbLine
 10
-39.5
 20
-98.5
 30
0.0
 11
39.5
 21
-98.5
 31
0.0
  0
LINE
  5
123
100
AcDbEntity
  8
0
  6
CONTINUOUS
 62
               7
100
AcDbLine
 10
-39.5
 20
-37.0
 30
0.0
 11
39.5
 21
-37.0
 31
0.0
  0
LINE
  5
124
100
AcDbEntity
  8
0
  6
CONTINUOUS
 62
               7
100
AcDbLine
 10
39.5
 20
-37.0
 30
0.0
 11
39.5
 21
-98.5
 31
0.0
  0
LINE
  5
125
100
AcDbEntity
  8
0
  6
CONTINUOUS
 62
               7
100
AcDbLine
 10
-39.5
 20
-37.0
 30
0.0
 11
-39.5
 21
-98.5
 31
0.0
  0
LINE
  5
126
100
AcDbEntity
  8
0
  6
CONTINUOUS
 62
               7
100
AcDbLine
 10
-38.5
 20
-99.5
 30
0.0
 11
38.5
 21
-99.5
 31
0.0
  0
LINE
  5
127
100
AcDbEntity
  8
0
  6
CONTINUOUS
 62
               7
100
AcDbLine
 10
20.0
 20
15.0
 30
0.0
 11
20.0
 21
-16.0
 31
0.0
  0
LINE
  5
128
100
AcDbEntity
  8
0
  6
CONTINUOUS
 62
               7
100
AcDbLine
 10
-20.0
 20
15.0
 30
0.0
 11
-20.0
 21
-16.0
 31
0.0
  0
LINE
  5
129
100
AcDbEntity
  8
0
  6
CONTINUOUS
 62
               7
100
AcDbLine
 10
27.5
 20
13.0
 30
0.0
 11
28.5
 21
12.0
 31
0.0
  0
LINE
  5
12A
100
AcDbEntity
  8
0
  6
CONTINUOUS
 62
               7
100
AcDbLine
 10
-28.5
 20
12.0
 30
0.0
 11
-27.5
 21
13.0
 31
0.0
  0
LINE
  5
12B
100
AcDbEntity
  8
0
  6
CONTINUOUS
 62
               7
100
AcDbLine
 10
21.0
 20
12.0
 30
0.0
 11
28.5
 21
12.0
 31
0.0
  0
LINE
  5
12C
100
AcDbEntity
  8
0
  6
CONTINUOUS
 62
               7
100
AcDbLine
 10
-28.5
 20
12.0
 30
0.0
 11
-21.0
 21
12.0
 31
0.0
  0
LINE
  5
12D
100
AcDbEntity
  8
0
  6
CONTINUOUS
 62
               7
100
AcDbLine
 10
22.0
 20
13.0
 30
0.0
 11
27.5
 21
13.0
 31
0.0
  0
LINE
  5
12E
100
AcDbEntity
  8
0
  6
CENTER
 62
               2
100
AcDbLine
 10
-31.909999999999997
 20
0.0
 30
0.0
 11
32.629999999999995
 21
0.0
 31
0.0
  0
LINE
  5
12F
100
AcDbEntity
  8
0
  6
CONTINUOUS
 62
               7
100
AcDbLine
 10
19.0
 20
16.0
 30
0.0
 11
20.0
 21
15.0
 31
0.0
  0
LINE
  5
130
100
AcDbEntity
  8
0
  6
CONTINUOUS
 62
               7
100
AcDbLine
 10
-19.0
 20
16.0
 30
0.0
 11
-20.0
 21
15.0
 31
0.0
  0
LINE
  5
131
100
AcDbEntity
  8
0
  6
CONTINUOUS
 62
               7
100
AcDbLine
 10
-20.0
 20
15.0
 30
0.0
 11
20.0
 21
15.0
 31
0.0
  0
LINE
  5
132
100
AcDbEntity
  8
0
  6
CONTINUOUS
 62
               7
100
AcDbLine
 10
-19.0
 20
16.0
 30
0.0
 11
-19.0
 21
-16.0
 31
0.0
  0
LINE
  5
133
100
AcDbEntity
  8
0
  6
CONTINUOUS
 62
               7
100
AcDbLine
 10
19.0
 20
16.0
 30
0.0
 11
19.0
 21
-16.0
 31
0.0
  0
LINE
  5
134
100
AcDbEntity
  8
0
  6
CONTINUOUS
 62
               7
100
AcDbLine
 10
-19.0
 20
16.0
 30
0.0
 11
19.0
 21
16.0
 31
0.0
  0
LINE
  5
135
100
AcDbEntity
  8
0
  6
CONTINUOUS
 62
               7
100
AcDbLine
 10
-27.5
 20
13.0
 30
0.0
 11
-22.0
 21
13.0
 31
0.0
  0
LINE
  5
136
100
AcDbEntity
  8
0
  6
CONTINUOUS
 62
               7
100
AcDbLine
 10
28.5
 20
12.0
 30
0.0
 11
28.5
 21
-13.5
 31
0.0
  0
LINE
  5
137
100
AcDbEntity
  8
0
  6
CONTINUOUS
 62
               7
100
AcDbLine
 10
-28.5
 20
12.0
 30
0.0
 11
-28.5
 21
-13.5
 31
0.0
  0
LINE
  5
138
100
AcDbEntity
  8
0
  6
CONTINUOUS
 62
               7
100
AcDbLine
 10
-38.5
 20
-36.0
 30
0.0
 11
38.5
 21
-36.0
 31
0.0
  0
LINE
  5
139
100
AcDbEntity
  8
0
  6
CONTINUOUS
 62
               7
100
AcDbLine
 10
22.0
 20
-15.0
 30
0.0
 11
38.5
 21
-15.0
 31
0.0
  0
LINE
  5
13A
100
AcDbEntity
  8
0
  6
CONTINUOUS
 62
               7
100
AcDbLine
 10
-39.5
 20
-16.0
 30
0.0
 11
39.5
 21
-16.0
 31
0.0
  0
LINE
  5
13B
100
AcDbEntity
  8
0
  6
CONTINUOUS
 62
               7
100
AcDbLine
 10
39.5
 20
-16.0
 30
0.0
 11
38.5
 21
-15.0
 31
0.0
  0
LINE
  5
13C
100
AcDbEntity
  8
0
  6
CONTINUOUS
 62
               7
100
AcDbLine
 10
-39.5
 20
-16.0
 30
0.0
 11
-38.5
 21
-15.0
 31
0.0
  0
LINE
  5
13D
100
AcDbEntity
  8
0
  6
CONTINUOUS
 62
               7
100
AcDbLine
 10
-39.5
 20
-35.0
 30
0.0
 11
39.5
 21
-35.0
 31
0.0
  0
LINE
  5
13E
100
AcDbEntity
  8
0
  6
CONTINUOUS
 62
               7
100
AcDbLine
 10
39.5
 20
-35.0
 30
0.0
 11
38.5
 21
-36.0
 31
0.0
  0
LINE
  5
13F
100
AcDbEntity
  8
0
  6
CONTINUOUS
 62
               7
100
AcDbLine
 10
-39.5
 20
-35.0
 30
0.0
 11
-38.5
 21
-36.0
 31
0.0
  0
LINE
  5
140
100
AcDbEntity
  8
0
  6
CONTINUOUS
 62
               7
100
AcDbLine
 10
-38.5
 20
-15.0
 30
0.0
 11
-22.0
 21
-15.0
 31
0.0
  0
LINE
  5
141
100
AcDbEntity
  8
0
  6
CONTINUOUS
 62
               7
100
AcDbLine
 10
39.5
 20
-16.0
 30
0.0
 11
39.5
 21
-35.0
 31
0.0
  0
LINE
  5
142
100
AcDbEntity
  8
0
  6
CONTINUOUS
 62
               7
100
AcDbLine
 10
-39.5
 20
-16.0
 30
0.0
 11
-39.5
 21
-35.0
 31
0.0
  0
LINE
  5
143
100
AcDbEntity
  8
0
  6
CONTINUOUS
 62
               7
100
AcDbLine
 10
-7.5700000000000216
 20
-200.19
 30
0.0
 11
7.5799999999999841
 21
-200.19
 31
0.0
  0
LINE
  5
144
100
AcDbEntity
  8
0
  6
CONTINUOUS
 62
               7
100
AcDbLine
 10
6.75
 20
-214.97999999999999
 30
0.0
 11
-6.75
 21
-214.97999999999999
 31
0.0
  0
LINE
  5
145
100
AcDbEntity
  8
0
  6
CONTINUOUS
 62
               7
100
AcDbLine
 10
7.25
 20
-201.47999999999999
 30
0.0
 11
-7.25
 21
-201.47999999999999
 31
0.0
  0
LINE
  5
146
100
AcDbEntity
  8
0
  6
CONTINUOUS
 62
               7
100
AcDbLine
 10
-1.5
 20
-204.47999999999999
 30
0.0
 11
-4.3100000000000023
 21
-204.47999999999999
 31
0.0
  0
LINE
  5
147
100
AcDbEntity
  8
0
  6
CONTINUOUS
 62
               7
100
AcDbLine
 10
-3.6500000000000057
 20
-214.47999999999999
 30
0.0
 11
-4.3100000000000023
 21
-213.97999999999999
 31
0.0
  0
LINE
  5
148
100
AcDbEntity
  8
0
  6
CONTINUOUS
 62
               7
100
AcDbLine
 10
-3.6500000000000057
 20
-204.76999999999998
 30
0.0
 11
-4.3100000000000023
 21
-204.47999999999999
 31
0.0
  0
LINE
  5
149
100
AcDbEntity
  8
0
  6
CONTINUOUS
 62
               7
100
AcDbLine
 10
7.75
 20
-201.97999999999999
 30
0.0
 11
-7.75
 21
-201.97999999999999
 31
0.0
  0
LINE
  5
14A
100
AcDbEntity
  8
0
  6
CONTINUOUS
 62
               7
100
AcDbLine
 10
6.0
 20
-216.47999999999999
 30
0.0
 11
-6.0
 21
-216.47999999999999
 31
0.0
  0
LINE
  5
14B
100
AcDbEntity
  8
0
  6
CONTINUOUS
 62
               7
100
AcDbLine
 10
-6.5
 20
-215.97999999999999
 30
0.0
 11
6.5
 21
-215.97999999999999
 31
0.0
  0
LINE
  5
14C
100
AcDbEntity
  8
0
  6
CONTINUOUS
 62
               7
100
AcDbLine
 10
18.419999999999987
 20
-198.69
 30
0.0
 11
-18.410000000000025
 21
-198.69
 31
0.0
  0
LINE
  5
14D
100
AcDbEntity
  8
0
  6
CONTINUOUS
 62
               7
100
AcDbLine
 10
-33.410000000000025
 20
-183.81999999999999
 30
0.0
 11
-34.150000000000006
 21
-99.5
 31
0.0
  0
LINE
  5
14E
100
AcDbEntity
  8
0
  6
CONTINUOUS
 62
               7
100
AcDbLine
 10
-8.0700000000000216
 20
-199.69
 30
0.0
 11
8.0799999999999841
 21
-199.69
 31
0.0
  0
ARC
  5
14F
100
AcDbEntity
  8
0
  6
CONTINUOUS
 62
               7
100
AcDbCircle
 10
-26.852686870431057
 20
-138.19268687043103
 30
0.0
 40
1.0073396760110862
100
AcDbArc
 50
180.41596211296951
 51
269.58403788703009
  0
ARC
  5
150
100
AcDbEntity
  8
0
  6
CONTINUOUS
 62
               7
100
AcDbCircle
 10
-25.015548590135666
 20
-137.69554859013562
 30
0.0
 40
1.0044612734338108
100
AcDbArc
 50
180.25391504848659
 51
269.74608495151301
  0
ARC
  5
151
100
AcDbEntity
  8
0
  6
CONTINUOUS
 62
               7
100
AcDbCircle
 10
-19.953963010201221
 20
-138.19603698979878
 30
0.0
 40
1.0039708318980822
100
AcDbArc
 50
270.22616628008478
 51
359.77383371991351
  0
ARC
  5
152
100
AcDbEntity
  8
0
  6
CONTINUOUS
 62
               7
100
AcDbCircle
 10
-19.953963010201221
 20
-137.69603698979878
 30
0.0
 40
1.0039708318980822
100
AcDbArc
 50
270.22616628008478
 51
359.77383371991351
  0
ARC
  5
153
100
AcDbEntity
  8
0
  6
CONTINUOUS
 62
               7
100
AcDbCircle
 10
-27.713817595338497
 20
-105.1961824046615
 30
0.0
 40
0.9961897195772367
100
AcDbArc
 50
89.780430743398554
 51
180.21956925660044
  0
ARC
  5
154
100
AcDbEntity
  8
0
  6
CONTINUOUS
 62
               7
100
AcDbCircle
 10
-27.120131973318706
 20
-105.69986802668129
 30
0.0
 40
0.9998680353909246
100
AcDbArc
 50
89.992437487823949
 51
180.00756251217547
  0
ARC
  5
155
100
AcDbEntity
  8
0
  6
CONTINUOUS
 62
               7
100
AcDbCircle
 10
-26.861588279205961
 20
-106.19841172079404
 30
0.0
 40
0.998412984115172
100
AcDbArc
 50
89.908853615668477
 51
180.09114638433132
  0
ARC
  5
156
100
AcDbEntity
  8
0
  6
CONTINUOUS
 62
               7
100
AcDbCircle
 10
-25.024475623895995
 20
-106.695524376104
 30
0.0
 40
0.9955344366854152
100
AcDbArc
 50
89.74241451194564
 51
180.25758548805376
  0
ARC
  5
157
100
AcDbEntity
  8
0
  6
CONTINUOUS
 62
               7
100
AcDbCircle
 10
-19.56327664674177
 20
-105.19327664674174
 30
0.0
 40
0.9932994012087063
100
AcDbArc
 50
359.61217865734596
 51
90.387821342653453
  0
ARC
  5
158
100
AcDbEntity
  8
0
  6
CONTINUOUS
 62
               7
100
AcDbCircle
 10
-19.56327664674177
 20
-105.69327664674174
 30
0.0
 40
0.9932994012087063
100
AcDbArc
 50
359.61217865734596
 51
90.387821342653453
  0
ARC
  5
159
100
AcDbEntity
  8
0
  6
CONTINUOUS
 62
               7
100
AcDbCircle
 10
-19.945031595764192
 20
-106.19503159576415
 30
0.0
 40
0.995043999835999
100
AcDbArc
 50
359.71391237316038
 51
90.286087626837826
  0
ARC
  5
15A
100
AcDbEntity
  8
0
  6
CONTINUOUS
 62
               7
100
AcDbCircle
 10
-19.945031595764192
 20
-106.69503159576415
 30
0.0
 40
0.995043999835999
100
AcDbArc
 50
359.71391237316038
 51
90.286087626837826
  0
ARC
  5
15B
100
AcDbEntity
  8
0
  6
CONTINUOUS
 62
               7
100
AcDbCircle
 10
-27.709898311921478
 20
-181.18989831192147
 30
0.0
 40
1.0001016932482389
100
AcDbArc
 50
180.00582570530131
 51
269.9941742946977
  0
ARC
  5
15C
100
AcDbEntity
  8
0
  6
CONTINUOUS
 62
               7
100
AcDbCircle
 10
-27.116227082450536
 20
-180.68622708245053
 30
0.0
 40
1.0037800082252031
100
AcDbArc
 50
180.2153587033776
 51
269.78464129662098
  0
ARC
  5
15D
100
AcDbEntity
  8
0
  6
CONTINUOUS
 62
               7
100
AcDbCircle
 10
-26.857677707324314
 20
-180.1876777073243
 30
0.0
 40
1.0023249829461227
100
AcDbArc
 50
180.13274904888021
 51
269.86725095111876
  0
ARC
  5
15E
100
AcDbEntity
  8
0
  6
CONTINUOUS
 62
               7
100
AcDbCircle
 10
-26.861591119313204
 20
-146.19840888068683
 30
0.0
 40
0.9984101485336506
100
AcDbArc
 50
89.908690371316325
 51
180.09130962868224
  0
ARC
  5
15F
100
AcDbEntity
  8
0
  6
CONTINUOUS
 62
               7
100
AcDbCircle
 10
-25.020553765570781
 20
-179.69055376557077
 30
0.0
 40
0.9994463878423354
100
AcDbArc
 50
179.96825399335671
 51
270.03174600664295
  0
ARC
  5
160
100
AcDbEntity
  8
0
  6
CONTINUOUS
 62
               7
100
AcDbCircle
 10
-19.56720731286066
 20
-181.19279268713933
 30
0.0
 40
0.9972112233244311
100
AcDbArc
 50
269.83954312587184
 51
0.1604568741271214
  0
ARC
  5
161
100
AcDbEntity
  8
0
  6
CONTINUOUS
 62
               7
100
AcDbCircle
 10
-19.56720731286066
 20
-180.69279268713933
 30
0.0
 40
0.9972112233244311
100
AcDbArc
 50
269.83954312587184
 51
0.1604568741271214
  0
ARC
  5
162
100
AcDbEntity
  8
0
  6
CONTINUOUS
 62
               7
100
AcDbCircle
 10
-19.94895538343161
 20
-180.1910446165684
 30
0.0
 40
0.9989559296138717
100
AcDbArc
 50
269.94008531336209
 51
0.0599146866376983
  0
ARC
  5
163
100
AcDbEntity
  8
0
  6
CONTINUOUS
 62
               7
100
AcDbCircle
 10
-19.94895538343161
 20
-179.6910446165684
 30
0.0
 40
0.9989559296138717
100
AcDbArc
 50
269.94008531336209
 51
0.0599146866379018
  0
ARC
  5
164
100
AcDbEntity
  8
0
  6
CONTINUOUS
 62
               7
100
AcDbCircle
 10
-19.9450287460391
 20
-146.19502874603907
 30
0.0
 40
0.9950411643796735
100
AcDbArc
 50
359.71374746495576
 51
90.286252535043417
  0
ARC
  5
165
100
AcDbEntity
  8
0
  6
CONTINUOUS
 62
               7
100
AcDbCircle
 10
-19.9450287460391
 20
-146.69502874603907
 30
0.0
 40
0.9950411643796735
100
AcDbArc
 50
359.71374746495576
 51
90.286252535043417
  0
ARC
  5
166
100
AcDbEntity
  8
0
  6
CONTINUOUS
 62
               7
100
AcDbCircle
 10
-25.024478472217027
 20
-146.69552152778294
 30
0.0
 40
0.9955316012024624
100
AcDbArc
 50
89.74224984735028
 51
180.25775015264986
  0
ARC
  5
167
100
AcDbEntity
  8
0
  6
CONTINUOUS
 62
               7
100
AcDbCircle
 10
-18.409604580177756
 20
-183.68903286500779
 30
0.0
 40
15.000967140203761
100
AcDbArc
 50
180.50023170846006
 51
269.9984897049136
  0
LINE
  5
168
100
AcDbEntity
  8
0
  6
CONTINUOUS
 62
               7
100
AcDbLine
 10
-28.710000000000008
 20
-105.19999999999999
 30
0.0
 11
-28.710000000000008
 21
-181.19
 31
0.0
  0
LINE
  5
169
100
AcDbEntity
  8
0
  6
CONTINUOUS
 62
               7
100
AcDbLine
 10
-28.120000000000005
 20
-105.69999999999999
 30
0.0
 11
-28.120000000000005
 21
-180.69
 31
0.0
  0
LINE
  5
16A
100
AcDbEntity
  8
0
  6
CONTINUOUS
 62
               7
100
AcDbLine
 10
-27.860000000000014
 20
-106.19999999999999
 30
0.0
 11
-27.860000000000014
 21
-138.19999999999999
 31
0.0
  0
LINE
  5
16B
100
AcDbEntity
  8
0
  6
CONTINUOUS
 62
               7
100
AcDbLine
 10
-26.02000000000001
 20
-106.69999999999999
 30
0.0
 11
-26.02000000000001
 21
-137.69999999999999
 31
0.0
  0
LINE
  5
16C
100
AcDbEntity
  8
0
  6
CONTINUOUS
 62
               7
100
AcDbLine
 10
-18.950000000000017
 20
-106.19999999999999
 30
0.0
 11
-18.950000000000017
 21
-138.19999999999999
 31
0.0
  0
LINE
  5
16D
100
AcDbEntity
  8
0
  6
CONTINUOUS
 62
               7
100
AcDbLine
 10
-18.570000000000022
 20
-105.19999999999999
 30
0.0
 11
-18.570000000000022
 21
-181.19
 31
0.0
  0
LINE
  5
16E
100
AcDbEntity
  8
0
  6
CONTINUOUS
 62
               7
100
AcDbLine
 10
-27.710000000000008
 20
-104.19999999999999
 30
0.0
 11
-19.570000000000022
 21
-104.19999999999999
 31
0.0
  0
LINE
  5
16F
100
AcDbEntity
  8
0
  6
CONTINUOUS
 62
               7
100
AcDbLine
 10
-27.120000000000005
 20
-104.69999999999999
 30
0.0
 11
-19.570000000000022
 21
-104.69999999999999
 31
0.0
  0
LINE
  5
170
100
AcDbEntity
  8
0
  6
CONTINUOUS
 62
               7
100
AcDbLine
 10
-19.570000000000022
 20
-182.19
 30
0.0
 11
-27.710000000000008
 21
-182.19
 31
0.0
  0
LINE
  5
171
100
AcDbEntity
  8
0
  6
CONTINUOUS
 62
               7
100
AcDbLine
 10
-19.570000000000022
 20
-181.69
 30
0.0
 11
-27.120000000000005
 21
-181.69
 31
0.0
  0
LINE
  5
172
100
AcDbEntity
  8
0
  6
CONTINUOUS
 62
               7
100
AcDbLine
 10
-18.950000000000017
 20
-146.19999999999999
 30
0.0
 11
-18.950000000000017
 21
-180.19
 31
0.0
  0
LINE
  5
173
100
AcDbEntity
  8
0
  6
CONTINUOUS
 62
               7
100
AcDbLine
 10
-26.02000000000001
 20
-146.69999999999999
 30
0.0
 11
-26.02000000000001
 21
-179.69
 31
0.0
  0
LINE
  5
174
100
AcDbEntity
  8
0
  6
CONTINUOUS
 62
               7
100
AcDbLine
 10
-27.860000000000014
 20
-146.19999999999999
 30
0.0
 11
-27.860000000000014
 21
-180.19
 31
0.0
  0
LINE
  5
175
100
AcDbEntity
  8
0
  6
CONTINUOUS
 62
               7
100
AcDbLine
 10
-19.950000000000017
 20
-180.69
 30
0.0
 11
-25.02000000000001
 21
-180.69
 31
0.0
  0
LINE
  5
176
100
AcDbEntity
  8
0
  6
CONTINUOUS
 62
               7
100
AcDbLine
 10
-19.950000000000017
 20
-138.69999999999999
 30
0.0
 11
-25.02000000000001
 21
-138.69999999999999
 31
0.0
  0
LINE
  5
177
100
AcDbEntity
  8
0
  6
CONTINUOUS
 62
               7
100
AcDbLine
 10
-19.950000000000017
 20
-145.69999999999999
 30
0.0
 11
-25.02000000000001
 21
-145.69999999999999
 31
0.0
  0
LINE
  5
178
100
AcDbEntity
  8
0
  6
CONTINUOUS
 62
               7
100
AcDbLine
 10
-25.02000000000001
 20
-105.69999999999999
 30
0.0
 11
-19.950000000000017
 21
-105.69999999999999
 31
0.0
  0
LINE
  5
179
100
AcDbEntity
  8
0
  6
CONTINUOUS
 62
               7
100
AcDbLine
 10
-26.860000000000014
 20
-105.19999999999999
 30
0.0
 11
-19.950000000000017
 21
-105.19999999999999
 31
0.0
  0
LINE
  5
17A
100
AcDbEntity
  8
0
  6
CONTINUOUS
 62
               7
100
AcDbLine
 10
-19.950000000000017
 20
-139.19999999999999
 30
0.0
 11
-26.860000000000014
 21
-139.19999999999999
 31
0.0
  0
LINE
  5
17B
100
AcDbEntity
  8
0
  6
CONTINUOUS
 62
               7
100
AcDbLine
 10
-19.950000000000017
 20
-145.19999999999999
 30
0.0
 11
-26.860000000000014
 21
-145.19999999999999
 31
0.0
  0
LINE
  5
17C
100
AcDbEntity
  8
0
  6
CONTINUOUS
 62
               7
100
AcDbLine
 10
-19.950000000000017
 20
-181.19
 30
0.0
 11
-26.860000000000014
 21
-181.19
 31
0.0
  0
LINE
  5
17D
100
AcDbEntity
  8
0
  6
CONTINUOUS
 62
               7
100
AcDbLine
 10
-6.5
 20
-215.97999999999999
 30
0.0
 11
-6.0
 21
-216.47999999999999
 31
0.0
  0
LINE
  5
17E
100
AcDbEntity
  8
0
  6
CONTINUOUS
 62
               7
100
AcDbLine
 10
-6.5
 20
-215.97999999999999
 30
0.0
 11
-6.5
 21
-214.97999999999999
 31
0.0
  0
LINE
  5
17F
100
AcDbEntity
  8
0
  6
CONTINUOUS
 62
               7
100
AcDbLine
 10
-6.2600000000000193
 20
-214.47999999999999
 30
0.0
 11
-7.0100000000000193
 21
-214.47999999999999
 31
0.0
  0
LINE
  5
180
100
AcDbEntity
  8
0
  6
CONTINUOUS
 62
               7
100
AcDbLine
 10
-6.4300000000000068
 20
-213.97999999999999
 30
0.0
 11
-6.2600000000000193
 21
-214.47999999999999
 31
0.0
  0
LINE
  5
181
100
AcDbEntity
  8
0
  6
CONTINUOUS
 62
               7
100
AcDbLine
 10
-7.0100000000000193
 20
-204.76999999999998
 30
0.0
 11
-7.6000000000000227
 21
-204.47999999999999
 31
0.0
  0
LINE
  5
182
100
AcDbEntity
  8
0
  6
CONTINUOUS
 62
               7
100
AcDbLine
 10
-7.0100000000000193
 20
-214.47999999999999
 30
0.0
 11
-7.6000000000000227
 21
-213.97999999999999
 31
0.0
  0
LINE
  5
183
100
AcDbEntity
  8
0
  6
CONTINUOUS
 62
               7
100
AcDbLine
 10
-7.6000000000000227
 20
-213.97999999999999
 30
0.0
 11
-7.75
 21
-213.97999999999999
 31
0.0
  0
LINE
  5
184
100
AcDbEntity
  8
0
  6
CONTINUOUS
 62
               7
100
AcDbLine
 10
-4.3100000000000023
 20
-213.97999999999999
 30
0.0
 11
-6.4300000000000068
 21
-213.97999999999999
 31
0.0
  0
LINE
  5
185
100
AcDbEntity
  8
0
  6
CONTINUOUS
 62
               7
100
AcDbLine
 10
-6.4300000000000068
 20
-204.76999999999998
 30
0.0
 11
-7.0100000000000193
 21
-204.76999999999998
 31
0.0
  0
LINE
  5
186
100
AcDbEntity
  8
0
  6
CONTINUOUS
 62
               7
100
AcDbLine
 10
-6.4300000000000068
 20
-204.47999999999999
 30
0.0
 11
-7.6000000000000227
 21
-204.47999999999999
 31
0.0
  0
LINE
  5
187
100
AcDbEntity
  8
0
  6
CONTINUOUS
 62
               7
100
AcDbLine
 10
-7.6000000000000227
 20
-204.47999999999999
 30
0.0
 11
-7.6000000000000227
 21
-213.97999999999999
 31
0.0
  0
LINE
  5
188
100
AcDbEntity
  8
0
  6
CONTINUOUS
 62
               7
100
AcDbLine
 10
-7.0100000000000193
 20
-204.76999999999998
 30
0.0
 11
-7.0100000000000193
 21
-214.47999999999999
 31
0.0
  0
LINE
  5
189
100
AcDbEntity
  8
0
  6
CONTINUOUS
 62
               7
100
AcDbLine
 10
-6.4300000000000068
 20
-204.47999999999999
 30
0.0
 11
-6.4300000000000068
 21
-213.97999999999999
 31
0.0
  0
LINE
  5
18A
100
AcDbEntity
  8
0
  6
CONTINUOUS
 62
               7
100
AcDbLine
 10
-4.3100000000000023
 20
-204.47999999999999
 30
0.0
 11
-4.3100000000000023
 21
-213.97999999999999
 31
0.0
  0
LINE
  5
18B
100
AcDbEntity
  8
0
  6
CONTINUOUS
 62
               2
100
AcDbLine
 10
-5.25
 20
-200.19
 30
0.0
 11
-5.25
 21
-201.47999999999999
 31
0.0
  0
LINE
  5
18C
100
AcDbEntity
  8
0
  6
CONTINUOUS
 62
               7
100
AcDbLine
 10
-6.0
 20
-200.19
 30
0.0
 11
-6.0
 21
-201.47999999999999
 31
0.0
  0
LINE
  5
18D
100
AcDbEntity
  8
0
  6
CONTINUOUS
 62
               7
100
AcDbLine
 10
-7.25
 20
-201.47999999999999
 30
0.0
 11
-7.75
 21
-201.97999999999999
 31
0.0
  0
LINE
  5
18E
100
AcDbEntity
  8
0
  6
CONTINUOUS
 62
               7
100
AcDbLine
 10
-6.75
 20
-214.97999999999999
 30
0.0
 11
-7.75
 21
-213.97999999999999
 31
0.0
  0
LINE
  5
18F
100
AcDbEntity
  8
0
  6
CONTINUOUS
 62
               7
100
AcDbLine
 10
-7.75
 20
-201.97999999999999
 30
0.0
 11
-7.75
 21
-213.97999999999999
 31
0.0
  0
LINE
  5
190
100
AcDbEntity
  8
0
  6
CONTINUOUS
 62
               7
100
AcDbLine
 10
-7.5700000000000216
 20
-200.19
 30
0.0
 11
-8.0700000000000216
 21
-199.69
 31
0.0
  0
LINE
  5
191
100
AcDbEntity
  8
0
  6
CONTINUOUS
 62
               7
100
AcDbLine
 10
-8.0700000000000216
 20
-199.69
 30
0.0
 11
-8.0700000000000216
 21
-198.69
 31
0.0
  0
LINE
  5
192
100
AcDbEntity
  8
0
  6
CONTINUOUS
 62
               7
100
AcDbLine
 10
33.420000000000016
 20
-183.81999999999999
 30
0.0
 11
34.159999999999968
 21
-99.5
 31
0.0
  0
ARC
  5
193
100
AcDbEntity
  8
0
  6
CONTINUOUS
 62
               7
100
AcDbCircle
 10
26.865850831020225
 20
-138.19585083102021
 30
0.0
 40
1.0041577411771687
100
AcDbArc
 50
270.236746218007
 51
359.76325378199073
  0
ARC
  5
194
100
AcDbEntity
  8
0
  6
CONTINUOUS
 62
               7
100
AcDbCircle
 10
25.028597439519274
 20
-137.69859743951929
 30
0.0
 40
1.0014035426905565
100
AcDbArc
 50
270.08024819056749
 51
359.9197518094312
  0
ARC
  5
195
100
AcDbEntity
  8
0
  6
CONTINUOUS
 62
               7
100
AcDbCircle
 10
19.967034993635309
 20
-138.19296500636469
 30
0.0
 40
1.0070595660344588
100
AcDbArc
 50
180.40025310934649
 51
269.5997468906512
  0
ARC
  5
196
100
AcDbEntity
  8
0
  6
CONTINUOUS
 62
               7
100
AcDbCircle
 10
19.967034993635309
 20
-137.69296500636469
 30
0.0
 40
1.0070595660344588
100
AcDbArc
 50
180.40025310934649
 51
269.5997468906512
  0
ARC
  5
197
100
AcDbEntity
  8
0
  6
CONTINUOUS
 62
               7
100
AcDbCircle
 10
27.726911125499498
 20
-105.19308887450046
 30
0.0
 40
0.9931129222360746
100
AcDbArc
 50
359.60127241312284
 51
90.398727586875808
  0
ARC
  5
198
100
AcDbEntity
  8
0
  6
CONTINUOUS
 62
               7
100
AcDbCircle
 10
27.128328985736459
 20
-105.69167101426356
 30
0.0
 40
0.9917059909741105
100
AcDbArc
 50
359.51878747825504
 51
90.481212521745604
  0
ARC
  5
199
100
AcDbEntity
  8
0
  6
CONTINUOUS
 62
               7
100
AcDbCircle
 10
26.874780575460079
 20
-106.19521942453989
 30
0.0
 40
0.995230906314339
100
AcDbArc
 50
359.72477959726632
 51
90.275220402731065
  0
ARC
  5
19A
100
AcDbEntity
  8
0
  6
CONTINUOUS
 62
               7
100
AcDbCircle
 10
25.03755185548539
 20
-106.6924481445146
 30
0.0
 40
0.9924768763410822
100
AcDbArc
 50
359.56402649515792
 51
90.435973504842281
  0
ARC
  5
19B
100
AcDbEntity
  8
0
  6
CONTINUOUS
 62
               7
100
AcDbCircle
 10
19.576347745777866
 20
-105.1963477457779
 30
0.0
 40
0.9963544396837998
100
AcDbArc
 50
89.789975120367885
 51
180.21002487963028
  0
ARC
  5
19C
100
AcDbEntity
  8
0
  6
CONTINUOUS
 62
               7
100
AcDbCircle
 10
19.576347745777866
 20
-105.6963477457779
 30
0.0
 40
0.9963544396837998
100
AcDbArc
 50
89.789975120367885
 51
180.21002487963028
  0
ARC
  5
19D
100
AcDbEntity
  8
0
  6
CONTINUOUS
 62
               7
100
AcDbCircle
 10
19.958131097518503
 20
-106.19813109751848
 30
0.0
 40
0.998132847185172
100
AcDbArc
 50
89.892719403653814
 51
180.10728059634681
  0
ARC
  5
19E
100
AcDbEntity
  8
0
  6
CONTINUOUS
 62
               7
100
AcDbCircle
 10
19.958131097518503
 20
-106.69813109751848
 30
0.0
 40
0.998132847185172
100
AcDbArc
 50
89.892719403653814
 51
180.10728059634681
  0
ARC
  5
19F
100
AcDbEntity
  8
0
  6
CONTINUOUS
 62
               7
100
AcDbCircle
 10
27.722979722721391
 20
-181.19297972272142
 30
0.0
 40
0.9970247299100173
100
AcDbArc
 50
269.82876473864206
 51
0.1712352613577423
  0
ARC
  5
1A0
100
AcDbEntity
  8
0
  6
CONTINUOUS
 62
               7
100
AcDbCircle
 10
27.124392016102831
 20
-180.6943920161028
 30
0.0
 40
0.9956176713002197
100
AcDbArc
 50
269.7472475532806
 51
0.2527524467179892
  0
ARC
  5
1A1
100
AcDbEntity
  8
0
  6
CONTINUOUS
 62
               7
100
AcDbCircle
 10
26.870857523290681
 20
-180.19085752329065
 30
0.0
 40
0.9991428446979391
100
AcDbArc
 50
269.95082537828984
 51
0.0491746217079475
  0
ARC
  5
1A2
100
AcDbEntity
  8
0
  6
CONTINUOUS
 62
               7
100
AcDbCircle
 10
26.874783424649934
 20
-146.19521657535006
 30
0.0
 40
0.9952280708475259
100
AcDbArc
 50
359.72461478195794
 51
90.27538521804054
  0
ARC
  5
1A3
100
AcDbEntity
  8
0
  6
CONTINUOUS
 62
               7
100
AcDbCircle
 10
25.033617938008319
 20
-179.69361793800834
 30
0.0
 40
0.9963886304721561
100
AcDbArc
 50
269.7919556410107
 51
0.208044358988482
  0
ARC
  5
1A4
100
AcDbEntity
  8
0
  6
CONTINUOUS
 62
               7
100
AcDbCircle
 10
19.580266382458149
 20
-181.18973361754183
 30
0.0
 40
1.0002664179285106
100
AcDbArc
 50
180.01525852562352
 51
269.98474147437457
  0
ARC
  5
1A5
100
AcDbEntity
  8
0
  6
CONTINUOUS
 62
               7
100
AcDbCircle
 10
19.580266382458149
 20
-180.68973361754183
 30
0.0
 40
1.0002664179285106
100
AcDbArc
 50
180.01525852562352
 51
269.98474147437457
  0
ARC
  5
1A6
100
AcDbEntity
  8
0
  6
CONTINUOUS
 62
               7
100
AcDbCircle
 10
19.962042764991111
 20
-180.18795723500884
 30
0.0
 40
1.0020448471799692
100
AcDbArc
 50
180.11680304921259
 51
269.88319695078764
  0
ARC
  5
1A7
100
AcDbEntity
  8
0
  6
CONTINUOUS
 62
               7
100
AcDbCircle
 10
19.962042764991111
 20
-179.68795723500884
 30
0.0
 40
1.0020448471799692
100
AcDbArc
 50
180.11680304921279
 51
269.88319695078764
  0
ARC
  5
1A8
100
AcDbEntity
  8
0
  6
CONTINUOUS
 62
               7
100
AcDbCircle
 10
19.958128256613918
 20
-146.19812825661393
 30
0.0
 40
0.9981300116089387
100
AcDbArc
 50
89.892556021800473
 51
180.1074439781996
  0
ARC
  5
1A9
100
AcDbEntity
  8
0
  6
CONTINUOUS
 62
               7
100
AcDbCircle
 10
19.958128256613918
 20
-146.69812825661393
 30
0.0
 40
0.9981300116089387
100
AcDbArc
 50
89.892556021800473
 51
180.1074439781996
  0
ARC
  5
1AA
100
AcDbEntity
  8
0
  6
CONTINUOUS
 62
               7
100
AcDbCircle
 10
25.03755471258188
 20
-146.69244528741811
 30
0.0
 40
0.9924740410714181
100
AcDbArc
 50
359.56386030397243
 51
90.436139696028164
  0
ARC
  5
1AB
100
AcDbEntity
  8
0
  6
CONTINUOUS
 62
               7
100
AcDbCircle
 10
18.422751179202521
 20
-183.69220697296819
 30
0.0
 40
14.997793279368487
100
AcDbArc
 50
269.9894897232582
 51
359.5117888633655
  0
LINE
  5
1AC
100
AcDbEntity
  8
0
  6
CONTINUOUS
 62
               7
100
AcDbLine
 10
28.71999999999997
 20
-105.19999999999999
 30
0.0
 11
28.71999999999997
 21
-181.19
 31
0.0
  0
LINE
  5
1AD
100
AcDbEntity
  8
0
  6
CONTINUOUS
 62
               7
100
AcDbLine
 10
28.120000000000005
 20
-105.69999999999999
 30
0.0
 11
28.120000000000005
 21
-180.69
 31
0.0
  0
LINE
  5
1AE
100
AcDbEntity
  8
0
  6
CONTINUOUS
 62
               7
100
AcDbLine
 10
27.870000000000005
 20
-106.19999999999999
 30
0.0
 11
27.870000000000005
 21
-138.19999999999999
 31
0.0
  0
LINE
  5
1AF
100
AcDbEntity
  8
0
  6
CONTINUOUS
 62
               7
100
AcDbLine
 10
26.029999999999973
 20
-106.69999999999999
 30
0.0
 11
26.029999999999973
 21
-137.69999999999999
 31
0.0
  0
LINE
  5
1B0
100
AcDbEntity
  8
0
  6
CONTINUOUS
 62
               7
100
AcDbLine
 10
18.95999999999998
 20
-106.19999999999999
 30
0.0
 11
18.95999999999998
 21
-138.19999999999999
 31
0.0
  0
LINE
  5
1B1
100
AcDbEntity
  8
0
  6
CONTINUOUS
 62
               7
100
AcDbLine
 10
18.579999999999984
 20
-105.19999999999999
 30
0.0
 11
18.579999999999984
 21
-181.19
 31
0.0
  0
LINE
  5
1B2
100
AcDbEntity
  8
0
  6
CONTINUOUS
 62
               7
100
AcDbLine
 10
27.71999999999997
 20
-104.19999999999999
 30
0.0
 11
19.579999999999984
 21
-104.19999999999999
 31
0.0
  0
LINE
  5
1B3
100
AcDbEntity
  8
0
  6
CONTINUOUS
 62
               7
100
AcDbLine
 10
27.120000000000005
 20
-104.69999999999999
 30
0.0
 11
19.579999999999984
 21
-104.69999999999999
 31
0.0
  0
LINE
  5
1B4
100
AcDbEntity
  8
0
  6
CONTINUOUS
 62
               7
100
AcDbLine
 10
19.579999999999984
 20
-182.19
 30
0.0
 11
27.71999999999997
 21
-182.19
 31
0.0
  0
LINE
  5
1B5
100
AcDbEntity
  8
0
  6
CONTINUOUS
 62
               7
100
AcDbLine
 10
19.579999999999984
 20
-181.69
 30
0.0
 11
27.120000000000005
 21
-181.69
 31
0.0
  0
LINE
  5
1B6
100
AcDbEntity
  8
0
  6
CONTINUOUS
 62
               7
100
AcDbLine
 10
18.95999999999998
 20
-146.19999999999999
 30
0.0
 11
18.95999999999998
 21
-180.19
 31
0.0
  0
LINE
  5
1B7
100
AcDbEntity
  8
0
  6
CONTINUOUS
 62
               7
100
AcDbLine
 10
26.029999999999973
 20
-146.69999999999999
 30
0.0
 11
26.029999999999973
 21
-179.69
 31
0.0
  0
LINE
  5
1B8
100
AcDbEntity
  8
0
  6
CONTINUOUS
 62
               7
100
AcDbLine
 10
27.870000000000005
 20
-146.19999999999999
 30
0.0
 11
27.870000000000005
 21
-180.19
 31
0.0
  0
LINE
  5
1B9
100
AcDbEntity
  8
0
  6
CONTINUOUS
 62
               7
100
AcDbLine
 10
19.95999999999998
 20
-180.69
 30
0.0
 11
25.029999999999973
 21
-180.69
 31
0.0
  0
LINE
  5
1BA
100
AcDbEntity
  8
0
  6
CONTINUOUS
 62
               7
100
AcDbLine
 10
19.95999999999998
 20
-138.69999999999999
 30
0.0
 11
25.029999999999973
 21
-138.69999999999999
 31
0.0
  0
LINE
  5
1BB
100
AcDbEntity
  8
0
  6
CONTINUOUS
 62
               7
100
AcDbLine
 10
19.95999999999998
 20
-145.69999999999999
 30
0.0
 11
25.029999999999973
 21
-145.69999999999999
 31
0.0
  0
LINE
  5
1BC
100
AcDbEntity
  8
0
  6
CONTINUOUS
 62
               7
100
AcDbLine
 10
25.029999999999973
 20
-105.69999999999999
 30
0.0
 11
19.95999999999998
 21
-105.69999999999999
 31
0.0
  0
LINE
  5
1BD
100
AcDbEntity
  8
0
  6
CONTINUOUS
 62
               7
100
AcDbLine
 10
26.870000000000005
 20
-105.19999999999999
 30
0.0
 11
19.95999999999998
 21
-105.19999999999999
 31
0.0
  0
LINE
  5
1BE
100
AcDbEntity
  8
0
  6
CONTINUOUS
 62
               7
100
AcDbLine
 10
19.95999999999998
 20
-139.19999999999999
 30
0.0
 11
26.870000000000005
 21
-139.19999999999999
 31
0.0
  0
LINE
  5
1BF
100
AcDbEntity
  8
0
  6
CONTINUOUS
 62
               7
100
AcDbLine
 10
19.95999999999998
 20
-145.19999999999999
 30
0.0
 11
26.870000000000005
 21
-145.19999999999999
 31
0.0
  0
LINE
  5
1C0
100
AcDbEntity
  8
0
  6
CONTINUOUS
 62
               7
100
AcDbLine
 10
19.95999999999998
 20
-181.19
 30
0.0
 11
26.870000000000005
 21
-181.19
 31
0.0
  0
LINE
  5
1C1
100
AcDbEntity
  8
0
  6
CONTINUOUS
 62
               7
100
AcDbLine
 10
4.3199999999999932
 20
-204.47999999999999
 30
0.0
 11
1.5
 21
-204.47999999999999
 31
0.0
  0
LINE
  5
1C2
100
AcDbEntity
  8
0
  6
CONTINUOUS
 62
               7
100
AcDbLine
 10
3.6599999999999966
 20
-214.47999999999999
 30
0.0
 11
4.3199999999999932
 21
-213.97999999999999
 31
0.0
  0
LINE
  5
1C3
100
AcDbEntity
  8
0
  6
CONTINUOUS
 62
               7
100
AcDbLine
 10
3.6599999999999966
 20
-204.76999999999998
 30
0.0
 11
4.3199999999999932
 21
-204.47999999999999
 31
0.0
  0
LINE
  5
1C4
100
AcDbEntity
  8
0
  6
CONTINUOUS
 62
               7
100
AcDbLine
 10
6.0
 20
-216.47999999999999
 30
0.0
 11
6.5
 21
-215.97999999999999
 31
0.0
  0
LINE
  5
1C5
100
AcDbEntity
  8
0
  6
CONTINUOUS
 62
               7
100
AcDbLine
 10
6.5
 20
-215.97999999999999
 30
0.0
 11
6.5
 21
-214.97999999999999
 31
0.0
  0
LINE
  5
1C6
100
AcDbEntity
  8
0
  6
CONTINUOUS
 62
               7
100
AcDbLine
 10
7.0199999999999818
 20
-214.47999999999999
 30
0.0
 11
6.2599999999999909
 21
-214.47999999999999
 31
0.0
  0
LINE
  5
1C7
100
AcDbEntity
  8
0
  6
CONTINUOUS
 62
               7
100
AcDbLine
 10
6.4399999999999977
 20
-213.97999999999999
 30
0.0
 11
6.2599999999999909
 21
-214.47999999999999
 31
0.0
  0
LINE
  5
1C8
100
AcDbEntity
  8
0
  6
CONTINUOUS
 62
               7
100
AcDbLine
 10
7.0199999999999818
 20
-204.76999999999998
 30
0.0
 11
7.6099999999999852
 21
-204.47999999999999
 31
0.0
  0
LINE
  5
1C9
100
AcDbEntity
  8
0
  6
CONTINUOUS
 62
               7
100
AcDbLine
 10
7.0199999999999818
 20
-214.47999999999999
 30
0.0
 11
7.6099999999999852
 21
-213.97999999999999
 31
0.0
  0
LINE
  5
1CA
100
AcDbEntity
  8
0
  6
CONTINUOUS
 62
               7
100
AcDbLine
 10
6.4399999999999977
 20
-213.97999999999999
 30
0.0
 11
4.3199999999999932
 21
-213.97999999999999
 31
0.0
  0
LINE
  5
1CB
100
AcDbEntity
  8
0
  6
CONTINUOUS
 62
               7
100
AcDbLine
 10
7.75
 20
-213.97999999999999
 30
0.0
 11
7.6099999999999852
 21
-213.97999999999999
 31
0.0
  0
LINE
  5
1CC
100
AcDbEntity
  8
0
  6
CONTINUOUS
 62
               7
100
AcDbLine
 10
7.0199999999999818
 20
-204.76999999999998
 30
0.0
 11
6.4399999999999977
 21
-204.76999999999998
 31
0.0
  0
LINE
  5
1CD
100
AcDbEntity
  8
0
  6
CONTINUOUS
 62
               7
100
AcDbLine
 10
7.6099999999999852
 20
-204.47999999999999
 30
0.0
 11
6.4399999999999977
 21
-204.47999999999999
 31
0.0
  0
LINE
  5
1CE
100
AcDbEntity
  8
0
  6
CONTINUOUS
 62
               7
100
AcDbLine
 10
7.6099999999999852
 20
-204.47999999999999
 30
0.0
 11
7.6099999999999852
 21
-213.97999999999999
 31
0.0
  0
LINE
  5
1CF
100
AcDbEntity
  8
0
  6
CONTINUOUS
 62
               7
100
AcDbLine
 10
7.0199999999999818
 20
-204.76999999999998
 30
0.0
 11
7.0199999999999818
 21
-214.47999999999999
 31
0.0
  0
LINE
  5
1D0
100
AcDbEntity
  8
0
  6
CONTINUOUS
 62
               7
100
AcDbLine
 10
6.4399999999999977
 20
-204.47999999999999
 30
0.0
 11
6.4399999999999977
 21
-213.97999999999999
 31
0.0
  0
LINE
  5
1D1
100
AcDbEntity
  8
0
  6
CONTINUOUS
 62
               7
100
AcDbLine
 10
4.3199999999999932
 20
-204.47999999999999
 30
0.0
 11
4.3199999999999932
 21
-213.97999999999999
 31
0.0
  0
LINE
  5
1D2
100
AcDbEntity
  8
0
  6
CONTINUOUS
 62
               2
100
AcDbLine
 10
5.25
 20
-200.19
 30
0.0
 11
5.25
 21
-201.47999999999999
 31
0.0
  0
LINE
  5
1D3
100
AcDbEntity
  8
0
  6
CONTINUOUS
 62
               7
100
AcDbLine
 10
6.0
 20
-200.19
 30
0.0
 11
6.0
 21
-201.47999999999999
 31
0.0
  0
LINE
  5
1D4
100
AcDbEntity
  8
0
  6
CONTINUOUS
 62
               7
100
AcDbLine
 10
7.25
 20
-201.47999999999999
 30
0.0
 11
7.75
 21
-201.97999999999999
 31
0.0
  0
LINE
  5
1D5
100
AcDbEntity
  8
0
  6
CONTINUOUS
 62
               7
100
AcDbLine
 10
7.75
 20
-213.97999999999999
 30
0.0
 11
6.75
 21
-214.97999999999999
 31
0.0
  0
LINE
  5
1D6
100
AcDbEntity
  8
0
  6
CONTINUOUS
 62
               7
100
AcDbLine
 10
7.75
 20
-201.97999999999999
 30
0.0
 11
7.75
 21
-213.97999999999999
 31
0.0
  0
LINE
  5
1D7
100
AcDbEntity
  8
0
  6
CONTINUOUS
 62
               7
100
AcDbLine
 10
7.5799999999999841
 20
-200.19
 30
0.0
 11
8.0799999999999841
 21
-199.69
 31
0.0
  0
LINE
  5
1D8
100
AcDbEntity
  8
0
  6
CONTINUOUS
 62
               7
100
AcDbLine
 10
8.0799999999999841
 20
-199.69
 30
0.0
 11
8.0799999999999841
 21
-198.69
 31
0.0
  0
LINE
  5
1D9
100
AcDbEntity
  8
0
  6
CONTINUOUS
 62
               7
100
AcDbLine
 10
-1.8400000000000034
 20
-214.47999999999999
 30
0.0
 11
-3.6500000000000057
 21
-214.47999999999999
 31
0.0
  0
LINE
  5
1DA
100
AcDbEntity
  8
0
  6
CONTINUOUS
 62
               7
100
AcDbLine
 10
1.8499999999999943
 20
-204.76999999999998
 30
0.0
 11
1.5
 21
-204.47999999999999
 31
0.0
  0
LINE
  5
1DB
100
AcDbEntity
  8
0
  6
CONTINUOUS
 62
               7
100
AcDbLine
 10
-1.8400000000000034
 20
-204.76999999999998
 30
0.0
 11
-1.5
 21
-204.47999999999999
 31
0.0
  0
LINE
  5
1DC
100
AcDbEntity
  8
0
  6
CONTINUOUS
 62
               7
100
AcDbLine
 10
-1.5
 20
-213.97999999999999
 30
0.0
 11
-1.8400000000000034
 21
-214.47999999999999
 31
0.0
  0
LINE
  5
1DD
100
AcDbEntity
  8
0
  6
CONTINUOUS
 62
               7
100
AcDbLine
 10
1.8499999999999943
 20
-214.47999999999999
 30
0.0
 11
1.5
 21
-213.97999999999999
 31
0.0
  0
LINE
  5
1DE
100
AcDbEntity
  8
0
  6
CONTINUOUS
 62
               7
100
AcDbLine
 10
3.6599999999999966
 20
-214.47999999999999
 30
0.0
 11
1.8499999999999943
 21
-214.47999999999999
 31
0.0
  0
LINE
  5
1DF
100
AcDbEntity
  8
0
  6
CONTINUOUS
 62
               7
100
AcDbLine
 10
1.5
 20
-213.97999999999999
 30
0.0
 11
-1.5
 21
-213.97999999999999
 31
0.0
  0
LINE
  5
1E0
100
AcDbEntity
  8
0
  6
CONTINUOUS
 62
               7
100
AcDbLine
 10
3.6599999999999966
 20
-204.76999999999998
 30
0.0
 11
1.8499999999999943
 21
-204.76999999999998
 31
0.0
  0
LINE
  5
1E1
100
AcDbEntity
  8
0
  6
CONTINUOUS
 62
               7
100
AcDbLine
 10
-1.8400000000000034
 20
-204.76999999999998
 30
0.0
 11
-3.6500000000000057
 21
-204.76999999999998
 31
0.0
  0
LINE
  5
1E2
100
AcDbEntity
  8
0
  6
CONTINUOUS
 62
               7
100
AcDbLine
 10
3.6599999999999966
 20
-204.76999999999998
 30
0.0
 11
3.6599999999999966
 21
-214.47999999999999
 31
0.0
  0
LINE
  5
1E3
100
AcDbEntity
  8
0
  6
CONTINUOUS
 62
               7
100
AcDbLine
 10
-3.6500000000000057
 20
-204.76999999999998
 30
0.0
 11
-3.6500000000000057
 21
-214.47999999999999
 31
0.0
  0
LINE
  5
1E4
100
AcDbEntity
  8
0
  6
CONTINUOUS
 62
               7
100
AcDbLine
 10
-1.8400000000000034
 20
-204.76999999999998
 30
0.0
 11
-1.8400000000000034
 21
-214.47999999999999
 31
0.0
  0
LINE
  5
1E5
100
AcDbEntity
  8
0
  6
CONTINUOUS
 62
               7
100
AcDbLine
 10
1.8499999999999943
 20
-204.76999999999998
 30
0.0
 11
1.8499999999999943
 21
-214.47999999999999
 31
0.0
  0
LINE
  5
1E6
100
AcDbEntity
  8
0
  6
CONTINUOUS
 62
               7
100
AcDbLine
 10
1.5
 20
-204.47999999999999
 30
0.0
 11
1.5
 21
-213.97999999999999
 31
0.0
  0
LINE
  5
1E7
100
AcDbEntity
  8
0
  6
CONTINUOUS
 62
               7
100
AcDbLine
 10
-1.5
 20
-204.47999999999999
 30
0.0
 11
-1.5
 21
-213.97999999999999
 31
0.0
  0
LINE
  5
1E8
100
AcDbEntity
  8
0
  6
CENTER
 62
               2
100
AcDbLine
 10
0.0
 20
18.400000000000006
 30
0.0
 11
0.0
 21
-217.77000000000001
 31
0.0
  0
ENDBLK
  5
1E9
100
AcDbEntity
  8
0
100
AcDbBlockEnd
  0
BLOCK
  5
1EA
100
AcDbEntity
  8
0
100
AcDbBlockBegin
  2
MS_3
 70
               0
 10
0.0
 20
0.0
 30
0.0
  3
MS_3
  1

  0
ARC
  5
1EB
100
AcDbEntity
  8
0
  6
CONTINUOUS
 62
               7
100
AcDbCircle
 10
39.995000000000005
 20
0.000000159236464
 30
0.0
 40
39.502205398806012
100
AcDbArc
 50
210.41774379783143
 51
329.58225620216734
  0
ARC
  5
1EC
100
AcDbEntity
  8
0
  6
CONTINUOUS
 62
               7
100
AcDbCircle
 10
39.994999999999997
 20
0.0000001676537522
 30
0.0
 40
38.497805544032644
100
AcDbArc
 50
211.29939807818928
 51
328.70060192180955
  0
ARC
  5
1ED
100
AcDbEntity
  8
0
  6
CONTINUOUS
 62
               7
100
AcDbCircle
 10
39.994999999999997
 20
0.0000003058950995
 30
0.0
 40
28.500755029223413
100
AcDbArc
 50
224.56643439925858
 51
315.43356560074022
  0
ARC
  5
1EE
100
AcDbEntity
  8
0
  6
CONTINUOUS
 62
               7
100
AcDbCircle
 10
39.994999999999997
 20
0.0000003215761808
 30
0.0
 40
27.797176796628953
100
AcDbArc
 50
226.01301197094233
 51
313.98698802905648
  0
ARC
  5
1EF
100
AcDbEntity
  8
0
  6
CONTINUOUS
 62
               7
100
AcDbCircle
 10
39.994999999999997
 20
-0.0000003058950995
 30
0.0
 40
28.500755029223413
100
AcDbArc
 50
44.566434399258995
 51
135.43356560074059
  0
ARC
  5
1F0
100
AcDbEntity
  8
0
  6
CONTINUOUS
 62
               7
100
AcDbCircle
 10
39.994999999999997
 20
-0.0000003215761808
 30
0.0
 40
27.797176796628953
100
AcDbArc
 50
46.013011970942742
 51
133.98698802905685
  0
ARC
  5
1F1
100
AcDbEntity
  8
0
  6
CONTINUOUS
 62
               7
100
AcDbCircle
 10
39.994999999999997
 20
-0.0000001676537522
 30
0.0
 40
38.497805544032644
100
AcDbArc
 50
31.299398078189693
 51
148.70060192180989
  0
ARC
  5
1F2
100
AcDbEntity
  8
0
  6
CONTINUOUS
 62
               7
100
AcDbCircle
 10
39.995000000000005
 20
-0.000000159236464
 30
0.0
 40
39.502205398806012
100
AcDbArc
 50
30.417743797831836
 51
149.58225620216774
  0
LINE
  5
1F3
100
AcDbEntity
  8
0
  6
CONTINUOUS
 62
               7
100
AcDbLine
 10
0.0
 20
-19.0
 30
0.0
 11
1.0
 21
-20.0
 31
0.0
  0
LINE
  5
1F4
100
AcDbEntity
  8
0
  6
CONTINUOUS
 62
               7
100
AcDbLine
 10
80.0
 20
-19.0
 30
0.0
 11
79.0
 21
-20.0
 31
0.0
  0
LINE
  5
1F5
100
AcDbEntity
  8
0
  6
CONTINUOUS
 62
               7
100
AcDbLine
 10
79.0
 20
20.0
 30
0.0
 11
80.0
 21
19.0
 31
0.0
  0
LINE
  5
1F6
100
AcDbEntity
  8
0
  6
CONTINUOUS
 62
               7
100
AcDbLine
 10
1.0
 20
20.0
 30
0.0
 11
0.0
 21
19.0
 31
0.0
  0
LINE
  5
1F7
100
AcDbEntity
  8
0
  6
CONTINUOUS
 62
               7
100
AcDbLine
 10
80.0
 20
19.0
 30
0.0
 11
80.0
 21
-19.0
 31
0.0
  0
LINE
  5
1F8
100
AcDbEntity
  8
0
  6
CONTINUOUS
 62
               7
100
AcDbLine
 10
79.0
 20
20.0
 30
0.0
 11
79.0
 21
-20.0
 31
0.0
  0
LINE
  5
1F9
100
AcDbEntity
  8
0
  6
CONTINUOUS
 62
               7
100
AcDbLine
 10
0.0
 20
19.0
 30
0.0
 11
0.0
 21
-19.0
 31
0.0
  0
LINE
  5
1FA
100
AcDbEntity
  8
0
  6
CONTINUOUS
 62
               7
100
AcDbLine
 10
1.0
 20
20.0
 30
0.0
 11
1.0
 21
-20.0
 31
0.0
  0
LINE
  5
1FB
100
AcDbEntity
  8
0
  6
CONTINUOUS
 62
               7
100
AcDbLine
 10
1.0
 20
20.0
 30
0.0
 11
79.0
 21
20.0
 31
0.0
  0
LINE
  5
1FC
100
AcDbEntity
  8
0
  6
CONTINUOUS
 62
               7
100
AcDbLine
 10
0.0
 20
19.0
 30
0.0
 11
80.0
 21
19.0
 31
0.0
  0
LINE
  5
1FD
100
AcDbEntity
  8
0
  6
CONTINUOUS
 62
               7
100
AcDbLine
 10
1.0
 20
-20.0
 30
0.0
 11
79.0
 21
-20.0
 31
0.0
  0
LINE
  5
1FE
100
AcDbEntity
  8
0
  6
CONTINUOUS
 62
               7
100
AcDbLine
 10
0.0
 20
-19.0
 30
0.0
 11
80.0
 21
-19.0
 31
0.0
  0
LINE
  5
1FF
100
AcDbEntity
  8
0
  6
CENTER
 62
               2
100
AcDbLine
 10
-7.1599999999999966
 20
0.0
 30
0.0
 11
89.420000000000002
 21
0.0
 31
0.0
  0
LINE
  5
200
100
AcDbEntity
  8
0
  6
CENTER
 62
               2
100
AcDbLine
 10
40.0
 20
46.110000000000014
 30
0.0
 11
40.0
 21
-46.109999999999999
 31
0.0
  0
ENDBLK
  5
201
100
AcDbEntity
  8
0
100
AcDbBlockEnd
  0
BLOCK
  5
202
100
AcDbEntity
  8
0
100
AcDbBlockBegin
  2
MS_4
 70
               0
 10
0.0
 20
0.0
 30
0.0
  3
MS_4
  1

  0
LINE
  5
203
100
AcDbEntity
  8
0
  6
CENTER
 62
             200
100
AcDbLine
 10
0.0
 20
0.0
 30
0.0
 11
0.0
 21
-26.680000000000007
 31
0.0
  0
LINE
  5
204
100
AcDbEntity
  8
0
  6
CONTINUOUS
 62
               4
100
AcDbLine
 10
-3.2633820411714112
 20
-22.900000000000006
 30
0.0
 11
-2.8333820411714044
 21
-25.300000000000011
 31
0.0
  0
LINE
  5
205
100
AcDbEntity
  8
0
  6
CONTINUOUS
 62
               4
100
AcDbLine
 10
-3.2633820411714112
 20
-20.300000000000011
 30
0.0
 11
-2.8333820411714044
 21
-22.699999999999989
 31
0.0
  0
LINE
  5
206
100
AcDbEntity
  8
0
  6
CONTINUOUS
 62
               4
100
AcDbLine
 10
3.2366179588285888
 20
-22.900000000000006
 30
0.0
 11
2.806617958828582
 21
-25.300000000000011
 31
0.0
  0
LINE
  5
207
100
AcDbEntity
  8
0
  6
CONTINUOUS
 62
               4
100
AcDbLine
 10
3.2366179588285888
 20
-20.300000000000011
 30
0.0
 11
2.806617958828582
 21
-22.699999999999989
 31
0.0
  0
LINE
  5
208
100
AcDbEntity
  8
0
  6
CONTINUOUS
 62
               4
100
AcDbLine
 10
3.2366179588285888
 20
-22.699999999999989
 30
0.0
 11
3.2366179588285888
 21
-22.900000000000006
 31
0.0
  0
LINE
  5
209
100
AcDbEntity
  8
0
  6
CONTINUOUS
 62
               4
100
AcDbLine
 10
-3.2633820411714112
 20
-22.699999999999989
 30
0.0
 11
-3.2633820411714112
 21
-22.900000000000006
 31
0.0
  0
LINE
  5
20A
100
AcDbEntity
  8
0
  6
CONTINUOUS
 62
               4
100
AcDbLine
 10
3.2366179588285888
 20
-20.099999999999994
 30
0.0
 11
3.2366179588285888
 21
-20.300000000000011
 31
0.0
  0
LINE
  5
20B
100
AcDbEntity
  8
0
  6
CONTINUOUS
 62
               4
100
AcDbLine
 10
-3.2633820411714112
 20
-20.099999999999994
 30
0.0
 11
-3.2633820411714112
 21
-20.300000000000011
 31
0.0
  0
LINE
  5
20C
100
AcDbEntity
  8
0
  6
CONTINUOUS
 62
               4
100
AcDbLine
 10
-3.2633820411714112
 20
-22.900000000000006
 30
0.0
 11
3.2366179588285888
 21
-22.900000000000006
 31
0.0
  0
LINE
  5
20D
100
AcDbEntity
  8
0
  6
CONTINUOUS
 62
               4
100
AcDbLine
 10
-3.2633820411714112
 20
-20.300000000000011
 30
0.0
 11
3.2366179588285888
 21
-20.300000000000011
 31
0.0
  0
LINE
  5
20E
100
AcDbEntity
  8
0
  6
CONTINUOUS
 62
               4
100
AcDbLine
 10
7.5866179588285831
 20
-15.699999999999989
 30
0.0
 11
6.9966179588285797
 21
-16.199999999999989
 31
0.0
  0
LINE
  5
20F
100
AcDbEntity
  8
0
  6
CONTINUOUS
 62
               4
100
AcDbLine
 10
-7.6133820411714055
 20
-15.699999999999989
 30
0.0
 11
-7.0233820411714021
 21
-16.199999999999989
 31
0.0
  0
LINE
  5
210
100
AcDbEntity
  8
0
  6
CONTINUOUS
 62
               4
100
AcDbLine
 10
6.4166179588285956
 20
-6.2599999999999909
 30
0.0
 11
6.9966179588285797
 21
-6.4799999999999898
 31
0.0
  0
LINE
  5
211
100
AcDbEntity
  8
0
  6
CONTINUOUS
 62
               4
100
AcDbLine
 10
-7.0233820411714021
 20
-6.4799999999999898
 30
0.0
 11
-6.443382041171418
 21
-6.2599999999999909
 31
0.0
  0
LINE
  5
212
100
AcDbEntity
  8
0
  6
CONTINUOUS
 62
               4
100
AcDbLine
 10
-4.3233820411714134
 20
-15.699999999999989
 30
0.0
 11
-3.6633820411714169
 21
-16.199999999999989
 31
0.0
  0
LINE
  5
213
100
AcDbEntity
  8
0
  6
CONTINUOUS
 62
               4
100
AcDbLine
 10
4.2966179588285911
 20
-15.699999999999989
 30
0.0
 11
3.6366179588285945
 21
-16.199999999999989
 31
0.0
  0
LINE
  5
214
100
AcDbEntity
  8
0
  6
CONTINUOUS
 62
               4
100
AcDbLine
 10
3.6366179588285945
 20
-6.4799999999999898
 30
0.0
 11
4.2966179588285911
 21
-6.1999999999999886
 31
0.0
  0
LINE
  5
215
100
AcDbEntity
  8
0
  6
CONTINUOUS
 62
               4
100
AcDbLine
 10
-4.3233820411714134
 20
-6.1999999999999886
 30
0.0
 11
-3.6633820411714169
 21
-6.4799999999999898
 31
0.0
  0
LINE
  5
216
100
AcDbEntity
  8
0
  6
CONTINUOUS
 62
               4
100
AcDbLine
 10
-1.5133820411714112
 20
-15.699999999999989
 30
0.0
 11
-1.8533820411714146
 21
-16.199999999999989
 31
0.0
  0
LINE
  5
217
100
AcDbEntity
  8
0
  6
CONTINUOUS
 62
               4
100
AcDbLine
 10
1.4866179588285888
 20
-15.699999999999989
 30
0.0
 11
1.8266179588285922
 21
-16.199999999999989
 31
0.0
  0
LINE
  5
218
100
AcDbEntity
  8
0
  6
CONTINUOUS
 62
               4
100
AcDbLine
 10
1.4866179588285888
 20
-6.1999999999999886
 30
0.0
 11
1.8266179588285922
 21
-6.4799999999999898
 31
0.0
  0
LINE
  5
219
100
AcDbEntity
  8
0
  6
CONTINUOUS
 62
               4
100
AcDbLine
 10
-1.8533820411714146
 20
-6.4799999999999898
 30
0.0
 11
-1.5133820411714112
 21
-6.1999999999999886
 31
0.0
  0
LINE
  5
21A
100
AcDbEntity
  8
0
  6
CONTINUOUS
 62
               4
100
AcDbLine
 10
7.5866179588285831
 20
-6.1999999999999886
 30
0.0
 11
7.5866179588285831
 21
-15.699999999999989
 31
0.0
  0
LINE
  5
21B
100
AcDbEntity
  8
0
  6
CONTINUOUS
 62
               4
100
AcDbLine
 10
-7.6133820411714055
 20
-6.1999999999999886
 30
0.0
 11
-7.6133820411714055
 21
-15.699999999999989
 31
0.0
  0
LINE
  5
21C
100
AcDbEntity
  8
0
  6
CONTINUOUS
 62
               4
100
AcDbLine
 10
6.9966179588285797
 20
-6.4799999999999898
 30
0.0
 11
6.9966179588285797
 21
-16.199999999999989
 31
0.0
  0
LINE
  5
21D
100
AcDbEntity
  8
0
  6
CONTINUOUS
 62
               4
100
AcDbLine
 10
-7.0233820411714021
 20
-6.4799999999999898
 30
0.0
 11
-7.0233820411714021
 21
-16.199999999999989
 31
0.0
  0
LINE
  5
21E
100
AcDbEntity
  8
0
  6
CONTINUOUS
 62
               4
100
AcDbLine
 10
6.4166179588285956
 20
-6.1999999999999886
 30
0.0
 11
6.4166179588285956
 21
-16.199999999999989
 31
0.0
  0
LINE
  5
21F
100
AcDbEntity
  8
0
  6
CONTINUOUS
 62
               4
100
AcDbLine
 10
-6.443382041171418
 20
-6.1999999999999886
 30
0.0
 11
-6.443382041171418
 21
-16.199999999999989
 31
0.0
  0
LINE
  5
220
100
AcDbEntity
  8
0
  6
CONTINUOUS
 62
               4
100
AcDbLine
 10
6.9966179588285797
 20
-16.199999999999989
 30
0.0
 11
7.2366179588285888
 21
-16.199999999999989
 31
0.0
  0
LINE
  5
221
100
AcDbEntity
  8
0
  6
CONTINUOUS
 62
               4
100
AcDbLine
 10
7.5866179588285831
 20
-15.699999999999989
 30
0.0
 11
7.7366179588285888
 21
-15.699999999999989
 31
0.0
  0
LINE
  5
222
100
AcDbEntity
  8
0
  6
CONTINUOUS
 62
               4
100
AcDbLine
 10
-6.443382041171418
 20
-16.199999999999989
 30
0.0
 11
-3.6633820411714169
 21
-16.199999999999989
 31
0.0
  0
LINE
  5
223
100
AcDbEntity
  8
0
  6
CONTINUOUS
 62
               4
100
AcDbLine
 10
-6.443382041171418
 20
-15.699999999999989
 30
0.0
 11
-4.3233820411714134
 21
-15.699999999999989
 31
0.0
  0
LINE
  5
224
100
AcDbEntity
  8
0
  6
CONTINUOUS
 62
               4
100
AcDbLine
 10
-3.6633820411714169
 20
-6.4799999999999898
 30
0.0
 11
-1.8533820411714146
 21
-6.4799999999999898
 31
0.0
  0
LINE
  5
225
100
AcDbEntity
  8
0
  6
CONTINUOUS
 62
               4
100
AcDbLine
 10
-4.3233820411714134
 20
-6.1999999999999886
 30
0.0
 11
-1.5133820411714112
 21
-6.1999999999999886
 31
0.0
  0
LINE
  5
226
100
AcDbEntity
  8
0
  6
CONTINUOUS
 62
               4
100
AcDbLine
 10
6.9966179588285797
 20
-6.4799999999999898
 30
0.0
 11
7.5866179588285831
 21
-6.4799999999999898
 31
0.0
  0
LINE
  5
227
100
AcDbEntity
  8
0
  6
CONTINUOUS
 62
               4
100
AcDbLine
 10
6.4166179588285956
 20
-6.1999999999999886
 30
0.0
 11
7.5866179588285831
 21
-6.1999999999999886
 31
0.0
  0
LINE
  5
228
100
AcDbEntity
  8
0
  6
CONTINUOUS
 62
               4
100
AcDbLine
 10
4.2966179588285911
 20
-6.1999999999999886
 30
0.0
 11
4.2966179588285911
 21
-15.699999999999989
 31
0.0
  0
LINE
  5
229
100
AcDbEntity
  8
0
  6
CONTINUOUS
 62
               4
100
AcDbLine
 10
-4.3233820411714134
 20
-6.1999999999999886
 30
0.0
 11
-4.3233820411714134
 21
-15.699999999999989
 31
0.0
  0
LINE
  5
22A
100
AcDbEntity
  8
0
  6
CONTINUOUS
 62
               4
100
AcDbLine
 10
-3.6633820411714169
 20
-6.4799999999999898
 30
0.0
 11
-3.6633820411714169
 21
-16.199999999999989
 31
0.0
  0
LINE
  5
22B
100
AcDbEntity
  8
0
  6
CONTINUOUS
 62
               4
100
AcDbLine
 10
3.6366179588285945
 20
-6.4799999999999898
 30
0.0
 11
3.6366179588285945
 21
-16.199999999999989
 31
0.0
  0
LINE
  5
22C
100
AcDbEntity
  8
0
  6
CONTINUOUS
 62
               4
100
AcDbLine
 10
3.6366179588285945
 20
-16.199999999999989
 30
0.0
 11
6.4166179588285956
 21
-16.199999999999989
 31
0.0
  0
LINE
  5
22D
100
AcDbEntity
  8
0
  6
CONTINUOUS
 62
               4
100
AcDbLine
 10
-1.8533820411714146
 20
-16.199999999999989
 30
0.0
 11
1.8266179588285922
 21
-16.199999999999989
 31
0.0
  0
LINE
  5
22E
100
AcDbEntity
  8
0
  6
CONTINUOUS
 62
               4
100
AcDbLine
 10
-1.8533820411714146
 20
-6.4799999999999898
 30
0.0
 11
-1.8533820411714146
 21
-16.199999999999989
 31
0.0
  0
LINE
  5
22F
100
AcDbEntity
  8
0
  6
CONTINUOUS
 62
               4
100
AcDbLine
 10
1.8266179588285922
 20
-6.4799999999999898
 30
0.0
 11
1.8266179588285922
 21
-16.199999999999989
 31
0.0
  0
LINE
  5
230
100
AcDbEntity
  8
0
  6
CONTINUOUS
 62
               4
100
AcDbLine
 10
-7.2633820411714112
 20
-16.199999999999989
 30
0.0
 11
-7.0233820411714021
 21
-16.199999999999989
 31
0.0
  0
LINE
  5
231
100
AcDbEntity
  8
0
  6
CONTINUOUS
 62
               4
100
AcDbLine
 10
4.2966179588285911
 20
-15.699999999999989
 30
0.0
 11
6.4166179588285956
 21
-15.699999999999989
 31
0.0
  0
LINE
  5
232
100
AcDbEntity
  8
0
  6
CONTINUOUS
 62
               4
100
AcDbLine
 10
-1.5133820411714112
 20
-15.699999999999989
 30
0.0
 11
1.4866179588285888
 21
-15.699999999999989
 31
0.0
  0
LINE
  5
233
100
AcDbEntity
  8
0
  6
CONTINUOUS
 62
               4
100
AcDbLine
 10
1.8266179588285922
 20
-6.4799999999999898
 30
0.0
 11
3.6366179588285945
 21
-6.4799999999999898
 31
0.0
  0
LINE
  5
234
100
AcDbEntity
  8
0
  6
CONTINUOUS
 62
               4
100
AcDbLine
 10
1.4866179588285888
 20
-6.1999999999999886
 30
0.0
 11
4.2966179588285911
 21
-6.1999999999999886
 31
0.0
  0
LINE
  5
235
100
AcDbEntity
  8
0
  6
CONTINUOUS
 62
               4
100
AcDbLine
 10
1.4866179588285888
 20
-6.1999999999999886
 30
0.0
 11
1.4866179588285888
 21
-15.699999999999989
 31
0.0
  0
LINE
  5
236
100
AcDbEntity
  8
0
  6
CONTINUOUS
 62
               4
100
AcDbLine
 10
-1.5133820411714112
 20
-6.1999999999999886
 30
0.0
 11
-1.5133820411714112
 21
-15.699999999999989
 31
0.0
  0
LINE
  5
237
100
AcDbEntity
  8
0
  6
CONTINUOUS
 62
               4
100
AcDbLine
 10
-7.7633820411714112
 20
-15.699999999999989
 30
0.0
 11
-7.6133820411714055
 21
-15.699999999999989
 31
0.0
  0
LINE
  5
238
100
AcDbEntity
  8
0
  6
CONTINUOUS
 62
               4
100
AcDbLine
 10
-7.6133820411714055
 20
-6.4799999999999898
 30
0.0
 11
-7.0233820411714021
 21
-6.4799999999999898
 31
0.0
  0
LINE
  5
239
100
AcDbEntity
  8
0
  6
CONTINUOUS
 62
               4
100
AcDbLine
 10
-2.8633820411714055
 20
-18.199999999999989
 30
0.0
 11
-2.8633820411714055
 21
-20.099999999999994
 31
0.0
  0
LINE
  5
23A
100
AcDbEntity
  8
0
  6
CONTINUOUS
 62
               4
100
AcDbLine
 10
2.8366179588285831
 20
-18.199999999999989
 30
0.0
 11
2.8366179588285831
 21
-20.099999999999994
 31
0.0
  0
LINE
  5
23B
100
AcDbEntity
  8
0
  6
CONTINUOUS
 62
               4
100
AcDbLine
 10
-3.2633820411714112
 20
-20.099999999999994
 30
0.0
 11
3.2366179588285888
 21
-20.099999999999994
 31
0.0
  0
LINE
  5
23C
100
AcDbEntity
  8
0
  6
CONTINUOUS
 62
               4
100
AcDbLine
 10
-3.2633820411714112
 20
-22.699999999999989
 30
0.0
 11
3.2366179588285888
 21
-22.699999999999989
 31
0.0
  0
LINE
  5
23D
100
AcDbEntity
  8
0
  6
CONTINUOUS
 62
               4
100
AcDbLine
 10
-2.8333820411714044
 20
-25.300000000000011
 30
0.0
 11
2.806617958828582
 21
-25.300000000000011
 31
0.0
  0
LINE
  5
23E
100
AcDbEntity
  8
0
  6
CONTINUOUS
 62
               4
100
AcDbLine
 10
-6.5133820411714112
 20
-17.699999999999989
 30
0.0
 11
6.4866179588285888
 21
-17.699999999999989
 31
0.0
  0
LINE
  5
23F
100
AcDbEntity
  8
0
  6
CONTINUOUS
 62
               4
100
AcDbLine
 10
6.4866179588285888
 20
-17.699999999999989
 30
0.0
 11
5.9866179588285888
 21
-18.199999999999989
 31
0.0
  0
LINE
  5
240
100
AcDbEntity
  8
0
  6
CONTINUOUS
 62
               4
100
AcDbLine
 10
-6.5133820411714112
 20
-17.699999999999989
 30
0.0
 11
-6.0133820411714112
 21
-18.199999999999989
 31
0.0
  0
LINE
  5
241
100
AcDbEntity
  8
0
  6
CONTINUOUS
 62
               4
100
AcDbLine
 10
6.4866179588285888
 20
-16.699999999999989
 30
0.0
 11
6.4866179588285888
 21
-17.699999999999989
 31
0.0
  0
LINE
  5
242
100
AcDbEntity
  8
0
  6
CONTINUOUS
 62
               4
100
AcDbLine
 10
-6.5133820411714112
 20
-16.699999999999989
 30
0.0
 11
-6.5133820411714112
 21
-17.699999999999989
 31
0.0
  0
LINE
  5
243
100
AcDbEntity
  8
0
  6
CONTINUOUS
 62
               4
100
AcDbLine
 10
-6.0133820411714112
 20
-18.199999999999989
 30
0.0
 11
5.9866179588285888
 21
-18.199999999999989
 31
0.0
  0
LINE
  5
244
100
AcDbEntity
  8
0
  6
CONTINUOUS
 62
               4
100
AcDbLine
 10
-7.7633820411714112
 20
-3.6999999999999886
 30
0.0
 11
7.7366179588285888
 21
-3.6999999999999886
 31
0.0
  0
LINE
  5
245
100
AcDbEntity
  8
0
  6
CONTINUOUS
 62
               4
100
AcDbLine
 10
-8.0833820411714044
 20
-1.5
 30
0.0
 11
8.056617958828582
 21
-1.5
 31
0.0
  0
LINE
  5
246
100
AcDbEntity
  8
0
  6
CONTINUOUS
 62
               4
100
AcDbLine
 10
8.056617958828582
 20
-1.5
 30
0.0
 11
7.556617958828582
 21
-2.0
 31
0.0
  0
LINE
  5
247
100
AcDbEntity
  8
0
  6
CONTINUOUS
 62
               4
100
AcDbLine
 10
-8.0833820411714044
 20
-1.5
 30
0.0
 11
-7.5833820411714044
 21
-2.0
 31
0.0
  0
LINE
  5
248
100
AcDbEntity
  8
0
  6
CONTINUOUS
 62
               4
100
AcDbLine
 10
5.9866179588285888
 20
-2.0
 30
0.0
 11
5.9866179588285888
 21
-3.1999999999999886
 31
0.0
  0
LINE
  5
249
100
AcDbEntity
  8
0
  6
CONTINUOUS
 62
               4
100
AcDbLine
 10
-6.0133820411714112
 20
-2.0
 30
0.0
 11
-6.0133820411714112
 21
-3.1999999999999886
 31
0.0
  0
LINE
  5
24A
100
AcDbEntity
  8
0
  6
CONTINUOUS
 62
               4
100
AcDbLine
 10
7.2366179588285888
 20
-3.1999999999999886
 30
0.0
 11
7.7366179588285888
 21
-3.6999999999999886
 31
0.0
  0
LINE
  5
24B
100
AcDbEntity
  8
0
  6
CONTINUOUS
 62
               4
100
AcDbLine
 10
-7.7633820411714112
 20
-3.6999999999999886
 30
0.0
 11
-7.2633820411714112
 21
-3.1999999999999886
 31
0.0
  0
LINE
  5
24C
100
AcDbEntity
  8
0
  6
CONTINUOUS
 62
               4
100
AcDbLine
 10
-7.2633820411714112
 20
-3.1999999999999886
 30
0.0
 11
7.2366179588285888
 21
-3.1999999999999886
 31
0.0
  0
LINE
  5
24D
100
AcDbEntity
  8
0
  6
CONTINUOUS
 62
               4
100
AcDbLine
 10
-7.6133820411714055
 20
-6.1999999999999886
 30
0.0
 11
-6.443382041171418
 21
-6.1999999999999886
 31
0.0
  0
LINE
  5
24E
100
AcDbEntity
  8
0
  6
CONTINUOUS
 62
               4
100
AcDbLine
 10
6.7366179588285888
 20
-16.699999999999989
 30
0.0
 11
7.7366179588285888
 21
-15.699999999999989
 31
0.0
  0
LINE
  5
24F
100
AcDbEntity
  8
0
  6
CONTINUOUS
 62
               4
100
AcDbLine
 10
-7.7633820411714112
 20
-15.699999999999989
 30
0.0
 11
-6.7633820411714112
 21
-16.699999999999989
 31
0.0
  0
LINE
  5
250
100
AcDbEntity
  8
0
  6
CONTINUOUS
 62
               4
100
AcDbLine
 10
7.7366179588285888
 20
-3.6999999999999886
 30
0.0
 11
7.7366179588285888
 21
-15.699999999999989
 31
0.0
  0
LINE
  5
251
100
AcDbEntity
  8
0
  6
CONTINUOUS
 62
               4
100
AcDbLine
 10
-7.7633820411714112
 20
-3.6999999999999886
 30
0.0
 11
-7.7633820411714112
 21
-15.699999999999989
 31
0.0
  0
LINE
  5
252
100
AcDbEntity
  8
0
  6
CONTINUOUS
 62
               4
100
AcDbLine
 10
-6.7633820411714112
 20
-16.699999999999989
 30
0.0
 11
6.7366179588285888
 21
-16.699999999999989
 31
0.0
  0
LINE
  5
253
100
AcDbEntity
  8
0
  6
CONTINUOUS
 62
               4
100
AcDbLine
 10
-7.5833820411714044
 20
-2.0
 30
0.0
 11
7.556617958828582
 21
-2.0
 31
0.0
  0
LINE
  5
254
100
AcDbEntity
  8
0
  6
CONTINUOUS
 62
               4
100
AcDbLine
 10
8.056617958828582
 20
0.0
 30
0.0
 11
8.056617958828582
 21
-1.5
 31
0.0
  0
LINE
  5
255
100
AcDbEntity
  8
0
  6
CONTINUOUS
 62
               4
100
AcDbLine
 10
-8.0833820411714044
 20
0.0
 30
0.0
 11
-8.0833820411714044
 21
-1.5
 31
0.0
  0
ENDBLK
  5
256
100
AcDbEntity
  8
0
100
AcDbBlockEnd
  0
ENDSEC
  0
SECTION
  2
ENTITIES
  0
INSERT
  5
257
100
AcDbEntity
  8
0
100
AcDbBlockReference
  2
MS_4
 10
-170.38
 20
-146.16999999999999
 30
0.0
  0
INSERT
  5
258
100
AcDbEntity
  8
0
100
AcDbBlockReference
  2
MS_3
 10
-72.888504028320312
 20
132.10682678222656
 30
0.0
  0
INSERT
  5
259
100
AcDbEntity
  8
0
100
AcDbBlockReference
  2
MS_2
 10
139.89613342285156
 20
52.027069091796875
 30
0.0
  0
INSERT
  5
25A
100
AcDbEntity
  8
0
100
AcDbBlockReference
  2
MS_1
 10
-72.888504028320312
 20
52.027053833007812
 30
0.0
  0
MTEXT
  5
25B
100
AcDbEntity
  8
0
  6
CONTINUOUS
 62
               7
100
AcDbMText
 10
201.38633858070557
 20
185.5
 30
0.0
 40
6.3000001907348633
 41
0.0
 71
               4
 72
               1
  1
\W1.273;\A1;Ver.1.0
  7
MX_NOTE_STANDARD
  0
MTEXT
  5
25C
100
AcDbEntity
  8
0
  6
CONTINUOUS
 62
               7
100
AcDbMText
 10
-248.50961621241015
 20
185.5
 30
0.0
 40
6.3000001907348633
 41
0.0
 71
               4
 72
               1
  1
\W1.038;\A1;CS-FILTER
  7
MX_NOTE_STANDARD
  0
LINE
  5
25D
100
AcDbEntity
  8
0
  6
CONTINUOUS
 62
               7
100
AcDbLine
 10
-189.18000000000001
 20
-146.16999999999999
 30
0.0
 11
-151.58000000000001
 21
-146.16999999999999
 31
0.0
  0
LINE
  5
25E
100
AcDbEntity
  8
0
  6
CONTINUOUS
 62
               7
100
AcDbLine
 10
-204.18000000000001
 20
-107.11
 30
0.0
 11
-204.18000000000001
 21
-131.16999999999999
 31
0.0
  0
LINE
  5
25F
100
AcDbEntity
  8
0
  6
CONTINUOUS
 62
               7
100
AcDbLine
 10
-136.58000000000001
 20
-125.23
 30
0.0
 11
-136.58000000000001
 21
-131.16999999999999
 31
0.0
  0
ARC
  5
260
100
AcDbEntity
  8
0
  6
CONTINUOUS
 62
               7
100
AcDbCircle
 10
-189.18571721450843
 20
-131.17571721450841
 30
0.0
 40
14.994283875458366
100
AcDbArc
 50
179.97815352353152
 51
270.02184647646749
  0
ARC
  5
261
100
AcDbEntity
  8
0
  6
CONTINUOUS
 62
               7
100
AcDbCircle
 10
-151.58277239557549
 20
-131.16722760442451
 30
0.0
 40
15.00277265173405
100
AcDbArc
 50
270.01058781401264
 51
359.98941218598594
  0
MTEXT
  5
262
100
AcDbEntity
  8
0
  6
CONTINUOUS
 62
               7
100
AcDbMText
 10
-255.12722768546692
 20
160.5
 30
0.0
 40
6.3000001907348633
 41
0.0
 71
               4
 72
               1
  1
\W1.069;\A1;MODEL:CS-MMF400-04
  7
MX_NOTE_STANDARD
  0
MTEXT
  5
263
100
AcDbEntity
  8
0
  6
CONTINUOUS
 62
               7
100
AcDbMText
 10
-204.73801595208471
 20
-85.994064331054687
 30
0.0
 40
6.3000001907348633
 41
0.0
 71
               4
 72
               1
  1
\W1.154;\A1;OPTION:-F1
  7
MX_NOTE_STANDARD
  0
MTEXT
  5
264
100
AcDbEntity
  8
0
  6
CONTINUOUS
 62
               7
100
AcDbMText
 10
18.883328278859455
 20
53.602023601531982
 30
0.0
 40
6.3000001907348633
 41
0.0
 71
               7
 72
               1
  1
\A1;OUT
  7
MX_NOTE_STANDARD
  0
MTEXT
  5
265
100
AcDbEntity
  8
0
  6
CONTINUOUS
 62
               7
100
AcDbMText
 10
-100.5733282239437
 20
53.60206937789917
 30
0.0
 40
6.3000001907348633
 41
0.0
 71
               7
 72
               1
  1
\W1.200;\A1;IN
  7
MX_NOTE_STANDARD
  0
LINE
  5
266
100
AcDbEntity
  8
0
  6
CONTINUOUS
 62
               7
100
AcDbLine
 10
-199.11338204117141
 20
-108.46809345286945
 30
0.0
 11
-199.11338204117141
 21
-128.66999999999999
 31
0.0
  0
LINE
  5
267
100
AcDbEntity
  8
0
  6
CONTINUOUS
 62
               7
100
AcDbLine
 10
-198.51338204117138
 20
-108.62892185523631
 30
0.0
 11
-198.51338204117138
 21
-128.16999999999999
 31
0.0
  0
LINE
  5
268
100
AcDbEntity
  8
0
  6
CONTINUOUS
 62
               7
100
AcDbLine
 10
-188.9633820411714
 20
-111.18877392624222
 30
0.0
 11
-188.9633820411714
 21
-128.66999999999999
 31
0.0
  0
LINE
  5
269
100
AcDbEntity
  8
0
  6
CONTINUOUS
 62
               7
100
AcDbLine
 10
-189.35338204117141
 20
-111.08423546470377
 30
0.0
 11
-189.35338204117141
 21
-127.66999999999999
 31
0.0
  0
LINE
  5
26A
100
AcDbEntity
  8
0
  6
CONTINUOUS
 62
               7
100
AcDbLine
 10
-196.42338204117141
 20
-109.18914079014755
 30
0.0
 11
-196.42338204117141
 21
-127.16999999999999
 31
0.0
  0
LINE
  5
26B
100
AcDbEntity
  8
0
  6
CONTINUOUS
 62
               7
100
AcDbLine
 10
-198.25338204117139
 20
-108.69861416292862
 30
0.0
 11
-198.25338204117139
 21
-127.66999999999999
 31
0.0
  0
LINE
  5
26C
100
AcDbEntity
  8
0
  6
CONTINUOUS
 62
               7
100
AcDbLine
 10
-190.35338204117141
 20
-128.66999999999999
 30
0.0
 11
-197.25338204117139
 21
-128.66999999999999
 31
0.0
  0
LINE
  5
26D
100
AcDbEntity
  8
0
  6
CONTINUOUS
 62
               7
100
AcDbLine
 10
-190.35338204117141
 20
-128.16999999999999
 30
0.0
 11
-195.42338204117141
 21
-128.16999999999999
 31
0.0
  0
LINE
  5
26E
100
AcDbEntity
  8
0
  6
CONTINUOUS
 62
               7
100
AcDbLine
 10
-189.9633820411714
 20
-129.16999999999999
 30
0.0
 11
-197.51338204117138
 21
-129.16999999999999
 31
0.0
  0
LINE
  5
26F
100
AcDbEntity
  8
0
  6
CONTINUOUS
 62
               7
100
AcDbLine
 10
-189.9633820411714
 20
-129.66999999999999
 30
0.0
 11
-198.11338204117141
 21
-129.66999999999999
 31
0.0
  0
ARC
  5
270
100
AcDbEntity
  8
0
  6
CONTINUOUS
 62
               7
100
AcDbCircle
 10
-190.34893254095829
 20
-127.17444950021311
 30
0.0
 40
0.9955604430058689
100
AcDbArc
 50
269.74392470724956
 51
0.256075292749815
  0
ARC
  5
271
100
AcDbEntity
  8
0
  6
CONTINUOUS
 62
               7
100
AcDbCircle
 10
-190.34893254095829
 20
-127.67444950021311
 30
0.0
 40
0.9955604430058689
100
AcDbArc
 50
269.74392470724956
 51
0.256075292749815
  0
ARC
  5
272
100
AcDbEntity
  8
0
  6
CONTINUOUS
 62
               7
100
AcDbCircle
 10
-189.96217721756119
 20
-128.1712048236102
 30
0.0
 40
0.9987959030649976
100
AcDbArc
 50
269.9308854547225
 51
0.0691145452768935
  0
ARC
  5
273
100
AcDbEntity
  8
0
  6
CONTINUOUS
 62
               7
100
AcDbCircle
 10
-189.96217721756119
 20
-128.6712048236102
 30
0.0
 40
0.9987959030649976
100
AcDbArc
 50
269.9308854547225
 51
0.0691145452768935
  0
ARC
  5
274
100
AcDbEntity
  8
0
  6
CONTINUOUS
 62
               7
100
AcDbCircle
 10
-195.42051761718403
 20
-127.16713557601264
 30
0.0
 40
1.0028685147237617
100
AcDbArc
 50
180.16365019536548
 51
269.8363498046333
  0
ARC
  5
275
100
AcDbEntity
  8
0
  6
CONTINUOUS
 62
               7
100
AcDbCircle
 10
-197.2526532087673
 20
-127.66927116759589
 30
0.0
 40
1.0007290978089647
100
AcDbArc
 50
180.04172860018758
 51
269.95827139981185
  0
ARC
  5
276
100
AcDbEntity
  8
0
  6
CONTINUOUS
 62
               7
100
AcDbCircle
 10
-197.5112048798963
 20
-128.16782283872487
 30
0.0
 40
1.0021795261392363
100
AcDbArc
 50
180.12447096278495
 51
269.87552903721405
  0
ARC
  5
277
100
AcDbEntity
  8
0
  6
CONTINUOUS
 62
               7
100
AcDbCircle
 10
-198.10985992996189
 20
-128.66647788879047
 30
0.0
 40
1.003528292054471
100
AcDbArc
 50
180.20109300673093
 51
269.79890699326842
  0
LINE
  5
278
100
AcDbEntity
  8
0
  6
CONTINUOUS
 62
               7
100
AcDbLine
 10
-141.67338204117141
 20
-128.67295209798993
 30
0.0
 11
-141.67338204117141
 21
-123.86473250612389
 31
0.0
  0
LINE
  5
279
100
AcDbEntity
  8
0
  6
CONTINUOUS
 62
               7
100
AcDbLine
 10
-142.2733820411714
 20
-123.70390410375703
 30
0.0
 11
-142.2733820411714
 21
-128.16999999999999
 31
0.0
  0
LINE
  5
27A
100
AcDbEntity
  8
0
  6
CONTINUOUS
 62
               7
100
AcDbLine
 10
-151.82338204117139
 20
-121.14405203275111
 30
0.0
 11
-151.82338204117139
 21
-128.66999999999999
 31
0.0
  0
LINE
  5
27B
100
AcDbEntity
  8
0
  6
CONTINUOUS
 62
               7
100
AcDbLine
 10
-151.4333820411714
 20
-121.24859049428957
 30
0.0
 11
-151.4333820411714
 21
-127.66999999999999
 31
0.0
  0
LINE
  5
27C
100
AcDbEntity
  8
0
  6
CONTINUOUS
 62
               7
100
AcDbLine
 10
-144.36338204117141
 20
-123.14368516884578
 30
0.0
 11
-144.36338204117141
 21
-127.16999999999999
 31
0.0
  0
LINE
  5
27D
100
AcDbEntity
  8
0
  6
CONTINUOUS
 62
               7
100
AcDbLine
 10
-142.53338204117139
 20
-123.63421179606472
 30
0.0
 11
-142.53338204117139
 21
-127.66999999999999
 31
0.0
  0
LINE
  5
27E
100
AcDbEntity
  8
0
  6
CONTINUOUS
 62
               7
100
AcDbLine
 10
-150.4333820411714
 20
-128.66999999999999
 30
0.0
 11
-143.53338204117139
 21
-128.66999999999999
 31
0.0
  0
LINE
  5
27F
100
AcDbEntity
  8
0
  6
CONTINUOUS
 62
               7
100
AcDbLine
 10
-150.4333820411714
 20
-128.16999999999999
 30
0.0
 11
-145.36338204117141
 21
-128.16999999999999
 31
0.0
  0
LINE
  5
280
100
AcDbEntity
  8
0
  6
CONTINUOUS
 62
               7
100
AcDbLine
 10
-150.82338204117139
 20
-129.16999999999999
 30
0.0
 11
-143.2733820411714
 21
-129.16999999999999
 31
0.0
  0
LINE
  5
281
100
AcDbEntity
  8
0
  6
CONTINUOUS
 62
               7
100
AcDbLine
 10
-150.82338204117139
 20
-129.66999999999999
 30
0.0
 11
-142.67338204117141
 21
-129.66999999999999
 31
0.0
  0
ARC
  5
282
100
AcDbEntity
  8
0
  6
CONTINUOUS
 62
               7
100
AcDbCircle
 10
-150.43284824009353
 20
-127.16946619892211
 30
0.0
 40
1.0005339434736435
100
AcDbArc
 50
180.03056822860572
 51
269.96943177139349
  0
ARC
  5
283
100
AcDbEntity
  8
0
  6
CONTINUOUS
 62
               7
100
AcDbCircle
 10
-150.43284824009353
 20
-127.66946619892209
 30
0.0
 40
1.0005339434736435
100
AcDbArc
 50
180.03056822860592
 51
269.96943177139349
  0
ARC
  5
284
100
AcDbEntity
  8
0
  6
CONTINUOUS
 62
               7
100
AcDbCircle
 10
-150.81958735142871
 20
-128.16620531025731
 30
0.0
 40
1.003801862334325
100
AcDbArc
 50
180.21659675363117
 51
269.78340324636821
  0
ARC
  5
285
100
AcDbEntity
  8
0
  6
CONTINUOUS
 62
               7
100
AcDbCircle
 10
-150.81958735142871
 20
-128.66620531025731
 30
0.0
 40
1.003801862334325
100
AcDbArc
 50
180.21659675363117
 51
269.78340324636821
  0
ARC
  5
286
100
AcDbEntity
  8
0
  6
CONTINUOUS
 62
               7
100
AcDbCircle
 10
-145.36125157140515
 20
-127.17213046976624
 30
0.0
 40
0.9978718045271724
100
AcDbArc
 50
269.87767264475286
 51
0.1223273552471013
  0
ARC
  5
287
100
AcDbEntity
  8
0
  6
CONTINUOUS
 62
               7
100
AcDbCircle
 10
-143.52912660118665
 20
-127.67425543998473
 30
0.0
 40
0.9957536530535159
100
AcDbArc
 50
269.75514074939917
 51
0.2448592506006225
  0
ARC
  5
288
100
AcDbEntity
  8
0
  6
CONTINUOUS
 62
               7
100
AcDbCircle
 10
-143.27056772434383
 20
-128.17281431682753
 30
0.0
 40
0.997189654530819
100
AcDbArc
 50
269.83829686784185
 51
0.1617031321571165
  0
ARC
  5
289
100
AcDbEntity
  8
0
  6
CONTINUOUS
 62
               7
100
AcDbCircle
 10
-142.67190599217255
 20
-128.67147604899884
 30
0.0
 40
0.9985250419711891
100
AcDbArc
 50
269.91530366767483
 51
0.0846963323253586
  0
LINE
  5
28A
100
AcDbEntity
  8
0
  6
CENTER
 62
               2
100
AcDbLine
 10
-170.38
 20
-106.17
 30
0.0
 11
-170.38
 21
-146.16999999999999
 31
0.0
  0
LINE
  5
28B
100
AcDbEntity
  8
0
  6
CONTINUOUS
 62
               7
100
AcDbLine
 10
-281.25
 20
195.5
 30
0.0
 11
282.099853515625
 21
195.5
 31
0.0
  0
LINE
  5
28C
100
AcDbEntity
  8
0
  6
CONTINUOUS
 62
               7
100
AcDbLine
 10
-281.25
 20
195.5
 30
0.0
 11
-281.25
 21
-195.0
 31
0.0
  0
LINE
  5
28D
100
AcDbEntity
  8
0
  6
CONTINUOUS
 62
               7
100
AcDbLine
 10
282.099853515625
 20
195.5
 30
0.0
 11
282.099853515625
 21
-195.0
 31
0.0
  0
LINE
  5
28E
100
AcDbEntity
  8
0
  6
CONTINUOUS
 62
               7
100
AcDbLine
 10
-281.25
 20
-195.0
 30
0.0
 11
282.099853515625
 21
-195.0
 31
0.0
  0
LINE
  5
28F
100
AcDbEntity
  8
0
  6
CONTINUOUS
 62
               7
100
AcDbLine
 10
162.0999755859375
 20
-175.0
 30
0.0
 11
162.0999755859375
 21
-195.0
 31
0.0
  0
LINE
  5
290
100
AcDbEntity
  8
0
  6
CONTINUOUS
 62
               7
100
AcDbLine
 10
162.0999755859375
 20
-175.0
 30
0.0
 11
282.099853515625
 21
-175.0
 31
0.0
  0
LINE
  5
291
100
AcDbEntity
  8
0
  6
CONTINUOUS
 62
               7
100
AcDbLine
 10
162.0999755859375
 20
175.5
 30
0.0
 11
282.099853515625
 21
175.5
 31
0.0
  0
LINE
  5
292
100
AcDbEntity
  8
0
  6
CONTINUOUS
 62
               7
100
AcDbLine
 10
-281.25
 20
175.5
 30
0.0
 11
-161.25
 21
175.5
 31
0.0
  0
LINE
  5
293
100
AcDbEntity
  8
0
  6
CONTINUOUS
 62
               7
100
AcDbLine
 10
162.0999755859375
 20
195.5
 30
0.0
 11
162.0999755859375
 21
175.5
 31
0.0
  0
LINE
  5
294
100
AcDbEntity
  8
0
  6
CONTINUOUS
 62
               7
100
AcDbLine
 10
-161.25
 20
195.5
 30
0.0
 11
-161.25
 21
175.5
 31
0.0
  0
MTEXT
  5
295
100
AcDbEntity
  8
0
  6
CONTINUOUS
 62
               7
100
AcDbMText
 10
170.2809980228688
 20
-185.0
 30
0.0
 40
9.0
 41
0.0
 71
               4
 72
               1
  1
\W1.121;\A1;KOGANEI CORP.
  7
MX_NOTE_STANDARD
  0
ENDSEC
  0
SECTION
  2
OBJECTS
  0
DICTIONARY
  5
19
100
AcDbDictionary
  3
ACAD_GROUP
350
1A
  3
ACAD_MLINESTYLE
350
1B
  0
DICTIONARY
  5
1A
102
{ACAD_REACTORS
330
19
102
}
100
AcDbDictionary
  0
DICTIONARY
  5
1B
102
{ACAD_REACTORS
330
19
102
}
100
AcDbDictionary
  3
STANDARD
350
1C
  0
MLINESTYLE
  5
1C
102
{ACAD_REACTORS
330
1B
102
}
100
AcDbMlineStyle
  2
Standard
 70
               0
  3

 62
               0
 51
90.0
 52
90.0
 71
               2
 49
0.5
 62
             256
  6
ByLayer
 49
-0.5
 62
             256
  6
ByLayer
  0
ENDSEC
  0
EOF
