  0
SECTION
  2
HEADER
  9
$ACADVER
  1
AC1015
  9
$ACADMAINTVER
 70
    20
  9
$DWGCODEPAGE
  3
ANSI_932
  9
$INSBASE
 10
0.0
 20
0.0
 30
0.0
  9
$EXTMIN
 10
-399.52490234375
 20
-276.5
 30
0.0
  9
$EXTMAX
 10
403.4838270778523
 20
276.5
 30
0.0
  9
$LIMMIN
 10
-399.52490234375
 20
-276.5
  9
$LIMMAX
 10
405.774914741516
 20
277.0000004768372
  9
$ORTHOMODE
 70
     0
  9
$REGENMODE
 70
     1
  9
$FILLMODE
 70
     1
  9
$QTEXTMODE
 70
     0
  9
$MIRRTEXT
 70
     1
  9
$LTSCALE
 40
1.0
  9
$ATTMODE
 70
     1
  9
$TEXTSIZE
 40
3.200000047683715
  9
$TRACEWID
 40
0.05
  9
$TEXTSTYLE
  7
MX_NOTE_STANDARD
  9
$CLAYER
  8
0
  9
$CELTYPE
  6
CONTINUOUS
  9
$CECOLOR
 62
   256
  9
$CELTSCALE
 40
1.0
  9
$DISPSILH
 70
     0
  9
$DIMSCALE
 40
1.0
  9
$DIMASZ
 40
2.5
  9
$DIMEXO
 40
1.5
  9
$DIMDLI
 40
3.75
  9
$DIMRND
 40
0.0
  9
$DIMDLE
 40
0.0
  9
$DIMEXE
 40
1.5
  9
$DIMTP
 40
0.0
  9
$DIMTM
 40
0.0
  9
$DIMTXT
 40
3.200000047683715
  9
$DIMCEN
 40
2.5
  9
$DIMTSZ
 40
0.0
  9
$DIMTOL
 70
     0
  9
$DIMLIM
 70
     0
  9
$DIMTIH
 70
     0
  9
$DIMTOH
 70
     0
  9
$DIMSE1
 70
     0
  9
$DIMSE2
 70
     0
  9
$DIMTAD
 70
     1
  9
$DIMZIN
 70
     8
  9
$DIMBLK
  1

  9
$DIMASO
 70
     1
  9
$DIMSHO
 70
     1
  9
$DIMPOST
  1

  9
$DIMAPOST
  1

  9
$DIMALT
 70
     0
  9
$DIMALTD
 70
     4
  9
$DIMALTF
 40
0.03937007874016
  9
$DIMLFAC
 40
1.0
  9
$DIMTOFL
 70
     1
  9
$DIMTVP
 40
0.0
  9
$DIMTIX
 70
     0
  9
$DIMSOXD
 70
     0
  9
$DIMSAH
 70
     0
  9
$DIMBLK1
  1

  9
$DIMBLK2
  1

  9
$DIMSTYLE
  2
MXDIMSTYLE
  9
$DIMCLRD
 70
     0
  9
$DIMCLRE
 70
     0
  9
$DIMCLRT
 70
     0
  9
$DIMTFAC
 40
1.0
  9
$DIMGAP
 40
1.0
  9
$DIMJUST
 70
     0
  9
$DIMSD1
 70
     0
  9
$DIMSD2
 70
     0
  9
$DIMTOLJ
 70
     1
  9
$DIMTZIN
 70
     0
  9
$DIMALTZ
 70
     0
  9
$DIMALTTZ
 70
     0
  9
$DIMUPT
 70
     1
  9
$DIMDEC
 70
     4
  9
$DIMTDEC
 70
     4
  9
$DIMALTU
 70
     2
  9
$DIMALTTD
 70
     4
  9
$DIMTXSTY
  7
MX_NOTE_STANDARD
  9
$DIMAUNIT
 70
     0
  9
$DIMADEC
 70
     0
  9
$DIMALTRND
 40
0.0
  9
$DIMAZIN
 70
     0
  9
$DIMDSEP
 70
    46
  9
$DIMATFIT
 70
     3
  9
$DIMFRAC
 70
     0
  9
$DIMLDRBLK
  1

  9
$DIMLUNIT
 70
     2
  9
$DIMLWD
 70
    -2
  9
$DIMLWE
 70
    -2
  9
$DIMTMOVE
 70
     0
  9
$LUNITS
 70
     2
  9
$LUPREC
 70
     4
  9
$SKETCHINC
 40
0.1
  9
$FILLETRAD
 40
0.0
  9
$AUNITS
 70
     0
  9
$AUPREC
 70
     0
  9
$MENU
  1
acad
  9
$ELEVATION
 40
0.0
  9
$PELEVATION
 40
0.0
  9
$THICKNESS
 40
0.0
  9
$LIMCHECK
 70
     0
  9
$CHAMFERA
 40
0.0
  9
$CHAMFERB
 40
0.0
  9
$CHAMFERC
 40
0.0
  9
$CHAMFERD
 40
0.0
  9
$SKPOLY
 70
     0
  9
$TDCREATE
 40
2453510.799872685
  9
$TDUCREATE
 40
2453510.424872686
  9
$TDUPDATE
 40
2454034.805288877
  9
$TDUUPDATE
 40
2454034.430288877
  9
$TDINDWG
 40
0.0004260185
  9
$TDUSRTIMER
 40
0.0004260185
  9
$USRTIMER
 70
     1
  9
$ANGBASE
 50
0.0
  9
$ANGDIR
 70
     0
  9
$PDMODE
 70
     0
  9
$PDSIZE
 40
0.0
  9
$PLINEWID
 40
0.0
  9
$SPLFRAME
 70
     0
  9
$SPLINETYPE
 70
     6
  9
$SPLINESEGS
 70
     8
  9
$HANDSEED
  5
366
  9
$SURFTAB1
 70
     6
  9
$SURFTAB2
 70
     6
  9
$SURFTYPE
 70
     6
  9
$SURFU
 70
     6
  9
$SURFV
 70
     6
  9
$UCSBASE
  2

  9
$UCSNAME
  2

  9
$UCSORG
 10
0.0
 20
0.0
 30
0.0
  9
$UCSXDIR
 10
1.0
 20
0.0
 30
0.0
  9
$UCSYDIR
 10
0.0
 20
1.0
 30
0.0
  9
$UCSORTHOREF
  2

  9
$UCSORTHOVIEW
 70
     0
  9
$UCSORGTOP
 10
0.0
 20
0.0
 30
0.0
  9
$UCSORGBOTTOM
 10
0.0
 20
0.0
 30
0.0
  9
$UCSORGLEFT
 10
0.0
 20
0.0
 30
0.0
  9
$UCSORGRIGHT
 10
0.0
 20
0.0
 30
0.0
  9
$UCSORGFRONT
 10
0.0
 20
0.0
 30
0.0
  9
$UCSORGBACK
 10
0.0
 20
0.0
 30
0.0
  9
$PUCSBASE
  2

  9
$PUCSNAME
  2

  9
$PUCSORG
 10
0.0
 20
0.0
 30
0.0
  9
$PUCSXDIR
 10
1.0
 20
0.0
 30
0.0
  9
$PUCSYDIR
 10
0.0
 20
1.0
 30
0.0
  9
$PUCSORTHOREF
  2

  9
$PUCSORTHOVIEW
 70
     0
  9
$PUCSORGTOP
 10
0.0
 20
0.0
 30
0.0
  9
$PUCSORGBOTTOM
 10
0.0
 20
0.0
 30
0.0
  9
$PUCSORGLEFT
 10
0.0
 20
0.0
 30
0.0
  9
$PUCSORGRIGHT
 10
0.0
 20
0.0
 30
0.0
  9
$PUCSORGFRONT
 10
0.0
 20
0.0
 30
0.0
  9
$PUCSORGBACK
 10
0.0
 20
0.0
 30
0.0
  9
$USERI1
 70
     0
  9
$USERI2
 70
     0
  9
$USERI3
 70
     0
  9
$USERI4
 70
     0
  9
$USERI5
 70
     0
  9
$USERR1
 40
0.0
  9
$USERR2
 40
0.0
  9
$USERR3
 40
0.0
  9
$USERR4
 40
0.0
  9
$USERR5
 40
0.0
  9
$WORLDVIEW
 70
     1
  9
$SHADEDGE
 70
     3
  9
$SHADEDIF
 70
    70
  9
$TILEMODE
 70
     1
  9
$MAXACTVP
 70
    16
  9
$PINSBASE
 10
0.0
 20
0.0
 30
0.0
  9
$PLIMCHECK
 70
     0
  9
$PEXTMIN
 10
1.000000000000000E+20
 20
1.000000000000000E+20
 30
1.000000000000000E+20
  9
$PEXTMAX
 10
-1.000000000000000E+20
 20
-1.000000000000000E+20
 30
-1.000000000000000E+20
  9
$PLIMMIN
 10
0.0
 20
0.0
  9
$PLIMMAX
 10
12.0
 20
9.0
  9
$UNITMODE
 70
     0
  9
$VISRETAIN
 70
     0
  9
$PLINEGEN
 70
     1
  9
$PSLTSCALE
 70
     0
  9
$TREEDEPTH
 70
  3020
  9
$CMLSTYLE
  2
STANDARD
  9
$CMLJUST
 70
     0
  9
$CMLSCALE
 40
1.0
  9
$PROXYGRAPHICS
 70
     1
  9
$MEASUREMENT
 70
     0
  9
$CELWEIGHT
370
    -1
  9
$ENDCAPS
280
     0
  9
$JOINSTYLE
280
     0
  9
$LWDISPLAY
290
     0
  9
$INSUNITS
 70
     0
  9
$HYPERLINKBASE
  1

  9
$STYLESHEET
  1

  9
$XEDIT
290
     1
  9
$CEPSNTYPE
380
     0
  9
$PSTYLEMODE
290
     1
  9
$FINGERPRINTGUID
  2
{E1B7B0B9-63D4-483D-85ED-11F323ADF2BB}
  9
$VERSIONGUID
  2
{AFEE32A1-119B-434F-8126-879FCD5886F0}
  9
$EXTNAMES
290
     1
  9
$PSVPSCALE
 40
0.0
  9
$OLESTARTUP
290
     0
  0
ENDSEC
  0
SECTION
  2
CLASSES
  0
CLASS
  1
IMAGE
  2
AcDbRasterImage
  3
ISM
 90
    32895
280
     0
281
     1
  0
CLASS
  1
DICTIONARYVAR
  2
AcDbDictionaryVar
  3
ObjectDBX Classes
 90
        0
280
     0
281
     0
  0
CLASS
  1
RASTERVARIABLES
  2
AcDbRasterVariables
  3
ISM
 90
    32768
280
     0
281
     0
  0
CLASS
  1
IMAGEDEF
  2
AcDbRasterImageDef
  3
ISM
 90
    32768
280
     0
281
     0
  0
CLASS
  1
IMAGEDEF_REACTOR
  2
AcDbRasterImageDefReactor
  3
ISM
 90
    32769
280
     0
281
     0
  0
CLASS
  1
IDBUFFER
  2
AcDbIdBuffer
  3
ObjectDBX Classes
 90
    32768
280
     0
281
     0
  0
CLASS
  1
SPATIAL_FILTER
  2
AcDbSpatialFilter
  3
ObjectDBX Classes
 90
    32768
280
     0
281
     0
  0
CLASS
  1
SORTENTSTABLE
  2
AcDbSortentsTable
  3
ObjectDBX Classes
 90
    32768
280
     0
281
     0
  0
CLASS
  1
LAYER_INDEX
  2
AcDbLayerIndex
  3
ObjectDBX Classes
 90
    32768
280
     0
281
     0
  0
CLASS
  1
SPATIAL_INDEX
  2
AcDbSpatialIndex
  3
ObjectDBX Classes
 90
    32768
280
     0
281
     0
  0
CLASS
  1
OBJECT_PTR
  2
CAseDLPNTableRecord
  3
"ASE-LPNTableRecord"
 90
    32768
280
     0
281
     0
  0
CLASS
  1
LAYOUT
  2
AcDbLayout
  3
ObjectDBX Classes
 90
        0
280
     0
281
     0
  0
CLASS
  1
PLOTSETTINGS
  2
AcDbPlotSettings
  3
ObjectDBX Classes
 90
    32768
280
     0
281
     0
  0
CLASS
  1
ACDBDICTIONARYWDFLT
  2
AcDbDictionaryWithDefault
  3
ObjectDBX Classes
 90
        0
280
     0
281
     0
  0
CLASS
  1
ACDBPLACEHOLDER
  2
AcDbPlaceHolder
  3
ObjectDBX Classes
 90
        0
280
     0
281
     0
  0
CLASS
  1
TABLESTYLE
  2
AcDbTableStyle
  3
ObjectDBX Classes
 90
     2047
280
     0
281
     0
  0
ENDSEC
  0
SECTION
  2
TABLES
  0
TABLE
  2
VPORT
  5
7
330
0
100
AcDbSymbolTable
 70
     2
  0
VPORT
  5
360
330
7
100
AcDbSymbolTableRecord
100
AcDbViewportTableRecord
  2
*Active
 70
     0
 10
0.0
 20
0.0
 11
1.0
 21
1.0
 12
3.125006198883113
 22
90.73226655252279
 13
0.0
 23
0.0
 14
1.0
 24
1.0
 15
0.0
 25
0.0
 16
0.0
 26
0.0
 36
1.0
 17
0.0
 27
0.0
 37
0.0
 40
739.9995331098139
 41
1.308483290488431
 42
50.0
 43
0.0
 44
0.0
 50
0.0
 51
0.0
 71
     0
 72
   100
 73
     1
 74
     1
 75
     0
 76
     0
 77
     0
 78
     0
281
     0
 65
     1
110
0.0
120
0.0
130
0.0
111
1.0
121
0.0
131
0.0
112
0.0
122
1.0
132
0.0
 79
     0
146
0.0
  0
ENDTAB
  0
TABLE
  2
LTYPE
  5
4
330
0
100
AcDbSymbolTable
 70
     3
  0
LTYPE
  5
11
330
4
100
AcDbSymbolTableRecord
100
AcDbLinetypeTableRecord
  2
BYBLOCK
 70
     0
  3

 72
    65
 73
     0
 40
0.0
  0
LTYPE
  5
12
330
4
100
AcDbSymbolTableRecord
100
AcDbLinetypeTableRecord
  2
BYLAYER
 70
     0
  3

 72
    65
 73
     0
 40
0.0
  0
LTYPE
  5
13
330
4
100
AcDbSymbolTableRecord
100
AcDbLinetypeTableRecord
  2
CONTINUOUS
 70
     0
  3
Solid line
 72
    65
 73
     0
 40
0.0
  0
LTYPE
  5
CA
330
4
100
AcDbSymbolTableRecord
100
AcDbLinetypeTableRecord
  2
PHANTOM
 70
     0
  3
Phantom ______  __  __  ______  __  __  ______
 72
    65
 73
     6
 40
30.0
 49
20.0
 74
     0
 49
-2.0
 74
     0
 49
2.0
 74
     0
 49
-2.0
 74
     0
 49
2.0
 74
     0
 49
-2.0
 74
     0
  0
LTYPE
  5
18E
330
4
100
AcDbSymbolTableRecord
100
AcDbLinetypeTableRecord
  2
CENTER
 70
     0
  3
Center ____ _ ____ _ ____ _ ____ _ ____ _ ____
 72
    65
 73
     4
 40
26.0
 49
20.0
 74
     0
 49
-2.0
 74
     0
 49
2.0
 74
     0
 49
-2.0
 74
     0
  0
ENDTAB
  0
TABLE
  2
LAYER
  5
2
330
0
100
AcDbSymbolTable
 70
     2
  0
LAYER
  5
14
330
2
100
AcDbSymbolTableRecord
100
AcDbLayerTableRecord
  2
0
 70
     0
 62
     7
  6
CONTINUOUS
370
    -3
390
350
  0
LAYER
  5
1D
330
2
100
AcDbSymbolTableRecord
100
AcDbLayerTableRecord
  2
DEFPOINTS
 70
     0
 62
     7
  6
CONTINUOUS
290
     0
370
    -3
390
350
  0
ENDTAB
  0
TABLE
  2
STYLE
  5
3
330
0
100
AcDbSymbolTable
 70
     2
  0
STYLE
  5
17
330
3
100
AcDbSymbolTableRecord
100
AcDbTextStyleTableRecord
  2
MX_NOTE_STANDARD
 70
     0
 40
0.0
 41
1.0
 50
0.0
 71
     0
 42
3.200000047683715
  3
txt.shx
  4
extfont.shx
  0
STYLE
  5
34E
330
3
100
AcDbSymbolTableRecord
100
AcDbTextStyleTableRecord
  2
Standard
 70
     0
 40
0.0
 41
1.0
 50
0.0
 71
     0
 42
0.2
  3

  4

  0
ENDTAB
  0
TABLE
  2
VIEW
  5
5
330
0
100
AcDbSymbolTable
 70
     0
  0
ENDTAB
  0
TABLE
  2
UCS
  5
6
330
0
100
AcDbSymbolTable
 70
     0
  0
ENDTAB
  0
TABLE
  2
APPID
  5
8
330
0
100
AcDbSymbolTable
 70
     1
  0
APPID
  5
16
330
8
100
AcDbSymbolTableRecord
100
AcDbRegAppTableRecord
  2
ACAD
 70
     0
  0
ENDTAB
  0
TABLE
  2
DIMSTYLE
  5
9
330
0
100
AcDbSymbolTable
 70
     1
100
AcDbDimStyleTable
 71
     0
  0
DIMSTYLE
105
18
330
9
100
AcDbSymbolTableRecord
100
AcDbDimStyleTableRecord
  2
MXDIMSTYLE
 70
     0
 41
2.5
 42
1.5
 43
3.75
 44
1.5
 73
     0
 74
     0
 77
     1
 78
     8
140
3.200000047683715
141
2.5
143
0.03937007874016
147
1.0
171
     4
172
     1
274
     4
288
     1
340
17
  0
ENDTAB
  0
TABLE
  2
BLOCK_RECORD
  5
1
330
0
100
AcDbSymbolTable
 70
     6
  0
BLOCK_RECORD
  5
A
330
1
100
AcDbSymbolTableRecord
100
AcDbBlockTableRecord
  2
*MODEL_SPACE
340
357
  0
BLOCK_RECORD
  5
B
330
1
100
AcDbSymbolTableRecord
100
AcDbBlockTableRecord
  2
*PAPER_SPACE
340
358
  0
BLOCK_RECORD
  5
1E
330
1
100
AcDbSymbolTableRecord
100
AcDbBlockTableRecord
  2
MRVS28-1
340
0
102
{BLKREFS
331
334
102
}
  0
BLOCK_RECORD
  5
1F
330
1
100
AcDbSymbolTableRecord
100
AcDbBlockTableRecord
  2
MRVS28-2
340
0
102
{BLKREFS
331
333
102
}
  0
BLOCK_RECORD
  5
20
330
1
100
AcDbSymbolTableRecord
100
AcDbBlockTableRecord
  2
MRVS28-3
340
0
102
{BLKREFS
331
332
102
}
  0
BLOCK_RECORD
  5
21
330
1
100
AcDbSymbolTableRecord
100
AcDbBlockTableRecord
  2
MRVS28-4
340
0
102
{BLKREFS
331
331
102
}
  0
BLOCK_RECORD
  5
22
330
1
100
AcDbSymbolTableRecord
100
AcDbBlockTableRecord
  2
MRVS28-5
340
0
102
{BLKREFS
331
330
102
}
  0
BLOCK_RECORD
  5
23
330
1
100
AcDbSymbolTableRecord
100
AcDbBlockTableRecord
  2
MRVS28-6
340
0
102
{BLKREFS
331
32F
102
}
  0
ENDTAB
  0
ENDSEC
  0
SECTION
  2
BLOCKS
  0
BLOCK
  5
D
330
A
100
AcDbEntity
  8
0
100
AcDbBlockBegin
  2
*MODEL_SPACE
 70
     0
 10
0.0
 20
0.0
 30
0.0
  3
*MODEL_SPACE
  1

  0
ENDBLK
  5
E
330
A
100
AcDbEntity
  8
0
100
AcDbBlockEnd
  0
BLOCK
  5
F
330
B
100
AcDbEntity
 67
     1
  8
0
100
AcDbBlockBegin
  2
*PAPER_SPACE
 70
     0
 10
0.0
 20
0.0
 30
0.0
  3
*PAPER_SPACE
  1

  0
ENDBLK
  5
10
330
B
100
AcDbEntity
 67
     1
  8
0
100
AcDbBlockEnd
  0
BLOCK
  5
24
330
1E
100
AcDbEntity
  8
0
100
AcDbBlockBegin
  2
MRVS28-1
 70
     0
 10
0.0
 20
0.0
 30
0.0
  3
MRVS28-1
  1

  0
LINE
  5
25
330
1E
100
AcDbEntity
  8
0
  6
Continuous
 62
     2
100
AcDbLine
 10
205.5
 20
-62.5
 30
0.0
 11
205.5
 21
-55.5
 31
0.0
  0
LINE
  5
26
330
1E
100
AcDbEntity
  8
0
  6
Continuous
 62
     2
100
AcDbLine
 10
7.5
 20
-62.5
 30
0.0
 11
7.5
 21
-55.5
 31
0.0
  0
LINE
  5
27
330
1E
100
AcDbEntity
  8
0
  6
Continuous
 62
     7
100
AcDbLine
 10
24.5
 20
-45.49999999999999
 30
0.0
 11
21.0
 21
-45.49999999999999
 31
0.0
  0
LINE
  5
28
330
1E
100
AcDbEntity
  8
0
  6
Continuous
 62
     7
100
AcDbLine
 10
219.5
 20
-59.0
 30
0.0
 11
219.5
 21
13.0
 31
0.0
  0
LINE
  5
29
330
1E
100
AcDbEntity
  8
0
  6
Continuous
 62
     7
100
AcDbLine
 10
88.49999999999999
 20
-0.5
 30
0.0
 11
192.0
 21
-0.5
 31
0.0
  0
LINE
  5
2A
330
1E
100
AcDbEntity
  8
0
  6
Continuous
 62
     2
100
AcDbLine
 10
220.5
 20
0.0
 30
0.0
 11
205.5
 21
0.0
 31
0.0
  0
LINE
  5
2B
330
1E
100
AcDbEntity
  8
0
  6
Continuous
 62
     2
100
AcDbLine
 10
213.0
 20
-7.5
 30
0.0
 11
213.0
 21
7.5
 31
0.0
  0
LINE
  5
2C
330
1E
100
AcDbEntity
  8
0
  6
Continuous
 62
     7
100
AcDbLine
 10
24.5
 20
12.0
 30
0.0
 11
24.5
 21
-58.0
 31
0.0
  0
LINE
  5
2D
330
1E
100
AcDbEntity
  8
0
  6
Continuous
 62
     7
100
AcDbLine
 10
26.10000610351562
 20
12.0
 30
0.0
 11
26.10000610351562
 21
-58.0
 31
0.0
  0
LINE
  5
2E
330
1E
100
AcDbEntity
  8
0
  6
Continuous
 62
     7
100
AcDbLine
 10
24.5
 20
12.0
 30
0.0
 11
88.49999999999999
 21
12.0
 31
0.0
  0
LINE
  5
2F
330
1E
100
AcDbEntity
  8
0
  6
Continuous
 62
     7
100
AcDbLine
 10
26.10000610351562
 20
-3.0
 30
0.0
 11
86.89999389648438
 21
-3.0
 31
0.0
  0
LINE
  5
30
330
1E
100
AcDbEntity
  8
0
  6
Continuous
 62
     2
100
AcDbLine
 10
34.5
 20
-0.5399932861328125
 30
0.0
 11
34.5
 21
10.54000854492187
 31
0.0
  0
LINE
  5
31
330
1E
100
AcDbEntity
  8
0
  6
Continuous
 62
     2
100
AcDbLine
 10
72.96000671386718
 20
5.0
 30
0.0
 11
84.03999328613281
 21
5.0
 31
0.0
  0
LINE
  5
32
330
1E
100
AcDbEntity
  8
0
  6
Continuous
 62
     7
100
AcDbLine
 10
18.0
 20
-58.0
 30
0.0
 11
195.0
 21
-58.0
 31
0.0
  0
LINE
  5
33
330
1E
100
AcDbEntity
  8
0
  6
Continuous
 62
     2
100
AcDbLine
 10
78.5
 20
-0.5399932861328125
 30
0.0
 11
78.5
 21
10.54000854492187
 31
0.0
  0
LINE
  5
34
330
1E
100
AcDbEntity
  8
0
  6
Continuous
 62
     7
100
AcDbLine
 10
86.89999389648438
 20
-58.0
 30
0.0
 11
86.89999389648438
 21
12.0
 31
0.0
  0
LINE
  5
35
330
1E
100
AcDbEntity
  8
0
  6
Continuous
 62
     7
100
AcDbLine
 10
88.49999999999999
 20
-58.0
 30
0.0
 11
88.49999999999999
 21
12.0
 31
0.0
  0
LINE
  5
36
330
1E
100
AcDbEntity
  8
0
  6
Continuous
 62
     2
100
AcDbLine
 10
40.03999328613281
 20
-51.0
 30
0.0
 11
28.96000671386719
 21
-51.0
 31
0.0
  0
LINE
  5
37
330
1E
100
AcDbEntity
  8
0
  6
Continuous
 62
     2
100
AcDbLine
 10
78.5
 20
-45.46000671386718
 30
0.0
 11
78.5
 21
-56.53999328613281
 31
0.0
  0
LINE
  5
38
330
1E
100
AcDbEntity
  8
0
  6
Continuous
 62
     2
100
AcDbLine
 10
72.96000671386718
 20
-51.0
 30
0.0
 11
84.03999328613281
 21
-51.0
 31
0.0
  0
LINE
  5
39
330
1E
100
AcDbEntity
  8
0
  6
Continuous
 62
     7
100
AcDbLine
 10
24.5
 20
-0.5
 30
0.0
 11
21.0
 21
-0.5
 31
0.0
  0
LINE
  5
3A
330
1E
100
AcDbEntity
  8
0
  6
Continuous
 62
     7
100
AcDbLine
 10
-6.5
 20
-59.0
 30
0.0
 11
-6.5
 21
13.0
 31
0.0
  0
LINE
  5
3B
330
1E
100
AcDbEntity
  8
0
  6
Continuous
 62
     2
100
AcDbLine
 10
34.5
 20
-45.46000671386718
 30
0.0
 11
34.5
 21
-56.53999328613281
 31
0.0
  0
LINE
  5
3C
330
1E
100
AcDbEntity
  8
0
  6
Continuous
 62
     7
100
AcDbLine
 10
88.49999999999999
 20
-45.49999999999999
 30
0.0
 11
192.0
 21
-45.49999999999999
 31
0.0
  0
LINE
  5
3D
330
1E
100
AcDbEntity
  8
0
  6
Continuous
 62
     2
100
AcDbLine
 10
40.03999328613281
 20
5.0
 30
0.0
 11
28.96000671386719
 21
5.0
 31
0.0
  0
LINE
  5
3E
330
1E
100
AcDbEntity
  8
0
  6
Continuous
 62
     7
100
AcDbLine
 10
24.14999389648437
 20
-50.19999694824218
 30
0.0
 11
24.5
 21
-50.19999694824218
 31
0.0
  0
LINE
  5
3F
330
1E
100
AcDbEntity
  8
0
  6
Continuous
 62
     7
100
AcDbLine
 10
22.30000305175781
 20
10.98150634765625
 30
0.0
 11
22.30000305175781
 21
5.01849365234375
 31
0.0
  0
LINE
  5
40
330
1E
100
AcDbEntity
  8
0
  6
Continuous
 62
     7
100
AcDbLine
 10
24.14999389648437
 20
11.79998779296875
 30
0.0
 11
24.5
 21
11.79998779296875
 31
0.0
  0
LINE
  5
41
330
1E
100
AcDbEntity
  8
0
  6
Continuous
 62
     7
100
AcDbLine
 10
24.14999389648437
 20
-57.80000305175781
 30
0.0
 11
24.5
 21
-57.80000305175781
 31
0.0
  0
LINE
  5
42
330
1E
100
AcDbEntity
  8
0
  6
Continuous
 62
     7
100
AcDbLine
 10
90.69999694824218
 20
10.98150634765625
 30
0.0
 11
90.69999694824218
 21
5.01849365234375
 31
0.0
  0
LINE
  5
43
330
1E
100
AcDbEntity
  8
0
  6
Continuous
 62
     7
100
AcDbLine
 10
22.30000305175781
 20
-56.98152160644531
 30
0.0
 11
22.30000305175781
 21
-51.01847839355468
 31
0.0
  0
LINE
  5
44
330
1E
100
AcDbEntity
  8
0
  6
Continuous
 62
     7
100
AcDbLine
 10
88.85000610351562
 20
-50.19999694824218
 30
0.0
 11
88.49999999999999
 21
-50.19999694824218
 31
0.0
  0
LINE
  5
45
330
1E
100
AcDbEntity
  8
0
  6
Continuous
 62
     7
100
AcDbLine
 10
24.14999389648437
 20
4.20001220703125
 30
0.0
 11
24.5
 21
4.20001220703125
 31
0.0
  0
LINE
  5
46
330
1E
100
AcDbEntity
  8
0
  6
Continuous
 62
     7
100
AcDbLine
 10
88.85000610351562
 20
11.79998779296875
 30
0.0
 11
88.49999999999999
 21
11.79998779296875
 31
0.0
  0
LINE
  5
47
330
1E
100
AcDbEntity
  8
0
  6
Continuous
 62
     7
100
AcDbLine
 10
88.85000610351562
 20
-57.80000305175781
 30
0.0
 11
88.49999999999999
 21
-57.80000305175781
 31
0.0
  0
LINE
  5
48
330
1E
100
AcDbEntity
  8
0
  6
Continuous
 62
     7
100
AcDbLine
 10
90.69999694824218
 20
-56.98152160644531
 30
0.0
 11
90.69999694824218
 21
-51.01847839355468
 31
0.0
  0
LINE
  5
49
330
1E
100
AcDbEntity
  8
0
  6
Continuous
 62
     7
100
AcDbLine
 10
88.85000610351562
 20
4.20001220703125
 30
0.0
 11
88.49999999999999
 21
4.20001220703125
 31
0.0
  0
LINE
  5
4A
330
1E
100
AcDbEntity
  8
0
  6
Continuous
 62
     7
100
AcDbLine
 10
26.10000610351562
 20
-43.0
 30
0.0
 11
86.89999389648438
 21
-43.0
 31
0.0
  0
LINE
  5
4B
330
1E
100
AcDbEntity
  8
0
  6
Continuous
 62
     7
100
AcDbLine
 10
203.5
 20
-59.0
 30
0.0
 11
203.5
 21
13.0
 31
0.0
  0
LINE
  5
4C
330
1E
100
AcDbEntity
  8
0
  6
Continuous
 62
     7
100
AcDbLine
 10
9.5
 20
-59.0
 30
0.0
 11
9.5
 21
13.0
 31
0.0
  0
LINE
  5
4D
330
1E
100
AcDbEntity
  8
0
  6
Continuous
 62
     7
100
AcDbLine
 10
219.5
 20
-59.0
 30
0.0
 11
195.0
 21
-59.0
 31
0.0
  0
LINE
  5
4E
330
1E
100
AcDbEntity
  8
0
  6
Continuous
 62
     7
100
AcDbLine
 10
219.5
 20
13.0
 30
0.0
 11
195.0
 21
13.0
 31
0.0
  0
LINE
  5
4F
330
1E
100
AcDbEntity
  8
0
  6
Continuous
 62
     2
100
AcDbLine
 10
-9.5
 20
-23.0
 30
0.0
 11
222.5
 21
-23.0
 31
0.0
  0
LINE
  5
50
330
1E
100
AcDbEntity
  8
0
  6
Continuous
 62
     7
100
AcDbLine
 10
219.5
 20
-8.0
 30
0.0
 11
195.0
 21
-8.0
 31
0.0
  0
LINE
  5
51
330
1E
100
AcDbEntity
  8
0
  6
Continuous
 62
     7
100
AcDbLine
 10
219.5
 20
-38.0
 30
0.0
 11
195.0
 21
-38.0
 31
0.0
  0
LINE
  5
52
330
1E
100
AcDbEntity
  8
0
  6
Continuous
 62
     7
100
AcDbLine
 10
192.0
 20
-0.9982757568359376
 30
0.0
 11
192.0
 21
0.9982757568359376
 31
0.0
  0
LINE
  5
53
330
1E
100
AcDbEntity
  8
0
  6
Continuous
 62
     7
100
AcDbLine
 10
192.2479022246634
 20
-3.706268814661825
 30
0.0
 11
195.0
 21
-3.220999709300998
 31
0.0
  0
LINE
  5
54
330
1E
100
AcDbEntity
  8
0
  6
Continuous
 62
     7
100
AcDbLine
 10
192.2479075313631
 20
-6.293726481181693
 30
0.0
 11
195.0
 21
-6.778994650828161
 31
0.0
  0
LINE
  5
55
330
1E
100
AcDbEntity
  8
0
  6
Continuous
 62
     7
100
AcDbLine
 10
192.2479010843808
 20
-1.293722424941279
 30
0.0
 11
195.0
 21
-1.778991731364703
 31
0.0
  0
LINE
  5
56
330
1E
100
AcDbEntity
  8
0
  6
Continuous
 62
     7
100
AcDbLine
 10
192.247901158159
 20
1.293733916748124
 30
0.0
 11
195.0
 21
1.779003210162458
 31
0.0
  0
LINE
  5
57
330
1E
100
AcDbEntity
  8
0
  6
Continuous
 62
     7
100
AcDbLine
 10
195.0
 20
-59.0
 30
0.0
 11
195.0
 21
13.0
 31
0.0
  0
LINE
  5
58
330
1E
100
AcDbEntity
  8
0
  6
Continuous
 62
     7
100
AcDbLine
 10
192.0
 20
4.001708984375
 30
0.0
 11
192.0
 21
5.998291015625
 31
0.0
  0
LINE
  5
59
330
1E
100
AcDbEntity
  8
0
  6
Continuous
 62
     7
100
AcDbLine
 10
192.2478990251502
 20
11.29373937956802
 30
0.0
 11
195.0
 21
11.77900904908937
 31
0.0
  0
LINE
  5
5A
330
1E
100
AcDbEntity
  8
0
  6
Continuous
 62
     7
100
AcDbLine
 10
192.2479032173896
 20
8.70628303787862
 30
0.0
 11
195.0
 21
8.221014107562211
 31
0.0
  0
LINE
  5
5B
330
1E
100
AcDbEntity
  8
0
  6
Continuous
 62
     7
100
AcDbLine
 10
192.0
 20
9.001739501953125
 30
0.0
 11
192.0
 21
10.998291015625
 31
0.0
  0
LINE
  5
5C
330
1E
100
AcDbEntity
  8
0
  6
Continuous
 62
     7
100
AcDbLine
 10
192.2479000215653
 20
-54.70629278398269
 30
0.0
 11
195.0
 21
-54.22102329015621
 31
0.0
  0
LINE
  5
5D
330
1E
100
AcDbEntity
  8
0
  6
Continuous
 62
     7
100
AcDbLine
 10
192.0
 20
-55.00173950195313
 30
0.0
 11
192.0
 21
-56.99827575683594
 31
0.0
  0
LINE
  5
5E
330
1E
100
AcDbEntity
  8
0
  6
Continuous
 62
     7
100
AcDbLine
 10
192.2478947923328
 20
6.293766702104903
 30
0.0
 11
195.0
 21
6.779037117986196
 31
0.0
  0
LINE
  5
5F
330
1E
100
AcDbEntity
  8
0
  6
Continuous
 62
     7
100
AcDbLine
 10
192.2479059371399
 20
-52.29373136728872
 30
0.0
 11
195.0
 21
-52.77899981803978
 31
0.0
  0
LINE
  5
60
330
1E
100
AcDbEntity
  8
0
  6
Continuous
 62
     7
100
AcDbLine
 10
192.2479048706355
 20
-57.29373409869868
 30
0.0
 11
195.0
 21
-57.77900273750322
 31
0.0
  0
LINE
  5
61
330
1E
100
AcDbEntity
  8
0
  6
Continuous
 62
     7
100
AcDbLine
 10
192.0
 20
-50.00172424316406
 30
0.0
 11
192.0
 21
-51.99827575683594
 31
0.0
  0
LINE
  5
62
330
1E
100
AcDbEntity
  8
0
  6
Continuous
 62
     7
100
AcDbLine
 10
192.2479070036443
 20
-47.29372863587878
 30
0.0
 11
195.0
 21
-47.77899689857632
 31
0.0
  0
LINE
  5
63
330
1E
100
AcDbEntity
  8
0
  6
Continuous
 62
     7
100
AcDbLine
 10
192.2479054020432
 20
-44.70628599633233
 30
0.0
 11
195.0
 21
-44.22101745122929
 31
0.0
  0
LINE
  5
64
330
1E
100
AcDbEntity
  8
0
  6
Continuous
 62
     7
100
AcDbLine
 10
192.247899471713
 20
-39.70629961672626
 30
0.0
 11
195.0
 21
-39.22103002594597
 31
0.0
  0
LINE
  5
65
330
1E
100
AcDbEntity
  8
0
  6
Continuous
 62
     7
100
AcDbLine
 10
192.247900556662
 20
-42.29372457963836
 30
0.0
 11
195.0
 21
-42.77899397911286
 31
0.0
  0
LINE
  5
66
330
1E
100
AcDbEntity
  8
0
  6
Continuous
 62
     7
100
AcDbLine
 10
192.0
 20
-45.00172424316406
 30
0.0
 11
192.0
 21
-46.99827575683594
 31
0.0
  0
LINE
  5
67
330
1E
100
AcDbEntity
  8
0
  6
Continuous
 62
     7
100
AcDbLine
 10
192.2479064685476
 20
-49.70628872774228
 30
0.0
 11
195.0
 21
-49.22102037069276
 31
0.0
  0
LINE
  5
68
330
1E
100
AcDbEntity
  8
0
  6
Continuous
 62
     7
100
AcDbLine
 10
192.0
 20
-40.00173950195313
 30
0.0
 11
192.0
 21
-41.99827575683594
 31
0.0
  0
LINE
  5
69
330
1E
100
AcDbEntity
  8
0
  6
Continuous
 62
     7
100
AcDbLine
 10
192.2479021508852
 20
3.706280306468671
 30
0.0
 11
195.0
 21
3.221011188098754
 31
0.0
  0
LINE
  5
6A
330
1E
100
AcDbEntity
  8
0
  6
Continuous
 62
     7
100
AcDbLine
 10
192.0
 20
-5.998275756835937
 30
0.0
 11
192.0
 21
-4.001724243164063
 31
0.0
  0
LINE
  5
6B
330
1E
100
AcDbEntity
  8
0
  6
Continuous
 62
     7
100
AcDbLine
 10
-6.5
 20
-59.0
 30
0.0
 11
18.0
 21
-59.0
 31
0.0
  0
LINE
  5
6C
330
1E
100
AcDbEntity
  8
0
  6
Continuous
 62
     7
100
AcDbLine
 10
-6.5
 20
13.0
 30
0.0
 11
18.0
 21
13.0
 31
0.0
  0
LINE
  5
6D
330
1E
100
AcDbEntity
  8
0
  6
Continuous
 62
     7
100
AcDbLine
 10
-6.5
 20
-8.0
 30
0.0
 11
18.0
 21
-8.0
 31
0.0
  0
LINE
  5
6E
330
1E
100
AcDbEntity
  8
0
  6
Continuous
 62
     7
100
AcDbLine
 10
-6.5
 20
-38.0
 30
0.0
 11
18.0
 21
-38.0
 31
0.0
  0
LINE
  5
6F
330
1E
100
AcDbEntity
  8
0
  6
Continuous
 62
     7
100
AcDbLine
 10
21.0
 20
-0.9982757568359376
 30
0.0
 11
21.0
 21
0.9982757568359376
 31
0.0
  0
LINE
  5
70
330
1E
100
AcDbEntity
  8
0
  6
Continuous
 62
     7
100
AcDbLine
 10
20.75210113877074
 20
-3.706283721694489
 30
0.0
 11
18.0
 21
-3.22101402326945
 31
0.0
  0
LINE
  5
71
330
1E
100
AcDbEntity
  8
0
  6
Continuous
 62
     7
100
AcDbLine
 10
20.75208191218008
 20
-6.293698534421309
 30
0.0
 11
18.0
 21
-6.778964842679569
 31
0.0
  0
LINE
  5
72
330
1E
100
AcDbEntity
  8
0
  6
Continuous
 62
     7
100
AcDbLine
 10
20.75209587264908
 20
-1.293693153350431
 30
0.0
 11
18.0
 21
-1.778961923216112
 31
0.0
  0
LINE
  5
73
330
1E
100
AcDbEntity
  8
0
  6
Continuous
 62
     7
100
AcDbLine
 10
20.75210220527515
 20
1.293719009715459
 30
0.0
 11
18.0
 21
1.778988896194007
 31
0.0
  0
LINE
  5
74
330
1E
100
AcDbEntity
  8
0
  6
Continuous
 62
     7
100
AcDbLine
 10
18.0
 20
-59.0
 30
0.0
 11
18.0
 21
13.0
 31
0.0
  0
LINE
  5
75
330
1E
100
AcDbEntity
  8
0
  6
Continuous
 62
     7
100
AcDbLine
 10
21.0
 20
4.001708984375
 30
0.0
 11
21.0
 21
5.998291015625
 31
0.0
  0
LINE
  5
76
330
1E
100
AcDbEntity
  8
0
  6
Continuous
 62
     7
100
AcDbLine
 10
20.75210168862305
 20
11.29370944556194
 30
0.0
 11
18.0
 21
11.77897924094078
 31
0.0
  0
LINE
  5
77
330
1E
100
AcDbEntity
  8
0
  6
Continuous
 62
     7
100
AcDbLine
 10
20.75209373964026
 20
8.706312309469467
 30
0.0
 11
18.0
 21
8.221043915710803
 31
0.0
  0
LINE
  5
78
330
1E
100
AcDbEntity
  8
0
  6
Continuous
 62
     7
100
AcDbLine
 10
21.0
 20
9.001739501953125
 30
0.0
 11
21.0
 21
10.998291015625
 31
0.0
  0
LINE
  5
79
330
1E
100
AcDbEntity
  8
0
  6
Continuous
 62
     7
100
AcDbLine
 10
20.75210599152979
 20
-54.70629266404194
 30
0.0
 11
18.0
 21
-54.22102210994452
 31
0.0
  0
LINE
  5
7A
330
1E
100
AcDbEntity
  8
0
  6
Continuous
 62
     7
100
AcDbLine
 10
21.0
 20
-55.00173950195313
 30
0.0
 11
21.0
 21
-56.99827575683594
 31
0.0
  0
LINE
  5
7B
330
1E
100
AcDbEntity
  8
0
  6
Continuous
 62
     7
100
AcDbLine
 10
20.75210327177956
 20
6.293721741125409
 30
0.0
 11
18.0
 21
6.778991815657464
 31
0.0
  0
LINE
  5
7C
330
1E
100
AcDbEntity
  8
0
  6
Continuous
 62
     7
100
AcDbLine
 10
20.75209896887281
 20
-52.29374717661814
 30
0.0
 11
18.0
 21
-52.77901649243161
 31
0.0
  0
LINE
  5
7D
330
1E
100
AcDbEntity
  8
0
  6
Continuous
 62
     7
100
AcDbLine
 10
20.75210003537723
 20
-57.29374990802807
 30
0.0
 11
18.0
 21
-57.77901941189506
 31
0.0
  0
LINE
  5
7E
330
1E
100
AcDbEntity
  8
0
  6
Continuous
 62
     7
100
AcDbLine
 10
21.0
 20
-50.00172424316406
 30
0.0
 11
21.0
 21
-51.99827575683594
 31
0.0
  0
LINE
  5
7F
330
1E
100
AcDbEntity
  8
0
  6
Continuous
 62
     7
100
AcDbLine
 10
20.75209790236841
 20
-47.29374444520817
 30
0.0
 11
18.0
 21
-47.77901357296815
 31
0.0
  0
LINE
  5
80
330
1E
100
AcDbEntity
  8
0
  6
Continuous
 62
     7
100
AcDbLine
 10
20.75210812453861
 20
-44.70628720122204
 30
0.0
 11
18.0
 21
-44.22101627101761
 31
0.0
  0
LINE
  5
81
330
1E
100
AcDbEntity
  8
0
  6
Continuous
 62
     7
100
AcDbLine
 10
20.75210654138209
 20
-39.70629949678551
 30
0.0
 11
18.0
 21
-39.22102884573429
 31
0.0
  0
LINE
  5
82
330
1E
100
AcDbEntity
  8
0
  6
Continuous
 62
     7
100
AcDbLine
 10
20.752096835864
 20
-42.29374171379823
 30
0.0
 11
18.0
 21
-42.77901065350468
 31
0.0
  0
LINE
  5
83
330
1E
100
AcDbEntity
  8
0
  6
Continuous
 62
     7
100
AcDbLine
 10
21.0
 20
-45.00172424316406
 30
0.0
 11
21.0
 21
-46.99827575683594
 31
0.0
  0
LINE
  5
84
330
1E
100
AcDbEntity
  8
0
  6
Continuous
 62
     7
100
AcDbLine
 10
20.7521070580342
 20
-49.70628993263199
 30
0.0
 11
18.0
 21
-49.22101919048106
 31
0.0
  0
LINE
  5
85
330
1E
100
AcDbEntity
  8
0
  6
Continuous
 62
     7
100
AcDbLine
 10
21.0
 20
-40.00173950195313
 30
0.0
 11
21.0
 21
-41.99827575683594
 31
0.0
  0
LINE
  5
86
330
1E
100
AcDbEntity
  8
0
  6
Continuous
 62
     7
100
AcDbLine
 10
20.75209480614467
 20
3.706309578059517
 30
0.0
 11
18.0
 21
3.221040996247345
 31
0.0
  0
LINE
  5
87
330
1E
100
AcDbEntity
  8
0
  6
Continuous
 62
     7
100
AcDbLine
 10
21.0
 20
-5.998275756835937
 30
0.0
 11
21.0
 21
-4.001724243164063
 31
0.0
  0
LINE
  5
88
330
1E
100
AcDbEntity
  8
0
  6
Continuous
 62
     2
100
AcDbLine
 10
213.0
 20
-53.5
 30
0.0
 11
213.0
 21
-38.5
 31
0.0
  0
LINE
  5
89
330
1E
100
AcDbEntity
  8
0
  6
Continuous
 62
     2
100
AcDbLine
 10
220.5
 20
-46.0
 30
0.0
 11
205.5
 21
-46.0
 31
0.0
  0
LINE
  5
8A
330
1E
100
AcDbEntity
  8
0
  6
Continuous
 62
     2
100
AcDbLine
 10
0.0
 20
-7.5
 30
0.0
 11
0.0
 21
7.5
 31
0.0
  0
LINE
  5
8B
330
1E
100
AcDbEntity
  8
0
  6
Continuous
 62
     2
100
AcDbLine
 10
7.5
 20
0.0
 30
0.0
 11
-7.5
 21
0.0
 31
0.0
  0
LINE
  5
8C
330
1E
100
AcDbEntity
  8
0
  6
Continuous
 62
     2
100
AcDbLine
 10
7.5
 20
-46.0
 30
0.0
 11
-7.5
 21
-46.0
 31
0.0
  0
LINE
  5
8D
330
1E
100
AcDbEntity
  8
0
  6
Continuous
 62
     2
100
AcDbLine
 10
0.0
 20
-53.5
 30
0.0
 11
0.0
 21
-38.5
 31
0.0
  0
LINE
  5
8E
330
1E
100
AcDbEntity
  8
0
  6
Continuous
 62
     7
100
AcDbLine
 10
211.5
 20
-65.19999694824218
 30
0.0
 11
1.5
 21
-65.19999694824218
 31
0.0
  0
LINE
  5
8F
330
1E
100
AcDbEntity
  8
0
  6
Continuous
 62
     7
100
AcDbLine
 10
1.5
 20
-59.0
 30
0.0
 11
1.5
 21
-65.19999694824218
 31
0.0
  0
LINE
  5
90
330
1E
100
AcDbEntity
  8
0
  6
Continuous
 62
     7
100
AcDbLine
 10
211.5
 20
-65.19999694824218
 30
0.0
 11
211.5
 21
-59.0
 31
0.0
  0
ARC
  5
91
330
1E
100
AcDbEntity
  8
0
  6
Continuous
 62
     7
100
AcDbCircle
 10
213.0
 20
0.0
 30
0.0
 40
5.5
100
AcDbArc
 50
0.9100754291885381
 51
0.0000100179126691
  0
CIRCLE
  5
92
330
1E
100
AcDbEntity
  8
0
  6
Continuous
 62
     7
100
AcDbCircle
 10
213.0
 20
-46.0
 30
0.0
 40
5.5
  0
CIRCLE
  5
93
330
1E
100
AcDbEntity
  8
0
  6
Continuous
 62
     2
100
AcDbCircle
 10
34.5
 20
5.0
 30
0.0
 40
3.0
  0
CIRCLE
  5
94
330
1E
100
AcDbEntity
  8
0
  6
Continuous
 62
     7
100
AcDbCircle
 10
78.5
 20
5.0
 30
0.0
 40
2.5
  0
CIRCLE
  5
95
330
1E
100
AcDbEntity
  8
0
  6
Continuous
 62
     2
100
AcDbCircle
 10
78.5
 20
5.0
 30
0.0
 40
3.0
  0
CIRCLE
  5
96
330
1E
100
AcDbEntity
  8
0
  6
Continuous
 62
     7
100
AcDbCircle
 10
34.5
 20
-51.0
 30
0.0
 40
2.5
  0
CIRCLE
  5
97
330
1E
100
AcDbEntity
  8
0
  6
Continuous
 62
     7
100
AcDbCircle
 10
0.0
 20
0.0
 30
0.0
 40
5.5
  0
CIRCLE
  5
98
330
1E
100
AcDbEntity
  8
0
  6
Continuous
 62
     2
100
AcDbCircle
 10
78.5
 20
-51.0
 30
0.0
 40
3.0
  0
CIRCLE
  5
99
330
1E
100
AcDbEntity
  8
0
  6
Continuous
 62
     7
100
AcDbCircle
 10
78.5
 20
-51.0
 30
0.0
 40
2.5
  0
CIRCLE
  5
9A
330
1E
100
AcDbEntity
  8
0
  6
Continuous
 62
     7
100
AcDbCircle
 10
0.0
 20
-46.0
 30
0.0
 40
5.5
  0
CIRCLE
  5
9B
330
1E
100
AcDbEntity
  8
0
  6
Continuous
 62
     2
100
AcDbCircle
 10
34.5
 20
-51.0
 30
0.0
 40
3.0
  0
CIRCLE
  5
9C
330
1E
100
AcDbEntity
  8
0
  6
Continuous
 62
     7
100
AcDbCircle
 10
34.5
 20
5.0
 30
0.0
 40
2.5
  0
ARC
  5
9D
330
1E
100
AcDbEntity
  8
0
  6
Continuous
 62
     7
100
AcDbCircle
 10
88.85000610351562
 20
9.29998779296875
 30
0.0
 40
2.5
100
AcDbArc
 50
42.26858469748889
 51
90.00000250447817
  0
ARC
  5
9E
330
1E
100
AcDbEntity
  8
0
  6
Continuous
 62
     7
100
AcDbCircle
 10
24.14999389648437
 20
-52.69999694824218
 30
0.0
 40
2.5
100
AcDbArc
 50
90.00000250447817
 51
137.7314203114674
  0
ARC
  5
9F
330
1E
100
AcDbEntity
  8
0
  6
Continuous
 62
     7
100
AcDbCircle
 10
24.14999389648437
 20
-55.30000305175781
 30
0.0
 40
2.5
100
AcDbArc
 50
222.2685796885325
 51
269.9999974955218
  0
ARC
  5
A0
330
1E
100
AcDbEntity
  8
0
  6
Continuous
 62
     7
100
AcDbCircle
 10
24.14999389648437
 20
9.29998779296875
 30
0.0
 40
2.5
100
AcDbArc
 50
90.00000250447817
 51
137.7314203114674
  0
ARC
  5
A1
330
1E
100
AcDbEntity
  8
0
  6
Continuous
 62
     7
100
AcDbCircle
 10
24.14999389648437
 20
6.70001220703125
 30
0.0
 40
2.5
100
AcDbArc
 50
222.2685796885325
 51
269.9999974955218
  0
ARC
  5
A2
330
1E
100
AcDbEntity
  8
0
  6
Continuous
 62
     7
100
AcDbCircle
 10
88.85000610351562
 20
-55.30000305175781
 30
0.0
 40
2.5
100
AcDbArc
 50
269.9999974955218
 51
317.7314153025112
  0
ARC
  5
A3
330
1E
100
AcDbEntity
  8
0
  6
Continuous
 62
     7
100
AcDbCircle
 10
88.85000610351562
 20
6.70001220703125
 30
0.0
 40
2.5
100
AcDbArc
 50
269.9999974955218
 51
317.7314153025112
  0
ARC
  5
A4
330
1E
100
AcDbEntity
  8
0
  6
Continuous
 62
     7
100
AcDbCircle
 10
88.85000610351562
 20
-52.69999694824218
 30
0.0
 40
2.5
100
AcDbArc
 50
42.26858469748889
 51
90.00000250447817
  0
ARC
  5
A5
330
1E
100
AcDbEntity
  8
0
  6
Continuous
 62
     7
100
AcDbCircle
 10
192.3000030517578
 20
-56.99827575683594
 30
0.0
 40
0.3000000119209289
100
AcDbArc
 50
180.000008651422
 51
259.9999994939762
  0
ARC
  5
A6
330
1E
100
AcDbEntity
  8
0
  6
Continuous
 62
     7
100
AcDbCircle
 10
192.3000030517578
 20
-55.00173950195313
 30
0.0
 40
0.3000000119209289
100
AcDbArc
 50
100.0000005060238
 51
180.0000050089563
  0
ARC
  5
A7
330
1E
100
AcDbEntity
  8
0
  6
Continuous
 62
     7
100
AcDbCircle
 10
192.3000030517578
 20
-45.00172424316406
 30
0.0
 40
0.3000000119209289
100
AcDbArc
 50
100.0000005060238
 51
180.0000050089563
  0
ARC
  5
A8
330
1E
100
AcDbEntity
  8
0
  6
Continuous
 62
     7
100
AcDbCircle
 10
192.3000030517578
 20
-50.00172424316406
 30
0.0
 40
0.3000000119209289
100
AcDbArc
 50
100.0000005060238
 51
180.0000050089563
  0
ARC
  5
A9
330
1E
100
AcDbEntity
  8
0
  6
Continuous
 62
     7
100
AcDbCircle
 10
192.3000030517578
 20
4.001708984375
 30
0.0
 40
0.3000000119209289
100
AcDbArc
 50
180.000008651422
 51
259.9999994939762
  0
ARC
  5
AA
330
1E
100
AcDbEntity
  8
0
  6
Continuous
 62
     7
100
AcDbCircle
 10
192.3000030517578
 20
9.001739501953125
 30
0.0
 40
0.3000000119209289
100
AcDbArc
 50
180.000008651422
 51
259.9999994939762
  0
ARC
  5
AB
330
1E
100
AcDbEntity
  8
0
  6
Continuous
 62
     7
100
AcDbCircle
 10
192.3000030517578
 20
10.998291015625
 30
0.0
 40
0.3000000119209289
100
AcDbArc
 50
100.0000005060238
 51
180.0000050089563
  0
ARC
  5
AC
330
1E
100
AcDbEntity
  8
0
  6
Continuous
 62
     7
100
AcDbCircle
 10
192.3000030517578
 20
5.998291015625
 30
0.0
 40
0.3000000119209289
100
AcDbArc
 50
100.0000005060238
 51
180.0000050089563
  0
ARC
  5
AD
330
1E
100
AcDbEntity
  8
0
  6
Continuous
 62
     7
100
AcDbCircle
 10
192.3000030517578
 20
0.9982757568359376
 30
0.0
 40
0.3000000119209289
100
AcDbArc
 50
100.0000005060238
 51
180.0000050089563
  0
ARC
  5
AE
330
1E
100
AcDbEntity
  8
0
  6
Continuous
 62
     7
100
AcDbCircle
 10
192.3000030517578
 20
-0.9982757568359376
 30
0.0
 40
0.3000000119209289
100
AcDbArc
 50
180.000008651422
 51
259.9999994939762
  0
ARC
  5
AF
330
1E
100
AcDbEntity
  8
0
  6
Continuous
 62
     7
100
AcDbCircle
 10
192.3000030517578
 20
-4.001724243164063
 30
0.0
 40
0.3000000119209289
100
AcDbArc
 50
100.0000005060238
 51
180.0000050089563
  0
ARC
  5
B0
330
1E
100
AcDbEntity
  8
0
  6
Continuous
 62
     7
100
AcDbCircle
 10
192.3000030517578
 20
-5.998275756835937
 30
0.0
 40
0.3000000119209289
100
AcDbArc
 50
180.000008651422
 51
259.9999994939762
  0
ARC
  5
B1
330
1E
100
AcDbEntity
  8
0
  6
Continuous
 62
     7
100
AcDbCircle
 10
192.3000030517578
 20
-41.99827575683594
 30
0.0
 40
0.3000000119209289
100
AcDbArc
 50
180.000008651422
 51
259.9999994939762
  0
ARC
  5
B2
330
1E
100
AcDbEntity
  8
0
  6
Continuous
 62
     7
100
AcDbCircle
 10
192.3000030517578
 20
-51.99827575683594
 30
0.0
 40
0.3000000119209289
100
AcDbArc
 50
180.000008651422
 51
259.9999994939762
  0
ARC
  5
B3
330
1E
100
AcDbEntity
  8
0
  6
Continuous
 62
     7
100
AcDbCircle
 10
192.3000030517578
 20
-46.99827575683594
 30
0.0
 40
0.3000000119209289
100
AcDbArc
 50
180.000008651422
 51
259.9999994939762
  0
ARC
  5
B4
330
1E
100
AcDbEntity
  8
0
  6
Continuous
 62
     7
100
AcDbCircle
 10
192.3000030517578
 20
-40.00173950195313
 30
0.0
 40
0.3000000119209289
100
AcDbArc
 50
100.0000005060238
 51
180.0000050089563
  0
ARC
  5
B5
330
1E
100
AcDbEntity
  8
0
  6
Continuous
 62
     7
100
AcDbCircle
 10
20.69999694824219
 20
-56.99827575683594
 30
0.0
 40
0.3000000119209289
100
AcDbArc
 50
280.0000023272566
 51
0.0
  0
ARC
  5
B6
330
1E
100
AcDbEntity
  8
0
  6
Continuous
 62
     7
100
AcDbCircle
 10
20.69999694824219
 20
-55.00173950195313
 30
0.0
 40
0.3000000119209289
100
AcDbArc
 50
0.0
 51
79.99999767274336
  0
ARC
  5
B7
330
1E
100
AcDbEntity
  8
0
  6
Continuous
 62
     7
100
AcDbCircle
 10
20.69999694824219
 20
-45.00172424316406
 30
0.0
 40
0.3000000119209289
100
AcDbArc
 50
0.0
 51
79.99999767274336
  0
ARC
  5
B8
330
1E
100
AcDbEntity
  8
0
  6
Continuous
 62
     7
100
AcDbCircle
 10
20.69999694824219
 20
-50.00172424316406
 30
0.0
 40
0.3000000119209289
100
AcDbArc
 50
0.0
 51
79.99999767274336
  0
ARC
  5
B9
330
1E
100
AcDbEntity
  8
0
  6
Continuous
 62
     7
100
AcDbCircle
 10
20.69999694824219
 20
4.001708984375
 30
0.0
 40
0.3000000119209289
100
AcDbArc
 50
280.0000023272566
 51
0.0
  0
ARC
  5
BA
330
1E
100
AcDbEntity
  8
0
  6
Continuous
 62
     7
100
AcDbCircle
 10
20.69999694824219
 20
9.001739501953125
 30
0.0
 40
0.3000000119209289
100
AcDbArc
 50
280.0000023272566
 51
0.0
  0
ARC
  5
BB
330
1E
100
AcDbEntity
  8
0
  6
Continuous
 62
     7
100
AcDbCircle
 10
20.69999694824219
 20
10.998291015625
 30
0.0
 40
0.3000000119209289
100
AcDbArc
 50
0.0
 51
79.99999767274336
  0
ARC
  5
BC
330
1E
100
AcDbEntity
  8
0
  6
Continuous
 62
     7
100
AcDbCircle
 10
20.69999694824219
 20
5.998291015625
 30
0.0
 40
0.3000000119209289
100
AcDbArc
 50
0.0
 51
79.99999767274336
  0
ARC
  5
BD
330
1E
100
AcDbEntity
  8
0
  6
Continuous
 62
     7
100
AcDbCircle
 10
20.69999694824219
 20
0.9982757568359376
 30
0.0
 40
0.3000000119209289
100
AcDbArc
 50
0.0
 51
79.99999767274336
  0
ARC
  5
BE
330
1E
100
AcDbEntity
  8
0
  6
Continuous
 62
     7
100
AcDbCircle
 10
20.69999694824219
 20
-0.9982757568359376
 30
0.0
 40
0.3000000119209289
100
AcDbArc
 50
280.0000023272566
 51
0.0
  0
ARC
  5
BF
330
1E
100
AcDbEntity
  8
0
  6
Continuous
 62
     7
100
AcDbCircle
 10
20.69999694824219
 20
-4.001724243164063
 30
0.0
 40
0.3000000119209289
100
AcDbArc
 50
0.0
 51
79.99999767274336
  0
ARC
  5
C0
330
1E
100
AcDbEntity
  8
0
  6
Continuous
 62
     7
100
AcDbCircle
 10
20.69999694824219
 20
-5.998275756835937
 30
0.0
 40
0.3000000119209289
100
AcDbArc
 50
280.0000023272566
 51
0.0
  0
ARC
  5
C1
330
1E
100
AcDbEntity
  8
0
  6
Continuous
 62
     7
100
AcDbCircle
 10
20.69999694824219
 20
-41.99827575683594
 30
0.0
 40
0.3000000119209289
100
AcDbArc
 50
280.0000023272566
 51
0.0
  0
ARC
  5
C2
330
1E
100
AcDbEntity
  8
0
  6
Continuous
 62
     7
100
AcDbCircle
 10
20.69999694824219
 20
-51.99827575683594
 30
0.0
 40
0.3000000119209289
100
AcDbArc
 50
280.0000023272566
 51
0.0
  0
ARC
  5
C3
330
1E
100
AcDbEntity
  8
0
  6
Continuous
 62
     7
100
AcDbCircle
 10
20.69999694824219
 20
-46.99827575683594
 30
0.0
 40
0.3000000119209289
100
AcDbArc
 50
280.0000023272566
 51
0.0
  0
ARC
  5
C4
330
1E
100
AcDbEntity
  8
0
  6
Continuous
 62
     7
100
AcDbCircle
 10
20.69999694824219
 20
-40.00173950195313
 30
0.0
 40
0.3000000119209289
100
AcDbArc
 50
0.0
 51
79.99999767274336
  0
CIRCLE
  5
C5
330
1E
100
AcDbEntity
  8
0
  6
Continuous
 62
     7
100
AcDbCircle
 10
213.0
 20
0.0
 30
0.0
 40
3.5
  0
CIRCLE
  5
C6
330
1E
100
AcDbEntity
  8
0
  6
Continuous
 62
     7
100
AcDbCircle
 10
213.0
 20
-46.0
 30
0.0
 40
3.5
  0
CIRCLE
  5
C7
330
1E
100
AcDbEntity
  8
0
  6
Continuous
 62
     7
100
AcDbCircle
 10
0.0
 20
0.0
 30
0.0
 40
3.5
  0
CIRCLE
  5
C8
330
1E
100
AcDbEntity
  8
0
  6
Continuous
 62
     7
100
AcDbCircle
 10
0.0
 20
-46.0
 30
0.0
 40
3.5
  0
LINE
  5
C9
330
1E
100
AcDbEntity
  8
0
  6
Continuous
 62
     2
100
AcDbLine
 10
56.5
 20
15.96063232421875
 30
0.0
 11
56.5
 21
-75.46867607148162
 31
0.0
  0
LINE
  5
CB
330
1E
100
AcDbEntity
  8
0
  6
PHANTOM
 62
     3
100
AcDbLine
 10
115.5
 20
47.0
 30
0.0
 11
115.5
 21
-89.97157868954174
 31
0.0
  0
ENDBLK
  5
CC
330
1E
100
AcDbEntity
  8
0
100
AcDbBlockEnd
  0
BLOCK
  5
CD
330
1F
100
AcDbEntity
  8
0
100
AcDbBlockBegin
  2
MRVS28-2
 70
     0
 10
0.0
 20
0.0
 30
0.0
  3
MRVS28-2
  1

  0
LINE
  5
CE
330
1F
100
AcDbEntity
  8
0
  6
Continuous
 62
     7
100
AcDbLine
 10
5.399993896484375
 20
-62.60000610351561
 30
0.0
 11
5.399993896484375
 21
-64.19995436812678
 31
0.0
  0
LINE
  5
CF
330
1F
100
AcDbEntity
  8
0
  6
Continuous
 62
     7
100
AcDbLine
 10
10.5
 20
-65.20001220703125
 30
0.0
 11
9.100006103515623
 21
-65.20001220703125
 31
0.0
  0
LINE
  5
D0
330
1F
100
AcDbEntity
  8
0
  6
Continuous
 62
     7
100
AcDbLine
 10
4.5
 20
-65.20001220703125
 30
0.0
 11
5.899993896484375
 21
-65.20001220703125
 31
0.0
  0
LINE
  5
D1
330
1F
100
AcDbEntity
  8
0
  6
Continuous
 62
     7
100
AcDbLine
 10
9.600006103515623
 20
-62.60000610351561
 30
0.0
 11
9.600006103515623
 21
-64.20001220703125
 31
0.0
  0
LINE
  5
D2
330
1F
100
AcDbEntity
  8
0
  6
Continuous
 62
     7
100
AcDbLine
 10
11.0
 20
-64.70001220703125
 30
0.0
 11
11.0
 21
-58.0
 31
0.0
  0
LINE
  5
D3
330
1F
100
AcDbEntity
  8
0
  6
Continuous
 62
     7
100
AcDbLine
 10
4.0
 20
-64.70001220703125
 30
0.0
 11
4.0
 21
-58.0
 31
0.0
  0
LINE
  5
D4
330
1F
100
AcDbEntity
  8
0
  6
Continuous
 62
     7
100
AcDbLine
 10
9.600021419160384
 20
-64.1999817479641
 30
0.0
 11
9.100006103515628
 21
-64.69999706360886
 31
0.0
  0
LINE
  5
D5
330
1F
100
AcDbEntity
  8
0
  6
Continuous
 62
     7
100
AcDbLine
 10
5.399993896484375
 20
-64.19995436812678
 30
0.0
 11
5.90003259670948
 21
-64.69999306835188
 31
0.0
  0
LINE
  5
D6
330
1F
100
AcDbEntity
  8
0
  6
Continuous
 62
     7
100
AcDbLine
 10
0.3000030517578125
 20
-37.69996858421837
 30
0.0
 11
0.3000030517578125
 21
-8.300013174746709
 31
0.0
  0
LINE
  5
D7
330
1F
100
AcDbEntity
  8
0
  6
Continuous
 62
     7
100
AcDbLine
 10
35.0
 20
-58.0
 30
0.0
 11
35.0
 21
-37.99998323585533
 31
0.0
  0
LINE
  5
D8
330
1F
100
AcDbEntity
  8
0
  6
Continuous
 62
     7
100
AcDbLine
 10
34.0
 20
13.0
 30
0.0
 11
11.0
 21
13.0
 31
0.0
  0
LINE
  5
D9
330
1F
100
AcDbEntity
  8
0
  6
Continuous
 62
     2
100
AcDbLine
 10
19.5
 20
16.0
 30
0.0
 11
19.5
 21
-62.0
 31
0.0
  0
LINE
  5
DA
330
1F
100
AcDbEntity
  8
0
  6
Continuous
 62
     2
100
AcDbLine
 10
7.5
 20
-57.12289428710938
 30
0.0
 11
7.5
 21
-67.32257080078125
 31
0.0
  0
LINE
  5
DB
330
1F
100
AcDbEntity
  8
0
  6
Continuous
 62
     7
100
AcDbLine
 10
36.0
 20
12.0
 30
0.0
 11
35.0
 21
12.0
 31
0.0
  0
LINE
  5
DC
330
1F
100
AcDbEntity
  8
0
  6
Continuous
 62
     7
100
AcDbLine
 10
0.0
 20
-59.0
 30
0.0
 11
4.0
 21
-59.0
 31
0.0
  0
LINE
  5
DD
330
1F
100
AcDbEntity
  8
0
  6
Continuous
 62
     7
100
AcDbLine
 10
37.00002569064873
 20
-42.9999905320865
 30
0.0
 11
36.50003594944701
 21
-42.50000079088477
 31
0.0
  0
LINE
  5
DE
330
1F
100
AcDbEntity
  8
0
  6
Continuous
 62
     7
100
AcDbLine
 10
37.00002569064873
 20
-2.999991226878591
 30
0.0
 11
36.50001437026094
 21
-3.500002547266376
 31
0.0
  0
LINE
  5
DF
330
1F
100
AcDbEntity
  8
0
  6
Continuous
 62
     7
100
AcDbLine
 10
37.0
 20
-42.99996948242188
 30
0.0
 11
37.0
 21
-57.0
 31
0.0
  0
LINE
  5
E0
330
1F
100
AcDbEntity
  8
0
  6
Continuous
 62
     7
100
AcDbLine
 10
36.5
 20
11.0
 30
0.0
 11
36.5
 21
-57.0
 31
0.0
  0
LINE
  5
E1
330
1F
100
AcDbEntity
  8
0
  6
Continuous
 62
     7
100
AcDbLine
 10
11.0
 20
12.0
 30
0.0
 11
4.0
 21
12.0
 31
0.0
  0
LINE
  5
E2
330
1F
100
AcDbEntity
  8
0
  6
Continuous
 62
     7
100
AcDbLine
 10
12.86602187438893
 20
-24.49997201086989
 30
0.0
 11
13.73204970642018
 21
-22.99996783194547
 31
0.0
  0
LINE
  5
E3
330
1F
100
AcDbEntity
  8
0
  6
Continuous
 62
     7
100
AcDbLine
 10
36.0
 20
-58.0
 30
0.0
 11
35.0
 21
-58.0
 31
0.0
  0
LINE
  5
E4
330
1F
100
AcDbEntity
  8
0
  6
Continuous
 62
     7
100
AcDbLine
 10
37.0
 20
11.0
 30
0.0
 11
37.0
 21
-3.0
 31
0.0
  0
LINE
  5
E5
330
1F
100
AcDbEntity
  8
0
  6
Continuous
 62
     7
100
AcDbLine
 10
0.0
 20
-37.99997163597617
 30
0.0
 11
0.0
 21
-59.0
 31
0.0
  0
LINE
  5
E6
330
1F
100
AcDbEntity
  8
0
  6
Continuous
 62
     7
100
AcDbLine
 10
0.0
 20
-8.000010122988896
 30
0.0
 11
0.3000030517578123
 21
-8.300013174746709
 31
0.0
  0
LINE
  5
E7
330
1F
100
AcDbEntity
  8
0
  6
Continuous
 62
     7
100
AcDbLine
 10
0.0
 20
-37.99997163597617
 30
0.0
 11
0.3000030517578141
 21
-37.69996858421837
 31
0.0
  0
LINE
  5
E8
330
1F
100
AcDbEntity
  8
0
  6
Continuous
 62
     7
100
AcDbLine
 10
26.13397322149467
 20
-24.50000639708741
 30
0.0
 11
25.26794538946342
 21
-23.00000221816299
 31
0.0
  0
LINE
  5
E9
330
1F
100
AcDbEntity
  8
0
  6
Continuous
 62
     7
100
AcDbLine
 10
12.86599731445312
 20
-21.5
 30
0.0
 11
11.13394165039062
 21
-21.5
 31
0.0
  0
LINE
  5
EA
330
1F
100
AcDbEntity
  8
0
  6
Continuous
 62
     7
100
AcDbLine
 10
27.86603135028372
 20
-24.50001295359835
 30
0.0
 11
28.73205918231497
 21
-23.00000877467391
 31
0.0
  0
LINE
  5
EB
330
1F
100
AcDbEntity
  8
0
  6
Continuous
 62
     7
100
AcDbLine
 10
26.13398301759253
 20
-21.50000877467391
 30
0.0
 11
25.26795518556128
 21
-23.00001295359834
 31
0.0
  0
LINE
  5
EC
330
1F
100
AcDbEntity
  8
0
  6
Continuous
 62
     2
100
AcDbLine
 10
26.83750915527344
 20
-34.70001220703125
 30
0.0
 11
11.77610778808594
 21
-34.70001220703125
 31
0.0
  0
LINE
  5
ED
330
1F
100
AcDbEntity
  8
0
  6
Continuous
 62
     7
100
AcDbLine
 10
11.1339683085589
 20
-24.50000946672663
 30
0.0
 11
10.26794047652765
 21
-23.0000052878022
 31
0.0
  0
LINE
  5
EE
330
1F
100
AcDbEntity
  8
0
  6
Continuous
 62
     7
100
AcDbLine
 10
0.0
 20
13.0
 30
0.0
 11
0.0
 21
-8.000010122988896
 31
0.0
  0
LINE
  5
EF
330
1F
100
AcDbEntity
  8
0
  6
Continuous
 62
     7
100
AcDbLine
 10
11.13397354169774
 20
-21.49996783194547
 30
0.0
 11
10.26794570966649
 21
-22.9999720108699
 31
0.0
  0
LINE
  5
F0
330
1F
100
AcDbEntity
  8
0
  6
Continuous
 62
     7
100
AcDbLine
 10
27.86602155418587
 20
-21.50000221816299
 30
0.0
 11
28.73204938621711
 21
-23.00000639708741
 31
0.0
  0
LINE
  5
F1
330
1F
100
AcDbEntity
  8
0
  6
Continuous
 62
     7
100
AcDbLine
 10
12.8660166412501
 20
-21.5000052878022
 30
0.0
 11
13.73204447328135
 21
-23.00000946672663
 31
0.0
  0
LINE
  5
F2
330
1F
100
AcDbEntity
  8
0
  6
Continuous
 62
     7
100
AcDbLine
 10
26.13400268554688
 20
-21.5
 30
0.0
 11
27.86605834960937
 21
-21.5
 31
0.0
  0
LINE
  5
F3
330
1F
100
AcDbEntity
  8
0
  6
Continuous
 62
     7
100
AcDbLine
 10
26.13400268554688
 20
-24.5
 30
0.0
 11
27.86605834960937
 21
-24.5
 31
0.0
  0
LINE
  5
F4
330
1F
100
AcDbEntity
  8
0
  6
Continuous
 62
     7
100
AcDbLine
 10
5.899993896484375
 20
-65.20001220703125
 30
0.0
 11
5.899993896484375
 21
-64.69998168945314
 31
0.0
  0
LINE
  5
F5
330
1F
100
AcDbEntity
  8
0
  6
Continuous
 62
     7
100
AcDbLine
 10
12.86599731445312
 20
-24.5
 30
0.0
 11
11.13394165039062
 21
-24.5
 31
0.0
  0
LINE
  5
F6
330
1F
100
AcDbEntity
  8
0
  6
Continuous
 62
     2
100
AcDbLine
 10
40.58856201171875
 20
-23.0
 30
0.0
 11
-4.741456774700395
 21
-23.0
 31
0.0
  0
LINE
  5
F7
330
1F
100
AcDbEntity
  8
0
  6
Continuous
 62
     7
100
AcDbLine
 10
9.100006103515623
 20
-65.20001220703125
 30
0.0
 11
9.100006103515623
 21
-64.69999706360886
 31
0.0
  0
LINE
  5
F8
330
1F
100
AcDbEntity
  8
0
  6
Continuous
 62
     7
100
AcDbLine
 10
4.0
 20
13.0
 30
0.0
 11
0.0
 21
13.0
 31
0.0
  0
LINE
  5
F9
330
1F
100
AcDbEntity
  8
0
  6
Continuous
 62
     7
100
AcDbLine
 10
20.94338865547116
 20
-37.20000683348917
 30
0.0
 11
22.38676328926022
 21
-34.70000867828094
 31
0.0
  0
LINE
  5
FA
330
1F
100
AcDbEntity
  8
0
  6
Continuous
 62
     7
100
AcDbLine
 10
18.05663634805614
 20
-32.20000867828094
 30
0.0
 11
16.61326171426708
 21
-34.70000683348917
 31
0.0
  0
LINE
  5
FB
330
1F
100
AcDbEntity
  8
0
  6
Continuous
 62
     7
100
AcDbLine
 10
11.0
 20
12.0
 30
0.0
 11
11.0
 21
13.0
 31
0.0
  0
LINE
  5
FC
330
1F
100
AcDbEntity
  8
0
  6
Continuous
 62
     7
100
AcDbLine
 10
18.05663947665926
 20
-37.20002214622037
 30
0.0
 11
16.61324958408113
 21
-34.69999756201469
 31
0.0
  0
LINE
  5
FD
330
1F
100
AcDbEntity
  8
0
  6
Continuous
 62
     7
100
AcDbLine
 10
20.94337463378907
 20
-32.20001220703125
 30
0.0
 11
18.05662536621093
 21
-32.20001220703125
 31
0.0
  0
LINE
  5
FE
330
1F
100
AcDbEntity
  8
0
  6
Continuous
 62
     7
100
AcDbLine
 10
4.0
 20
12.0
 30
0.0
 11
4.0
 21
13.0
 31
0.0
  0
LINE
  5
FF
330
1F
100
AcDbEntity
  8
0
  6
Continuous
 62
     7
100
AcDbLine
 10
20.9433765252852
 20
-32.19999756201469
 30
0.0
 11
22.38676641786333
 21
-34.70002214622037
 31
0.0
  0
LINE
  5
100
330
1F
100
AcDbEntity
  8
0
  6
Continuous
 62
     7
100
AcDbLine
 10
20.94337463378907
 20
-37.20001220703125
 30
0.0
 11
18.05662536621093
 21
-37.20001220703125
 31
0.0
  0
LINE
  5
101
330
1F
100
AcDbEntity
  8
0
  6
Continuous
 62
     7
100
AcDbLine
 10
34.5
 20
-37.49998323585533
 30
0.0
 11
34.5
 21
-8.50002010229582
 31
0.0
  0
LINE
  5
102
330
1F
100
AcDbEntity
  8
0
  6
Continuous
 62
     7
100
AcDbLine
 10
35.0
 20
-37.99998323585533
 30
0.0
 11
34.5
 21
-37.49998323585533
 31
0.0
  0
LINE
  5
103
330
1F
100
AcDbEntity
  8
0
  6
Continuous
 62
     7
100
AcDbLine
 10
35.0
 20
-8.00002010229582
 30
0.0
 11
34.5
 21
-8.50002010229582
 31
0.0
  0
LINE
  5
104
330
1F
100
AcDbEntity
  8
0
  6
Continuous
 62
     7
100
AcDbLine
 10
35.0
 20
-8.00002010229582
 30
0.0
 11
35.0
 21
12.0
 31
0.0
  0
ARC
  5
105
330
1F
100
AcDbEntity
  8
0
  6
Continuous
 62
     7
100
AcDbCircle
 10
10.5
 20
-64.70001220703125
 30
0.0
 40
0.5
100
AcDbArc
 50
269.9999949910439
 51
0.0000025044781673
  0
ARC
  5
106
330
1F
100
AcDbEntity
  8
0
  6
Continuous
 62
     7
100
AcDbCircle
 10
7.5
 20
-62.60000610351561
 30
0.0
 40
2.099999904632568
100
AcDbArc
 50
359.9999956742889
 51
180.0000006832453
  0
ARC
  5
107
330
1F
100
AcDbEntity
  8
0
  6
Continuous
 62
     7
100
AcDbCircle
 10
4.5
 20
-64.70001220703125
 30
0.0
 40
0.5
100
AcDbArc
 50
179.9999974955218
 51
270.0000086514222
  0
CIRCLE
  5
108
330
1F
100
AcDbEntity
  8
0
  6
Continuous
 62
     7
100
AcDbCircle
 10
31.5
 20
-55.0
 30
0.0
 40
2.25
  0
CIRCLE
  5
109
330
1F
100
AcDbEntity
  8
0
  6
Continuous
 62
     2
100
AcDbCircle
 10
19.5
 20
-34.70001220703125
 30
0.0
 40
4.849999904632568
  0
CIRCLE
  5
10A
330
1F
100
AcDbEntity
  8
0
  6
Continuous
 62
     7
100
AcDbCircle
 10
19.5
 20
-34.70001220703125
 30
0.0
 40
4.150000095367431
  0
CIRCLE
  5
10B
330
1F
100
AcDbEntity
  8
0
  6
Continuous
 62
     7
100
AcDbCircle
 10
27.00003051757813
 20
-23.0
 30
0.0
 40
4.0
  0
CIRCLE
  5
10C
330
1F
100
AcDbEntity
  8
0
  6
Continuous
 62
     7
100
AcDbCircle
 10
11.99996948242187
 20
-23.0
 30
0.0
 40
4.0
  0
ARC
  5
10D
330
1F
100
AcDbEntity
  8
0
  6
Continuous
 62
     7
100
AcDbCircle
 10
36.0
 20
11.0
 30
0.0
 40
1.0
100
AcDbArc
 50
0.0000025044781673
 51
90.00000500895634
  0
ARC
  5
10E
330
1F
100
AcDbEntity
  8
0
  6
Continuous
 62
     7
100
AcDbCircle
 10
34.0
 20
-58.0
 30
0.0
 40
1.0
100
AcDbArc
 50
270.0
 51
0.0000025044781673
  0
ARC
  5
10F
330
1F
100
AcDbEntity
  8
0
  6
Continuous
 62
     7
100
AcDbCircle
 10
34.0
 20
12.0
 30
0.0
 40
1.0
100
AcDbArc
 50
0.0000025044781673
 51
90.00000500895634
  0
ARC
  5
110
330
1F
100
AcDbEntity
  8
0
  6
Continuous
 62
     7
100
AcDbCircle
 10
36.0
 20
-57.0
 30
0.0
 40
1.0
100
AcDbArc
 50
270.0
 51
0.0000025044781673
  0
ARC
  5
111
330
1F
100
AcDbEntity
  8
0
  6
Continuous
 62
     7
100
AcDbCircle
 10
35.5
 20
-57.0
 30
0.0
 40
1.0
100
AcDbArc
 50
270.0
 51
0.0000025044781673
  0
ARC
  5
112
330
1F
100
AcDbEntity
  8
0
  6
Continuous
 62
     7
100
AcDbCircle
 10
35.5
 20
11.0
 30
0.0
 40
1.0
100
AcDbArc
 50
0.0000025044781673
 51
90.00000500895634
  0
CIRCLE
  5
113
330
1F
100
AcDbEntity
  8
0
  6
Continuous
 62
     7
100
AcDbCircle
 10
31.5
 20
9.0
 30
0.0
 40
2.25
  0
LINE
  5
114
330
1F
100
AcDbEntity
  8
0
  6
Continuous
 62
     7
100
AcDbLine
 10
11.0
 20
-58.0
 30
0.0
 11
4.0
 21
-58.0
 31
0.0
  0
LINE
  5
115
330
1F
100
AcDbEntity
  8
0
  6
Continuous
 62
     7
100
AcDbLine
 10
11.0
 20
-59.0
 30
0.0
 11
34.0
 21
-59.0
 31
0.0
  0
CIRCLE
  5
116
330
1F
100
AcDbEntity
  8
0
  6
Continuous
 62
     7
100
AcDbCircle
 10
6.849999997275176
 20
-62.7000126846848
 30
0.0
 40
0.5
  0
CIRCLE
  5
117
330
1F
100
AcDbEntity
  8
0
  6
Continuous
 62
     7
100
AcDbCircle
 10
6.849999997275176
 20
-62.7000126846848
 30
0.0
 40
0.29
  0
CIRCLE
  5
118
330
1F
100
AcDbEntity
  8
0
  6
Continuous
 62
     7
100
AcDbCircle
 10
8.150000002724766
 20
-62.7000126846848
 30
0.0
 40
0.5
  0
CIRCLE
  5
119
330
1F
100
AcDbEntity
  8
0
  6
Continuous
 62
     7
100
AcDbCircle
 10
8.150000002724766
 20
-62.7000126846848
 30
0.0
 40
0.29
  0
CIRCLE
  5
11A
330
1F
100
AcDbEntity
  8
0
  6
Continuous
 62
     7
100
AcDbCircle
 10
7.5
 20
-62.7000126846848
 30
0.0
 40
1.300000000000011
  0
LINE
  5
11B
330
1F
100
AcDbEntity
  8
0
  6
Continuous
 62
     2
100
AcDbLine
 10
6.449999999999988
 20
-65.20001220703125
 30
0.0
 11
6.449999999999988
 21
-65.63741160885374
 31
0.0
  0
LINE
  5
11C
330
1F
100
AcDbEntity
  8
0
  6
Continuous
 62
     2
100
AcDbLine
 10
8.550000000000011
 20
-65.20001220703125
 30
0.0
 11
8.550000000000011
 21
-65.63741160885374
 31
0.0
  0
LINE
  5
11D
330
1F
100
AcDbEntity
  8
0
  6
Continuous
 62
     7
100
AcDbLine
 10
8.75
 20
-65.43741160885372
 30
0.0
 11
8.550000000000011
 21
-65.63741160885374
 31
0.0
  0
LINE
  5
11E
330
1F
100
AcDbEntity
  8
0
  6
Continuous
 62
     7
100
AcDbLine
 10
8.75
 20
-65.20001220703125
 30
0.0
 11
8.75
 21
-65.43741160885372
 31
0.0
  0
LINE
  5
11F
330
1F
100
AcDbEntity
  8
0
  6
Continuous
 62
     7
100
AcDbLine
 10
9.5
 20
-64.15027262369791
 30
0.0
 11
9.0
 21
-64.65287679036457
 31
0.0
  0
LINE
  5
120
330
1F
100
AcDbEntity
  8
0
  6
Continuous
 62
     7
100
AcDbLine
 10
9.0
 20
-64.65287679036457
 30
0.0
 11
9.0
 21
-65.20001220975602
 31
0.0
  0
LINE
  5
121
330
1F
100
AcDbEntity
  8
0
  6
Continuous
 62
     7
100
AcDbLine
 10
6.449999999999988
 20
-65.63741160885374
 30
0.0
 11
6.25
 21
-65.43741160885372
 31
0.0
  0
LINE
  5
122
330
1F
100
AcDbEntity
  8
0
  6
Continuous
 62
     7
100
AcDbLine
 10
6.25
 20
-65.43741160885372
 30
0.0
 11
6.25
 21
-65.20001220703125
 31
0.0
  0
LINE
  5
123
330
1F
100
AcDbEntity
  8
0
  6
Continuous
 62
     7
100
AcDbLine
 10
6.0
 20
-64.65001220703125
 30
0.0
 11
6.0
 21
-65.20001220975602
 31
0.0
  0
LINE
  5
124
330
1F
100
AcDbEntity
  8
0
  6
Continuous
 62
     7
100
AcDbLine
 10
6.000000006130732
 20
-64.65001221316203
 30
0.0
 11
5.5
 21
-64.15001220703125
 31
0.0
  0
LINE
  5
125
330
1F
100
AcDbEntity
  8
0
  6
Continuous
 62
     7
100
AcDbLine
 10
9.0
 20
-65.20001220703125
 30
0.0
 11
6.0
 21
-65.20001220703125
 31
0.0
  0
LINE
  5
126
330
1F
100
AcDbEntity
  8
0
  6
Continuous
 62
     7
100
AcDbLine
 10
8.75
 20
-65.43741160885372
 30
0.0
 11
6.25
 21
-65.43741160885372
 31
0.0
  0
LINE
  5
127
330
1F
100
AcDbEntity
  8
0
  6
Continuous
 62
     7
100
AcDbLine
 10
8.550000000000011
 20
-65.63741160885374
 30
0.0
 11
6.449999999999988
 21
-65.63741160885374
 31
0.0
  0
LINE
  5
128
330
1F
100
AcDbEntity
  8
0
  6
Continuous
 62
     7
100
AcDbLine
 10
9.5
 20
-62.20001220703125
 30
0.0
 11
9.5
 21
-64.15027262369791
 31
0.0
  0
LINE
  5
129
330
1F
100
AcDbEntity
  8
0
  6
Continuous
 62
     7
100
AcDbLine
 10
5.5
 20
-62.20001220703125
 30
0.0
 11
5.5
 21
-64.15001220703125
 31
0.0
  0
ARC
  5
12A
330
1F
100
AcDbEntity
  8
0
  6
Continuous
 62
     7
100
AcDbCircle
 10
7.5
 20
-62.65001220703125
 30
0.0
 40
2.049999999999996
100
AcDbArc
 50
12.68038349181954
 51
167.3196165081805
  0
LINE
  5
12B
330
1F
100
AcDbEntity
  8
0
  6
Continuous
 62
     2
100
AcDbLine
 10
-3.0
 20
0.0
 30
0.0
 11
3.0
 21
0.0
 31
0.0
  0
LINE
  5
12C
330
1F
100
AcDbEntity
  8
0
  6
Continuous
 62
     2
100
AcDbLine
 10
-3.0
 20
-46.0
 30
0.0
 11
3.0
 21
-46.0
 31
0.0
  0
LINE
  5
12D
330
1F
100
AcDbEntity
  8
0
  6
Continuous
 62
     2
100
AcDbLine
 10
34.0
 20
5.0
 30
0.0
 11
40.0
 21
5.0
 31
0.0
  0
LINE
  5
12E
330
1F
100
AcDbEntity
  8
0
  6
Continuous
 62
     2
100
AcDbLine
 10
34.0
 20
-51.0
 30
0.0
 11
40.0
 21
-51.0
 31
0.0
  0
ENDBLK
  5
12F
330
1F
100
AcDbEntity
  8
0
100
AcDbBlockEnd
  0
BLOCK
  5
130
330
20
100
AcDbEntity
  8
0
100
AcDbBlockBegin
  2
MRVS28-3
 70
     0
 10
0.0
 20
0.0
 30
0.0
  3
MRVS28-3
  1

  0
ARC
  5
131
330
20
100
AcDbEntity
  8
0
  6
Continuous
 62
     7
100
AcDbCircle
 10
192.3
 20
34.2192891545002
 30
0.0
 40
0.3
100
AcDbArc
 50
100.0000002831055
 51
180.0
  0
ARC
  5
132
330
20
100
AcDbEntity
  8
0
  6
Continuous
 62
     7
100
AcDbCircle
 10
192.3
 20
28.78071084549981
 30
0.0
 40
0.3
100
AcDbArc
 50
180.0
 51
259.9999997168946
  0
LINE
  5
133
330
20
100
AcDbEntity
  8
0
  6
Continuous
 62
     7
100
AcDbLine
 10
192.2479025377328
 20
28.48526905015825
 30
0.0
 11
195.0
 21
28.0
 31
0.0
  0
LINE
  5
134
330
20
100
AcDbEntity
  8
0
  6
Continuous
 62
     7
100
AcDbLine
 10
192.2479150029785
 20
34.51473314780095
 30
0.0
 11
194.9999999951096
 21
34.99999999913769
 31
0.0
  0
ARC
  5
135
330
20
100
AcDbEntity
  8
0
  6
Continuous
 62
     7
100
AcDbCircle
 10
20.70000000000001
 20
34.2192891545002
 30
0.0
 40
0.3
100
AcDbArc
 50
0.0
 51
79.99999971689451
  0
ARC
  5
136
330
20
100
AcDbEntity
  8
0
  6
Continuous
 62
     7
100
AcDbCircle
 10
20.70000000000001
 20
28.78071084549981
 30
0.0
 40
0.3
100
AcDbArc
 50
280.0000002831053
 51
0.0
  0
LINE
  5
137
330
20
100
AcDbEntity
  8
0
  6
Continuous
 62
     7
100
AcDbLine
 10
20.75209445475989
 20
28.48526851985356
 30
0.0
 11
18.0
 21
28.0
 31
0.0
  0
LINE
  5
138
330
20
100
AcDbEntity
  8
0
  6
Continuous
 62
     7
100
AcDbLine
 10
20.75209456503189
 20
34.51473146070251
 30
0.0
 11
18.0
 21
35.0
 31
0.0
  0
LINE
  5
139
330
20
100
AcDbEntity
  8
0
  6
Continuous
 62
     7
100
AcDbLine
 10
-6.5
 20
4.0
 30
0.0
 11
219.5
 21
4.0
 31
0.0
  0
LINE
  5
13A
330
20
100
AcDbEntity
  8
0
  6
Continuous
 62
     7
100
AcDbLine
 10
24.5
 20
15.38674926757812
 30
0.0
 11
88.49999999999999
 21
15.38674926757812
 31
0.0
  0
LINE
  5
13B
330
20
100
AcDbEntity
  8
0
  6
Continuous
 62
     7
100
AcDbLine
 10
219.5
 20
35.0
 30
0.0
 11
219.5
 21
0.0
 31
0.0
  0
LINE
  5
13C
330
20
100
AcDbEntity
  8
0
  6
Continuous
 62
     7
100
AcDbLine
 10
86.89999389648438
 20
36.5
 30
0.0
 11
88.49999999999999
 21
36.5
 31
0.0
  0
LINE
  5
13D
330
20
100
AcDbEntity
  8
0
  6
Continuous
 62
     7
100
AcDbLine
 10
26.10000610351562
 20
36.5
 30
0.0
 11
24.5
 21
36.5
 31
0.0
  0
LINE
  5
13E
330
20
100
AcDbEntity
  8
0
  6
Continuous
 62
     7
100
AcDbLine
 10
88.49999999999999
 20
36.5
 30
0.0
 11
88.49999999999999
 21
11.0
 31
0.0
  0
LINE
  5
13F
330
20
100
AcDbEntity
  8
0
  6
Continuous
 62
     7
100
AcDbLine
 10
24.5
 20
36.5
 30
0.0
 11
24.5
 21
11.0
 31
0.0
  0
LINE
  5
140
330
20
100
AcDbEntity
  8
0
  6
Continuous
 62
     2
100
AcDbLine
 10
205.5
 20
26.0
 30
0.0
 11
205.5
 21
13.0
 31
0.0
  0
LINE
  5
141
330
20
100
AcDbEntity
  8
0
  6
Continuous
 62
     7
100
AcDbLine
 10
196.5
 20
28.0
 30
0.0
 11
196.5
 21
11.0
 31
0.0
  0
LINE
  5
142
330
20
100
AcDbEntity
  8
0
  6
Continuous
 62
     7
100
AcDbLine
 10
219.5
 20
0.0
 30
0.0
 11
196.5
 21
0.0
 31
0.0
  0
LINE
  5
143
330
20
100
AcDbEntity
  8
0
  6
Continuous
 62
     2
100
AcDbLine
 10
56.5
 20
42.56048583984375
 30
0.0
 11
56.5
 21
-2.60638427734375
 31
0.0
  0
LINE
  5
144
330
20
100
AcDbEntity
  8
0
  6
Continuous
 62
     2
100
AcDbLine
 10
7.5
 20
26.0
 30
0.0
 11
7.5
 21
13.0
 31
0.0
  0
LINE
  5
145
330
20
100
AcDbEntity
  8
0
  6
Continuous
 62
     7
100
AcDbLine
 10
16.5
 20
28.0
 30
0.0
 11
16.5
 21
11.0
 31
0.0
  0
LINE
  5
146
330
20
100
AcDbEntity
  8
0
  6
Continuous
 62
     7
100
AcDbLine
 10
24.5
 20
2.0
 30
0.0
 11
88.49999999999999
 21
2.0
 31
0.0
  0
LINE
  5
147
330
20
100
AcDbEntity
  8
0
  6
Continuous
 62
     7
100
AcDbLine
 10
-6.5
 20
0.0
 30
0.0
 11
16.5
 21
0.0
 31
0.0
  0
LINE
  5
148
330
20
100
AcDbEntity
  8
0
  6
Continuous
 62
     7
100
AcDbLine
 10
21.0
 20
30.29998779296875
 30
0.0
 11
24.5
 21
30.29998779296875
 31
0.0
  0
LINE
  5
149
330
20
100
AcDbEntity
  8
0
  6
Continuous
 62
     7
100
AcDbLine
 10
26.10000610351562
 20
37.0
 30
0.0
 11
86.89999389648438
 21
37.0
 31
0.0
  0
LINE
  5
14A
330
20
100
AcDbEntity
  8
0
  6
Continuous
 62
     7
100
AcDbLine
 10
86.89999389648438
 20
37.0
 30
0.0
 11
86.89999389648438
 21
11.0
 31
0.0
  0
LINE
  5
14B
330
20
100
AcDbEntity
  8
0
  6
Continuous
 62
     7
100
AcDbLine
 10
26.10000610351562
 20
37.0
 30
0.0
 11
26.10000610351562
 21
11.0
 31
0.0
  0
LINE
  5
14C
330
20
100
AcDbEntity
  8
0
  6
Continuous
 62
     2
100
AcDbLine
 10
-9.5
 20
19.5
 30
0.0
 11
222.5
 21
19.5
 31
0.0
  0
LINE
  5
14D
330
20
100
AcDbEntity
  8
0
  6
Continuous
 62
     7
100
AcDbLine
 10
88.49999999999999
 20
30.29998779296875
 30
0.0
 11
192.0
 21
30.29998779296875
 31
0.0
  0
LINE
  5
14E
330
20
100
AcDbEntity
  8
0
  6
Continuous
 62
     7
100
AcDbLine
 10
-6.5
 20
11.0
 30
0.0
 11
219.5
 21
11.0
 31
0.0
  0
LINE
  5
14F
330
20
100
AcDbEntity
  8
0
  6
Continuous
 62
     7
100
AcDbLine
 10
24.14999389648437
 20
23.05000305175781
 30
0.0
 11
24.5
 21
23.05000305175781
 31
0.0
  0
LINE
  5
150
330
20
100
AcDbEntity
  8
0
  6
Continuous
 62
     7
100
AcDbLine
 10
24.14999389648437
 20
15.44999694824219
 30
0.0
 11
24.5
 21
15.44999694824219
 31
0.0
  0
LINE
  5
151
330
20
100
AcDbEntity
  8
0
  6
Continuous
 62
     7
100
AcDbLine
 10
22.29998779296875
 20
16.26847839355469
 30
0.0
 11
22.29998779296875
 21
22.23152160644532
 31
0.0
  0
LINE
  5
152
330
20
100
AcDbEntity
  8
0
  6
Continuous
 62
     7
100
AcDbLine
 10
88.85000610351562
 20
23.05000305175781
 30
0.0
 11
88.49999999999999
 21
23.05000305175781
 31
0.0
  0
LINE
  5
153
330
20
100
AcDbEntity
  8
0
  6
Continuous
 62
     7
100
AcDbLine
 10
88.85000610351562
 20
15.44999694824219
 30
0.0
 11
88.49999999999999
 21
15.44999694824219
 31
0.0
  0
LINE
  5
154
330
20
100
AcDbEntity
  8
0
  6
Continuous
 62
     7
100
AcDbLine
 10
90.70001220703124
 20
16.26847839355469
 30
0.0
 11
90.70001220703124
 21
22.23152160644532
 31
0.0
  0
LINE
  5
155
330
20
100
AcDbEntity
  8
0
  6
Continuous
 62
     7
100
AcDbLine
 10
24.5
 20
12.45710754394531
 30
0.0
 11
27.0
 21
12.45710754394531
 31
0.0
  0
LINE
  5
156
330
20
100
AcDbEntity
  8
0
  6
Continuous
 62
     7
100
AcDbLine
 10
203.5
 20
35.0
 30
0.0
 11
203.5
 21
28.0
 31
0.0
  0
LINE
  5
157
330
20
100
AcDbEntity
  8
0
  6
Continuous
 62
     7
100
AcDbLine
 10
195.0
 20
35.0
 30
0.0
 11
195.0
 21
28.0
 31
0.0
  0
LINE
  5
158
330
20
100
AcDbEntity
  8
0
  6
Continuous
 62
     7
100
AcDbLine
 10
195.0
 20
35.0
 30
0.0
 11
219.5
 21
35.0
 31
0.0
  0
LINE
  5
159
330
20
100
AcDbEntity
  8
0
  6
Continuous
 62
     7
100
AcDbLine
 10
192.0
 20
28.78071084549981
 30
0.0
 11
192.0
 21
34.2192891545002
 31
0.0
  0
LINE
  5
15A
330
20
100
AcDbEntity
  8
0
  6
Continuous
 62
     7
100
AcDbLine
 10
195.0
 20
28.0
 30
0.0
 11
203.5
 21
28.0
 31
0.0
  0
LINE
  5
15B
330
20
100
AcDbEntity
  8
0
  6
Continuous
 62
     7
100
AcDbLine
 10
9.5
 20
35.0
 30
0.0
 11
9.5
 21
28.0
 31
0.0
  0
LINE
  5
15C
330
20
100
AcDbEntity
  8
0
  6
Continuous
 62
     7
100
AcDbLine
 10
18.0
 20
35.0
 30
0.0
 11
18.0
 21
28.0
 31
0.0
  0
LINE
  5
15D
330
20
100
AcDbEntity
  8
0
  6
Continuous
 62
     7
100
AcDbLine
 10
18.0
 20
35.0
 30
0.0
 11
-6.5
 21
35.0
 31
0.0
  0
LINE
  5
15E
330
20
100
AcDbEntity
  8
0
  6
Continuous
 62
     7
100
AcDbLine
 10
21.0
 20
28.78071084549981
 30
0.0
 11
21.0
 21
34.2192891545002
 31
0.0
  0
LINE
  5
15F
330
20
100
AcDbEntity
  8
0
  6
Continuous
 62
     7
100
AcDbLine
 10
18.0
 20
28.0
 30
0.0
 11
9.5
 21
28.0
 31
0.0
  0
LINE
  5
160
330
20
100
AcDbEntity
  8
0
  6
Continuous
 62
     7
100
AcDbLine
 10
27.0
 20
14.56698608398437
 30
0.0
 11
86.0
 21
14.56698608398437
 31
0.0
  0
LINE
  5
161
330
20
100
AcDbEntity
  8
0
  6
Continuous
 62
     7
100
AcDbLine
 10
27.0
 20
15.0
 30
0.0
 11
27.0
 21
11.0
 31
0.0
  0
LINE
  5
162
330
20
100
AcDbEntity
  8
0
  6
Continuous
 62
     7
100
AcDbLine
 10
27.0
 20
15.0
 30
0.0
 11
86.0
 21
15.0
 31
0.0
  0
LINE
  5
163
330
20
100
AcDbEntity
  8
0
  6
Continuous
 62
     7
100
AcDbLine
 10
27.35078430175781
 20
12.21132659912109
 30
0.0
 11
85.50495910644531
 21
12.21132659912109
 31
0.0
  0
LINE
  5
164
330
20
100
AcDbEntity
  8
0
  6
Continuous
 62
     7
100
AcDbLine
 10
86.0
 20
15.0
 30
0.0
 11
86.0
 21
11.0
 31
0.0
  0
LINE
  5
165
330
20
100
AcDbEntity
  8
0
  6
Continuous
 62
     7
100
AcDbLine
 10
86.0
 20
12.45710754394531
 30
0.0
 11
88.49999999999999
 21
12.45710754394531
 31
0.0
  0
LINE
  5
166
330
20
100
AcDbEntity
  8
0
  6
Continuous
 62
     7
100
AcDbLine
 10
42.0
 20
11.24999237060547
 30
0.0
 11
71.0
 21
11.24999237060547
 31
0.0
  0
LINE
  5
167
330
20
100
AcDbEntity
  8
0
  6
Continuous
 62
     7
100
AcDbLine
 10
71.0
 20
11.24999237060547
 30
0.0
 11
71.0
 21
11.0
 31
0.0
  0
LINE
  5
168
330
20
100
AcDbEntity
  8
0
  6
Continuous
 62
     7
100
AcDbLine
 10
42.0
 20
11.24999237060547
 30
0.0
 11
42.0
 21
11.0
 31
0.0
  0
LINE
  5
169
330
20
100
AcDbEntity
  8
0
  6
Continuous
 62
     7
100
AcDbLine
 10
1.5
 20
5.899993896484375
 30
0.0
 11
8.918075561523437
 21
5.899993896484375
 31
0.0
  0
LINE
  5
16A
330
20
100
AcDbEntity
  8
0
  6
Continuous
 62
     7
100
AcDbLine
 10
11.38391028058504
 20
6.616110912402291
 30
0.0
 11
9.616143357872717
 21
8.383877835114617
 31
0.0
  0
LINE
  5
16B
330
20
100
AcDbEntity
  8
0
  6
Continuous
 62
     7
100
AcDbLine
 10
1.5
 20
9.100006103515623
 30
0.0
 11
8.918075561523437
 21
9.100006103515623
 31
0.0
  0
LINE
  5
16C
330
20
100
AcDbEntity
  8
0
  6
Continuous
 62
     7
100
AcDbLine
 10
1.5
 20
11.0
 30
0.0
 11
1.5
 21
4.0
 31
0.0
  0
LINE
  5
16D
330
20
100
AcDbEntity
  8
0
  6
Continuous
 62
     7
100
AcDbLine
 10
9.616137963076198
 20
6.616105517605774
 30
0.0
 11
11.38391028058504
 21
8.383877835114617
 31
0.0
  0
LINE
  5
16E
330
20
100
AcDbEntity
  8
0
  6
Continuous
 62
     7
100
AcDbLine
 10
12.08192443847656
 20
5.899993896484375
 30
0.0
 11
200.4180755615234
 21
5.899993896484375
 31
0.0
  0
LINE
  5
16F
330
20
100
AcDbEntity
  8
0
  6
Continuous
 62
     7
100
AcDbLine
 10
24.5
 20
4.0
 30
0.0
 11
24.5
 21
2.0
 31
0.0
  0
LINE
  5
170
330
20
100
AcDbEntity
  8
0
  6
Continuous
 62
     7
100
AcDbLine
 10
26.10000610351562
 20
4.0
 30
0.0
 11
26.10000610351562
 21
2.0
 31
0.0
  0
LINE
  5
171
330
20
100
AcDbEntity
  8
0
  6
Continuous
 62
     7
100
AcDbLine
 10
16.5
 20
4.0
 30
0.0
 11
16.5
 21
0.0
 31
0.0
  0
LINE
  5
172
330
20
100
AcDbEntity
  8
0
  6
Continuous
 62
     7
100
AcDbLine
 10
203.3838735571152
 20
6.616128445490971
 30
0.0
 11
201.6161174239959
 21
8.383884578610262
 31
0.0
  0
LINE
  5
173
330
20
100
AcDbEntity
  8
0
  6
Continuous
 62
     7
100
AcDbLine
 10
211.5
 20
11.0
 30
0.0
 11
211.5
 21
4.0
 31
0.0
  0
LINE
  5
174
330
20
100
AcDbEntity
  8
0
  6
Continuous
 62
     7
100
AcDbLine
 10
203.0
 20
5.25
 30
0.0
 11
202.0
 21
5.25
 31
0.0
  0
LINE
  5
175
330
20
100
AcDbEntity
  8
0
  6
Continuous
 62
     7
100
AcDbLine
 10
211.5
 20
9.100006103515623
 30
0.0
 11
204.5819244384766
 21
9.100006103515623
 31
0.0
  0
LINE
  5
176
330
20
100
AcDbEntity
  8
0
  6
Continuous
 62
     7
100
AcDbLine
 10
203.0
 20
9.75
 30
0.0
 11
202.0
 21
9.75
 31
0.0
  0
LINE
  5
177
330
20
100
AcDbEntity
  8
0
  6
Continuous
 62
     7
100
AcDbLine
 10
211.5
 20
5.899993896484375
 30
0.0
 11
204.5819244384766
 21
5.899993896484375
 31
0.0
  0
LINE
  5
178
330
20
100
AcDbEntity
  8
0
  6
Continuous
 62
     7
100
AcDbLine
 10
201.6161174239959
 20
6.616117655897937
 30
0.0
 11
203.3838843467082
 21
8.383884578610262
 31
0.0
  0
LINE
  5
179
330
20
100
AcDbEntity
  8
0
  6
Continuous
 62
     7
100
AcDbLine
 10
12.08192443847656
 20
9.100006103515623
 30
0.0
 11
200.4180755615234
 21
9.100006103515623
 31
0.0
  0
LINE
  5
17A
330
20
100
AcDbEntity
  8
0
  6
Continuous
 62
     7
100
AcDbLine
 10
196.5
 20
4.0
 30
0.0
 11
196.5
 21
0.0
 31
0.0
  0
LINE
  5
17B
330
20
100
AcDbEntity
  8
0
  6
Continuous
 62
     7
100
AcDbLine
 10
86.89999389648438
 20
4.0
 30
0.0
 11
86.89999389648438
 21
2.0
 31
0.0
  0
LINE
  5
17C
330
20
100
AcDbEntity
  8
0
  6
Continuous
 62
     7
100
AcDbLine
 10
88.49999999999999
 20
4.0
 30
0.0
 11
88.49999999999999
 21
2.0
 31
0.0
  0
LINE
  5
17D
330
20
100
AcDbEntity
  8
0
  6
Continuous
 62
     7
100
AcDbLine
 10
18.0
 20
34.0
 30
0.0
 11
9.5
 21
34.0
 31
0.0
  0
LINE
  5
17E
330
20
100
AcDbEntity
  8
0
  6
Continuous
 62
     7
100
AcDbLine
 10
195.0
 20
34.0
 30
0.0
 11
203.5
 21
34.0
 31
0.0
  0
CIRCLE
  5
17F
330
20
100
AcDbEntity
  8
0
  6
Continuous
 62
     7
100
AcDbCircle
 10
205.5
 20
19.5
 30
0.0
 40
1.700000047683715
  0
CIRCLE
  5
180
330
20
100
AcDbEntity
  8
0
  6
Continuous
 62
     7
100
AcDbCircle
 10
7.5
 20
19.5
 30
0.0
 40
1.700000047683715
  0
CIRCLE
  5
181
330
20
100
AcDbEntity
  8
0
  6
Continuous
 62
     2
100
AcDbCircle
 10
205.5
 20
19.5
 30
0.0
 40
4.849999904632568
  0
CIRCLE
  5
182
330
20
100
AcDbEntity
  8
0
  6
Continuous
 62
     7
100
AcDbCircle
 10
205.5
 20
19.5
 30
0.0
 40
4.150000095367431
  0
CIRCLE
  5
183
330
20
100
AcDbEntity
  8
0
  6
Continuous
 62
     2
100
AcDbCircle
 10
7.5
 20
19.5
 30
0.0
 40
4.849999904632568
  0
CIRCLE
  5
184
330
20
100
AcDbEntity
  8
0
  6
Continuous
 62
     7
100
AcDbCircle
 10
7.5
 20
19.5
 30
0.0
 40
4.150000095367431
  0
ARC
  5
185
330
20
100
AcDbEntity
  8
0
  6
Continuous
 62
     7
100
AcDbCircle
 10
24.14999389648437
 20
20.55000305175781
 30
0.0
 40
2.5
100
AcDbArc
 50
90.00000250447817
 51
137.7314203114674
  0
ARC
  5
186
330
20
100
AcDbEntity
  8
0
  6
Continuous
 62
     7
100
AcDbCircle
 10
24.14999389648437
 20
17.94999694824219
 30
0.0
 40
2.5
100
AcDbArc
 50
222.2685796885325
 51
269.9999974955218
  0
ARC
  5
187
330
20
100
AcDbEntity
  8
0
  6
Continuous
 62
     7
100
AcDbCircle
 10
88.85000610351562
 20
20.55000305175781
 30
0.0
 40
2.5
100
AcDbArc
 50
42.26858469748889
 51
90.00000250447817
  0
ARC
  5
188
330
20
100
AcDbEntity
  8
0
  6
Continuous
 62
     7
100
AcDbCircle
 10
88.85000610351562
 20
17.94999694824219
 30
0.0
 40
2.5
100
AcDbArc
 50
269.9999974955218
 51
317.7314153025112
  0
CIRCLE
  5
189
330
20
100
AcDbEntity
  8
0
  6
Continuous
 62
     7
100
AcDbCircle
 10
10.5
 20
7.5
 30
0.0
 40
1.75
  0
CIRCLE
  5
18A
330
20
100
AcDbEntity
  8
0
  6
Continuous
 62
     7
100
AcDbCircle
 10
10.5
 20
7.5
 30
0.0
 40
2.25
  0
CIRCLE
  5
18B
330
20
100
AcDbEntity
  8
0
  6
Continuous
 62
     7
100
AcDbCircle
 10
202.5
 20
7.5
 30
0.0
 40
1.75
  0
ARC
  5
18C
330
20
100
AcDbEntity
  8
0
  6
Continuous
 62
     7
100
AcDbCircle
 10
203.0
 20
7.5
 30
0.0
 40
2.25
100
AcDbArc
 50
269.9999974955218
 51
90.00000250447817
  0
ARC
  5
18D
330
20
100
AcDbEntity
  8
0
  6
Continuous
 62
     7
100
AcDbCircle
 10
202.0
 20
7.5
 30
0.0
 40
2.25
100
AcDbArc
 50
90.00000250447817
 51
270.0000006832453
  0
LINE
  5
18F
330
20
100
AcDbEntity
  8
0
  6
CENTER
 62
     2
100
AcDbLine
 10
63.91040175778528
 20
7.5
 30
0.0
 11
40.99711316397231
 21
7.5
 31
0.0
  0
LINE
  5
190
330
20
100
AcDbEntity
  8
0
  6
Continuous
 62
     7
100
AcDbLine
 10
61.18924868583679
 20
6.457197927747444
 30
0.0
 11
59.45719789232527
 21
8.189248721258991
 31
0.0
  0
LINE
  5
191
330
20
100
AcDbEntity
  8
0
  6
Continuous
 62
     7
100
AcDbLine
 10
61.54280210609306
 20
6.810751302120991
 30
0.0
 11
59.81075130212099
 21
8.542802106093033
 31
0.0
  0
CIRCLE
  5
192
330
20
100
AcDbEntity
  8
0
  6
Continuous
 62
     2
100
AcDbCircle
 10
60.5
 20
7.5
 30
0.0
 40
1.05
  0
CIRCLE
  5
193
330
20
100
AcDbEntity
  8
0
  6
Continuous
 62
     7
100
AcDbCircle
 10
60.5
 20
7.5
 30
0.0
 40
1.25
  0
CIRCLE
  5
194
330
20
100
AcDbEntity
  8
0
  6
Continuous
 62
     7
100
AcDbCircle
 10
60.5
 20
7.5
 30
0.0
 40
1.399999999999999
  0
LINE
  5
195
330
20
100
AcDbEntity
  8
0
  6
Continuous
 62
     7
100
AcDbLine
 10
62.50000000476838
 20
6.0
 30
0.0
 11
47.0
 21
6.0
 31
0.0
  0
LINE
  5
196
330
20
100
AcDbEntity
  8
0
  6
Continuous
 62
     7
100
AcDbLine
 10
62.50000000476838
 20
9.0
 30
0.0
 11
47.0
 21
9.0
 31
0.0
  0
LINE
  5
197
330
20
100
AcDbEntity
  8
0
  6
Continuous
 62
     7
100
AcDbLine
 10
47.0
 20
5.899993896484375
 30
0.0
 11
47.0
 21
9.100006103515623
 31
0.0
  0
LINE
  5
198
330
20
100
AcDbEntity
  8
0
  6
Continuous
 62
     7
100
AcDbLine
 10
62.50000000476838
 20
5.899993896484375
 30
0.0
 11
62.50000000476838
 21
9.100006103515623
 31
0.0
  0
LINE
  5
199
330
20
100
AcDbEntity
  8
0
  6
Continuous
 62
     7
100
AcDbLine
 10
52.10000000000001
 20
6.0
 30
0.0
 11
52.10000000000001
 21
9.0
 31
0.0
  0
LINE
  5
19A
330
20
100
AcDbEntity
  8
0
  6
Continuous
 62
     7
100
AcDbLine
 10
58.60000000000002
 20
6.0
 30
0.0
 11
58.60000000000002
 21
9.0
 31
0.0
  0
LINE
  5
19B
330
20
100
AcDbEntity
  8
0
  6
Continuous
 62
     2
100
AcDbLine
 10
60.5
 20
10.44285714285715
 30
0.0
 11
60.5
 21
4.200015326576532
 31
0.0
  0
LINE
  5
19C
330
20
100
AcDbEntity
  8
0
  6
Continuous
 62
     7
100
AcDbLine
 10
47.0
 20
8.800000000000011
 30
0.0
 11
44.74769053117785
 21
8.800000000000011
 31
0.0
  0
LINE
  5
19D
330
20
100
AcDbEntity
  8
0
  6
Continuous
 62
     7
100
AcDbLine
 10
47.0
 20
6.200000000000002
 30
0.0
 11
43.24653579676675
 21
6.200000000000002
 31
0.0
  0
LINE
  5
19E
330
20
100
AcDbEntity
  8
0
  6
Continuous
 62
     2
100
AcDbLine
 10
44.74769053117785
 20
8.800000000000011
 30
0.0
 11
43.24653579676675
 21
6.200000000000002
 31
0.0
  0
LINE
  5
19F
330
20
100
AcDbEntity
  8
0
  6
Continuous
 62
     7
100
AcDbLine
 10
-6.5
 20
35.0
 30
0.0
 11
-6.5
 21
0.0
 31
0.0
  0
LINE
  5
1A0
330
20
100
AcDbEntity
  8
0
  6
Continuous
 62
     2
100
AcDbLine
 10
160.4999999952316
 20
10.44285714285715
 30
0.0
 11
160.4999999952316
 21
4.200015326576532
 31
0.0
  0
LINE
  5
1A1
330
20
100
AcDbEntity
  8
0
  6
Continuous
 62
     2
100
AcDbLine
 10
144.7476905264094
 20
8.800000000000011
 30
0.0
 11
143.2465357919983
 21
6.200000000000002
 31
0.0
  0
LINE
  5
1A2
330
20
100
AcDbEntity
  8
0
  6
Continuous
 62
     7
100
AcDbLine
 10
146.9999999952316
 20
6.200000000000002
 30
0.0
 11
143.2465357919983
 21
6.200000000000002
 31
0.0
  0
LINE
  5
1A3
330
20
100
AcDbEntity
  8
0
  6
Continuous
 62
     7
100
AcDbLine
 10
146.9999999952316
 20
8.800000000000011
 30
0.0
 11
144.7476905264094
 21
8.800000000000011
 31
0.0
  0
LINE
  5
1A4
330
20
100
AcDbEntity
  8
0
  6
Continuous
 62
     7
100
AcDbLine
 10
158.5999999952316
 20
6.0
 30
0.0
 11
158.5999999952316
 21
9.0
 31
0.0
  0
LINE
  5
1A5
330
20
100
AcDbEntity
  8
0
  6
Continuous
 62
     7
100
AcDbLine
 10
152.0999999952316
 20
6.0
 30
0.0
 11
152.0999999952316
 21
9.0
 31
0.0
  0
LINE
  5
1A6
330
20
100
AcDbEntity
  8
0
  6
Continuous
 62
     7
100
AcDbLine
 10
162.5
 20
5.899993896484375
 30
0.0
 11
162.5
 21
9.100006103515623
 31
0.0
  0
LINE
  5
1A7
330
20
100
AcDbEntity
  8
0
  6
Continuous
 62
     7
100
AcDbLine
 10
146.9999999952316
 20
5.899993896484375
 30
0.0
 11
146.9999999952316
 21
9.100006103515623
 31
0.0
  0
LINE
  5
1A8
330
20
100
AcDbEntity
  8
0
  6
Continuous
 62
     7
100
AcDbLine
 10
162.5
 20
9.0
 30
0.0
 11
146.9999999952316
 21
9.0
 31
0.0
  0
LINE
  5
1A9
330
20
100
AcDbEntity
  8
0
  6
Continuous
 62
     7
100
AcDbLine
 10
162.5
 20
6.0
 30
0.0
 11
146.9999999952316
 21
6.0
 31
0.0
  0
CIRCLE
  5
1AA
330
20
100
AcDbEntity
  8
0
  6
Continuous
 62
     7
100
AcDbCircle
 10
160.4999999952316
 20
7.5
 30
0.0
 40
1.399999999999999
  0
CIRCLE
  5
1AB
330
20
100
AcDbEntity
  8
0
  6
Continuous
 62
     7
100
AcDbCircle
 10
160.4999999952316
 20
7.5
 30
0.0
 40
1.25
  0
CIRCLE
  5
1AC
330
20
100
AcDbEntity
  8
0
  6
Continuous
 62
     2
100
AcDbCircle
 10
160.4999999952316
 20
7.5
 30
0.0
 40
1.05
  0
LINE
  5
1AD
330
20
100
AcDbEntity
  8
0
  6
Continuous
 62
     7
100
AcDbLine
 10
161.5428021013247
 20
6.810751302120991
 30
0.0
 11
159.8107512973526
 21
8.542802106093033
 31
0.0
  0
LINE
  5
1AE
330
20
100
AcDbEntity
  8
0
  6
Continuous
 62
     7
100
AcDbLine
 10
161.1892486810684
 20
6.457197927747444
 30
0.0
 11
159.4571978875569
 21
8.189248721258991
 31
0.0
  0
LINE
  5
1AF
330
20
100
AcDbEntity
  8
0
  6
CENTER
 62
     2
100
AcDbLine
 10
163.9104017530169
 20
7.5
 30
0.0
 11
140.9971131592039
 21
7.5
 31
0.0
  0
LINE
  5
1B0
330
20
100
AcDbEntity
  8
0
  6
Continuous
 62
     2
100
AcDbLine
 10
34.5
 20
34.0
 30
0.0
 11
34.5
 21
40.0
 31
0.0
  0
LINE
  5
1B1
330
20
100
AcDbEntity
  8
0
  6
Continuous
 62
     2
100
AcDbLine
 10
78.5
 20
34.0
 30
0.0
 11
78.5
 21
40.0
 31
0.0
  0
LINE
  5
1B2
330
20
100
AcDbEntity
  8
0
  6
Continuous
 62
     2
100
AcDbLine
 10
0.0
 20
-3.0
 30
0.0
 11
0.0
 21
3.0
 31
0.0
  0
LINE
  5
1B3
330
20
100
AcDbEntity
  8
0
  6
Continuous
 62
     2
100
AcDbLine
 10
213.0
 20
-3.0
 30
0.0
 11
213.0
 21
3.0
 31
0.0
  0
LINE
  5
1B4
330
20
100
AcDbEntity
  8
0
  6
PHANTOM
 62
     3
100
AcDbLine
 10
115.5
 20
72.02842131045827
 30
0.0
 11
115.5
 21
-10.95894736842106
 31
0.0
  0
ENDBLK
  5
1B5
330
20
100
AcDbEntity
  8
0
100
AcDbBlockEnd
  0
BLOCK
  5
1B6
330
21
100
AcDbEntity
  8
0
100
AcDbBlockBegin
  2
MRVS28-4
 70
     0
 10
0.0
 20
0.0
 30
0.0
  3
MRVS28-4
  1

  0
LINE
  5
1B7
330
21
100
AcDbEntity
  8
0
  6
Continuous
 62
     2
100
AcDbLine
 10
-9.5
 20
-23.0
 30
0.0
 11
222.5
 21
-23.0
 31
0.0
  0
LINE
  5
1B8
330
21
100
AcDbEntity
  8
0
  6
Continuous
 62
     7
100
AcDbLine
 10
219.5
 20
-59.0
 30
0.0
 11
219.5
 21
13.0
 31
0.0
  0
LINE
  5
1B9
330
21
100
AcDbEntity
  8
0
  6
Continuous
 62
     7
100
AcDbLine
 10
88.49999999999999
 20
-0.5
 30
0.0
 11
89.0
 21
-0.5
 31
0.0
  0
LINE
  5
1BA
330
21
100
AcDbEntity
  8
0
  6
Continuous
 62
     2
100
AcDbLine
 10
220.5
 20
0.0
 30
0.0
 11
205.5
 21
0.0
 31
0.0
  0
LINE
  5
1BB
330
21
100
AcDbEntity
  8
0
  6
Continuous
 62
     2
100
AcDbLine
 10
213.0
 20
-7.5
 30
0.0
 11
213.0
 21
7.5
 31
0.0
  0
LINE
  5
1BC
330
21
100
AcDbEntity
  8
0
  6
Continuous
 62
     7
100
AcDbLine
 10
24.5
 20
12.0
 30
0.0
 11
24.5
 21
-58.0
 31
0.0
  0
LINE
  5
1BD
330
21
100
AcDbEntity
  8
0
  6
Continuous
 62
     7
100
AcDbLine
 10
26.10000610351562
 20
12.0
 30
0.0
 11
26.10000610351562
 21
-58.0
 31
0.0
  0
LINE
  5
1BE
330
21
100
AcDbEntity
  8
0
  6
Continuous
 62
     7
100
AcDbLine
 10
24.5
 20
12.0
 30
0.0
 11
88.49999999999999
 21
12.0
 31
0.0
  0
LINE
  5
1BF
330
21
100
AcDbEntity
  8
0
  6
Continuous
 62
     7
100
AcDbLine
 10
26.10000610351562
 20
-3.0
 30
0.0
 11
86.89999389648438
 21
-3.0
 31
0.0
  0
LINE
  5
1C0
330
21
100
AcDbEntity
  8
0
  6
Continuous
 62
     2
100
AcDbLine
 10
34.5
 20
-0.5399932861328125
 30
0.0
 11
34.5
 21
10.54000854492187
 31
0.0
  0
LINE
  5
1C1
330
21
100
AcDbEntity
  8
0
  6
Continuous
 62
     2
100
AcDbLine
 10
72.96000671386718
 20
5.0
 30
0.0
 11
84.03999328613281
 21
5.0
 31
0.0
  0
LINE
  5
1C2
330
21
100
AcDbEntity
  8
0
  6
Continuous
 62
     7
100
AcDbLine
 10
24.5
 20
-58.0
 30
0.0
 11
88.49999999999999
 21
-58.0
 31
0.0
  0
LINE
  5
1C3
330
21
100
AcDbEntity
  8
0
  6
Continuous
 62
     2
100
AcDbLine
 10
78.5
 20
-0.5399932861328125
 30
0.0
 11
78.5
 21
10.54000854492187
 31
0.0
  0
LINE
  5
1C4
330
21
100
AcDbEntity
  8
0
  6
Continuous
 62
     7
100
AcDbLine
 10
86.89999389648438
 20
-58.0
 30
0.0
 11
86.89999389648438
 21
12.0
 31
0.0
  0
LINE
  5
1C5
330
21
100
AcDbEntity
  8
0
  6
Continuous
 62
     7
100
AcDbLine
 10
88.49999999999999
 20
-58.0
 30
0.0
 11
88.49999999999999
 21
12.0
 31
0.0
  0
LINE
  5
1C6
330
21
100
AcDbEntity
  8
0
  6
Continuous
 62
     2
100
AcDbLine
 10
40.03999328613281
 20
-51.0
 30
0.0
 11
28.96000671386719
 21
-51.0
 31
0.0
  0
LINE
  5
1C7
330
21
100
AcDbEntity
  8
0
  6
Continuous
 62
     2
100
AcDbLine
 10
78.5
 20
-45.46000671386718
 30
0.0
 11
78.5
 21
-56.53999328613281
 31
0.0
  0
LINE
  5
1C8
330
21
100
AcDbEntity
  8
0
  6
Continuous
 62
     2
100
AcDbLine
 10
7.5
 20
-55.0
 30
0.0
 11
7.5
 21
-63.0
 31
0.0
  0
LINE
  5
1C9
330
21
100
AcDbEntity
  8
0
  6
Continuous
 62
     2
100
AcDbLine
 10
72.96000671386718
 20
-51.0
 30
0.0
 11
84.03999328613281
 21
-51.0
 31
0.0
  0
LINE
  5
1CA
330
21
100
AcDbEntity
  8
0
  6
Continuous
 62
     7
100
AcDbLine
 10
-6.5
 20
-59.0
 30
0.0
 11
-6.5
 21
13.0
 31
0.0
  0
LINE
  5
1CB
330
21
100
AcDbEntity
  8
0
  6
Continuous
 62
     2
100
AcDbLine
 10
34.5
 20
-45.46000671386718
 30
0.0
 11
34.5
 21
-56.53999328613281
 31
0.0
  0
LINE
  5
1CC
330
21
100
AcDbEntity
  8
0
  6
Continuous
 62
     7
100
AcDbLine
 10
88.49999999999999
 20
-45.49999999999999
 30
0.0
 11
89.0
 21
-45.49999999999999
 31
0.0
  0
LINE
  5
1CD
330
21
100
AcDbEntity
  8
0
  6
Continuous
 62
     2
100
AcDbLine
 10
40.03999328613281
 20
5.0
 30
0.0
 11
28.96000671386719
 21
5.0
 31
0.0
  0
LINE
  5
1CE
330
21
100
AcDbEntity
  8
0
  6
Continuous
 62
     2
100
AcDbLine
 10
205.5
 20
-55.0
 30
0.0
 11
205.5
 21
-63.0
 31
0.0
  0
LINE
  5
1CF
330
21
100
AcDbEntity
  8
0
  6
Continuous
 62
     7
100
AcDbLine
 10
24.14999389648437
 20
-50.19999694824218
 30
0.0
 11
24.5
 21
-50.19999694824218
 31
0.0
  0
LINE
  5
1D0
330
21
100
AcDbEntity
  8
0
  6
Continuous
 62
     7
100
AcDbLine
 10
24.14999389648437
 20
11.79998779296875
 30
0.0
 11
24.5
 21
11.79998779296875
 31
0.0
  0
LINE
  5
1D1
330
21
100
AcDbEntity
  8
0
  6
Continuous
 62
     7
100
AcDbLine
 10
24.14999389648437
 20
-57.80000305175781
 30
0.0
 11
24.5
 21
-57.80000305175781
 31
0.0
  0
LINE
  5
1D2
330
21
100
AcDbEntity
  8
0
  6
Continuous
 62
     7
100
AcDbLine
 10
88.85000610351562
 20
-50.19999694824218
 30
0.0
 11
88.49999999999999
 21
-50.19999694824218
 31
0.0
  0
LINE
  5
1D3
330
21
100
AcDbEntity
  8
0
  6
Continuous
 62
     7
100
AcDbLine
 10
24.14999389648437
 20
4.20001220703125
 30
0.0
 11
24.5
 21
4.20001220703125
 31
0.0
  0
LINE
  5
1D4
330
21
100
AcDbEntity
  8
0
  6
Continuous
 62
     7
100
AcDbLine
 10
88.85000610351562
 20
11.79998779296875
 30
0.0
 11
88.49999999999999
 21
11.79998779296875
 31
0.0
  0
LINE
  5
1D5
330
21
100
AcDbEntity
  8
0
  6
Continuous
 62
     7
100
AcDbLine
 10
88.85000610351562
 20
-57.80000305175781
 30
0.0
 11
88.49999999999999
 21
-57.80000305175781
 31
0.0
  0
LINE
  5
1D6
330
21
100
AcDbEntity
  8
0
  6
Continuous
 62
     7
100
AcDbLine
 10
88.85000610351562
 20
4.20001220703125
 30
0.0
 11
88.49999999999999
 21
4.20001220703125
 31
0.0
  0
LINE
  5
1D7
330
21
100
AcDbEntity
  8
0
  6
Continuous
 62
     7
100
AcDbLine
 10
26.10000610351562
 20
-43.0
 30
0.0
 11
86.89999389648438
 21
-43.0
 31
0.0
  0
LINE
  5
1D8
330
21
100
AcDbEntity
  8
0
  6
Continuous
 62
     7
100
AcDbLine
 10
203.5
 20
-59.0
 30
0.0
 11
203.5
 21
13.0
 31
0.0
  0
LINE
  5
1D9
330
21
100
AcDbEntity
  8
0
  6
Continuous
 62
     7
100
AcDbLine
 10
9.5
 20
-59.0
 30
0.0
 11
9.5
 21
13.0
 31
0.0
  0
LINE
  5
1DA
330
21
100
AcDbEntity
  8
0
  6
Continuous
 62
     7
100
AcDbLine
 10
219.5
 20
-59.0
 30
0.0
 11
196.5
 21
-59.0
 31
0.0
  0
LINE
  5
1DB
330
21
100
AcDbEntity
  8
0
  6
Continuous
 62
     7
100
AcDbLine
 10
219.5
 20
13.0
 30
0.0
 11
196.5
 21
13.0
 31
0.0
  0
LINE
  5
1DC
330
21
100
AcDbEntity
  8
0
  6
Continuous
 62
     7
100
AcDbLine
 10
219.5
 20
-8.0
 30
0.0
 11
196.5
 21
-8.0
 31
0.0
  0
LINE
  5
1DD
330
21
100
AcDbEntity
  8
0
  6
Continuous
 62
     7
100
AcDbLine
 10
219.5
 20
-38.0
 30
0.0
 11
196.5
 21
-38.0
 31
0.0
  0
LINE
  5
1DE
330
21
100
AcDbEntity
  8
0
  6
Continuous
 62
     7
100
AcDbLine
 10
-6.5
 20
-59.0
 30
0.0
 11
12.5
 21
-59.0
 31
0.0
  0
LINE
  5
1DF
330
21
100
AcDbEntity
  8
0
  6
Continuous
 62
     7
100
AcDbLine
 10
-6.5
 20
13.0
 30
0.0
 11
12.5
 21
13.0
 31
0.0
  0
LINE
  5
1E0
330
21
100
AcDbEntity
  8
0
  6
Continuous
 62
     7
100
AcDbLine
 10
-6.5
 20
-8.0
 30
0.0
 11
12.5
 21
-8.0
 31
0.0
  0
LINE
  5
1E1
330
21
100
AcDbEntity
  8
0
  6
Continuous
 62
     7
100
AcDbLine
 10
-6.5
 20
-38.0
 30
0.0
 11
12.5
 21
-38.0
 31
0.0
  0
LINE
  5
1E2
330
21
100
AcDbEntity
  8
0
  6
Continuous
 62
     2
100
AcDbLine
 10
213.0
 20
-53.5
 30
0.0
 11
213.0
 21
-38.5
 31
0.0
  0
LINE
  5
1E3
330
21
100
AcDbEntity
  8
0
  6
Continuous
 62
     2
100
AcDbLine
 10
220.5
 20
-46.0
 30
0.0
 11
205.5
 21
-46.0
 31
0.0
  0
LINE
  5
1E4
330
21
100
AcDbEntity
  8
0
  6
Continuous
 62
     2
100
AcDbLine
 10
0.0
 20
-7.5
 30
0.0
 11
0.0
 21
7.5
 31
0.0
  0
LINE
  5
1E5
330
21
100
AcDbEntity
  8
0
  6
Continuous
 62
     2
100
AcDbLine
 10
7.5
 20
0.0
 30
0.0
 11
-7.5
 21
0.0
 31
0.0
  0
LINE
  5
1E6
330
21
100
AcDbEntity
  8
0
  6
Continuous
 62
     2
100
AcDbLine
 10
7.5
 20
-46.0
 30
0.0
 11
-7.5
 21
-46.0
 31
0.0
  0
LINE
  5
1E7
330
21
100
AcDbEntity
  8
0
  6
Continuous
 62
     2
100
AcDbLine
 10
0.0
 20
-53.5
 30
0.0
 11
0.0
 21
-38.5
 31
0.0
  0
LINE
  5
1E8
330
21
100
AcDbEntity
  8
0
  6
Continuous
 62
     7
100
AcDbLine
 10
196.5
 20
13.0
 30
0.0
 11
196.5
 21
-59.0
 31
0.0
  0
LINE
  5
1E9
330
21
100
AcDbEntity
  8
0
  6
Continuous
 62
     7
100
AcDbLine
 10
25.0
 20
-60.5
 30
0.0
 11
88.0
 21
-60.5
 31
0.0
  0
LINE
  5
1EA
330
21
100
AcDbEntity
  8
0
  6
Continuous
 62
     2
100
AcDbLine
 10
94.50000000000001
 20
-0.53997802734375
 30
0.0
 11
94.50000000000001
 21
10.53997802734375
 31
0.0
  0
LINE
  5
1EB
330
21
100
AcDbEntity
  8
0
  6
Continuous
 62
     7
100
AcDbLine
 10
100.5
 20
13.0
 30
0.0
 11
100.5
 21
-59.0
 31
0.0
  0
LINE
  5
1EC
330
21
100
AcDbEntity
  8
0
  6
Continuous
 62
     7
100
AcDbLine
 10
25.0
 20
14.5
 30
0.0
 11
88.0
 21
14.5
 31
0.0
  0
LINE
  5
1ED
330
21
100
AcDbEntity
  8
0
  6
Continuous
 62
     7
100
AcDbLine
 10
18.0
 20
-65.0
 30
0.0
 11
94.50000000000001
 21
-65.0
 31
0.0
  0
LINE
  5
1EE
330
21
100
AcDbEntity
  8
0
  6
Continuous
 62
     2
100
AcDbLine
 10
24.03999328613281
 20
-51.0
 30
0.0
 11
12.96000671386719
 21
-51.0
 31
0.0
  0
LINE
  5
1EF
330
21
100
AcDbEntity
  8
0
  6
Continuous
 62
     2
100
AcDbLine
 10
18.5
 20
-45.46000671386718
 30
0.0
 11
18.5
 21
-56.53999328613281
 31
0.0
  0
LINE
  5
1F0
330
21
100
AcDbEntity
  8
0
  6
Continuous
 62
     7
100
AcDbLine
 10
12.5
 20
13.0
 30
0.0
 11
12.5
 21
-59.0
 31
0.0
  0
LINE
  5
1F1
330
21
100
AcDbEntity
  8
0
  6
Continuous
 62
     7
100
AcDbLine
 10
18.0
 20
19.0
 30
0.0
 11
94.50000000000001
 21
19.0
 31
0.0
  0
LINE
  5
1F2
330
21
100
AcDbEntity
  8
0
  6
Continuous
 62
     7
100
AcDbLine
 10
24.0
 20
13.5
 30
0.0
 11
24.0
 21
-11.0
 31
0.0
  0
LINE
  5
1F3
330
21
100
AcDbEntity
  8
0
  6
Continuous
 62
     7
100
AcDbLine
 10
89.0
 20
-35.0
 30
0.0
 11
88.49999999999999
 21
-35.0
 31
0.0
  0
LINE
  5
1F4
330
21
100
AcDbEntity
  8
0
  6
Continuous
 62
     7
100
AcDbLine
 10
89.0
 20
-59.5
 30
0.0
 11
89.0
 21
-35.0
 31
0.0
  0
LINE
  5
1F5
330
21
100
AcDbEntity
  8
0
  6
Continuous
 62
     7
100
AcDbLine
 10
24.0
 20
-35.0
 30
0.0
 11
24.0
 21
-59.5
 31
0.0
  0
LINE
  5
1F6
330
21
100
AcDbEntity
  8
0
  6
Continuous
 62
     7
100
AcDbLine
 10
24.0
 20
-35.0
 30
0.0
 11
24.5
 21
-35.0
 31
0.0
  0
LINE
  5
1F7
330
21
100
AcDbEntity
  8
0
  6
Continuous
 62
     7
100
AcDbLine
 10
24.0
 20
-11.0
 30
0.0
 11
24.5
 21
-11.0
 31
0.0
  0
LINE
  5
1F8
330
21
100
AcDbEntity
  8
0
  6
Continuous
 62
     7
100
AcDbLine
 10
89.0
 20
-11.0
 30
0.0
 11
88.49999999999999
 21
-11.0
 31
0.0
  0
LINE
  5
1F9
330
21
100
AcDbEntity
  8
0
  6
Continuous
 62
     7
100
AcDbLine
 10
89.0
 20
-11.0
 30
0.0
 11
89.0
 21
13.5
 31
0.0
  0
LINE
  5
1FA
330
21
100
AcDbEntity
  8
0
  6
Continuous
 62
     2
100
AcDbLine
 10
88.96000671386721
 20
5.0
 30
0.0
 11
100.0399780273437
 21
5.0
 31
0.0
  0
LINE
  5
1FB
330
21
100
AcDbEntity
  8
0
  6
Continuous
 62
     2
100
AcDbLine
 10
94.50000000000001
 20
-45.46000671386718
 30
0.0
 11
94.50000000000001
 21
-56.53999328613281
 31
0.0
  0
LINE
  5
1FC
330
21
100
AcDbEntity
  8
0
  6
Continuous
 62
     2
100
AcDbLine
 10
24.03999328613281
 20
5.0
 30
0.0
 11
12.96000671386719
 21
5.0
 31
0.0
  0
LINE
  5
1FD
330
21
100
AcDbEntity
  8
0
  6
Continuous
 62
     2
100
AcDbLine
 10
18.5
 20
-0.53997802734375
 30
0.0
 11
18.5
 21
10.53997802734375
 31
0.0
  0
LINE
  5
1FE
330
21
100
AcDbEntity
  8
0
  6
Continuous
 62
     2
100
AcDbLine
 10
88.96000671386721
 20
-51.0
 30
0.0
 11
100.0399780273437
 21
-51.0
 31
0.0
  0
LINE
  5
1FF
330
21
100
AcDbEntity
  8
0
  6
Continuous
 62
     7
100
AcDbLine
 10
100.5
 20
-0.5
 30
0.0
 11
196.5
 21
-0.5
 31
0.0
  0
LINE
  5
200
330
21
100
AcDbEntity
  8
0
  6
Continuous
 62
     7
100
AcDbLine
 10
100.5
 20
-45.49999999999999
 30
0.0
 11
196.5
 21
-45.49999999999999
 31
0.0
  0
LINE
  5
201
330
21
100
AcDbEntity
  8
0
  6
Continuous
 62
     7
100
AcDbLine
 10
24.5
 20
-45.49999999999999
 30
0.0
 11
24.0
 21
-45.49999999999999
 31
0.0
  0
LINE
  5
202
330
21
100
AcDbEntity
  8
0
  6
Continuous
 62
     7
100
AcDbLine
 10
24.5
 20
-0.5
 30
0.0
 11
24.0
 21
-0.5
 31
0.0
  0
ARC
  5
203
330
21
100
AcDbEntity
  8
0
  6
Continuous
 62
     7
100
AcDbCircle
 10
213.0
 20
0.0
 30
0.0
 40
5.5
100
AcDbArc
 50
0.9100754291885381
 51
0.0000100179126691
  0
CIRCLE
  5
204
330
21
100
AcDbEntity
  8
0
  6
Continuous
 62
     7
100
AcDbCircle
 10
213.0
 20
-46.0
 30
0.0
 40
5.5
  0
CIRCLE
  5
205
330
21
100
AcDbEntity
  8
0
  6
Continuous
 62
     2
100
AcDbCircle
 10
34.5
 20
5.0
 30
0.0
 40
3.0
  0
CIRCLE
  5
206
330
21
100
AcDbEntity
  8
0
  6
Continuous
 62
     7
100
AcDbCircle
 10
78.5
 20
5.0
 30
0.0
 40
2.5
  0
CIRCLE
  5
207
330
21
100
AcDbEntity
  8
0
  6
Continuous
 62
     2
100
AcDbCircle
 10
78.5
 20
5.0
 30
0.0
 40
3.0
  0
CIRCLE
  5
208
330
21
100
AcDbEntity
  8
0
  6
Continuous
 62
     7
100
AcDbCircle
 10
34.5
 20
-51.0
 30
0.0
 40
2.5
  0
CIRCLE
  5
209
330
21
100
AcDbEntity
  8
0
  6
Continuous
 62
     7
100
AcDbCircle
 10
0.0
 20
0.0
 30
0.0
 40
5.5
  0
CIRCLE
  5
20A
330
21
100
AcDbEntity
  8
0
  6
Continuous
 62
     2
100
AcDbCircle
 10
78.5
 20
-51.0
 30
0.0
 40
3.0
  0
CIRCLE
  5
20B
330
21
100
AcDbEntity
  8
0
  6
Continuous
 62
     7
100
AcDbCircle
 10
78.5
 20
-51.0
 30
0.0
 40
2.5
  0
CIRCLE
  5
20C
330
21
100
AcDbEntity
  8
0
  6
Continuous
 62
     7
100
AcDbCircle
 10
0.0
 20
-46.0
 30
0.0
 40
5.5
  0
CIRCLE
  5
20D
330
21
100
AcDbEntity
  8
0
  6
Continuous
 62
     2
100
AcDbCircle
 10
34.5
 20
-51.0
 30
0.0
 40
3.0
  0
CIRCLE
  5
20E
330
21
100
AcDbEntity
  8
0
  6
Continuous
 62
     7
100
AcDbCircle
 10
34.5
 20
5.0
 30
0.0
 40
2.5
  0
ARC
  5
20F
330
21
100
AcDbEntity
  8
0
  6
Continuous
 62
     7
100
AcDbCircle
 10
88.85000610351562
 20
9.29998779296875
 30
0.0
 40
2.5
100
AcDbArc
 50
86.56032606864895
 51
90.00000250447817
  0
ARC
  5
210
330
21
100
AcDbEntity
  8
0
  6
Continuous
 62
     7
100
AcDbCircle
 10
24.14999389648437
 20
-52.69999694824218
 30
0.0
 40
2.5
100
AcDbArc
 50
90.00000250447817
 51
93.43967211011824
  0
ARC
  5
211
330
21
100
AcDbEntity
  8
0
  6
Continuous
 62
     7
100
AcDbCircle
 10
24.14999389648437
 20
-55.30000305175781
 30
0.0
 40
2.5
100
AcDbArc
 50
266.5603278898818
 51
269.9999974955218
  0
ARC
  5
212
330
21
100
AcDbEntity
  8
0
  6
Continuous
 62
     7
100
AcDbCircle
 10
24.14999389648437
 20
9.29998779296875
 30
0.0
 40
2.5
100
AcDbArc
 50
90.00000250447817
 51
93.43967211011824
  0
ARC
  5
213
330
21
100
AcDbEntity
  8
0
  6
Continuous
 62
     7
100
AcDbCircle
 10
24.14999389648437
 20
6.70001220703125
 30
0.0
 40
2.5
100
AcDbArc
 50
266.5603278898818
 51
269.9999974955218
  0
ARC
  5
214
330
21
100
AcDbEntity
  8
0
  6
Continuous
 62
     7
100
AcDbCircle
 10
88.85000610351562
 20
-55.30000305175781
 30
0.0
 40
2.5
100
AcDbArc
 50
269.9999974955218
 51
273.4396739313511
  0
ARC
  5
215
330
21
100
AcDbEntity
  8
0
  6
Continuous
 62
     7
100
AcDbCircle
 10
88.85000610351562
 20
6.70001220703125
 30
0.0
 40
2.5
100
AcDbArc
 50
269.9999974955218
 51
273.4396739313511
  0
ARC
  5
216
330
21
100
AcDbEntity
  8
0
  6
Continuous
 62
     7
100
AcDbCircle
 10
88.85000610351562
 20
-52.69999694824218
 30
0.0
 40
2.5
100
AcDbArc
 50
86.56032606864895
 51
90.00000250447817
  0
CIRCLE
  5
217
330
21
100
AcDbEntity
  8
0
  6
Continuous
 62
     7
100
AcDbCircle
 10
213.0
 20
0.0
 30
0.0
 40
3.5
  0
CIRCLE
  5
218
330
21
100
AcDbEntity
  8
0
  6
Continuous
 62
     7
100
AcDbCircle
 10
213.0
 20
-46.0
 30
0.0
 40
3.5
  0
CIRCLE
  5
219
330
21
100
AcDbEntity
  8
0
  6
Continuous
 62
     7
100
AcDbCircle
 10
0.0
 20
0.0
 30
0.0
 40
3.5
  0
CIRCLE
  5
21A
330
21
100
AcDbEntity
  8
0
  6
Continuous
 62
     7
100
AcDbCircle
 10
0.0
 20
-46.0
 30
0.0
 40
3.5
  0
ARC
  5
21B
330
21
100
AcDbEntity
  8
0
  6
Continuous
 62
     7
100
AcDbCircle
 10
94.50000000000001
 20
-59.0
 30
0.0
 40
6.0
100
AcDbArc
 50
269.9999974955218
 51
0.0000025044780655
  0
ARC
  5
21C
330
21
100
AcDbEntity
  8
0
  6
Continuous
 62
     7
100
AcDbCircle
 10
94.50000000000001
 20
13.0
 30
0.0
 40
6.0
100
AcDbArc
 50
0.0000025044780655
 51
90.00000250447817
  0
CIRCLE
  5
21D
330
21
100
AcDbEntity
  8
0
  6
Continuous
 62
     2
100
AcDbCircle
 10
94.50000000000001
 20
5.0
 30
0.0
 40
3.0
  0
CIRCLE
  5
21E
330
21
100
AcDbEntity
  8
0
  6
Continuous
 62
     7
100
AcDbCircle
 10
18.5
 20
-51.0
 30
0.0
 40
2.5
  0
CIRCLE
  5
21F
330
21
100
AcDbEntity
  8
0
  6
Continuous
 62
     2
100
AcDbCircle
 10
18.5
 20
-51.0
 30
0.0
 40
3.0
  0
ARC
  5
220
330
21
100
AcDbEntity
  8
0
  6
Continuous
 62
     7
100
AcDbCircle
 10
18.5
 20
-59.0
 30
0.0
 40
6.0
100
AcDbArc
 50
179.999991348578
 51
270.0000006832453
  0
ARC
  5
221
330
21
100
AcDbEntity
  8
0
  6
Continuous
 62
     7
100
AcDbCircle
 10
18.5
 20
13.0
 30
0.0
 40
6.0
100
AcDbArc
 50
90.00000933466735
 51
180.0000050089563
  0
ARC
  5
222
330
21
100
AcDbEntity
  8
0
  6
Continuous
 62
     7
100
AcDbCircle
 10
25.0
 20
-59.5
 30
0.0
 40
1.0
100
AcDbArc
 50
179.999991348578
 51
270.0000006832453
  0
ARC
  5
223
330
21
100
AcDbEntity
  8
0
  6
Continuous
 62
     7
100
AcDbCircle
 10
25.0
 20
13.5
 30
0.0
 40
1.0
100
AcDbArc
 50
90.00000933466735
 51
180.0000050089563
  0
ARC
  5
224
330
21
100
AcDbEntity
  8
0
  6
Continuous
 62
     7
100
AcDbCircle
 10
88.0
 20
13.5
 30
0.0
 40
1.0
100
AcDbArc
 50
0.0000025044780655
 51
90.00000250447817
  0
ARC
  5
225
330
21
100
AcDbEntity
  8
0
  6
Continuous
 62
     7
100
AcDbCircle
 10
88.0
 20
-59.5
 30
0.0
 40
1.0
100
AcDbArc
 50
269.9999974955218
 51
0.0000025044780655
  0
CIRCLE
  5
226
330
21
100
AcDbEntity
  8
0
  6
Continuous
 62
     7
100
AcDbCircle
 10
94.50000000000001
 20
5.0
 30
0.0
 40
2.5
  0
CIRCLE
  5
227
330
21
100
AcDbEntity
  8
0
  6
Continuous
 62
     7
100
AcDbCircle
 10
18.5
 20
5.0
 30
0.0
 40
2.5
  0
CIRCLE
  5
228
330
21
100
AcDbEntity
  8
0
  6
Continuous
 62
     2
100
AcDbCircle
 10
18.5
 20
5.0
 30
0.0
 40
3.0
  0
CIRCLE
  5
229
330
21
100
AcDbEntity
  8
0
  6
Continuous
 62
     7
100
AcDbCircle
 10
94.50000000000001
 20
-51.0
 30
0.0
 40
2.5
  0
CIRCLE
  5
22A
330
21
100
AcDbEntity
  8
0
  6
Continuous
 62
     2
100
AcDbCircle
 10
94.50000000000001
 20
-51.0
 30
0.0
 40
3.0
  0
LINE
  5
22B
330
21
100
AcDbEntity
  8
0
  6
Continuous
 62
     7
100
AcDbLine
 10
211.5
 20
-65.19999694824218
 30
0.0
 11
1.5
 21
-65.19999694824218
 31
0.0
  0
LINE
  5
22C
330
21
100
AcDbEntity
  8
0
  6
Continuous
 62
     7
100
AcDbLine
 10
1.5
 20
-59.0
 30
0.0
 11
1.5
 21
-65.19999694824218
 31
0.0
  0
LINE
  5
22D
330
21
100
AcDbEntity
  8
0
  6
Continuous
 62
     7
100
AcDbLine
 10
211.5
 20
-65.19999694824218
 30
0.0
 11
211.5
 21
-59.0
 31
0.0
  0
LINE
  5
22E
330
21
100
AcDbEntity
  8
0
  6
Continuous
 62
     7
100
AcDbLine
 10
100.5
 20
-58.0
 30
0.0
 11
196.5
 21
-58.0
 31
0.0
  0
LINE
  5
22F
330
21
100
AcDbEntity
  8
0
  6
Continuous
 62
     2
100
AcDbLine
 10
56.5
 20
22.0
 30
0.0
 11
56.5
 21
-75.46867607148162
 31
0.0
  0
LINE
  5
230
330
21
100
AcDbEntity
  8
0
  6
PHANTOM
 62
     3
100
AcDbLine
 10
120.0
 20
47.0
 30
0.0
 11
120.0
 21
-92.30210500733898
 31
0.0
  0
ENDBLK
  5
231
330
21
100
AcDbEntity
  8
0
100
AcDbBlockEnd
  0
BLOCK
  5
232
330
22
100
AcDbEntity
  8
0
100
AcDbBlockBegin
  2
MRVS28-5
 70
     0
 10
0.0
 20
0.0
 30
0.0
  3
MRVS28-5
  1

  0
LINE
  5
233
330
22
100
AcDbEntity
  8
0
  6
Continuous
 62
     2
100
AcDbLine
 10
41.0
 20
-23.0
 30
0.0
 11
-6.031596279701737
 21
-23.0
 31
0.0
  0
LINE
  5
234
330
22
100
AcDbEntity
  8
0
  6
Continuous
 62
     2
100
AcDbLine
 10
27.35000610351562
 20
-34.70001220703125
 30
0.0
 11
11.64999389648437
 21
-34.70001220703125
 31
0.0
  0
CIRCLE
  5
235
330
22
100
AcDbEntity
  8
0
  6
Continuous
 62
     7
100
AcDbCircle
 10
31.5
 20
9.0
 30
0.0
 40
2.25
  0
CIRCLE
  5
236
330
22
100
AcDbEntity
  8
0
  6
Continuous
 62
     7
100
AcDbCircle
 10
31.5
 20
-55.0
 30
0.0
 40
2.25
  0
LINE
  5
237
330
22
100
AcDbEntity
  8
0
  6
Continuous
 62
     7
100
AcDbLine
 10
18.05664262980281
 20
-37.20003348153297
 30
0.0
 11
16.61325273722469
 21
-34.70000889732728
 31
0.0
  0
LINE
  5
238
330
22
100
AcDbEntity
  8
0
  6
Continuous
 62
     7
100
AcDbLine
 10
18.05663570743855
 20
-32.20001429979914
 30
0.0
 11
16.61326107364948
 21
-34.70001245500738
 31
0.0
  0
LINE
  5
239
330
22
100
AcDbEntity
  8
0
  6
Continuous
 62
     7
100
AcDbLine
 10
20.943359375
 20
-37.20001220703125
 30
0.0
 11
18.056640625
 21
-37.20001220703125
 31
0.0
  0
LINE
  5
23A
330
22
100
AcDbEntity
  8
0
  6
Continuous
 62
     7
100
AcDbLine
 10
20.94338801485355
 20
-37.20001245500737
 30
0.0
 11
22.38676264864261
 21
-34.70001429979914
 31
0.0
  0
LINE
  5
23B
330
22
100
AcDbEntity
  8
0
  6
Continuous
 62
     7
100
AcDbLine
 10
20.943359375
 20
-32.20001220703125
 30
0.0
 11
18.056640625
 21
-32.20001220703125
 31
0.0
  0
LINE
  5
23C
330
22
100
AcDbEntity
  8
0
  6
Continuous
 62
     7
100
AcDbLine
 10
20.94337967842875
 20
-32.20000889732728
 30
0.0
 11
22.38676957100688
 21
-34.70003348153296
 31
0.0
  0
CIRCLE
  5
23D
330
22
100
AcDbEntity
  8
0
  6
Continuous
 62
     7
100
AcDbCircle
 10
19.5
 20
-34.70001220703125
 30
0.0
 40
4.150000095367431
  0
CIRCLE
  5
23E
330
22
100
AcDbEntity
  8
0
  6
Continuous
 62
     2
100
AcDbCircle
 10
19.5
 20
-34.70001220703125
 30
0.0
 40
4.849999904632568
  0
LINE
  5
23F
330
22
100
AcDbEntity
  8
0
  6
Continuous
 62
     7
100
AcDbLine
 10
26.13400268554688
 20
-24.5
 30
0.0
 11
27.86605834960937
 21
-24.5
 31
0.0
  0
LINE
  5
240
330
22
100
AcDbEntity
  8
0
  6
Continuous
 62
     7
100
AcDbLine
 10
27.86601844884172
 20
-24.50000929390967
 30
0.0
 11
28.73204628087297
 21
-23.00000511498524
 31
0.0
  0
LINE
  5
241
330
22
100
AcDbEntity
  8
0
  6
Continuous
 62
     7
100
AcDbLine
 10
26.13397637463823
 20
-24.50001773240001
 30
0.0
 11
25.26794854260697
 21
-23.00001355347559
 31
0.0
  0
LINE
  5
242
330
22
100
AcDbEntity
  8
0
  6
Continuous
 62
     7
100
AcDbLine
 10
26.13400268554688
 20
-21.5
 30
0.0
 11
27.86605834960937
 21
-21.5
 31
0.0
  0
LINE
  5
243
330
22
100
AcDbEntity
  8
0
  6
Continuous
 62
     7
100
AcDbLine
 10
27.86602470732942
 20
-21.50001355347558
 30
0.0
 11
28.73205253936067
 21
-23.00001773240001
 31
0.0
  0
LINE
  5
244
330
22
100
AcDbEntity
  8
0
  6
Continuous
 62
     7
100
AcDbLine
 10
26.13397011615052
 20
-21.50000511498523
 30
0.0
 11
25.26794228411927
 21
-23.00000929390968
 31
0.0
  0
CIRCLE
  5
245
330
22
100
AcDbEntity
  8
0
  6
Continuous
 62
     7
100
AcDbCircle
 10
27.00003051757813
 20
-23.0
 30
0.0
 40
4.0
  0
LINE
  5
246
330
22
100
AcDbEntity
  8
0
  6
Continuous
 62
     7
100
AcDbLine
 10
12.86599731445312
 20
-21.5
 30
0.0
 11
11.13394165039062
 21
-21.5
 31
0.0
  0
LINE
  5
247
330
22
100
AcDbEntity
  8
0
  6
Continuous
 62
     7
100
AcDbLine
 10
12.86601979439365
 20
-21.50001662311479
 30
0.0
 11
13.7320476264249
 21
-23.00002080203921
 31
0.0
  0
LINE
  5
248
330
22
100
AcDbEntity
  8
0
  6
Continuous
 62
     7
100
AcDbLine
 10
11.13398046200382
 20
-21.4999756163486
 30
0.0
 11
10.26795262997257
 21
-22.99997979527302
 31
0.0
  0
LINE
  5
249
330
22
100
AcDbEntity
  8
0
  6
Continuous
 62
     7
100
AcDbLine
 10
12.86599731445312
 20
-24.5
 30
0.0
 11
11.13394165039062
 21
-24.5
 31
0.0
  0
LINE
  5
24A
330
22
100
AcDbEntity
  8
0
  6
Continuous
 62
     7
100
AcDbLine
 10
11.13397146170245
 20
-24.50002080203921
 30
0.0
 11
10.26794362967121
 21
-23.00001662311479
 31
0.0
  0
LINE
  5
24B
330
22
100
AcDbEntity
  8
0
  6
Continuous
 62
     7
100
AcDbLine
 10
12.86602879469501
 20
-24.49997979527302
 30
0.0
 11
13.73205662672626
 21
-22.9999756163486
 31
0.0
  0
CIRCLE
  5
24C
330
22
100
AcDbEntity
  8
0
  6
Continuous
 62
     7
100
AcDbCircle
 10
11.99996948242187
 20
-23.0
 30
0.0
 40
4.0
  0
LINE
  5
24D
330
22
100
AcDbEntity
  8
0
  6
Continuous
 62
     7
100
AcDbLine
 10
29.0
 20
-59.0
 30
0.0
 11
29.0
 21
-65.0
 31
0.0
  0
LINE
  5
24E
330
22
100
AcDbEntity
  8
0
  6
Continuous
 62
     7
100
AcDbLine
 10
29.0
 20
13.0
 30
0.0
 11
29.0
 21
19.0
 31
0.0
  0
LINE
  5
24F
330
22
100
AcDbEntity
  8
0
  6
Continuous
 62
     7
100
AcDbLine
 10
38.0
 20
19.0
 30
0.0
 11
29.0
 21
19.0
 31
0.0
  0
LINE
  5
250
330
22
100
AcDbEntity
  8
0
  6
Continuous
 62
     7
100
AcDbLine
 10
38.0
 20
-65.0
 30
0.0
 11
29.0
 21
-65.0
 31
0.0
  0
LINE
  5
251
330
22
100
AcDbEntity
  8
0
  6
Continuous
 62
     7
100
AcDbLine
 10
38.0
 20
19.0
 30
0.0
 11
38.0
 21
-65.0
 31
0.0
  0
LINE
  5
252
330
22
100
AcDbEntity
  8
0
  6
Continuous
 62
     2
100
AcDbLine
 10
19.5
 20
16.39075222937185
 30
0.0
 11
19.5
 21
-68.0
 31
0.0
  0
LINE
  5
253
330
22
100
AcDbEntity
  8
0
  6
Continuous
 62
     7
100
AcDbLine
 10
4.0
 20
12.0
 30
0.0
 11
4.0
 21
13.0
 31
0.0
  0
LINE
  5
254
330
22
100
AcDbEntity
  8
0
  6
Continuous
 62
     7
100
AcDbLine
 10
4.0
 20
-59.0
 30
0.0
 11
0.0
 21
-59.0
 31
0.0
  0
LINE
  5
255
330
22
100
AcDbEntity
  8
0
  6
Continuous
 62
     7
100
AcDbLine
 10
11.0
 20
-58.0
 30
0.0
 11
4.0
 21
-58.0
 31
0.0
  0
LINE
  5
256
330
22
100
AcDbEntity
  8
0
  6
Continuous
 62
     7
100
AcDbLine
 10
4.0
 20
13.0
 30
0.0
 11
0.0
 21
13.0
 31
0.0
  0
LINE
  5
257
330
22
100
AcDbEntity
  8
0
  6
Continuous
 62
     7
100
AcDbLine
 10
11.0
 20
12.0
 30
0.0
 11
11.0
 21
13.0
 31
0.0
  0
LINE
  5
258
330
22
100
AcDbEntity
  8
0
  6
Continuous
 62
     7
100
AcDbLine
 10
0.0
 20
13.0
 30
0.0
 11
0.0
 21
-7.999995589256286
 31
0.0
  0
LINE
  5
259
330
22
100
AcDbEntity
  8
0
  6
Continuous
 62
     7
100
AcDbLine
 10
11.0
 20
12.0
 30
0.0
 11
4.0
 21
12.0
 31
0.0
  0
LINE
  5
25A
330
22
100
AcDbEntity
  8
0
  6
Continuous
 62
     7
100
AcDbLine
 10
0.29998779296875
 20
-8.299983382225036
 30
0.0
 11
0.29998779296875
 21
-37.70001780417078
 31
0.0
  0
LINE
  5
25B
330
22
100
AcDbEntity
  8
0
  6
Continuous
 62
     7
100
AcDbLine
 10
0.2999878525733948
 20
-8.299983441829681
 30
0.0
 11
0.0
 21
-7.999995589256286
 31
0.0
  0
LINE
  5
25C
330
22
100
AcDbEntity
  8
0
  6
Continuous
 62
     7
100
AcDbLine
 10
0.0
 20
-38.00000559713953
 30
0.0
 11
0.2999877929687499
 21
-37.70001780417078
 31
0.0
  0
LINE
  5
25D
330
22
100
AcDbEntity
  8
0
  6
Continuous
 62
     7
100
AcDbLine
 10
0.0
 20
-38.00000559713953
 30
0.0
 11
0.0
 21
-59.0
 31
0.0
  0
LINE
  5
25E
330
22
100
AcDbEntity
  8
0
  6
Continuous
 62
     7
100
AcDbLine
 10
33.99999991257721
 20
13.0
 30
0.0
 11
11.0
 21
13.0
 31
0.0
  0
LINE
  5
25F
330
22
100
AcDbEntity
  8
0
  6
Continuous
 62
     7
100
AcDbLine
 10
33.99999995628856
 20
-59.0
 30
0.0
 11
11.0
 21
-59.0
 31
0.0
  0
ARC
  5
260
330
22
100
AcDbEntity
  8
0
  6
Continuous
 62
     7
100
AcDbCircle
 10
34.0
 20
12.0
 30
0.0
 40
1.0
100
AcDbArc
 50
0.0000025044781673
 51
90.00000500895634
  0
ARC
  5
261
330
22
100
AcDbEntity
  8
0
  6
Continuous
 62
     7
100
AcDbCircle
 10
34.0
 20
-58.0
 30
0.0
 40
1.0
100
AcDbArc
 50
269.9999974955219
 51
0.0000025044781673
  0
LINE
  5
262
330
22
100
AcDbEntity
  8
0
  6
Continuous
 62
     7
100
AcDbLine
 10
11.0
 20
-64.70001220703125
 30
0.0
 11
11.0
 21
-58.0
 31
0.0
  0
LINE
  5
263
330
22
100
AcDbEntity
  8
0
  6
Continuous
 62
     7
100
AcDbLine
 10
4.0
 20
-64.70001220703125
 30
0.0
 11
4.0
 21
-58.0
 31
0.0
  0
LINE
  5
264
330
22
100
AcDbEntity
  8
0
  6
Continuous
 62
     2
100
AcDbLine
 10
7.5
 20
-57.12289428710938
 30
0.0
 11
7.5
 21
-67.32257080078125
 31
0.0
  0
ARC
  5
265
330
22
100
AcDbEntity
  8
0
  6
Continuous
 62
     7
100
AcDbCircle
 10
7.5
 20
-62.60000610351561
 30
0.0
 40
2.099999904632568
100
AcDbArc
 50
359.9999956742889
 51
180.0000006832453
  0
ARC
  5
266
330
22
100
AcDbEntity
  8
0
  6
Continuous
 62
     7
100
AcDbCircle
 10
4.5
 20
-64.70001220703125
 30
0.0
 40
0.5
100
AcDbArc
 50
179.9999974955218
 51
270.0000086514222
  0
ARC
  5
267
330
22
100
AcDbEntity
  8
0
  6
Continuous
 62
     7
100
AcDbCircle
 10
10.5
 20
-64.70001220703125
 30
0.0
 40
0.5
100
AcDbArc
 50
269.9999949910439
 51
0.0000025044781673
  0
LINE
  5
268
330
22
100
AcDbEntity
  8
0
  6
Continuous
 62
     7
100
AcDbLine
 10
9.100006103515623
 20
-65.20001220703125
 30
0.0
 11
9.100006103515623
 21
-64.70001220703125
 31
0.0
  0
LINE
  5
269
330
22
100
AcDbEntity
  8
0
  6
Continuous
 62
     7
100
AcDbLine
 10
5.899993896484375
 20
-65.20001220703125
 30
0.0
 11
5.899993896484375
 21
-64.69998168945314
 31
0.0
  0
LINE
  5
26A
330
22
100
AcDbEntity
  8
0
  6
Continuous
 62
     7
100
AcDbLine
 10
5.400021276321695
 20
-64.1999817479641
 30
0.0
 11
5.90003259670948
 21
-64.69999306835188
 31
0.0
  0
LINE
  5
26B
330
22
100
AcDbEntity
  8
0
  6
Continuous
 62
     7
100
AcDbLine
 10
9.600021419160384
 20
-64.1999817479641
 30
0.0
 11
9.1000100987726
 21
-64.69999306835188
 31
0.0
  0
LINE
  5
26C
330
22
100
AcDbEntity
  8
0
  6
Continuous
 62
     7
100
AcDbLine
 10
9.600006103515623
 20
-62.60000610351561
 30
0.0
 11
9.600006103515623
 21
-64.20001220703125
 31
0.0
  0
LINE
  5
26D
330
22
100
AcDbEntity
  8
0
  6
Continuous
 62
     7
100
AcDbLine
 10
4.5
 20
-65.20001220703125
 30
0.0
 11
5.899993896484375
 21
-65.20001220703125
 31
0.0
  0
LINE
  5
26E
330
22
100
AcDbEntity
  8
0
  6
Continuous
 62
     7
100
AcDbLine
 10
10.5
 20
-65.20001220703125
 30
0.0
 11
9.100006103515623
 21
-65.20001220703125
 31
0.0
  0
LINE
  5
26F
330
22
100
AcDbEntity
  8
0
  6
Continuous
 62
     7
100
AcDbLine
 10
5.399993896484375
 20
-62.60000610351561
 30
0.0
 11
5.399993896484375
 21
-64.19998168945314
 31
0.0
  0
LINE
  5
270
330
22
100
AcDbEntity
  8
0
  6
Continuous
 62
     7
100
AcDbLine
 10
6.000000006130732
 20
-64.65001221316203
 30
0.0
 11
5.5
 21
-64.15001220703125
 31
0.0
  0
LINE
  5
271
330
22
100
AcDbEntity
  8
0
  6
Continuous
 62
     7
100
AcDbLine
 10
9.0
 20
-65.20001220703125
 30
0.0
 11
6.0
 21
-65.20001220703125
 31
0.0
  0
LINE
  5
272
330
22
100
AcDbEntity
  8
0
  6
Continuous
 62
     7
100
AcDbLine
 10
8.75
 20
-65.43741160885372
 30
0.0
 11
6.25
 21
-65.43741160885372
 31
0.0
  0
LINE
  5
273
330
22
100
AcDbEntity
  8
0
  6
Continuous
 62
     7
100
AcDbLine
 10
8.550000000000011
 20
-65.63741160885374
 30
0.0
 11
6.449999999999988
 21
-65.63741160885374
 31
0.0
  0
LINE
  5
274
330
22
100
AcDbEntity
  8
0
  6
Continuous
 62
     7
100
AcDbLine
 10
6.0
 20
-64.65001220703125
 30
0.0
 11
6.0
 21
-65.20001220975602
 31
0.0
  0
LINE
  5
275
330
22
100
AcDbEntity
  8
0
  6
Continuous
 62
     7
100
AcDbLine
 10
6.25
 20
-65.43741160885372
 30
0.0
 11
6.25
 21
-65.20001220703125
 31
0.0
  0
LINE
  5
276
330
22
100
AcDbEntity
  8
0
  6
Continuous
 62
     7
100
AcDbLine
 10
6.449999999999988
 20
-65.63741160885374
 30
0.0
 11
6.25
 21
-65.43741160885372
 31
0.0
  0
LINE
  5
277
330
22
100
AcDbEntity
  8
0
  6
Continuous
 62
     2
100
AcDbLine
 10
6.449999999999988
 20
-65.20001220703125
 30
0.0
 11
6.449999999999988
 21
-65.63741160885374
 31
0.0
  0
CIRCLE
  5
278
330
22
100
AcDbEntity
  8
0
  6
Continuous
 62
     7
100
AcDbCircle
 10
6.849999997275176
 20
-62.7000126846848
 30
0.0
 40
0.5
  0
CIRCLE
  5
279
330
22
100
AcDbEntity
  8
0
  6
Continuous
 62
     7
100
AcDbCircle
 10
7.5
 20
-62.7000126846848
 30
0.0
 40
1.300000000000011
  0
LINE
  5
27A
330
22
100
AcDbEntity
  8
0
  6
Continuous
 62
     7
100
AcDbLine
 10
5.5
 20
-62.20001220703125
 30
0.0
 11
5.5
 21
-64.15001220703125
 31
0.0
  0
ARC
  5
27B
330
22
100
AcDbEntity
  8
0
  6
Continuous
 62
     7
100
AcDbCircle
 10
7.5
 20
-62.65001220703125
 30
0.0
 40
2.049999999999996
100
AcDbArc
 50
12.68038349181954
 51
167.3196165081805
  0
CIRCLE
  5
27C
330
22
100
AcDbEntity
  8
0
  6
Continuous
 62
     7
100
AcDbCircle
 10
6.849999997275176
 20
-62.7000126846848
 30
0.0
 40
0.29
  0
CIRCLE
  5
27D
330
22
100
AcDbEntity
  8
0
  6
Continuous
 62
     7
100
AcDbCircle
 10
8.150000002724766
 20
-62.7000126846848
 30
0.0
 40
0.5
  0
CIRCLE
  5
27E
330
22
100
AcDbEntity
  8
0
  6
Continuous
 62
     7
100
AcDbCircle
 10
8.150000002724766
 20
-62.7000126846848
 30
0.0
 40
0.29
  0
LINE
  5
27F
330
22
100
AcDbEntity
  8
0
  6
Continuous
 62
     7
100
AcDbLine
 10
8.75
 20
-65.20001220703125
 30
0.0
 11
8.75
 21
-65.43741160885372
 31
0.0
  0
LINE
  5
280
330
22
100
AcDbEntity
  8
0
  6
Continuous
 62
     7
100
AcDbLine
 10
8.75
 20
-65.43741160885372
 30
0.0
 11
8.550000000000011
 21
-65.63741160885374
 31
0.0
  0
LINE
  5
281
330
22
100
AcDbEntity
  8
0
  6
Continuous
 62
     2
100
AcDbLine
 10
8.550000000000011
 20
-65.20001220703125
 30
0.0
 11
8.550000000000011
 21
-65.63741160885374
 31
0.0
  0
LINE
  5
282
330
22
100
AcDbEntity
  8
0
  6
Continuous
 62
     7
100
AcDbLine
 10
9.0
 20
-64.65287679036457
 30
0.0
 11
9.0
 21
-65.20001220975602
 31
0.0
  0
LINE
  5
283
330
22
100
AcDbEntity
  8
0
  6
Continuous
 62
     7
100
AcDbLine
 10
9.5
 20
-64.15027262369791
 30
0.0
 11
9.0
 21
-64.65287679036457
 31
0.0
  0
LINE
  5
284
330
22
100
AcDbEntity
  8
0
  6
Continuous
 62
     7
100
AcDbLine
 10
9.5
 20
-62.20001220703125
 30
0.0
 11
9.5
 21
-64.15027262369791
 31
0.0
  0
LINE
  5
285
330
22
100
AcDbEntity
  8
0
  6
Continuous
 62
     7
100
AcDbLine
 10
34.5
 20
-37.49998323585533
 30
0.0
 11
34.5
 21
-8.500020086765285
 31
0.0
  0
LINE
  5
286
330
22
100
AcDbEntity
  8
0
  6
Continuous
 62
     7
100
AcDbLine
 10
35.0
 20
-8.000020086765285
 30
0.0
 11
35.0
 21
12.0
 31
0.0
  0
LINE
  5
287
330
22
100
AcDbEntity
  8
0
  6
Continuous
 62
     7
100
AcDbLine
 10
34.50000005960465
 20
-8.500020027160642
 30
0.0
 11
35.00000005960465
 21
-8.000020027160642
 31
0.0
  0
LINE
  5
288
330
22
100
AcDbEntity
  8
0
  6
Continuous
 62
     7
100
AcDbLine
 10
35.0
 20
-58.0
 30
0.0
 11
35.0
 21
-37.99998323585533
 31
0.0
  0
LINE
  5
289
330
22
100
AcDbEntity
  8
0
  6
Continuous
 62
     7
100
AcDbLine
 10
35.0
 20
-37.99998323585533
 30
0.0
 11
34.5
 21
-37.49998323585533
 31
0.0
  0
LINE
  5
28A
330
22
100
AcDbEntity
  8
0
  6
Continuous
 62
     2
100
AcDbLine
 10
-3.000015258789062
 20
0.0
 30
0.0
 11
2.999984741210937
 21
0.0
 31
0.0
  0
LINE
  5
28B
330
22
100
AcDbEntity
  8
0
  6
Continuous
 62
     2
100
AcDbLine
 10
-3.000015258789062
 20
-46.0
 30
0.0
 11
2.999984741210937
 21
-46.0
 31
0.0
  0
LINE
  5
28C
330
22
100
AcDbEntity
  8
0
  6
Continuous
 62
     2
100
AcDbLine
 10
43.53999328613281
 20
5.0
 30
0.0
 11
32.46000671386719
 21
5.0
 31
0.0
  0
LINE
  5
28D
330
22
100
AcDbEntity
  8
0
  6
Continuous
 62
     2
100
AcDbLine
 10
43.53999328613281
 20
-51.0
 30
0.0
 11
32.46000671386719
 21
-51.0
 31
0.0
  0
ENDBLK
  5
28E
330
22
100
AcDbEntity
  8
0
100
AcDbBlockEnd
  0
BLOCK
  5
28F
330
23
100
AcDbEntity
  8
0
100
AcDbBlockBegin
  2
MRVS28-6
 70
     0
 10
0.0
 20
0.0
 30
0.0
  3
MRVS28-6
  1

  0
LINE
  5
290
330
23
100
AcDbEntity
  8
0
  6
Continuous
 62
     2
100
AcDbLine
 10
-7.999984741210937
 20
19.5
 30
0.0
 11
224.000015258789
 21
19.5
 31
0.0
  0
LINE
  5
291
330
23
100
AcDbEntity
  8
0
  6
Continuous
 62
     7
100
AcDbLine
 10
26.00001525878907
 20
15.38674926757812
 30
0.0
 11
90.00001525878905
 21
15.38674926757812
 31
0.0
  0
LINE
  5
292
330
23
100
AcDbEntity
  8
0
  6
Continuous
 62
     7
100
AcDbLine
 10
221.000015258789
 20
35.0
 30
0.0
 11
221.000015258789
 21
0.0
 31
0.0
  0
LINE
  5
293
330
23
100
AcDbEntity
  8
0
  6
Continuous
 62
     2
100
AcDbLine
 10
207.000015258789
 20
26.0
 30
0.0
 11
207.000015258789
 21
13.0
 31
0.0
  0
LINE
  5
294
330
23
100
AcDbEntity
  8
0
  6
Continuous
 62
     7
100
AcDbLine
 10
198.000015258789
 20
31.69999694824219
 30
0.0
 11
198.000015258789
 21
11.0
 31
0.0
  0
LINE
  5
295
330
23
100
AcDbEntity
  8
0
  6
Continuous
 62
     7
100
AcDbLine
 10
221.000015258789
 20
0.0
 30
0.0
 11
198.000015258789
 21
0.0
 31
0.0
  0
LINE
  5
296
330
23
100
AcDbEntity
  8
0
  6
Continuous
 62
     2
100
AcDbLine
 10
58.00001525878906
 20
42.56048583984375
 30
0.0
 11
58.00001525878906
 21
-2.60638427734375
 31
0.0
  0
LINE
  5
297
330
23
100
AcDbEntity
  8
0
  6
Continuous
 62
     2
100
AcDbLine
 10
9.000015258789062
 20
26.0
 30
0.0
 11
9.000015258789062
 21
13.0
 31
0.0
  0
LINE
  5
298
330
23
100
AcDbEntity
  8
0
  6
Continuous
 62
     7
100
AcDbLine
 10
18.00001525878906
 20
29.0
 30
0.0
 11
18.00001525878906
 21
11.0
 31
0.0
  0
LINE
  5
299
330
23
100
AcDbEntity
  8
0
  6
Continuous
 62
     7
100
AcDbLine
 10
26.00001525878907
 20
2.0
 30
0.0
 11
90.00001525878905
 21
2.0
 31
0.0
  0
LINE
  5
29A
330
23
100
AcDbEntity
  8
0
  6
Continuous
 62
     7
100
AcDbLine
 10
-4.999984741210937
 20
0.0
 30
0.0
 11
18.00001525878906
 21
0.0
 31
0.0
  0
LINE
  5
29B
330
23
100
AcDbEntity
  8
0
  6
Continuous
 62
     7
100
AcDbLine
 10
-4.999984741210937
 20
35.0
 30
0.0
 11
-4.999984741210937
 21
0.0
 31
0.0
  0
LINE
  5
29C
330
23
100
AcDbEntity
  8
0
  6
Continuous
 62
     7
100
AcDbLine
 10
102.000015258789
 20
30.29998779296875
 30
0.0
 11
198.000015258789
 21
30.29998779296875
 31
0.0
  0
LINE
  5
29D
330
23
100
AcDbEntity
  8
0
  6
Continuous
 62
     7
100
AcDbLine
 10
25.65000915527344
 20
23.05000305175781
 30
0.0
 11
26.00001525878907
 21
23.05000305175781
 31
0.0
  0
LINE
  5
29E
330
23
100
AcDbEntity
  8
0
  6
Continuous
 62
     7
100
AcDbLine
 10
25.65000915527344
 20
15.44999694824219
 30
0.0
 11
26.00001525878907
 21
15.44999694824219
 31
0.0
  0
LINE
  5
29F
330
23
100
AcDbEntity
  8
0
  6
Continuous
 62
     7
100
AcDbLine
 10
23.80000305175781
 20
16.26847839355469
 30
0.0
 11
23.80000305175781
 21
22.23152160644532
 31
0.0
  0
LINE
  5
2A0
330
23
100
AcDbEntity
  8
0
  6
Continuous
 62
     7
100
AcDbLine
 10
90.35002136230469
 20
23.05000305175781
 30
0.0
 11
90.00001525878905
 21
23.05000305175781
 31
0.0
  0
LINE
  5
2A1
330
23
100
AcDbEntity
  8
0
  6
Continuous
 62
     7
100
AcDbLine
 10
90.35002136230469
 20
15.44999694824219
 30
0.0
 11
90.00001525878905
 21
15.44999694824219
 31
0.0
  0
LINE
  5
2A2
330
23
100
AcDbEntity
  8
0
  6
Continuous
 62
     7
100
AcDbLine
 10
92.2000274658203
 20
16.26847839355469
 30
0.0
 11
92.2000274658203
 21
22.23152160644532
 31
0.0
  0
LINE
  5
2A3
330
23
100
AcDbEntity
  8
0
  6
Continuous
 62
     7
100
AcDbLine
 10
26.00001525878907
 20
12.45710754394531
 30
0.0
 11
28.50001525878907
 21
12.45710754394531
 31
0.0
  0
LINE
  5
2A4
330
23
100
AcDbEntity
  8
0
  6
Continuous
 62
     7
100
AcDbLine
 10
205.0000152587891
 20
35.0
 30
0.0
 11
205.0000152587891
 21
28.0
 31
0.0
  0
LINE
  5
2A5
330
23
100
AcDbEntity
  8
0
  6
Continuous
 62
     7
100
AcDbLine
 10
205.0000152587891
 20
35.0
 30
0.0
 11
221.000015258789
 21
35.0
 31
0.0
  0
LINE
  5
2A6
330
23
100
AcDbEntity
  8
0
  6
Continuous
 62
     7
100
AcDbLine
 10
198.000015258789
 20
28.0
 30
0.0
 11
205.0000152587891
 21
28.0
 31
0.0
  0
LINE
  5
2A7
330
23
100
AcDbEntity
  8
0
  6
Continuous
 62
     7
100
AcDbLine
 10
11.00001525878906
 20
35.0
 30
0.0
 11
11.00001525878906
 21
28.0
 31
0.0
  0
LINE
  5
2A8
330
23
100
AcDbEntity
  8
0
  6
Continuous
 62
     7
100
AcDbLine
 10
11.00001525878906
 20
35.0
 30
0.0
 11
-4.999984741210937
 21
35.0
 31
0.0
  0
LINE
  5
2A9
330
23
100
AcDbEntity
  8
0
  6
Continuous
 62
     7
100
AcDbLine
 10
18.00001525878906
 20
28.0
 30
0.0
 11
11.00001525878906
 21
28.0
 31
0.0
  0
LINE
  5
2AA
330
23
100
AcDbEntity
  8
0
  6
Continuous
 62
     7
100
AcDbLine
 10
198.000015258789
 20
31.69999694824219
 30
0.0
 11
205.0000152587891
 21
31.69999694824219
 31
0.0
  0
LINE
  5
2AB
330
23
100
AcDbEntity
  8
0
  6
Continuous
 62
     7
100
AcDbLine
 10
14.00001525878906
 20
38.0
 30
0.0
 11
14.00001525878906
 21
29.0
 31
0.0
  0
LINE
  5
2AC
330
23
100
AcDbEntity
  8
0
  6
Continuous
 62
     7
100
AcDbLine
 10
102.000015258789
 20
38.0
 30
0.0
 11
102.000015258789
 21
29.0
 31
0.0
  0
LINE
  5
2AD
330
23
100
AcDbEntity
  8
0
  6
Continuous
 62
     7
100
AcDbLine
 10
14.00001525878906
 20
38.0
 30
0.0
 11
102.000015258789
 21
38.0
 31
0.0
  0
LINE
  5
2AE
330
23
100
AcDbEntity
  8
0
  6
Continuous
 62
     7
100
AcDbLine
 10
14.00001525878906
 20
29.0
 30
0.0
 11
102.000015258789
 21
29.0
 31
0.0
  0
LINE
  5
2AF
330
23
100
AcDbEntity
  8
0
  6
Continuous
 62
     7
100
AcDbLine
 10
14.00001525878906
 20
31.69999694824219
 30
0.0
 11
11.00001525878906
 21
31.69999694824219
 31
0.0
  0
LINE
  5
2B0
330
23
100
AcDbEntity
  8
0
  6
Continuous
 62
     7
100
AcDbLine
 10
26.00001525878907
 20
29.0
 30
0.0
 11
26.00001525878907
 21
11.0
 31
0.0
  0
LINE
  5
2B1
330
23
100
AcDbEntity
  8
0
  6
Continuous
 62
     7
100
AcDbLine
 10
27.60002136230469
 20
29.0
 30
0.0
 11
27.60002136230469
 21
11.0
 31
0.0
  0
LINE
  5
2B2
330
23
100
AcDbEntity
  8
0
  6
Continuous
 62
     7
100
AcDbLine
 10
88.40000915527342
 20
29.0
 30
0.0
 11
88.40000915527342
 21
11.0
 31
0.0
  0
LINE
  5
2B3
330
23
100
AcDbEntity
  8
0
  6
Continuous
 62
     7
100
AcDbLine
 10
90.00001525878905
 20
29.0
 30
0.0
 11
90.00001525878905
 21
11.0
 31
0.0
  0
CIRCLE
  5
2B4
330
23
100
AcDbEntity
  8
0
  6
Continuous
 62
     7
100
AcDbCircle
 10
207.000015258789
 20
19.5
 30
0.0
 40
1.700000047683715
  0
CIRCLE
  5
2B5
330
23
100
AcDbEntity
  8
0
  6
Continuous
 62
     7
100
AcDbCircle
 10
9.000015258789062
 20
19.5
 30
0.0
 40
1.700000047683715
  0
CIRCLE
  5
2B6
330
23
100
AcDbEntity
  8
0
  6
Continuous
 62
     2
100
AcDbCircle
 10
207.000015258789
 20
19.5
 30
0.0
 40
4.849999904632568
  0
CIRCLE
  5
2B7
330
23
100
AcDbEntity
  8
0
  6
Continuous
 62
     7
100
AcDbCircle
 10
207.000015258789
 20
19.5
 30
0.0
 40
4.150000095367431
  0
CIRCLE
  5
2B8
330
23
100
AcDbEntity
  8
0
  6
Continuous
 62
     2
100
AcDbCircle
 10
9.000015258789062
 20
19.5
 30
0.0
 40
4.849999904632568
  0
CIRCLE
  5
2B9
330
23
100
AcDbEntity
  8
0
  6
Continuous
 62
     7
100
AcDbCircle
 10
9.000015258789062
 20
19.5
 30
0.0
 40
4.150000095367431
  0
ARC
  5
2BA
330
23
100
AcDbEntity
  8
0
  6
Continuous
 62
     7
100
AcDbCircle
 10
25.65000915527344
 20
20.55000305175781
 30
0.0
 40
2.5
100
AcDbArc
 50
90.00000250447817
 51
137.7314203114674
  0
ARC
  5
2BB
330
23
100
AcDbEntity
  8
0
  6
Continuous
 62
     7
100
AcDbCircle
 10
25.65000915527344
 20
17.94999694824219
 30
0.0
 40
2.5
100
AcDbArc
 50
222.2685796885325
 51
269.9999974955218
  0
ARC
  5
2BC
330
23
100
AcDbEntity
  8
0
  6
Continuous
 62
     7
100
AcDbCircle
 10
90.35002136230469
 20
20.55000305175781
 30
0.0
 40
2.5
100
AcDbArc
 50
42.26858469748889
 51
90.00000250447817
  0
ARC
  5
2BD
330
23
100
AcDbEntity
  8
0
  6
Continuous
 62
     7
100
AcDbCircle
 10
90.35002136230469
 20
17.94999694824219
 30
0.0
 40
2.5
100
AcDbArc
 50
269.9999974955218
 51
317.7314153025112
  0
LINE
  5
2BE
330
23
100
AcDbEntity
  8
0
  6
Continuous
 62
     7
100
AcDbLine
 10
-4.999984741210937
 20
4.0
 30
0.0
 11
221.000015258789
 21
4.0
 31
0.0
  0
LINE
  5
2BF
330
23
100
AcDbEntity
  8
0
  6
Continuous
 62
     7
100
AcDbLine
 10
-4.999984741210937
 20
11.0
 30
0.0
 11
221.000015258789
 21
11.0
 31
0.0
  0
LINE
  5
2C0
330
23
100
AcDbEntity
  8
0
  6
Continuous
 62
     7
100
AcDbLine
 10
13.58193969726562
 20
5.899993896484375
 30
0.0
 11
201.9180908203125
 21
5.899993896484375
 31
0.0
  0
LINE
  5
2C1
330
23
100
AcDbEntity
  8
0
  6
Continuous
 62
     7
100
AcDbLine
 10
13.58193969726562
 20
9.100006103515623
 30
0.0
 11
201.9180908203125
 21
9.100006103515623
 31
0.0
  0
CIRCLE
  5
2C2
330
23
100
AcDbEntity
  8
0
  6
Continuous
 62
     7
100
AcDbCircle
 10
12.00001525878906
 20
7.5
 30
0.0
 40
2.25
  0
CIRCLE
  5
2C3
330
23
100
AcDbEntity
  8
0
  6
Continuous
 62
     7
100
AcDbCircle
 10
12.00001525878906
 20
7.5
 30
0.0
 40
1.75
  0
LINE
  5
2C4
330
23
100
AcDbEntity
  8
0
  6
Continuous
 62
     7
100
AcDbLine
 10
11.11615322186526
 20
6.616105517605774
 30
0.0
 11
12.8839255393741
 21
8.383877835114617
 31
0.0
  0
LINE
  5
2C5
330
23
100
AcDbEntity
  8
0
  6
Continuous
 62
     7
100
AcDbLine
 10
3.000015258789062
 20
11.0
 30
0.0
 11
3.000015258789062
 21
4.0
 31
0.0
  0
LINE
  5
2C6
330
23
100
AcDbEntity
  8
0
  6
Continuous
 62
     7
100
AcDbLine
 10
3.000015258789062
 20
9.100006103515623
 30
0.0
 11
10.4180908203125
 21
9.100006103515623
 31
0.0
  0
LINE
  5
2C7
330
23
100
AcDbEntity
  8
0
  6
Continuous
 62
     7
100
AcDbLine
 10
12.8839255393741
 20
6.616110912402291
 30
0.0
 11
11.11615861666177
 21
8.383877835114617
 31
0.0
  0
LINE
  5
2C8
330
23
100
AcDbEntity
  8
0
  6
Continuous
 62
     7
100
AcDbLine
 10
3.000015258789062
 20
5.899993896484375
 30
0.0
 11
10.4180908203125
 21
5.899993896484375
 31
0.0
  0
LINE
  5
2C9
330
23
100
AcDbEntity
  8
0
  6
Continuous
 62
     7
100
AcDbLine
 10
43.50001525878905
 20
11.24999237060547
 30
0.0
 11
72.50001525878906
 21
11.24999237060547
 31
0.0
  0
LINE
  5
2CA
330
23
100
AcDbEntity
  8
0
  6
Continuous
 62
     7
100
AcDbLine
 10
43.50001525878905
 20
11.24999237060547
 30
0.0
 11
43.50001525878905
 21
11.0
 31
0.0
  0
LINE
  5
2CB
330
23
100
AcDbEntity
  8
0
  6
Continuous
 62
     7
100
AcDbLine
 10
72.50001525878906
 20
11.24999237060547
 30
0.0
 11
72.50001525878906
 21
11.0
 31
0.0
  0
LINE
  5
2CC
330
23
100
AcDbEntity
  8
0
  6
Continuous
 62
     7
100
AcDbLine
 10
213.000015258789
 20
11.0
 30
0.0
 11
213.000015258789
 21
4.0
 31
0.0
  0
ARC
  5
2CD
330
23
100
AcDbEntity
  8
0
  6
Continuous
 62
     7
100
AcDbCircle
 10
203.500015258789
 20
7.5
 30
0.0
 40
2.25
100
AcDbArc
 50
90.00000250447817
 51
270.0000006832453
  0
ARC
  5
2CE
330
23
100
AcDbEntity
  8
0
  6
Continuous
 62
     7
100
AcDbCircle
 10
204.500015258789
 20
7.5
 30
0.0
 40
2.25
100
AcDbArc
 50
269.9999974955218
 51
90.00000250447817
  0
CIRCLE
  5
2CF
330
23
100
AcDbEntity
  8
0
  6
Continuous
 62
     7
100
AcDbCircle
 10
204.000015258789
 20
7.5
 30
0.0
 40
1.75
  0
LINE
  5
2D0
330
23
100
AcDbEntity
  8
0
  6
Continuous
 62
     7
100
AcDbLine
 10
203.1161326827849
 20
6.616117655897937
 30
0.0
 11
204.8838996054973
 21
8.383884578610262
 31
0.0
  0
LINE
  5
2D1
330
23
100
AcDbEntity
  8
0
  6
Continuous
 62
     7
100
AcDbLine
 10
213.000015258789
 20
5.899993896484375
 30
0.0
 11
206.0819396972656
 21
5.899993896484375
 31
0.0
  0
LINE
  5
2D2
330
23
100
AcDbEntity
  8
0
  6
Continuous
 62
     7
100
AcDbLine
 10
204.500015258789
 20
9.75
 30
0.0
 11
203.500015258789
 21
9.75
 31
0.0
  0
LINE
  5
2D3
330
23
100
AcDbEntity
  8
0
  6
Continuous
 62
     7
100
AcDbLine
 10
213.000015258789
 20
9.100006103515623
 30
0.0
 11
206.0819396972656
 21
9.100006103515623
 31
0.0
  0
LINE
  5
2D4
330
23
100
AcDbEntity
  8
0
  6
Continuous
 62
     7
100
AcDbLine
 10
204.500015258789
 20
5.25
 30
0.0
 11
203.500015258789
 21
5.25
 31
0.0
  0
LINE
  5
2D5
330
23
100
AcDbEntity
  8
0
  6
Continuous
 62
     7
100
AcDbLine
 10
204.8838888159042
 20
6.616128445490971
 30
0.0
 11
203.1161326827849
 21
8.383884578610262
 31
0.0
  0
LINE
  5
2D6
330
23
100
AcDbEntity
  8
0
  6
Continuous
 62
     7
100
AcDbLine
 10
18.00001525878906
 20
4.0
 30
0.0
 11
18.00001525878906
 21
0.0
 31
0.0
  0
LINE
  5
2D7
330
23
100
AcDbEntity
  8
0
  6
Continuous
 62
     7
100
AcDbLine
 10
26.00001525878907
 20
4.0
 30
0.0
 11
26.00001525878907
 21
2.0
 31
0.0
  0
LINE
  5
2D8
330
23
100
AcDbEntity
  8
0
  6
Continuous
 62
     7
100
AcDbLine
 10
27.60002136230469
 20
4.0
 30
0.0
 11
27.60002136230469
 21
2.0
 31
0.0
  0
LINE
  5
2D9
330
23
100
AcDbEntity
  8
0
  6
Continuous
 62
     7
100
AcDbLine
 10
88.40000915527342
 20
4.0
 30
0.0
 11
88.40000915527342
 21
2.0
 31
0.0
  0
LINE
  5
2DA
330
23
100
AcDbEntity
  8
0
  6
Continuous
 62
     7
100
AcDbLine
 10
90.00001525878905
 20
4.0
 30
0.0
 11
90.00001525878905
 21
2.0
 31
0.0
  0
LINE
  5
2DB
330
23
100
AcDbEntity
  8
0
  6
Continuous
 62
     7
100
AcDbLine
 10
198.000015258789
 20
4.0
 30
0.0
 11
198.000015258789
 21
0.0
 31
0.0
  0
LINE
  5
2DC
330
23
100
AcDbEntity
  8
0
  6
Continuous
 62
     7
100
AcDbLine
 10
28.50001525878907
 20
14.56698608398437
 30
0.0
 11
87.50001525878905
 21
14.56698608398437
 31
0.0
  0
LINE
  5
2DD
330
23
100
AcDbEntity
  8
0
  6
Continuous
 62
     7
100
AcDbLine
 10
28.50001525878907
 20
15.0
 30
0.0
 11
87.50001525878905
 21
15.0
 31
0.0
  0
LINE
  5
2DE
330
23
100
AcDbEntity
  8
0
  6
Continuous
 62
     7
100
AcDbLine
 10
28.85079956054688
 20
12.21132659912109
 30
0.0
 11
87.00497436523438
 21
12.21132659912109
 31
0.0
  0
LINE
  5
2DF
330
23
100
AcDbEntity
  8
0
  6
Continuous
 62
     7
100
AcDbLine
 10
28.50001525878907
 20
15.0
 30
0.0
 11
28.50001525878907
 21
11.0
 31
0.0
  0
LINE
  5
2E0
330
23
100
AcDbEntity
  8
0
  6
Continuous
 62
     7
100
AcDbLine
 10
87.50001525878905
 20
15.0
 30
0.0
 11
87.50001525878905
 21
11.0
 31
0.0
  0
LINE
  5
2E1
330
23
100
AcDbEntity
  8
0
  6
Continuous
 62
     7
100
AcDbLine
 10
87.50001525878905
 20
12.45710754394531
 30
0.0
 11
90.00001525878905
 21
12.45710754394531
 31
0.0
  0
LINE
  5
2E2
330
23
100
AcDbEntity
  8
0
  6
CENTER
 62
     2
100
AcDbLine
 10
65.41041701657434
 20
7.5
 30
0.0
 11
42.49712842276135
 21
7.5
 31
0.0
  0
LINE
  5
2E3
330
23
100
AcDbEntity
  8
0
  6
Continuous
 62
     2
100
AcDbLine
 10
62.00001525878906
 20
10.44285714285715
 30
0.0
 11
62.00001525878906
 21
4.200015326576532
 31
0.0
  0
LINE
  5
2E4
330
23
100
AcDbEntity
  8
0
  6
Continuous
 62
     2
100
AcDbLine
 10
46.24770578996693
 20
8.800000000000011
 30
0.0
 11
44.74655105555581
 21
6.200000000000002
 31
0.0
  0
LINE
  5
2E5
330
23
100
AcDbEntity
  8
0
  6
Continuous
 62
     7
100
AcDbLine
 10
48.50001525878906
 20
6.200000000000002
 30
0.0
 11
44.74655105555581
 21
6.200000000000002
 31
0.0
  0
LINE
  5
2E6
330
23
100
AcDbEntity
  8
0
  6
Continuous
 62
     7
100
AcDbLine
 10
48.50001525878906
 20
8.800000000000011
 30
0.0
 11
46.24770578996693
 21
8.800000000000011
 31
0.0
  0
LINE
  5
2E7
330
23
100
AcDbEntity
  8
0
  6
Continuous
 62
     7
100
AcDbLine
 10
60.10001525878909
 20
6.0
 30
0.0
 11
60.10001525878909
 21
9.0
 31
0.0
  0
LINE
  5
2E8
330
23
100
AcDbEntity
  8
0
  6
Continuous
 62
     7
100
AcDbLine
 10
53.60001525878909
 20
6.0
 30
0.0
 11
53.60001525878909
 21
9.0
 31
0.0
  0
LINE
  5
2E9
330
23
100
AcDbEntity
  8
0
  6
Continuous
 62
     7
100
AcDbLine
 10
64.00001526355743
 20
5.899993896484375
 30
0.0
 11
64.00001526355743
 21
9.100006103515623
 31
0.0
  0
LINE
  5
2EA
330
23
100
AcDbEntity
  8
0
  6
Continuous
 62
     7
100
AcDbLine
 10
48.50001525878906
 20
5.899993896484375
 30
0.0
 11
48.50001525878906
 21
9.100006103515623
 31
0.0
  0
LINE
  5
2EB
330
23
100
AcDbEntity
  8
0
  6
Continuous
 62
     7
100
AcDbLine
 10
64.00001526355743
 20
9.0
 30
0.0
 11
48.50001525878906
 21
9.0
 31
0.0
  0
LINE
  5
2EC
330
23
100
AcDbEntity
  8
0
  6
Continuous
 62
     7
100
AcDbLine
 10
64.00001526355743
 20
6.0
 30
0.0
 11
48.50001525878906
 21
6.0
 31
0.0
  0
CIRCLE
  5
2ED
330
23
100
AcDbEntity
  8
0
  6
Continuous
 62
     7
100
AcDbCircle
 10
62.00001525878906
 20
7.5
 30
0.0
 40
1.399999999999999
  0
CIRCLE
  5
2EE
330
23
100
AcDbEntity
  8
0
  6
Continuous
 62
     7
100
AcDbCircle
 10
62.00001525878906
 20
7.5
 30
0.0
 40
1.25
  0
CIRCLE
  5
2EF
330
23
100
AcDbEntity
  8
0
  6
Continuous
 62
     2
100
AcDbCircle
 10
62.00001525878906
 20
7.5
 30
0.0
 40
1.05
  0
LINE
  5
2F0
330
23
100
AcDbEntity
  8
0
  6
Continuous
 62
     7
100
AcDbLine
 10
63.04281736488213
 20
6.810751302120991
 30
0.0
 11
61.31076656091004
 21
8.542802106093033
 31
0.0
  0
LINE
  5
2F1
330
23
100
AcDbEntity
  8
0
  6
Continuous
 62
     7
100
AcDbLine
 10
62.68926394462585
 20
6.457197927747444
 30
0.0
 11
60.95721315111433
 21
8.189248721258991
 31
0.0
  0
LINE
  5
2F2
330
23
100
AcDbEntity
  8
0
  6
Continuous
 62
     2
100
AcDbLine
 10
162.0000152540207
 20
10.44285714285715
 30
0.0
 11
162.0000152540207
 21
4.200015326576532
 31
0.0
  0
LINE
  5
2F3
330
23
100
AcDbEntity
  8
0
  6
CENTER
 62
     2
100
AcDbLine
 10
165.410417011806
 20
7.5
 30
0.0
 11
142.497128417993
 21
7.5
 31
0.0
  0
LINE
  5
2F4
330
23
100
AcDbEntity
  8
0
  6
Continuous
 62
     7
100
AcDbLine
 10
162.6892639398574
 20
6.457197927747444
 30
0.0
 11
160.9572131463459
 21
8.189248721258991
 31
0.0
  0
LINE
  5
2F5
330
23
100
AcDbEntity
  8
0
  6
Continuous
 62
     7
100
AcDbLine
 10
163.0428173601137
 20
6.810751302120991
 30
0.0
 11
161.3107665561417
 21
8.542802106093033
 31
0.0
  0
CIRCLE
  5
2F6
330
23
100
AcDbEntity
  8
0
  6
Continuous
 62
     2
100
AcDbCircle
 10
162.0000152540207
 20
7.5
 30
0.0
 40
1.05
  0
CIRCLE
  5
2F7
330
23
100
AcDbEntity
  8
0
  6
Continuous
 62
     7
100
AcDbCircle
 10
162.0000152540207
 20
7.5
 30
0.0
 40
1.25
  0
CIRCLE
  5
2F8
330
23
100
AcDbEntity
  8
0
  6
Continuous
 62
     7
100
AcDbCircle
 10
162.0000152540207
 20
7.5
 30
0.0
 40
1.399999999999999
  0
LINE
  5
2F9
330
23
100
AcDbEntity
  8
0
  6
Continuous
 62
     7
100
AcDbLine
 10
164.000015258789
 20
6.0
 30
0.0
 11
148.5000152540207
 21
6.0
 31
0.0
  0
LINE
  5
2FA
330
23
100
AcDbEntity
  8
0
  6
Continuous
 62
     7
100
AcDbLine
 10
164.000015258789
 20
9.0
 30
0.0
 11
148.5000152540207
 21
9.0
 31
0.0
  0
LINE
  5
2FB
330
23
100
AcDbEntity
  8
0
  6
Continuous
 62
     7
100
AcDbLine
 10
148.5000152540207
 20
5.899993896484375
 30
0.0
 11
148.5000152540207
 21
9.100006103515623
 31
0.0
  0
LINE
  5
2FC
330
23
100
AcDbEntity
  8
0
  6
Continuous
 62
     7
100
AcDbLine
 10
164.000015258789
 20
5.899993896484375
 30
0.0
 11
164.000015258789
 21
9.100006103515623
 31
0.0
  0
LINE
  5
2FD
330
23
100
AcDbEntity
  8
0
  6
Continuous
 62
     7
100
AcDbLine
 10
153.6000152540207
 20
6.0
 30
0.0
 11
153.6000152540207
 21
9.0
 31
0.0
  0
LINE
  5
2FE
330
23
100
AcDbEntity
  8
0
  6
Continuous
 62
     7
100
AcDbLine
 10
160.1000152540207
 20
6.0
 30
0.0
 11
160.1000152540207
 21
9.0
 31
0.0
  0
LINE
  5
2FF
330
23
100
AcDbEntity
  8
0
  6
Continuous
 62
     7
100
AcDbLine
 10
148.5000152540207
 20
8.800000000000011
 30
0.0
 11
146.2477057851985
 21
8.800000000000011
 31
0.0
  0
LINE
  5
300
330
23
100
AcDbEntity
  8
0
  6
Continuous
 62
     7
100
AcDbLine
 10
148.5000152540207
 20
6.200000000000002
 30
0.0
 11
144.7465510507874
 21
6.200000000000002
 31
0.0
  0
LINE
  5
301
330
23
100
AcDbEntity
  8
0
  6
Continuous
 62
     2
100
AcDbLine
 10
146.2477057851985
 20
8.800000000000011
 30
0.0
 11
144.7465510507874
 21
6.200000000000002
 31
0.0
  0
LINE
  5
302
330
23
100
AcDbEntity
  8
0
  6
Continuous
 62
     2
100
AcDbLine
 10
1.500015258789062
 20
-3.0
 30
0.0
 11
1.500015258789062
 21
3.0
 31
0.0
  0
LINE
  5
303
330
23
100
AcDbEntity
  8
0
  6
Continuous
 62
     2
100
AcDbLine
 10
214.500015258789
 20
-3.0
 30
0.0
 11
214.500015258789
 21
3.0
 31
0.0
  0
LINE
  5
304
330
23
100
AcDbEntity
  8
0
  6
Continuous
 62
     2
100
AcDbLine
 10
20.00001525878907
 20
35.0
 30
0.0
 11
20.00001525878907
 21
41.0
 31
0.0
  0
LINE
  5
305
330
23
100
AcDbEntity
  8
0
  6
Continuous
 62
     2
100
AcDbLine
 10
96.00001525878907
 20
35.0
 30
0.0
 11
96.00001525878907
 21
41.0
 31
0.0
  0
LINE
  5
306
330
23
100
AcDbEntity
  8
0
  6
PHANTOM
 62
     3
100
AcDbLine
 10
121.500015258789
 20
69.69789499266103
 30
0.0
 11
121.500015258789
 21
-10.95894736842106
 31
0.0
  0
ENDBLK
  5
307
330
23
100
AcDbEntity
  8
0
100
AcDbBlockEnd
  0
ENDSEC
  0
SECTION
  2
ENTITIES
  0
MTEXT
  5
308
330
A
100
AcDbEntity
  8
0
  6
Continuous
 62
     7
100
AcDbMText
 10
163.6308820052416
 20
-182.5355480780237
 30
0.0
 40
6.300000190734863
 41
0.0
 71
     4
 72
     5
  1
\W0.833;\A1;（ｍｍ）
 73
     1
 44
1.0
1001
ACAD
1000
MTEXTBEGIN
1070
    73
1070
     1
1070
    44
1040
1.0
1070
    74
1070
     0
1000
MTEXTEND
  0
LINE
  5
309
330
A
100
AcDbEntity
  8
0
  6
Continuous
 62
     7
100
AcDbLine
 10
182.7
 20
-187.6
 30
0.0
 11
182.7
 21
-210.0
 31
0.0
  0
MTEXT
  5
30A
330
A
100
AcDbEntity
  8
0
  6
Continuous
 62
     7
100
AcDbMText
 10
158.6812497672624
 20
-193.2
 30
0.0
 40
6.300000190734863
 41
0.0
 71
     4
 72
     5
  1
\W1.125;\A1;800
 73
     1
 44
1.0
1001
ACAD
1000
MTEXTBEGIN
1070
    73
1070
     1
1070
    44
1040
1.0
1070
    74
1070
     0
1000
MTEXTEND
  0
MTEXT
  5
30B
330
A
100
AcDbEntity
  8
0
  6
Continuous
 62
     7
100
AcDbMText
 10
158.6812497672624
 20
-204.4
 30
0.0
 40
6.300000190734863
 41
0.0
 71
     4
 72
     5
  1
\W1.125;\A1;700
 73
     1
 44
1.0
1001
ACAD
1000
MTEXTBEGIN
1070
    73
1070
     1
1070
    44
1040
1.0
1070
    74
1070
     0
1000
MTEXTEND
  0
MTEXT
  5
30C
330
A
100
AcDbEntity
  8
0
  6
Continuous
 62
     7
100
AcDbMText
 10
-36.68165791725679
 20
-179.3770759809664
 30
0.0
 40
6.300000190734863
 41
0.0
 71
     4
 72
     5
  1
\W1.065;\A1;STRETCH LIST
 73
     1
 44
1.0
1001
ACAD
1000
MTEXTBEGIN
1070
    73
1070
     1
1070
    44
1040
1.0
1070
    74
1070
     0
1000
MTEXTEND
  0
LINE
  5
30D
330
A
100
AcDbEntity
  8
0
  6
Continuous
 62
     7
100
AcDbLine
 10
151.1999999999999
 20
-187.6
 30
0.0
 11
151.1999999999999
 21
-210.0
 31
0.0
  0
MTEXT
  5
30E
330
A
100
AcDbEntity
  8
0
  6
Continuous
 62
     7
100
AcDbMText
 10
127.1812497672624
 20
-204.4
 30
0.0
 40
6.300000190734863
 41
0.0
 71
     4
 72
     5
  1
\W1.125;\A1;600
 73
     1
 44
1.0
1001
ACAD
1000
MTEXTBEGIN
1070
    73
1070
     1
1070
    44
1040
1.0
1070
    74
1070
     0
1000
MTEXTEND
  0
MTEXT
  5
30F
330
A
100
AcDbEntity
  8
0
  6
Continuous
 62
     7
100
AcDbMText
 10
127.1812497672624
 20
-193.2
 30
0.0
 40
6.300000190734863
 41
0.0
 71
     4
 72
     5
  1
\W1.125;\A1;700
 73
     1
 44
1.0
1001
ACAD
1000
MTEXTBEGIN
1070
    73
1070
     1
1070
    44
1040
1.0
1070
    74
1070
     0
1000
MTEXTEND
  0
LINE
  5
310
330
A
100
AcDbEntity
  8
0
  6
Continuous
 62
     7
100
AcDbLine
 10
119.6999999999999
 20
-187.6
 30
0.0
 11
119.6999999999999
 21
-210.0
 31
0.0
  0
MTEXT
  5
311
330
A
100
AcDbEntity
  8
0
  6
Continuous
 62
     7
100
AcDbMText
 10
95.68124976726243
 20
-204.4
 30
0.0
 40
6.300000190734863
 41
0.0
 71
     4
 72
     5
  1
\W1.125;\A1;500
 73
     1
 44
1.0
1001
ACAD
1000
MTEXTBEGIN
1070
    73
1070
     1
1070
    44
1040
1.0
1070
    74
1070
     0
1000
MTEXTEND
  0
MTEXT
  5
312
330
A
100
AcDbEntity
  8
0
  6
Continuous
 62
     7
100
AcDbMText
 10
95.68124976726243
 20
-193.2
 30
0.0
 40
6.300000190734863
 41
0.0
 71
     4
 72
     5
  1
\W1.125;\A1;600
 73
     1
 44
1.0
1001
ACAD
1000
MTEXTBEGIN
1070
    73
1070
     1
1070
    44
1040
1.0
1070
    74
1070
     0
1000
MTEXTEND
  0
LINE
  5
313
330
A
100
AcDbEntity
  8
0
  6
Continuous
 62
     7
100
AcDbLine
 10
88.19999999999994
 20
-187.6
 30
0.0
 11
88.19999999999994
 21
-210.0
 31
0.0
  0
MTEXT
  5
314
330
A
100
AcDbEntity
  8
0
  6
Continuous
 62
     7
100
AcDbMText
 10
64.18124976726244
 20
-204.4
 30
0.0
 40
6.300000190734863
 41
0.0
 71
     4
 72
     5
  1
\W1.125;\A1;400
 73
     1
 44
1.0
1001
ACAD
1000
MTEXTBEGIN
1070
    73
1070
     1
1070
    44
1040
1.0
1070
    74
1070
     0
1000
MTEXTEND
  0
MTEXT
  5
315
330
A
100
AcDbEntity
  8
0
  6
Continuous
 62
     7
100
AcDbMText
 10
64.18124976726244
 20
-193.2
 30
0.0
 40
6.300000190734863
 41
0.0
 71
     4
 72
     5
  1
\W1.125;\A1;500
 73
     1
 44
1.0
1001
ACAD
1000
MTEXTBEGIN
1070
    73
1070
     1
1070
    44
1040
1.0
1070
    74
1070
     0
1000
MTEXTEND
  0
MTEXT
  5
316
330
A
100
AcDbEntity
  8
0
  6
Continuous
 62
     7
100
AcDbMText
 10
32.61176446123518
 20
-204.4
 30
0.0
 40
6.300000190734863
 41
0.0
 71
     4
 72
     5
  1
\W1.059;\A1;350
 73
     1
 44
1.0
1001
ACAD
1000
MTEXTBEGIN
1070
    73
1070
     1
1070
    44
1040
1.0
1070
    74
1070
     0
1000
MTEXTEND
  0
MTEXT
  5
317
330
A
100
AcDbEntity
  8
0
  6
Continuous
 62
     7
100
AcDbMText
 10
32.61176446123518
 20
-193.2
 30
0.0
 40
6.300000190734863
 41
0.0
 71
     4
 72
     5
  1
\W1.059;\A1;450
 73
     1
 44
1.0
1001
ACAD
1000
MTEXTBEGIN
1070
    73
1070
     1
1070
    44
1040
1.0
1070
    74
1070
     0
1000
MTEXTEND
  0
MTEXT
  5
318
330
A
100
AcDbEntity
  8
0
  6
Continuous
 62
     7
100
AcDbMText
 10
1.181249767262478
 20
-204.4
 30
0.0
 40
6.300000190734863
 41
0.0
 71
     4
 72
     5
  1
\W1.125;\A1;300
 73
     1
 44
1.0
1001
ACAD
1000
MTEXTBEGIN
1070
    73
1070
     1
1070
    44
1040
1.0
1070
    74
1070
     0
1000
MTEXTEND
  0
MTEXT
  5
319
330
A
100
AcDbEntity
  8
0
  6
Continuous
 62
     7
100
AcDbMText
 10
1.181249767262478
 20
-193.2
 30
0.0
 40
6.300000190734863
 41
0.0
 71
     4
 72
     5
  1
\W1.125;\A1;400
 73
     1
 44
1.0
1001
ACAD
1000
MTEXTBEGIN
1070
    73
1070
     1
1070
    44
1040
1.0
1070
    74
1070
     0
1000
MTEXTEND
  0
LINE
  5
31A
330
A
100
AcDbEntity
  8
0
  6
Continuous
 62
     7
100
AcDbLine
 10
56.69999999999999
 20
-187.6
 30
0.0
 11
56.69999999999999
 21
-210.0
 31
0.0
  0
LINE
  5
31B
330
A
100
AcDbEntity
  8
0
  6
Continuous
 62
     7
100
AcDbLine
 10
-6.300000000000011
 20
-187.6
 30
0.0
 11
-6.300000000000011
 21
-210.0
 31
0.0
  0
LINE
  5
31C
330
A
100
AcDbEntity
  8
0
  6
Continuous
 62
     7
100
AcDbLine
 10
25.2
 20
-187.6
 30
0.0
 11
25.2
 21
-210.0
 31
0.0
  0
LINE
  5
31D
330
A
100
AcDbEntity
  8
0
  6
Continuous
 62
     7
100
AcDbLine
 10
-69.30000000000004
 20
-187.6
 30
0.0
 11
-69.30000000000004
 21
-210.0
 31
0.0
  0
LINE
  5
31E
330
A
100
AcDbEntity
  8
0
  6
Continuous
 62
     7
100
AcDbLine
 10
-37.80000000000001
 20
-187.6
 30
0.0
 11
-37.80000000000001
 21
-210.0
 31
0.0
  0
LINE
  5
31F
330
A
100
AcDbEntity
  8
0
  6
Continuous
 62
     7
100
AcDbLine
 10
-100.8
 20
-187.6
 30
0.0
 11
-100.8
 21
-210.0
 31
0.0
  0
LINE
  5
320
330
A
100
AcDbEntity
  8
0
  6
Continuous
 62
     7
100
AcDbLine
 10
-132.3
 20
-187.6
 30
0.0
 11
-132.3
 21
-210.0
 31
0.0
  0
MTEXT
  5
321
330
A
100
AcDbEntity
  8
0
  6
Continuous
 62
     7
100
AcDbMText
 10
-30.38823553876482
 20
-204.4
 30
0.0
 40
6.300000190734863
 41
0.0
 71
     4
 72
     5
  1
\W1.059;\A1;250
 73
     1
 44
1.0
1001
ACAD
1000
MTEXTBEGIN
1070
    73
1070
     1
1070
    44
1040
1.0
1070
    74
1070
     0
1000
MTEXTEND
  0
MTEXT
  5
322
330
A
100
AcDbEntity
  8
0
  6
Continuous
 62
     7
100
AcDbMText
 10
-30.38823553876485
 20
-193.2
 30
0.0
 40
6.300000190734863
 41
0.0
 71
     4
 72
     5
  1
\W1.059;\A1;350
 73
     1
 44
1.0
1001
ACAD
1000
MTEXTBEGIN
1070
    73
1070
     1
1070
    44
1040
1.0
1070
    74
1070
     0
1000
MTEXTEND
  0
MTEXT
  5
323
330
A
100
AcDbEntity
  8
0
  6
Continuous
 62
     7
100
AcDbMText
 10
-61.81875023273752
 20
-204.4
 30
0.0
 40
6.300000190734863
 41
0.0
 71
     4
 72
     5
  1
\W1.125;\A1;200
 73
     1
 44
1.0
1001
ACAD
1000
MTEXTBEGIN
1070
    73
1070
     1
1070
    44
1040
1.0
1070
    74
1070
     0
1000
MTEXTEND
  0
MTEXT
  5
324
330
A
100
AcDbEntity
  8
0
  6
Continuous
 62
     7
100
AcDbMText
 10
-61.81875023273752
 20
-193.2
 30
0.0
 40
6.300000190734863
 41
0.0
 71
     4
 72
     5
  1
\W1.125;\A1;300
 73
     1
 44
1.0
1001
ACAD
1000
MTEXTBEGIN
1070
    73
1070
     1
1070
    44
1040
1.0
1070
    74
1070
     0
1000
MTEXTEND
  0
MTEXT
  5
325
330
A
100
AcDbEntity
  8
0
  6
Continuous
 62
     7
100
AcDbMText
 10
-93.2400002479553
 20
-204.4
 30
0.0
 40
6.300000190734863
 41
0.0
 71
     4
 72
     5
  1
\W1.200;\A1;150
 73
     1
 44
1.0
1001
ACAD
1000
MTEXTBEGIN
1070
    73
1070
     1
1070
    44
1040
1.0
1070
    74
1070
     0
1000
MTEXTEND
  0
MTEXT
  5
326
330
A
100
AcDbEntity
  8
0
  6
Continuous
 62
     7
100
AcDbMText
 10
-93.3882355387648
 20
-193.2
 30
0.0
 40
6.300000190734863
 41
0.0
 71
     4
 72
     5
  1
\W1.059;\A1;250
 73
     1
 44
1.0
1001
ACAD
1000
MTEXTBEGIN
1070
    73
1070
     1
1070
    44
1040
1.0
1070
    74
1070
     0
1000
MTEXTEND
  0
MTEXT
  5
327
330
A
100
AcDbEntity
  8
0
  6
Continuous
 62
     7
100
AcDbMText
 10
-124.6500002337353
 20
-204.4
 30
0.0
 40
6.300000190734863
 41
0.0
 71
     4
 72
     5
  1
\W1.286;\A1;100
 73
     1
 44
1.0
1001
ACAD
1000
MTEXTBEGIN
1070
    73
1070
     1
1070
    44
1040
1.0
1070
    74
1070
     0
1000
MTEXTEND
  0
MTEXT
  5
328
330
A
100
AcDbEntity
  8
0
  6
Continuous
 62
     7
100
AcDbMText
 10
-124.8187502327375
 20
-193.2
 30
0.0
 40
6.300000190734863
 41
0.0
 71
     4
 72
     5
  1
\W1.125;\A1;200
 73
     1
 44
1.0
1001
ACAD
1000
MTEXTBEGIN
1070
    73
1070
     1
1070
    44
1040
1.0
1070
    74
1070
     0
1000
MTEXTEND
  0
MTEXT
  5
329
330
A
100
AcDbEntity
  8
0
  6
Continuous
 62
     7
100
AcDbMText
 10
-178.9500009218851
 20
-204.4
 30
0.0
 40
6.300000190734863
 41
0.0
 71
     4
 72
     5
  1
\A1;STRETCH
 73
     1
 44
1.0
1001
ACAD
1000
MTEXTBEGIN
1070
    73
1070
     1
1070
    44
1040
1.0
1070
    74
1070
     0
1000
MTEXTEND
  0
MTEXT
  5
32A
330
A
100
AcDbEntity
  8
0
  6
Continuous
 62
     7
100
AcDbMText
 10
-175.3500005404154
 20
-193.2
 30
0.0
 40
6.300000190734863
 41
0.0
 71
     4
 72
     5
  1
\A1;STROKE
 73
     1
 44
1.0
1001
ACAD
1000
MTEXTBEGIN
1070
    73
1070
     1
1070
    44
1040
1.0
1070
    74
1070
     0
1000
MTEXTEND
  0
LINE
  5
32B
330
A
100
AcDbEntity
  8
0
  6
Continuous
 62
     7
100
AcDbLine
 10
-182.7
 20
-187.6
 30
0.0
 11
-182.7
 21
-210.0
 31
0.0
  0
LINE
  5
32C
330
A
100
AcDbEntity
  8
0
  6
Continuous
 62
     7
100
AcDbLine
 10
-182.7
 20
-187.6
 30
0.0
 11
182.7
 21
-187.6
 31
0.0
  0
LINE
  5
32D
330
A
100
AcDbEntity
  8
0
  6
Continuous
 62
     7
100
AcDbLine
 10
-182.7
 20
-198.8
 30
0.0
 11
182.7
 21
-198.8
 31
0.0
  0
LINE
  5
32E
330
A
100
AcDbEntity
  8
0
  6
Continuous
 62
     7
100
AcDbLine
 10
-182.7
 20
-210.0
 30
0.0
 11
182.7
 21
-210.0
 31
0.0
  0
INSERT
  5
32F
330
A
100
AcDbEntity
  8
0
  6
ByBlock
100
AcDbBlockReference
  2
MRVS28-6
 10
138.499985
 20
-60.0
 30
0.0
  0
INSERT
  5
330
330
A
100
AcDbEntity
  8
0
  6
ByBlock
100
AcDbBlockReference
  2
MRVS28-5
 10
50.0
 20
110.0
 30
0.0
  0
INSERT
  5
331
330
A
100
AcDbEntity
  8
0
  6
ByBlock
100
AcDbBlockReference
  2
MRVS28-4
 10
140.0
 20
110.0
 30
0.0
  0
INSERT
  5
332
330
A
100
AcDbEntity
  8
0
  6
ByBlock
100
AcDbBlockReference
  2
MRVS28-3
 10
-260.0
 20
-60.0
 30
0.0
  0
INSERT
  5
333
330
A
100
AcDbEntity
  8
0
  6
ByBlock
100
AcDbBlockReference
  2
MRVS28-2
 10
-350.0
 20
110.0
 30
0.0
  0
INSERT
  5
334
330
A
100
AcDbEntity
  8
0
  6
ByBlock
100
AcDbBlockReference
  2
MRVS28-1
 10
-260.0
 20
110.0
 30
0.0
  0
MTEXT
  5
335
330
A
100
AcDbEntity
  8
0
  6
Continuous
 62
     7
100
AcDbMText
 10
95.47870638813392
 20
219.4749999046326
 30
0.0
 40
9.0
 41
0.0
 71
     4
 72
     5
  1
\W1.079;\A1;(WITH SENSOR SWITCH)
 73
     1
 44
1.0
1001
ACAD
1000
MTEXTBEGIN
1070
    73
1070
     1
1070
    44
1040
1.0
1070
    74
1070
     0
1000
MTEXTEND
  0
MTEXT
  5
336
330
A
100
AcDbEntity
  8
0
  6
Continuous
 62
     7
100
AcDbMText
 10
-324.5212936118661
 20
219.4749999046326
 30
0.0
 40
9.0
 41
0.0
 71
     4
 72
     5
  1
\W1.079;\A1;(WITH SENSOR SWITCH)
 73
     1
 44
1.0
1001
ACAD
1000
MTEXTBEGIN
1070
    73
1070
     1
1070
    44
1040
1.0
1070
    74
1070
     0
1000
MTEXTEND
  0
MTEXT
  5
337
330
A
100
AcDbEntity
  8
0
  6
Continuous
 62
     3
100
AcDbMText
 10
213.4654343574156
 20
171.1174757171661
 30
0.0
 40
6.300000190734863
 41
0.0
 71
     4
 72
     5
  1
\W1.065;\A1;STRETCH LINE
 73
     1
 44
1.0
1001
ACAD
1000
MTEXTBEGIN
1070
    73
1070
     1
1070
    44
1040
1.0
1070
    74
1070
     0
1000
MTEXTEND
  0
MTEXT
  5
338
330
A
100
AcDbEntity
  8
0
  6
Continuous
 62
     7
100
AcDbMText
 10
37.59804786064553
 20
231.5
 30
0.0
 40
9.0
 41
0.0
 71
     4
 72
     5
  1
{\W1.082;MODEL:CS-MRVS28*ST(100)-M}
 73
     1
 44
1.0
1001
ACAD
1000
ACAD_MTEXT_DEFINED_HEIGHT_BEGIN
1070
    46
1040
0.0
1000
ACAD_MTEXT_DEFINED_HEIGHT_END
1000
MTEXTBEGIN
1070
    73
1070
     1
1070
    44
1040
1.0
1070
    74
1070
     0
1000
MTEXTEND
  0
MTEXT
  5
339
330
A
100
AcDbEntity
  8
0
  6
Continuous
 62
     3
100
AcDbMText
 10
-187.9785798506349
 20
172.3294848320352
 30
0.0
 40
6.300000190734863
 41
0.0
 71
     4
 72
     5
  1
\W1.065;\A1;STRETCH LINE
 73
     1
 44
1.0
1001
ACAD
1000
MTEXTBEGIN
1070
    73
1070
     1
1070
    44
1040
1.0
1070
    74
1070
     0
1000
MTEXTEND
  0
LINE
  5
33A
330
A
100
AcDbEntity
  8
0
  6
Continuous
 62
     7
100
AcDbLine
 10
0.0
 20
276.5
 30
0.0
 11
0.0
 21
-160.0
 31
0.0
  0
MTEXT
  5
33B
330
A
100
AcDbEntity
  8
0
  6
Continuous
 62
     7
100
AcDbMText
 10
-345.1038551419726
 20
257.75
 30
0.0
 40
9.0
 41
0.0
 71
     4
 72
     5
  1
{\W0.947;CS-MRVS28}
 73
     1
 44
1.0
1001
ACAD
1000
ACAD_MTEXT_DEFINED_HEIGHT_BEGIN
1070
    46
1040
0.0
1000
ACAD_MTEXT_DEFINED_HEIGHT_END
1000
MTEXTBEGIN
1070
    73
1070
     1
1070
    44
1040
1.0
1070
    74
1070
     0
1000
MTEXTEND
  0
MTEXT
  5
33C
330
A
100
AcDbEntity
  8
0
  6
Continuous
 62
     7
100
AcDbMText
 10
-389.9528648696769
 20
270.25
 30
0.0
 40
9.0
 41
0.0
 71
     4
 72
     5
  1
\W1.048;\A1;RODLESS CYLINDER
 73
     1
 44
1.0
1001
ACAD
1000
MTEXTBEGIN
1070
    73
1070
     1
1070
    44
1040
1.0
1070
    74
1070
     0
1000
MTEXTEND
  0
LINE
  5
33D
330
A
100
AcDbEntity
  8
0
  6
Continuous
 62
     7
100
AcDbLine
 10
239.52490234375
 20
-251.5
 30
0.0
 11
239.52490234375
 21
-276.5
 31
0.0
  0
LINE
  5
33E
330
A
100
AcDbEntity
  8
0
  6
Continuous
 62
     7
100
AcDbLine
 10
239.52490234375
 20
-251.5
 30
0.0
 11
399.52490234375
 21
-251.5
 31
0.0
  0
LINE
  5
33F
330
A
100
AcDbEntity
  8
0
  6
Continuous
 62
     7
100
AcDbLine
 10
239.52490234375
 20
251.5
 30
0.0
 11
239.52490234375
 21
276.5
 31
0.0
  0
LINE
  5
340
330
A
100
AcDbEntity
  8
0
  6
Continuous
 62
     7
100
AcDbLine
 10
239.52490234375
 20
251.5
 30
0.0
 11
399.52490234375
 21
251.5
 31
0.0
  0
LINE
  5
341
330
A
100
AcDbEntity
  8
0
  6
Continuous
 62
     7
100
AcDbLine
 10
-239.52490234375
 20
251.5
 30
0.0
 11
-239.52490234375
 21
276.5
 31
0.0
  0
LINE
  5
342
330
A
100
AcDbEntity
  8
0
  6
Continuous
 62
     7
100
AcDbLine
 10
-239.52490234375
 20
251.5
 30
0.0
 11
-399.52490234375
 21
251.5
 31
0.0
  0
MTEXT
  5
343
330
A
100
AcDbEntity
  8
0
  6
Continuous
 62
     7
100
AcDbMText
 10
245.6096604111856
 20
-264.0
 30
0.0
 40
12.5
 41
0.0
 71
     4
 72
     5
  1
\W1.121;\A1;KOGANEI CORP.
 73
     1
 44
1.0
1001
ACAD
1000
MTEXTBEGIN
1070
    73
1070
     1
1070
    44
1040
1.0
1070
    74
1070
     0
1000
MTEXTEND
  0
MTEXT
  5
344
330
A
100
AcDbEntity
  8
0
  6
Continuous
 62
     7
100
AcDbMText
 10
285.4921082267942
 20
264.0
 30
0.0
 40
9.0
 41
0.0
 71
     4
 72
     5
  1
\W1.311;\A1;Ver. 1.0
 73
     1
 44
1.0
1001
ACAD
1000
MTEXTBEGIN
1070
    73
1070
     1
1070
    44
1040
1.0
1070
    74
1070
     0
1000
MTEXTEND
  0
MTEXT
  5
345
330
A
100
AcDbEntity
  8
0
  6
Continuous
 62
     7
100
AcDbMText
 10
-382.3885393204768
 20
231.5
 30
0.0
 40
9.0
 41
0.0
 71
     4
 72
     5
  1
{\W1.091;MODEL:CS-MRVS28*ST(100)}
 73
     1
 44
1.0
1001
ACAD
1000
ACAD_MTEXT_DEFINED_HEIGHT_BEGIN
1070
    46
1040
0.0
1000
ACAD_MTEXT_DEFINED_HEIGHT_END
1000
MTEXTBEGIN
1070
    73
1070
     1
1070
    44
1040
1.0
1070
    74
1070
     0
1000
MTEXTEND
  0
LINE
  5
346
330
A
100
AcDbEntity
  8
0
  6
Continuous
 62
     7
100
AcDbLine
 10
-399.52490234375
 20
-276.5
 30
0.0
 11
399.52490234375
 21
-276.5
 31
0.0
  0
LINE
  5
347
330
A
100
AcDbEntity
  8
0
  6
Continuous
 62
     7
100
AcDbLine
 10
-399.52490234375
 20
276.5
 30
0.0
 11
399.52490234375
 21
276.5
 31
0.0
  0
LINE
  5
348
330
A
100
AcDbEntity
  8
0
  6
Continuous
 62
     7
100
AcDbLine
 10
-399.52490234375
 20
276.5
 30
0.0
 11
-399.52490234375
 21
-276.5
 31
0.0
  0
LINE
  5
349
330
A
100
AcDbEntity
  8
0
  6
Continuous
 62
     7
100
AcDbLine
 10
399.52490234375
 20
276.5
 30
0.0
 11
399.52490234375
 21
-276.5
 31
0.0
  0
ENDSEC
  0
SECTION
  2
OBJECTS
  0
DICTIONARY
  5
19
330
0
100
AcDbDictionary
281
     1
  3
ACAD_COLOR
350
352
  3
ACAD_GROUP
350
1A
  3
ACAD_LAYOUT
350
355
  3
ACAD_MATERIAL
350
351
  3
ACAD_MLINESTYLE
350
1B
  3
ACAD_PLOTSETTINGS
350
356
  3
ACAD_PLOTSTYLENAME
350
34F
  3
ACAD_TABLESTYLE
350
353
  3
ACDBHEADERROUNDTRIPXREC
350
361
  3
AcDbVariableDictionary
350
35C
  0
DICTIONARY
  5
352
102
{ACAD_REACTORS
330
19
102
}
330
19
100
AcDbDictionary
281
     1
  0
DICTIONARY
  5
1A
102
{ACAD_REACTORS
330
19
102
}
330
19
100
AcDbDictionary
281
     1
  0
DICTIONARY
  5
355
102
{ACAD_REACTORS
330
19
102
}
330
19
100
AcDbDictionary
281
     1
  3
Model
350
357
  3
レイアウト1
350
358
  0
DICTIONARY
  5
351
102
{ACAD_REACTORS
330
19
102
}
330
19
100
AcDbDictionary
281
     1
  0
DICTIONARY
  5
1B
102
{ACAD_REACTORS
330
19
102
}
330
19
100
AcDbDictionary
281
     1
  3
STANDARD
350
1C
  0
DICTIONARY
  5
356
102
{ACAD_REACTORS
330
19
102
}
330
19
100
AcDbDictionary
281
     1
  0
ACDBDICTIONARYWDFLT
  5
34F
102
{ACAD_REACTORS
330
19
102
}
330
19
100
AcDbDictionary
281
     1
  3
Normal
350
350
100
AcDbDictionaryWithDefault
340
350
  0
DICTIONARY
  5
353
102
{ACAD_REACTORS
330
19
102
}
330
19
100
AcDbDictionary
281
     1
  3
Standard
350
354
  0
DICTIONARY
  5
361
102
{ACAD_REACTORS
330
19
102
}
330
19
100
AcDbDictionary
281
     1
  0
DICTIONARY
  5
35C
102
{ACAD_REACTORS
330
19
102
}
330
19
100
AcDbDictionary
281
     1
  3
CTABLESTYLE
350
35D
  3
DIMASSOC
350
35E
  3
PROJECTNAME
350
35F
  0
LAYOUT
  5
357
102
{ACAD_XDICTIONARY
360
362
102
}
102
{ACAD_REACTORS
330
355
102
}
330
355
100
AcDbPlotSettings
  1

  2
\\Tg_salsvr02\DCCF450-41.214
  4

  6

 40
0.0
 41
0.0
 42
0.0
 43
0.0
 44
0.0
 45
0.0
 46
0.0
 47
0.0
 48
0.0
 49
0.0
140
0.0
141
0.0
142
1.0
143
1.0
 70
  1712
 72
     0
 73
     0
 74
     0
  7

 75
     0
147
1.0
148
0.0
149
0.0
100
AcDbLayout
  1
Model
 70
     1
 71
     0
 10
0.0
 20
0.0
 11
12.0
 21
9.0
 12
0.0
 22
0.0
 32
0.0
 14
0.0
 24
0.0
 34
0.0
 15
0.0
 25
0.0
 35
0.0
146
0.0
 13
0.0
 23
0.0
 33
0.0
 16
1.0
 26
0.0
 36
0.0
 17
0.0
 27
1.0
 37
0.0
 76
     0
330
A
  0
LAYOUT
  5
358
102
{ACAD_XDICTIONARY
360
364
102
}
102
{ACAD_REACTORS
330
355
102
}
330
355
100
AcDbPlotSettings
  1

  2
\\Tg_salsvr02\DCCF450-41.214
  4

  6

 40
0.0
 41
0.0
 42
0.0
 43
0.0
 44
0.0
 45
0.0
 46
0.0
 47
0.0
 48
0.0
 49
0.0
140
0.0
141
0.0
142
1.0
143
1.0
 70
   688
 72
     0
 73
     0
 74
     5
  7

 75
    16
147
1.0
148
0.0
149
0.0
100
AcDbLayout
  1
レイアウト1
 70
     0
 71
     1
 10
0.0
 20
0.0
 11
12.0
 21
9.0
 12
0.0
 22
0.0
 32
0.0
 14
1.000000000000000E+20
 24
1.000000000000000E+20
 34
1.000000000000000E+20
 15
-1.000000000000000E+20
 25
-1.000000000000000E+20
 35
-1.000000000000000E+20
146
0.0
 13
0.0
 23
0.0
 33
0.0
 16
1.0
 26
0.0
 36
0.0
 17
0.0
 27
1.0
 37
0.0
 76
     0
330
B
  0
MLINESTYLE
  5
1C
102
{ACAD_REACTORS
330
1B
102
}
330
1B
100
AcDbMlineStyle
  2
STANDARD
 70
     0
  3

 62
     0
 51
90.0
 52
90.0
 71
     2
 49
0.5
 62
   256
  6
BYLAYER
 49
-0.5
 62
   256
  6
BYLAYER
  0
ACDBPLACEHOLDER
  5
350
102
{ACAD_REACTORS
330
34F
102
}
330
34F
  0
TABLESTYLE
  5
354
102
{ACAD_REACTORS
330
353
102
}
330
353
100
AcDbTableStyle
  3
Standard
 70
     0
 71
     0
 40
0.06
 41
0.06
280
     0
281
     0
  7
MX_NOTE_STANDARD
140
0.18
170
     2
 62
     0
 63
     7
283
     0
274
    -2
284
     1
 64
     0
275
    -2
285
     1
 65
     0
276
    -2
286
     1
 66
     0
277
    -2
287
     1
 67
     0
278
    -2
288
     1
 68
     0
279
    -2
289
     1
 69
     0
  7
MX_NOTE_STANDARD
140
0.25
170
     5
 62
     0
 63
     7
283
     0
274
    -2
284
     1
 64
     0
275
    -2
285
     1
 65
     0
276
    -2
286
     1
 66
     0
277
    -2
287
     1
 67
     0
278
    -2
288
     1
 68
     0
279
    -2
289
     1
 69
     0
  7
MX_NOTE_STANDARD
140
0.18
170
     5
 62
     0
 63
     7
283
     0
274
    -2
284
     1
 64
     0
275
    -2
285
     1
 65
     0
276
    -2
286
     1
 66
     0
277
    -2
287
     1
 67
     0
278
    -2
288
     1
 68
     0
279
    -2
289
     1
 69
     0
  0
DICTIONARYVAR
  5
35D
102
{ACAD_REACTORS
330
35C
102
}
330
35C
100
DictionaryVariables
280
     0
  1
STANDARD
  0
DICTIONARYVAR
  5
35E
102
{ACAD_REACTORS
330
35C
102
}
330
35C
100
DictionaryVariables
280
     0
  1
1
  0
DICTIONARYVAR
  5
35F
102
{ACAD_REACTORS
330
35C
102
}
330
35C
100
DictionaryVariables
280
     0
  1

  0
DICTIONARY
  5
362
330
357
100
AcDbDictionary
280
     1
281
     1
  3
ACAD_XREC_ROUNDTRIP
360
363
  0
DICTIONARY
  5
364
330
358
100
AcDbDictionary
280
     1
281
     1
  3
ACAD_XREC_ROUNDTRIP
360
365
  0
XRECORD
  5
363
102
{ACAD_REACTORS
330
362
102
}
330
362
100
AcDbXrecord
280
     1
102
SHADEPLOT
 70
     0
102
SHADEPLOTRESLEVEL
 70
     2
102
SHADEPLOTCUSTOMDPI
 70
   300
  0
XRECORD
  5
365
102
{ACAD_REACTORS
330
364
102
}
330
364
100
AcDbXrecord
280
     1
102
SHADEPLOT
 70
     0
102
SHADEPLOTRESLEVEL
 70
     2
102
SHADEPLOTCUSTOMDPI
 70
   300
  0
ENDSEC
  0
EOF
