  0
SECTION
  2
HEADER
  9
$ACADVER
  1
AC1015
  9
$ACADMAINTVER
 70
    20
  9
$DWGCODEPAGE
  3
ANSI_932
  9
$INSBASE
 10
0.0
 20
0.0
 30
0.0
  9
$EXTMIN
 10
-194.25
 20
-133.5
 30
0.0
  9
$EXTMAX
 10
195.0953083914834
 20
132.6000061035156
 30
0.0
  9
$LIMMIN
 10
-194.25
 20
-133.5
  9
$LIMMAX
 10
196.2500042915344
 20
132.6000061035156
  9
$ORTHOMODE
 70
     0
  9
$REGENMODE
 70
     1
  9
$FILLMODE
 70
     1
  9
$QTEXTMODE
 70
     0
  9
$MIRRTEXT
 70
     1
  9
$LTSCALE
 40
1.0
  9
$ATTMODE
 70
     1
  9
$TEXTSIZE
 40
3.200000047683715
  9
$TRACEWID
 40
0.05
  9
$TEXTSTYLE
  7
MX_NOTE_STANDARD
  9
$CLAYER
  8
0
  9
$CELTYPE
  6
CONTINUOUS
  9
$CECOLOR
 62
   256
  9
$CELTSCALE
 40
1.0
  9
$DISPSILH
 70
     0
  9
$DIMSCALE
 40
1.0
  9
$DIMASZ
 40
2.5
  9
$DIMEXO
 40
1.5
  9
$DIMDLI
 40
3.75
  9
$DIMRND
 40
0.0
  9
$DIMDLE
 40
0.0
  9
$DIMEXE
 40
1.5
  9
$DIMTP
 40
0.0
  9
$DIMTM
 40
0.0
  9
$DIMTXT
 40
3.200000047683715
  9
$DIMCEN
 40
2.5
  9
$DIMTSZ
 40
0.0
  9
$DIMTOL
 70
     0
  9
$DIMLIM
 70
     0
  9
$DIMTIH
 70
     0
  9
$DIMTOH
 70
     0
  9
$DIMSE1
 70
     0
  9
$DIMSE2
 70
     0
  9
$DIMTAD
 70
     1
  9
$DIMZIN
 70
     8
  9
$DIMBLK
  1

  9
$DIMASO
 70
     1
  9
$DIMSHO
 70
     1
  9
$DIMPOST
  1

  9
$DIMAPOST
  1

  9
$DIMALT
 70
     0
  9
$DIMALTD
 70
     4
  9
$DIMALTF
 40
0.03937007874016
  9
$DIMLFAC
 40
1.0
  9
$DIMTOFL
 70
     1
  9
$DIMTVP
 40
0.0
  9
$DIMTIX
 70
     0
  9
$DIMSOXD
 70
     0
  9
$DIMSAH
 70
     0
  9
$DIMBLK1
  1

  9
$DIMBLK2
  1

  9
$DIMSTYLE
  2
MXDIMSTYLE
  9
$DIMCLRD
 70
     0
  9
$DIMCLRE
 70
     0
  9
$DIMCLRT
 70
     0
  9
$DIMTFAC
 40
1.0
  9
$DIMGAP
 40
1.0
  9
$DIMJUST
 70
     0
  9
$DIMSD1
 70
     0
  9
$DIMSD2
 70
     0
  9
$DIMTOLJ
 70
     1
  9
$DIMTZIN
 70
     0
  9
$DIMALTZ
 70
     0
  9
$DIMALTTZ
 70
     0
  9
$DIMUPT
 70
     1
  9
$DIMDEC
 70
     4
  9
$DIMTDEC
 70
     4
  9
$DIMALTU
 70
     2
  9
$DIMALTTD
 70
     4
  9
$DIMTXSTY
  7
MX_NOTE_STANDARD
  9
$DIMAUNIT
 70
     0
  9
$DIMADEC
 70
     0
  9
$DIMALTRND
 40
0.0
  9
$DIMAZIN
 70
     0
  9
$DIMDSEP
 70
    46
  9
$DIMATFIT
 70
     3
  9
$DIMFRAC
 70
     0
  9
$DIMLDRBLK
  1

  9
$DIMLUNIT
 70
     2
  9
$DIMLWD
 70
    -2
  9
$DIMLWE
 70
    -2
  9
$DIMTMOVE
 70
     0
  9
$LUNITS
 70
     2
  9
$LUPREC
 70
     4
  9
$SKETCHINC
 40
0.1
  9
$FILLETRAD
 40
0.0
  9
$AUNITS
 70
     0
  9
$AUPREC
 70
     0
  9
$MENU
  1
acad
  9
$ELEVATION
 40
0.0
  9
$PELEVATION
 40
0.0
  9
$THICKNESS
 40
0.0
  9
$LIMCHECK
 70
     0
  9
$CHAMFERA
 40
0.0
  9
$CHAMFERB
 40
0.0
  9
$CHAMFERC
 40
0.0
  9
$CHAMFERD
 40
0.0
  9
$SKPOLY
 70
     0
  9
$TDCREATE
 40
2453510.799872685
  9
$TDUCREATE
 40
2453510.424872686
  9
$TDUPDATE
 40
2454034.807524514
  9
$TDUUPDATE
 40
2454034.432524514
  9
$TDINDWG
 40
0.0003931944
  9
$TDUSRTIMER
 40
0.0003931944
  9
$USRTIMER
 70
     1
  9
$ANGBASE
 50
0.0
  9
$ANGDIR
 70
     0
  9
$PDMODE
 70
     0
  9
$PDSIZE
 40
0.0
  9
$PLINEWID
 40
0.0
  9
$SPLFRAME
 70
     0
  9
$SPLINETYPE
 70
     6
  9
$SPLINESEGS
 70
     8
  9
$HANDSEED
  5
227
  9
$SURFTAB1
 70
     6
  9
$SURFTAB2
 70
     6
  9
$SURFTYPE
 70
     6
  9
$SURFU
 70
     6
  9
$SURFV
 70
     6
  9
$UCSBASE
  2

  9
$UCSNAME
  2

  9
$UCSORG
 10
0.0
 20
0.0
 30
0.0
  9
$UCSXDIR
 10
1.0
 20
0.0
 30
0.0
  9
$UCSYDIR
 10
0.0
 20
1.0
 30
0.0
  9
$UCSORTHOREF
  2

  9
$UCSORTHOVIEW
 70
     0
  9
$UCSORGTOP
 10
0.0
 20
0.0
 30
0.0
  9
$UCSORGBOTTOM
 10
0.0
 20
0.0
 30
0.0
  9
$UCSORGLEFT
 10
0.0
 20
0.0
 30
0.0
  9
$UCSORGRIGHT
 10
0.0
 20
0.0
 30
0.0
  9
$UCSORGFRONT
 10
0.0
 20
0.0
 30
0.0
  9
$UCSORGBACK
 10
0.0
 20
0.0
 30
0.0
  9
$PUCSBASE
  2

  9
$PUCSNAME
  2

  9
$PUCSORG
 10
0.0
 20
0.0
 30
0.0
  9
$PUCSXDIR
 10
1.0
 20
0.0
 30
0.0
  9
$PUCSYDIR
 10
0.0
 20
1.0
 30
0.0
  9
$PUCSORTHOREF
  2

  9
$PUCSORTHOVIEW
 70
     0
  9
$PUCSORGTOP
 10
0.0
 20
0.0
 30
0.0
  9
$PUCSORGBOTTOM
 10
0.0
 20
0.0
 30
0.0
  9
$PUCSORGLEFT
 10
0.0
 20
0.0
 30
0.0
  9
$PUCSORGRIGHT
 10
0.0
 20
0.0
 30
0.0
  9
$PUCSORGFRONT
 10
0.0
 20
0.0
 30
0.0
  9
$PUCSORGBACK
 10
0.0
 20
0.0
 30
0.0
  9
$USERI1
 70
     0
  9
$USERI2
 70
     0
  9
$USERI3
 70
     0
  9
$USERI4
 70
     0
  9
$USERI5
 70
     0
  9
$USERR1
 40
0.0
  9
$USERR2
 40
0.0
  9
$USERR3
 40
0.0
  9
$USERR4
 40
0.0
  9
$USERR5
 40
0.0
  9
$WORLDVIEW
 70
     1
  9
$SHADEDGE
 70
     3
  9
$SHADEDIF
 70
    70
  9
$TILEMODE
 70
     1
  9
$MAXACTVP
 70
    16
  9
$PINSBASE
 10
0.0
 20
0.0
 30
0.0
  9
$PLIMCHECK
 70
     0
  9
$PEXTMIN
 10
1.000000000000000E+20
 20
1.000000000000000E+20
 30
1.000000000000000E+20
  9
$PEXTMAX
 10
-1.000000000000000E+20
 20
-1.000000000000000E+20
 30
-1.000000000000000E+20
  9
$PLIMMIN
 10
0.0
 20
0.0
  9
$PLIMMAX
 10
12.0
 20
9.0
  9
$UNITMODE
 70
     0
  9
$VISRETAIN
 70
     0
  9
$PLINEGEN
 70
     1
  9
$PSLTSCALE
 70
     0
  9
$TREEDEPTH
 70
  3020
  9
$CMLSTYLE
  2
STANDARD
  9
$CMLJUST
 70
     0
  9
$CMLSCALE
 40
1.0
  9
$PROXYGRAPHICS
 70
     1
  9
$MEASUREMENT
 70
     0
  9
$CELWEIGHT
370
    -1
  9
$ENDCAPS
280
     0
  9
$JOINSTYLE
280
     0
  9
$LWDISPLAY
290
     0
  9
$INSUNITS
 70
     0
  9
$HYPERLINKBASE
  1

  9
$STYLESHEET
  1

  9
$XEDIT
290
     1
  9
$CEPSNTYPE
380
     0
  9
$PSTYLEMODE
290
     1
  9
$FINGERPRINTGUID
  2
{13BA0E28-6B97-4EEA-AD40-15ADD01D33AB}
  9
$VERSIONGUID
  2
{68D6EA97-456E-455D-999E-A927AB173696}
  9
$EXTNAMES
290
     1
  9
$PSVPSCALE
 40
0.0
  9
$OLESTARTUP
290
     0
  0
ENDSEC
  0
SECTION
  2
CLASSES
  0
CLASS
  1
IMAGE
  2
AcDbRasterImage
  3
ISM
 90
    32895
280
     0
281
     1
  0
CLASS
  1
DICTIONARYVAR
  2
AcDbDictionaryVar
  3
ObjectDBX Classes
 90
        0
280
     0
281
     0
  0
CLASS
  1
RASTERVARIABLES
  2
AcDbRasterVariables
  3
ISM
 90
    32768
280
     0
281
     0
  0
CLASS
  1
IMAGEDEF
  2
AcDbRasterImageDef
  3
ISM
 90
    32768
280
     0
281
     0
  0
CLASS
  1
IMAGEDEF_REACTOR
  2
AcDbRasterImageDefReactor
  3
ISM
 90
    32769
280
     0
281
     0
  0
CLASS
  1
IDBUFFER
  2
AcDbIdBuffer
  3
ObjectDBX Classes
 90
    32768
280
     0
281
     0
  0
CLASS
  1
SPATIAL_FILTER
  2
AcDbSpatialFilter
  3
ObjectDBX Classes
 90
    32768
280
     0
281
     0
  0
CLASS
  1
SORTENTSTABLE
  2
AcDbSortentsTable
  3
ObjectDBX Classes
 90
    32768
280
     0
281
     0
  0
CLASS
  1
LAYER_INDEX
  2
AcDbLayerIndex
  3
ObjectDBX Classes
 90
    32768
280
     0
281
     0
  0
CLASS
  1
SPATIAL_INDEX
  2
AcDbSpatialIndex
  3
ObjectDBX Classes
 90
    32768
280
     0
281
     0
  0
CLASS
  1
OBJECT_PTR
  2
CAseDLPNTableRecord
  3
"ASE-LPNTableRecord"
 90
    32768
280
     0
281
     0
  0
CLASS
  1
LAYOUT
  2
AcDbLayout
  3
ObjectDBX Classes
 90
        0
280
     0
281
     0
  0
CLASS
  1
PLOTSETTINGS
  2
AcDbPlotSettings
  3
ObjectDBX Classes
 90
    32768
280
     0
281
     0
  0
CLASS
  1
ACDBDICTIONARYWDFLT
  2
AcDbDictionaryWithDefault
  3
ObjectDBX Classes
 90
        0
280
     0
281
     0
  0
CLASS
  1
ACDBPLACEHOLDER
  2
AcDbPlaceHolder
  3
ObjectDBX Classes
 90
        0
280
     0
281
     0
  0
CLASS
  1
TABLESTYLE
  2
AcDbTableStyle
  3
ObjectDBX Classes
 90
     2047
280
     0
281
     0
  0
ENDSEC
  0
SECTION
  2
TABLES
  0
TABLE
  2
VPORT
  5
7
330
0
100
AcDbSymbolTable
 70
     2
  0
VPORT
  5
221
330
7
100
AcDbSymbolTableRecord
100
AcDbViewportTableRecord
  2
*Active
 70
     0
 10
0.0
 20
0.0
 11
1.0
 21
1.0
 12
-22.1025701812172
 22
57.82037009840118
 13
0.0
 23
0.0
 14
1.0
 24
1.0
 15
0.0
 25
0.0
 16
0.0
 26
0.0
 36
1.0
 17
0.0
 27
0.0
 37
0.0
 40
280.215025308704
 41
1.308483290488431
 42
50.0
 43
0.0
 44
0.0
 50
0.0
 51
0.0
 71
     0
 72
   100
 73
     1
 74
     1
 75
     0
 76
     0
 77
     0
 78
     0
281
     0
 65
     1
110
0.0
120
0.0
130
0.0
111
1.0
121
0.0
131
0.0
112
0.0
122
1.0
132
0.0
 79
     0
146
0.0
  0
ENDTAB
  0
TABLE
  2
LTYPE
  5
4
330
0
100
AcDbSymbolTable
 70
     3
  0
LTYPE
  5
11
330
4
100
AcDbSymbolTableRecord
100
AcDbLinetypeTableRecord
  2
BYBLOCK
 70
     0
  3

 72
    65
 73
     0
 40
0.0
  0
LTYPE
  5
12
330
4
100
AcDbSymbolTableRecord
100
AcDbLinetypeTableRecord
  2
BYLAYER
 70
     0
  3

 72
    65
 73
     0
 40
0.0
  0
LTYPE
  5
13
330
4
100
AcDbSymbolTableRecord
100
AcDbLinetypeTableRecord
  2
CONTINUOUS
 70
     0
  3
Solid line
 72
    65
 73
     0
 40
0.0
  0
LTYPE
  5
5A
330
4
100
AcDbSymbolTableRecord
100
AcDbLinetypeTableRecord
  2
PHANTOM
 70
     0
  3
Phantom ______  __  __  ______  __  __  ______
 72
    65
 73
     6
 40
30.0
 49
20.0
 74
     0
 49
-2.0
 74
     0
 49
2.0
 74
     0
 49
-2.0
 74
     0
 49
2.0
 74
     0
 49
-2.0
 74
     0
  0
LTYPE
  5
1AC
330
4
100
AcDbSymbolTableRecord
100
AcDbLinetypeTableRecord
  2
CENTER
 70
     0
  3
Center ____ _ ____ _ ____ _ ____ _ ____ _ ____
 72
    65
 73
     4
 40
26.0
 49
20.0
 74
     0
 49
-2.0
 74
     0
 49
2.0
 74
     0
 49
-2.0
 74
     0
  0
ENDTAB
  0
TABLE
  2
LAYER
  5
2
330
0
100
AcDbSymbolTable
 70
     2
  0
LAYER
  5
14
330
2
100
AcDbSymbolTableRecord
100
AcDbLayerTableRecord
  2
0
 70
     0
 62
     7
  6
CONTINUOUS
370
    -3
390
211
  0
LAYER
  5
1D
330
2
100
AcDbSymbolTableRecord
100
AcDbLayerTableRecord
  2
DEFPOINTS
 70
     0
 62
     7
  6
CONTINUOUS
290
     0
370
    -3
390
211
  0
ENDTAB
  0
TABLE
  2
STYLE
  5
3
330
0
100
AcDbSymbolTable
 70
     2
  0
STYLE
  5
17
330
3
100
AcDbSymbolTableRecord
100
AcDbTextStyleTableRecord
  2
MX_NOTE_STANDARD
 70
     0
 40
0.0
 41
1.0
 50
0.0
 71
     0
 42
3.200000047683715
  3
txt.shx
  4
extfont.shx
  0
STYLE
  5
20F
330
3
100
AcDbSymbolTableRecord
100
AcDbTextStyleTableRecord
  2
Standard
 70
     0
 40
0.0
 41
1.0
 50
0.0
 71
     0
 42
0.2
  3

  4

  0
ENDTAB
  0
TABLE
  2
VIEW
  5
5
330
0
100
AcDbSymbolTable
 70
     0
  0
ENDTAB
  0
TABLE
  2
UCS
  5
6
330
0
100
AcDbSymbolTable
 70
     0
  0
ENDTAB
  0
TABLE
  2
APPID
  5
8
330
0
100
AcDbSymbolTable
 70
     1
  0
APPID
  5
16
330
8
100
AcDbSymbolTableRecord
100
AcDbRegAppTableRecord
  2
ACAD
 70
     0
  0
ENDTAB
  0
TABLE
  2
DIMSTYLE
  5
9
330
0
100
AcDbSymbolTable
 70
     1
100
AcDbDimStyleTable
 71
     0
  0
DIMSTYLE
105
18
330
9
100
AcDbSymbolTableRecord
100
AcDbDimStyleTableRecord
  2
MXDIMSTYLE
 70
     0
 41
2.5
 42
1.5
 43
3.75
 44
1.5
 73
     0
 74
     0
 77
     1
 78
     8
140
3.200000047683715
141
2.5
143
0.03937007874016
147
1.0
171
     4
172
     1
274
     4
288
     1
340
17
  0
ENDTAB
  0
TABLE
  2
BLOCK_RECORD
  5
1
330
0
100
AcDbSymbolTable
 70
     3
  0
BLOCK_RECORD
  5
A
330
1
100
AcDbSymbolTableRecord
100
AcDbBlockTableRecord
  2
*MODEL_SPACE
340
218
  0
BLOCK_RECORD
  5
B
330
1
100
AcDbSymbolTableRecord
100
AcDbBlockTableRecord
  2
*PAPER_SPACE
340
219
  0
BLOCK_RECORD
  5
1E
330
1
100
AcDbSymbolTableRecord
100
AcDbBlockTableRecord
  2
MRVZS14-K2-1
340
0
102
{BLKREFS
331
1D5
102
}
  0
BLOCK_RECORD
  5
1F
330
1
100
AcDbSymbolTableRecord
100
AcDbBlockTableRecord
  2
MRVZS14-K2-2
340
0
102
{BLKREFS
331
1D4
102
}
  0
BLOCK_RECORD
  5
20
330
1
100
AcDbSymbolTableRecord
100
AcDbBlockTableRecord
  2
MRVZS14-K2-3
340
0
102
{BLKREFS
331
1D3
102
}
  0
ENDTAB
  0
ENDSEC
  0
SECTION
  2
BLOCKS
  0
BLOCK
  5
D
330
A
100
AcDbEntity
  8
0
100
AcDbBlockBegin
  2
*MODEL_SPACE
 70
     0
 10
0.0
 20
0.0
 30
0.0
  3
*MODEL_SPACE
  1

  0
ENDBLK
  5
E
330
A
100
AcDbEntity
  8
0
100
AcDbBlockEnd
  0
BLOCK
  5
F
330
B
100
AcDbEntity
 67
     1
  8
0
100
AcDbBlockBegin
  2
*PAPER_SPACE
 70
     0
 10
0.0
 20
0.0
 30
0.0
  3
*PAPER_SPACE
  1

  0
ENDBLK
  5
10
330
B
100
AcDbEntity
 67
     1
  8
0
100
AcDbBlockEnd
  0
BLOCK
  5
21
330
1E
100
AcDbEntity
  8
0
100
AcDbBlockBegin
  2
MRVZS14-K2-1
 70
     0
 10
0.0
 20
0.0
 30
0.0
  3
MRVZS14-K2-1
  1

  0
LINE
  5
22
330
1E
100
AcDbEntity
  8
0
  6
Continuous
 62
     7
100
AcDbLine
 10
159.1999969482422
 20
-18.50000000000001
 30
0.0
 11
159.6999969482422
 21
-19.0
 31
0.0
  0
LINE
  5
23
330
1E
100
AcDbEntity
  8
0
  6
Continuous
 62
     7
100
AcDbLine
 10
159.1999958430633
 20
-18.49999889482115
 30
0.0
 11
159.6999969482422
 21
-19.0
 31
0.0
  0
LINE
  5
24
330
1E
100
AcDbEntity
  8
0
  6
Continuous
 62
     7
100
AcDbLine
 10
12.80000305175781
 20
-18.5
 30
0.0
 11
12.30000305175781
 21
-19.0
 31
0.0
  0
LINE
  5
25
330
1E
100
AcDbEntity
  8
0
  6
Continuous
 62
     7
100
AcDbLine
 10
12.80000305175781
 20
-11.5
 30
0.0
 11
12.30000305175781
 21
-11.0
 31
0.0
  0
LINE
  5
26
330
1E
100
AcDbEntity
  8
0
  6
Continuous
 62
     7
100
AcDbLine
 10
-18.0
 20
-18.5
 30
0.0
 11
-17.5
 21
-19.0
 31
0.0
  0
LINE
  5
27
330
1E
100
AcDbEntity
  8
0
  6
Continuous
 62
     7
100
AcDbLine
 10
-18.0
 20
-11.5
 30
0.0
 11
-17.5
 21
-11.0
 31
0.0
  0
LINE
  5
28
330
1E
100
AcDbEntity
  8
0
  6
Continuous
 62
     2
100
AcDbLine
 10
167.5
 20
-42.0
 30
0.0
 11
167.5
 21
-35.0
 31
0.0
  0
LINE
  5
29
330
1E
100
AcDbEntity
  8
0
  6
Continuous
 62
     2
100
AcDbLine
 10
4.5
 20
-42.0
 30
0.0
 11
4.5
 21
-35.0
 31
0.0
  0
LINE
  5
2A
330
1E
100
AcDbEntity
  8
0
  6
Continuous
 62
     2
100
AcDbLine
 10
-21.0
 20
-15.0
 30
0.0
 11
193.0
 21
-15.0
 31
0.0
  0
LINE
  5
2B
330
1E
100
AcDbEntity
  8
0
  6
Continuous
 62
     7
100
AcDbLine
 10
58.0
 20
-27.30001831054688
 30
0.0
 11
162.0
 21
-27.30001831054688
 31
0.0
  0
LINE
  5
2C
330
1E
100
AcDbEntity
  8
0
  6
Continuous
 62
     7
100
AcDbLine
 10
58.0
 20
-2.699981689453125
 30
0.0
 11
162.0
 21
-2.699981689453125
 31
0.0
  0
LINE
  5
2D
330
1E
100
AcDbEntity
  8
0
  6
Continuous
 62
     7
100
AcDbLine
 10
162.0
 20
-37.5
 30
0.0
 11
10.0
 21
-37.5
 31
0.0
  0
LINE
  5
2E
330
1E
100
AcDbEntity
  8
0
  6
Continuous
 62
     7
100
AcDbLine
 10
174.5
 20
-44.69999694824219
 30
0.0
 11
-2.5
 21
-44.69999694824219
 31
0.0
  0
CIRCLE
  5
2F
330
1E
100
AcDbEntity
  8
0
  6
Continuous
 62
     7
100
AcDbCircle
 10
0.0
 20
0.0
 30
0.0
 40
4.0
  0
CIRCLE
  5
30
330
1E
100
AcDbEntity
  8
0
  6
Continuous
 62
     7
100
AcDbCircle
 10
0.0
 20
0.0
 30
0.0
 40
2.400000095367432
  0
CIRCLE
  5
31
330
1E
100
AcDbEntity
  8
0
  6
Continuous
 62
     7
100
AcDbCircle
 10
0.0
 20
-30.0
 30
0.0
 40
4.0
  0
CIRCLE
  5
32
330
1E
100
AcDbEntity
  8
0
  6
Continuous
 62
     7
100
AcDbCircle
 10
0.0
 20
-30.0
 30
0.0
 40
2.400000095367432
  0
CIRCLE
  5
33
330
1E
100
AcDbEntity
  8
0
  6
Continuous
 62
     2
100
AcDbCircle
 10
51.0
 20
-32.0
 30
0.0
 40
2.0
  0
CIRCLE
  5
34
330
1E
100
AcDbEntity
  8
0
  6
Continuous
 62
     2
100
AcDbCircle
 10
21.0
 20
-32.0
 30
0.0
 40
2.0
  0
CIRCLE
  5
35
330
1E
100
AcDbEntity
  8
0
  6
Continuous
 62
     7
100
AcDbCircle
 10
51.0
 20
-32.0
 30
0.0
 40
1.5
  0
CIRCLE
  5
36
330
1E
100
AcDbEntity
  8
0
  6
Continuous
 62
     2
100
AcDbCircle
 10
21.0
 20
2.0
 30
0.0
 40
2.0
  0
CIRCLE
  5
37
330
1E
100
AcDbEntity
  8
0
  6
Continuous
 62
     7
100
AcDbCircle
 10
21.0
 20
2.0
 30
0.0
 40
1.5
  0
CIRCLE
  5
38
330
1E
100
AcDbEntity
  8
0
  6
Continuous
 62
     7
100
AcDbCircle
 10
21.0
 20
-32.0
 30
0.0
 40
1.5
  0
CIRCLE
  5
39
330
1E
100
AcDbEntity
  8
0
  6
Continuous
 62
     7
100
AcDbCircle
 10
51.0
 20
2.0
 30
0.0
 40
1.5
  0
CIRCLE
  5
3A
330
1E
100
AcDbEntity
  8
0
  6
Continuous
 62
     2
100
AcDbCircle
 10
51.0
 20
2.0
 30
0.0
 40
2.0
  0
LINE
  5
3B
330
1E
100
AcDbEntity
  8
0
  6
Continuous
 62
     7
100
AcDbLine
 10
-2.5
 20
-44.69999694824219
 30
0.0
 11
-2.5
 21
-38.5
 31
0.0
  0
LINE
  5
3C
330
1E
100
AcDbEntity
  8
0
  6
Continuous
 62
     7
100
AcDbLine
 10
58.0
 20
-22.75
 30
0.0
 11
60.5
 21
-22.75
 31
0.0
  0
LINE
  5
3D
330
1E
100
AcDbEntity
  8
0
  6
Continuous
 62
     7
100
AcDbLine
 10
58.0
 20
-27.25
 30
0.0
 11
60.5
 21
-27.25
 31
0.0
  0
LINE
  5
3E
330
1E
100
AcDbEntity
  8
0
  6
Continuous
 62
     7
100
AcDbLine
 10
58.0
 20
-36.25
 30
0.0
 11
60.5
 21
-36.25
 31
0.0
  0
LINE
  5
3F
330
1E
100
AcDbEntity
  8
0
  6
Continuous
 62
     7
100
AcDbLine
 10
58.0
 20
-31.75
 30
0.0
 11
60.5
 21
-31.75
 31
0.0
  0
LINE
  5
40
330
1E
100
AcDbEntity
  8
0
  6
Continuous
 62
     7
100
AcDbLine
 10
60.5
 20
-36.25
 30
0.0
 11
60.5
 21
-31.75
 31
0.0
  0
LINE
  5
41
330
1E
100
AcDbEntity
  8
0
  6
Continuous
 62
     7
100
AcDbLine
 10
60.5
 20
6.250000000000014
 30
0.0
 11
60.5
 21
1.75
 31
0.0
  0
LINE
  5
42
330
1E
100
AcDbEntity
  8
0
  6
Continuous
 62
     7
100
AcDbLine
 10
58.0
 20
1.75
 30
0.0
 11
60.5
 21
1.75
 31
0.0
  0
LINE
  5
43
330
1E
100
AcDbEntity
  8
0
  6
Continuous
 62
     7
100
AcDbLine
 10
58.0
 20
6.250000000000014
 30
0.0
 11
60.5
 21
6.250000000000014
 31
0.0
  0
LINE
  5
44
330
1E
100
AcDbEntity
  8
0
  6
Continuous
 62
     7
100
AcDbLine
 10
60.5
 20
-27.25
 30
0.0
 11
60.5
 21
-22.75
 31
0.0
  0
LINE
  5
45
330
1E
100
AcDbEntity
  8
0
  6
Continuous
 62
     7
100
AcDbLine
 10
60.5
 20
-2.75
 30
0.0
 11
60.5
 21
-7.25
 31
0.0
  0
LINE
  5
46
330
1E
100
AcDbEntity
  8
0
  6
Continuous
 62
     7
100
AcDbLine
 10
58.0
 20
-2.75
 30
0.0
 11
60.5
 21
-2.75
 31
0.0
  0
LINE
  5
47
330
1E
100
AcDbEntity
  8
0
  6
Continuous
 62
     7
100
AcDbLine
 10
58.0
 20
-7.25
 30
0.0
 11
60.5
 21
-7.25
 31
0.0
  0
LINE
  5
48
330
1E
100
AcDbEntity
  8
0
  6
Continuous
 62
     7
100
AcDbLine
 10
14.0
 20
6.250000000000014
 30
0.0
 11
11.5
 21
6.250000000000014
 31
0.0
  0
LINE
  5
49
330
1E
100
AcDbEntity
  8
0
  6
Continuous
 62
     7
100
AcDbLine
 10
14.0
 20
1.75
 30
0.0
 11
11.5
 21
1.75
 31
0.0
  0
LINE
  5
4A
330
1E
100
AcDbEntity
  8
0
  6
Continuous
 62
     7
100
AcDbLine
 10
11.5
 20
6.250000000000014
 30
0.0
 11
11.5
 21
1.75
 31
0.0
  0
LINE
  5
4B
330
1E
100
AcDbEntity
  8
0
  6
Continuous
 62
     7
100
AcDbLine
 10
11.5
 20
-36.25
 30
0.0
 11
11.5
 21
-31.75
 31
0.0
  0
LINE
  5
4C
330
1E
100
AcDbEntity
  8
0
  6
Continuous
 62
     7
100
AcDbLine
 10
14.0
 20
-31.75
 30
0.0
 11
11.5
 21
-31.75
 31
0.0
  0
LINE
  5
4D
330
1E
100
AcDbEntity
  8
0
  6
Continuous
 62
     7
100
AcDbLine
 10
14.0
 20
-36.25
 30
0.0
 11
11.5
 21
-36.25
 31
0.0
  0
LINE
  5
4E
330
1E
100
AcDbEntity
  8
0
  6
Continuous
 62
     7
100
AcDbLine
 10
14.0
 20
-27.25
 30
0.0
 11
11.5
 21
-27.25
 31
0.0
  0
LINE
  5
4F
330
1E
100
AcDbEntity
  8
0
  6
Continuous
 62
     7
100
AcDbLine
 10
14.0
 20
-22.75
 30
0.0
 11
11.5
 21
-22.75
 31
0.0
  0
LINE
  5
50
330
1E
100
AcDbEntity
  8
0
  6
Continuous
 62
     7
100
AcDbLine
 10
11.5
 20
-27.25
 30
0.0
 11
11.5
 21
-22.75
 31
0.0
  0
LINE
  5
51
330
1E
100
AcDbEntity
  8
0
  6
Continuous
 62
     7
100
AcDbLine
 10
11.5
 20
-2.75
 30
0.0
 11
11.5
 21
-7.25
 31
0.0
  0
LINE
  5
52
330
1E
100
AcDbEntity
  8
0
  6
Continuous
 62
     7
100
AcDbLine
 10
14.0
 20
-2.699981689453125
 30
0.0
 11
10.0
 21
-2.699981689453125
 31
0.0
  0
LINE
  5
53
330
1E
100
AcDbEntity
  8
0
  6
Continuous
 62
     7
100
AcDbLine
 10
14.0
 20
-7.25
 30
0.0
 11
11.5
 21
-7.25
 31
0.0
  0
LINE
  5
54
330
1E
100
AcDbEntity
  8
0
  6
Continuous
 62
     7
100
AcDbLine
 10
14.0
 20
-2.75
 30
0.0
 11
11.5
 21
-2.75
 31
0.0
  0
LINE
  5
55
330
1E
100
AcDbEntity
  8
0
  6
Continuous
 62
     7
100
AcDbLine
 10
14.0
 20
-27.30001831054688
 30
0.0
 11
10.0
 21
-27.30001831054688
 31
0.0
  0
LINE
  5
56
330
1E
100
AcDbEntity
  8
0
  6
Continuous
 62
     7
100
AcDbLine
 10
15.5999755859375
 20
-23.2679443359375
 30
0.0
 11
56.4000244140625
 21
-23.2679443359375
 31
0.0
  0
LINE
  5
57
330
1E
100
AcDbEntity
  8
0
  6
Continuous
 62
     7
100
AcDbLine
 10
15.5999755859375
 20
-6.7320556640625
 30
0.0
 11
56.4000244140625
 21
-6.7320556640625
 31
0.0
  0
LINE
  5
58
330
1E
100
AcDbEntity
  8
0
  6
Continuous
 62
     7
100
AcDbLine
 10
10.0
 20
-8.0
 30
0.0
 11
-5.0
 21
-8.0
 31
0.0
  0
LINE
  5
59
330
1E
100
AcDbEntity
  8
0
  6
Continuous
 62
     7
100
AcDbLine
 10
10.0
 20
-22.0
 30
0.0
 11
-5.0
 21
-22.0
 31
0.0
  0
LINE
  5
5B
330
1E
100
AcDbEntity
  8
0
  6
PHANTOM
 62
     7
100
AcDbLine
 10
-5.0
 20
-15.0
 30
0.0
 11
-7.0
 21
-15.0
 31
0.0
  0
LINE
  5
5C
330
1E
100
AcDbEntity
  8
0
  6
Continuous
 62
     7
100
AcDbLine
 10
-5.0
 20
-20.0
 30
0.0
 11
-7.0
 21
-20.0
 31
0.0
  0
LINE
  5
5D
330
1E
100
AcDbEntity
  8
0
  6
Continuous
 62
     7
100
AcDbLine
 10
-5.0
 20
-10.0
 30
0.0
 11
-7.0
 21
-10.0
 31
0.0
  0
LINE
  5
5E
330
1E
100
AcDbEntity
  8
0
  6
Continuous
 62
     2
100
AcDbLine
 10
-18.0
 20
-11.5
 30
0.0
 11
-7.0
 21
-11.5
 31
0.0
  0
LINE
  5
5F
330
1E
100
AcDbEntity
  8
0
  6
Continuous
 62
     2
100
AcDbLine
 10
-18.0
 20
-18.5
 30
0.0
 11
-7.0
 21
-18.5
 31
0.0
  0
LINE
  5
60
330
1E
100
AcDbEntity
  8
0
  6
Continuous
 62
     7
100
AcDbLine
 10
12.80000305175781
 20
-11.5
 30
0.0
 11
12.80000305175781
 21
-18.5
 31
0.0
  0
LINE
  5
61
330
1E
100
AcDbEntity
  8
0
  6
Continuous
 62
     7
100
AcDbLine
 10
-18.0
 20
-11.5
 30
0.0
 11
-18.0
 21
-18.5
 31
0.0
  0
LINE
  5
62
330
1E
100
AcDbEntity
  8
0
  6
Continuous
 62
     7
100
AcDbLine
 10
-7.0
 20
-20.0
 30
0.0
 11
-7.0
 21
-10.0
 31
0.0
  0
LINE
  5
63
330
1E
100
AcDbEntity
  8
0
  6
Continuous
 62
     7
100
AcDbLine
 10
-17.5
 20
-19.0
 30
0.0
 11
-7.0
 21
-19.0
 31
0.0
  0
LINE
  5
64
330
1E
100
AcDbEntity
  8
0
  6
Continuous
 62
     7
100
AcDbLine
 10
-17.5
 20
-11.0
 30
0.0
 11
-7.0
 21
-11.0
 31
0.0
  0
LINE
  5
65
330
1E
100
AcDbEntity
  8
0
  6
Continuous
 62
     7
100
AcDbLine
 10
-17.5
 20
-11.0
 30
0.0
 11
-17.5
 21
-19.0
 31
0.0
  0
LINE
  5
66
330
1E
100
AcDbEntity
  8
0
  6
Continuous
 62
     2
100
AcDbLine
 10
-6.540008544921875
 20
0.0
 30
0.0
 11
6.539993286132812
 21
0.0
 31
0.0
  0
LINE
  5
67
330
1E
100
AcDbEntity
  8
0
  6
Continuous
 62
     2
100
AcDbLine
 10
0.0
 20
-6.53997802734375
 30
0.0
 11
0.0
 21
6.539978027343764
 31
0.0
  0
LINE
  5
68
330
1E
100
AcDbEntity
  8
0
  6
Continuous
 62
     7
100
AcDbLine
 10
12.30000305175781
 20
-11.0
 30
0.0
 11
12.30000305175781
 21
-19.0
 31
0.0
  0
LINE
  5
69
330
1E
100
AcDbEntity
  8
0
  6
Continuous
 62
     2
100
AcDbLine
 10
-6.540008544921875
 20
-30.0
 30
0.0
 11
6.539993286132812
 21
-30.0
 31
0.0
  0
LINE
  5
6A
330
1E
100
AcDbEntity
  8
0
  6
Continuous
 62
     2
100
AcDbLine
 10
0.0
 20
-23.46002197265625
 30
0.0
 11
0.0
 21
-37.53997802734375
 31
0.0
  0
LINE
  5
6B
330
1E
100
AcDbEntity
  8
0
  6
Continuous
 62
     7
100
AcDbLine
 10
10.0
 20
-38.5
 30
0.0
 11
10.0
 21
8.500000000000014
 31
0.0
  0
LINE
  5
6C
330
1E
100
AcDbEntity
  8
0
  6
Continuous
 62
     7
100
AcDbLine
 10
-5.0
 20
-38.5
 30
0.0
 11
-5.0
 21
8.500000000000014
 31
0.0
  0
LINE
  5
6D
330
1E
100
AcDbEntity
  8
0
  6
Continuous
 62
     7
100
AcDbLine
 10
-5.0
 20
-38.5
 30
0.0
 11
10.0
 21
-38.5
 31
0.0
  0
LINE
  5
6E
330
1E
100
AcDbEntity
  8
0
  6
Continuous
 62
     7
100
AcDbLine
 10
-5.0
 20
8.500000000000014
 30
0.0
 11
10.0
 21
8.500000000000014
 31
0.0
  0
LINE
  5
6F
330
1E
100
AcDbEntity
  8
0
  6
Continuous
 62
     2
100
AcDbLine
 10
46.46002197265625
 20
-32.0
 30
0.0
 11
55.53997802734375
 21
-32.0
 31
0.0
  0
LINE
  5
70
330
1E
100
AcDbEntity
  8
0
  6
Continuous
 62
     2
100
AcDbLine
 10
36.0
 20
9.550537109375014
 30
0.0
 11
36.0
 21
-47.98052309270491
 31
0.0
  0
LINE
  5
71
330
1E
100
AcDbEntity
  8
0
  6
Continuous
 62
     2
100
AcDbLine
 10
25.53997802734375
 20
2.0
 30
0.0
 11
16.46002197265625
 21
2.0
 31
0.0
  0
LINE
  5
72
330
1E
100
AcDbEntity
  8
0
  6
Continuous
 62
     2
100
AcDbLine
 10
25.53997802734375
 20
-32.0
 30
0.0
 11
16.46002197265625
 21
-32.0
 31
0.0
  0
LINE
  5
73
330
1E
100
AcDbEntity
  8
0
  6
Continuous
 62
     2
100
AcDbLine
 10
21.0
 20
-36.53999328613281
 30
0.0
 11
21.0
 21
-27.46000671386719
 31
0.0
  0
LINE
  5
74
330
1E
100
AcDbEntity
  8
0
  6
Continuous
 62
     7
100
AcDbLine
 10
56.4000244140625
 20
-37.0
 30
0.0
 11
56.4000244140625
 21
7.000000000000014
 31
0.0
  0
LINE
  5
75
330
1E
100
AcDbEntity
  8
0
  6
Continuous
 62
     2
100
AcDbLine
 10
46.46002197265625
 20
2.0
 30
0.0
 11
55.53997802734375
 21
2.0
 31
0.0
  0
LINE
  5
76
330
1E
100
AcDbEntity
  8
0
  6
Continuous
 62
     7
100
AcDbLine
 10
15.5999755859375
 20
-37.0
 30
0.0
 11
15.5999755859375
 21
7.000000000000014
 31
0.0
  0
LINE
  5
77
330
1E
100
AcDbEntity
  8
0
  6
Continuous
 62
     2
100
AcDbLine
 10
21.0
 20
6.539993286132826
 30
0.0
 11
21.0
 21
-2.539993286132812
 31
0.0
  0
LINE
  5
78
330
1E
100
AcDbEntity
  8
0
  6
Continuous
 62
     7
100
AcDbLine
 10
14.0
 20
-37.0
 30
0.0
 11
14.0
 21
7.000000000000014
 31
0.0
  0
LINE
  5
79
330
1E
100
AcDbEntity
  8
0
  6
Continuous
 62
     2
100
AcDbLine
 10
51.0
 20
6.539993286132826
 30
0.0
 11
51.0
 21
-2.539993286132812
 31
0.0
  0
LINE
  5
7A
330
1E
100
AcDbEntity
  8
0
  6
Continuous
 62
     7
100
AcDbLine
 10
58.0
 20
-37.0
 30
0.0
 11
58.0
 21
7.000000000000014
 31
0.0
  0
LINE
  5
7B
330
1E
100
AcDbEntity
  8
0
  6
Continuous
 62
     7
100
AcDbLine
 10
14.0
 20
7.000000000000014
 30
0.0
 11
58.0
 21
7.000000000000014
 31
0.0
  0
LINE
  5
7C
330
1E
100
AcDbEntity
  8
0
  6
Continuous
 62
     7
100
AcDbLine
 10
14.0
 20
-37.0
 30
0.0
 11
58.0
 21
-37.0
 31
0.0
  0
LINE
  5
7D
330
1E
100
AcDbEntity
  8
0
  6
Continuous
 62
     2
100
AcDbLine
 10
51.0
 20
-36.53999328613281
 30
0.0
 11
51.0
 21
-27.46000671386719
 31
0.0
  0
LINE
  5
7E
330
1E
100
AcDbEntity
  8
0
  6
Continuous
 62
     7
100
AcDbLine
 10
15.5999755859375
 20
-5.0
 30
0.0
 11
56.4000244140625
 21
-5.0
 31
0.0
  0
LINE
  5
7F
330
1E
100
AcDbEntity
  8
0
  6
Continuous
 62
     7
100
AcDbLine
 10
15.5999755859375
 20
-25.0
 30
0.0
 11
56.4000244140625
 21
-25.0
 31
0.0
  0
LINE
  5
80
330
1E
100
AcDbEntity
  8
0
  6
Continuous
 62
     7
100
AcDbLine
 10
10.0
 20
-11.0
 30
0.0
 11
12.30000305175781
 21
-11.0
 31
0.0
  0
LINE
  5
81
330
1E
100
AcDbEntity
  8
0
  6
Continuous
 62
     2
100
AcDbLine
 10
10.0
 20
-11.5
 30
0.0
 11
12.80000305175781
 21
-11.5
 31
0.0
  0
LINE
  5
82
330
1E
100
AcDbEntity
  8
0
  6
Continuous
 62
     2
100
AcDbLine
 10
10.0
 20
-18.5
 30
0.0
 11
12.80000305175781
 21
-18.5
 31
0.0
  0
LINE
  5
83
330
1E
100
AcDbEntity
  8
0
  6
Continuous
 62
     7
100
AcDbLine
 10
10.0
 20
-19.0
 30
0.0
 11
12.30000305175781
 21
-19.0
 31
0.0
  0
LINE
  5
84
330
1E
100
AcDbEntity
  8
0
  6
Continuous
 62
     7
100
AcDbLine
 10
12.80000305175781
 20
-11.5
 30
0.0
 11
14.0
 21
-11.5
 31
0.0
  0
LINE
  5
85
330
1E
100
AcDbEntity
  8
0
  6
Continuous
 62
     7
100
AcDbLine
 10
12.80000305175781
 20
-18.5
 30
0.0
 11
14.0
 21
-18.5
 31
0.0
  0
CIRCLE
  5
86
330
1E
100
AcDbEntity
  8
0
  6
Continuous
 62
     7
100
AcDbCircle
 10
172.0
 20
0.0
 30
0.0
 40
4.0
  0
CIRCLE
  5
87
330
1E
100
AcDbEntity
  8
0
  6
Continuous
 62
     7
100
AcDbCircle
 10
172.0
 20
0.0
 30
0.0
 40
2.400000095367432
  0
CIRCLE
  5
88
330
1E
100
AcDbEntity
  8
0
  6
Continuous
 62
     7
100
AcDbCircle
 10
172.0
 20
-30.0
 30
0.0
 40
4.0
  0
CIRCLE
  5
89
330
1E
100
AcDbEntity
  8
0
  6
Continuous
 62
     7
100
AcDbCircle
 10
172.0
 20
-30.0
 30
0.0
 40
2.400000095367432
  0
LINE
  5
8A
330
1E
100
AcDbEntity
  8
0
  6
Continuous
 62
     7
100
AcDbLine
 10
174.5
 20
-44.69999694824219
 30
0.0
 11
174.5
 21
-38.5
 31
0.0
  0
LINE
  5
8B
330
1E
100
AcDbEntity
  8
0
  6
Continuous
 62
     7
100
AcDbLine
 10
162.0
 20
-8.0
 30
0.0
 11
177.0
 21
-8.0
 31
0.0
  0
LINE
  5
8C
330
1E
100
AcDbEntity
  8
0
  6
Continuous
 62
     7
100
AcDbLine
 10
162.0
 20
-22.0
 30
0.0
 11
177.0
 21
-22.0
 31
0.0
  0
LINE
  5
8D
330
1E
100
AcDbEntity
  8
0
  6
Continuous
 62
     7
100
AcDbLine
 10
153.0
 20
-16.25
 30
0.0
 11
158.0
 21
-16.25
 31
0.0
  0
LINE
  5
8E
330
1E
100
AcDbEntity
  8
0
  6
PHANTOM
 62
     7
100
AcDbLine
 10
177.0
 20
-15.0
 30
0.0
 11
179.0
 21
-15.0
 31
0.0
  0
LINE
  5
8F
330
1E
100
AcDbEntity
  8
0
  6
Continuous
 62
     7
100
AcDbLine
 10
177.0
 20
-20.0
 30
0.0
 11
179.0
 21
-20.0
 31
0.0
  0
LINE
  5
90
330
1E
100
AcDbEntity
  8
0
  6
Continuous
 62
     7
100
AcDbLine
 10
177.0
 20
-10.0
 30
0.0
 11
179.0
 21
-10.0
 31
0.0
  0
LINE
  5
91
330
1E
100
AcDbEntity
  8
0
  6
Continuous
 62
     2
100
AcDbLine
 10
190.0
 20
-11.5
 30
0.0
 11
179.0
 21
-11.5
 31
0.0
  0
LINE
  5
92
330
1E
100
AcDbEntity
  8
0
  6
Continuous
 62
     2
100
AcDbLine
 10
190.0
 20
-18.5
 30
0.0
 11
179.0
 21
-18.5
 31
0.0
  0
LINE
  5
93
330
1E
100
AcDbEntity
  8
0
  6
Continuous
 62
     7
100
AcDbLine
 10
159.1999969482422
 20
-11.5
 30
0.0
 11
159.1999969482422
 21
-18.5
 31
0.0
  0
LINE
  5
94
330
1E
100
AcDbEntity
  8
0
  6
Continuous
 62
     7
100
AcDbLine
 10
159.1999969482422
 20
-11.5
 30
0.0
 11
159.6999969482422
 21
-11.0
 31
0.0
  0
LINE
  5
95
330
1E
100
AcDbEntity
  8
0
  6
Continuous
 62
     7
100
AcDbLine
 10
190.0
 20
-11.5
 30
0.0
 11
190.0
 21
-18.5
 31
0.0
  0
LINE
  5
96
330
1E
100
AcDbEntity
  8
0
  6
Continuous
 62
     7
100
AcDbLine
 10
179.0
 20
-20.0
 30
0.0
 11
179.0
 21
-10.0
 31
0.0
  0
LINE
  5
97
330
1E
100
AcDbEntity
  8
0
  6
Continuous
 62
     7
100
AcDbLine
 10
189.5
 20
-19.0
 30
0.0
 11
179.0
 21
-19.0
 31
0.0
  0
LINE
  5
98
330
1E
100
AcDbEntity
  8
0
  6
Continuous
 62
     7
100
AcDbLine
 10
189.5
 20
-11.0
 30
0.0
 11
179.0
 21
-11.0
 31
0.0
  0
LINE
  5
99
330
1E
100
AcDbEntity
  8
0
  6
Continuous
 62
     7
100
AcDbLine
 10
189.5
 20
-11.0
 30
0.0
 11
189.5
 21
-19.0
 31
0.0
  0
LINE
  5
9A
330
1E
100
AcDbEntity
  8
0
  6
Continuous
 62
     7
100
AcDbLine
 10
190.0
 20
-18.5
 30
0.0
 11
189.5
 21
-19.0
 31
0.0
  0
LINE
  5
9B
330
1E
100
AcDbEntity
  8
0
  6
Continuous
 62
     7
100
AcDbLine
 10
190.0
 20
-11.5
 30
0.0
 11
189.5
 21
-11.0
 31
0.0
  0
LINE
  5
9C
330
1E
100
AcDbEntity
  8
0
  6
Continuous
 62
     7
100
AcDbLine
 10
158.0
 20
-11.5
 30
0.0
 11
158.0
 21
-18.5
 31
0.0
  0
LINE
  5
9D
330
1E
100
AcDbEntity
  8
0
  6
Continuous
 62
     2
100
AcDbLine
 10
178.5400085449218
 20
0.0
 30
0.0
 11
165.4600067138671
 21
0.0
 31
0.0
  0
LINE
  5
9E
330
1E
100
AcDbEntity
  8
0
  6
Continuous
 62
     2
100
AcDbLine
 10
172.0
 20
-6.53997802734375
 30
0.0
 11
172.0
 21
6.539978027343764
 31
0.0
  0
LINE
  5
9F
330
1E
100
AcDbEntity
  8
0
  6
Continuous
 62
     7
100
AcDbLine
 10
153.0
 20
-13.75
 30
0.0
 11
153.0
 21
-16.25
 31
0.0
  0
LINE
  5
A0
330
1E
100
AcDbEntity
  8
0
  6
Continuous
 62
     7
100
AcDbLine
 10
159.6999969482422
 20
-11.0
 30
0.0
 11
159.6999969482422
 21
-19.0
 31
0.0
  0
LINE
  5
A1
330
1E
100
AcDbEntity
  8
0
  6
Continuous
 62
     2
100
AcDbLine
 10
178.5400085449218
 20
-30.0
 30
0.0
 11
165.4600067138671
 21
-30.0
 31
0.0
  0
LINE
  5
A2
330
1E
100
AcDbEntity
  8
0
  6
Continuous
 62
     2
100
AcDbLine
 10
172.0
 20
-23.46002197265625
 30
0.0
 11
172.0
 21
-37.53997802734375
 31
0.0
  0
LINE
  5
A3
330
1E
100
AcDbEntity
  8
0
  6
Continuous
 62
     7
100
AcDbLine
 10
162.0
 20
-38.5
 30
0.0
 11
162.0
 21
8.500000000000014
 31
0.0
  0
LINE
  5
A4
330
1E
100
AcDbEntity
  8
0
  6
Continuous
 62
     7
100
AcDbLine
 10
153.0
 20
-13.75
 30
0.0
 11
158.0
 21
-13.75
 31
0.0
  0
LINE
  5
A5
330
1E
100
AcDbEntity
  8
0
  6
Continuous
 62
     7
100
AcDbLine
 10
177.0
 20
-38.5
 30
0.0
 11
177.0
 21
8.500000000000014
 31
0.0
  0
LINE
  5
A6
330
1E
100
AcDbEntity
  8
0
  6
Continuous
 62
     7
100
AcDbLine
 10
177.0
 20
-38.5
 30
0.0
 11
162.0
 21
-38.5
 31
0.0
  0
LINE
  5
A7
330
1E
100
AcDbEntity
  8
0
  6
Continuous
 62
     7
100
AcDbLine
 10
177.0
 20
8.500000000000014
 30
0.0
 11
162.0
 21
8.500000000000014
 31
0.0
  0
LINE
  5
A8
330
1E
100
AcDbEntity
  8
0
  6
Continuous
 62
     7
100
AcDbLine
 10
162.0
 20
-11.0
 30
0.0
 11
159.6999969482422
 21
-11.0
 31
0.0
  0
LINE
  5
A9
330
1E
100
AcDbEntity
  8
0
  6
Continuous
 62
     2
100
AcDbLine
 10
162.0
 20
-11.5
 30
0.0
 11
159.1999969482422
 21
-11.5
 31
0.0
  0
LINE
  5
AA
330
1E
100
AcDbEntity
  8
0
  6
Continuous
 62
     2
100
AcDbLine
 10
162.0
 20
-18.5
 30
0.0
 11
159.1999969482422
 21
-18.5
 31
0.0
  0
LINE
  5
AB
330
1E
100
AcDbEntity
  8
0
  6
Continuous
 62
     7
100
AcDbLine
 10
162.0
 20
-19.0
 30
0.0
 11
159.6999969482422
 21
-19.0
 31
0.0
  0
LINE
  5
AC
330
1E
100
AcDbEntity
  8
0
  6
Continuous
 62
     7
100
AcDbLine
 10
158.0
 20
-11.5
 30
0.0
 11
159.200008885944
 21
-11.5
 31
0.0
  0
LINE
  5
AD
330
1E
100
AcDbEntity
  8
0
  6
Continuous
 62
     7
100
AcDbLine
 10
158.0
 20
-18.5
 30
0.0
 11
159.1999969482422
 21
-18.5
 31
0.0
  0
LINE
  5
AE
330
1E
100
AcDbEntity
  8
0
  6
PHANTOM
 62
     3
100
AcDbLine
 10
105.0
 20
40.69122110369958
 30
0.0
 11
105.0
 21
-68.27157619543243
 31
0.0
  0
ENDBLK
  5
AF
330
1E
100
AcDbEntity
  8
0
100
AcDbBlockEnd
  0
BLOCK
  5
B0
330
1F
100
AcDbEntity
  8
0
100
AcDbBlockBegin
  2
MRVZS14-K2-2
 70
     0
 10
0.0
 20
0.0
 30
0.0
  3
MRVZS14-K2-2
  1

  0
LINE
  5
B1
330
1F
100
AcDbEntity
  8
0
  6
Continuous
 62
     7
100
AcDbLine
 10
8.0
 20
-38.5
 30
0.0
 11
22.0
 21
-38.5
 31
0.0
  0
LINE
  5
B2
330
1F
100
AcDbEntity
  8
0
  6
Continuous
 62
     7
100
AcDbLine
 10
8.0
 20
-37.50000000000002
 30
0.0
 11
1.0
 21
-37.50000000000002
 31
0.0
  0
LINE
  5
B3
330
1F
100
AcDbEntity
  8
0
  6
Continuous
 62
     7
100
AcDbLine
 10
1.0
 20
-44.20001220703125
 30
0.0
 11
1.0
 21
-37.50000000000002
 31
0.0
  0
LINE
  5
B4
330
1F
100
AcDbEntity
  8
0
  6
Continuous
 62
     7
100
AcDbLine
 10
22.6132617382641
 20
-9.999986074059052
 30
0.0
 11
19.72649721189691
 21
-15.00000881347296
 31
0.0
  0
LINE
  5
B5
330
1F
100
AcDbEntity
  8
0
  6
Continuous
 62
     7
100
AcDbLine
 10
28.38674926757813
 20
-10.0
 30
0.0
 11
22.61325073242188
 21
-10.0
 31
0.0
  0
LINE
  5
B6
330
1F
100
AcDbEntity
  8
0
  6
Continuous
 62
     7
100
AcDbLine
 10
28.38674926757813
 20
-20.0
 30
0.0
 11
22.61325073242188
 21
-20.0
 31
0.0
  0
LINE
  5
B7
330
1F
100
AcDbEntity
  8
0
  6
Continuous
 62
     7
100
AcDbLine
 10
28.38675439792973
 20
-20.00001072082159
 30
0.0
 11
31.27351892429693
 21
-14.99998798140768
 31
0.0
  0
LINE
  5
B8
330
1F
100
AcDbEntity
  8
0
  6
Continuous
 62
     7
100
AcDbLine
 10
25.922653478548
 20
-4.000007211894625
 30
0.0
 11
25.34530667679019
 21
-5.00000118817843
 31
0.0
  0
LINE
  5
B9
330
1F
100
AcDbEntity
  8
0
  6
Continuous
 62
     7
100
AcDbLine
 10
23.0
 20
-6.0
 30
0.0
 11
23.0
 21
7.500000000000014
 31
0.0
  0
LINE
  5
BA
330
1F
100
AcDbEntity
  8
0
  6
Continuous
 62
     7
100
AcDbLine
 10
27.07735129305729
 20
-24.00002087340908
 30
0.0
 11
27.65469809481511
 21
-25.00001484969289
 31
0.0
  0
LINE
  5
BB
330
1F
100
AcDbEntity
  8
0
  6
Continuous
 62
     7
100
AcDbLine
 10
27.07734680175781
 20
-24.0
 30
0.0
 11
25.92265319824219
 21
-24.0
 31
0.0
  0
LINE
  5
BC
330
1F
100
AcDbEntity
  8
0
  6
Continuous
 62
     7
100
AcDbLine
 10
23.0
 20
-24.0
 30
0.0
 11
23.0
 21
-37.5
 31
0.0
  0
LINE
  5
BD
330
1F
100
AcDbEntity
  8
0
  6
Continuous
 62
     7
100
AcDbLine
 10
0.0
 20
-38.5
 30
0.0
 11
1.0
 21
-38.5
 31
0.0
  0
LINE
  5
BE
330
1F
100
AcDbEntity
  8
0
  6
Continuous
 62
     7
100
AcDbLine
 10
22.0
 20
8.500000000000014
 30
0.0
 11
8.0
 21
8.500000000000014
 31
0.0
  0
LINE
  5
BF
330
1F
100
AcDbEntity
  8
0
  6
Continuous
 62
     7
100
AcDbLine
 10
33.0
 20
6.000000000000014
 30
0.0
 11
33.0
 21
-4.422637939453125
 31
0.0
  0
LINE
  5
C0
330
1F
100
AcDbEntity
  8
0
  6
Continuous
 62
     2
100
AcDbLine
 10
4.5
 20
-36.6820068359375
 30
0.0
 11
4.5
 21
-45.391845703125
 31
0.0
  0
LINE
  5
C1
330
1F
100
AcDbEntity
  8
0
  6
Continuous
 62
     2
100
AcDbLine
 10
20.0242919921875
 20
-23.5
 30
0.0
 11
6.60888671875
 21
-23.5
 31
0.0
  0
LINE
  5
C2
330
1F
100
AcDbEntity
  8
0
  6
Continuous
 62
     7
100
AcDbLine
 10
16.32270277464703
 20
-15.99998674675316
 30
0.0
 11
15.74534071410016
 21
-14.99996634147192
 31
0.0
  0
LINE
  5
C3
330
1F
100
AcDbEntity
  8
0
  6
Continuous
 62
     7
100
AcDbLine
 10
6.100006103515625
 20
-44.70001220703125
 30
0.0
 11
6.100006103515625
 21
-44.20001220703125
 31
0.0
  0
LINE
  5
C4
330
1F
100
AcDbEntity
  8
0
  6
Continuous
 62
     7
100
AcDbLine
 10
2.399981215869047
 20
-43.70002693296556
 30
0.0
 11
2.899992536256831
 21
-44.20003825335334
 31
0.0
  0
LINE
  5
C5
330
1F
100
AcDbEntity
  8
0
  6
Continuous
 62
     7
100
AcDbLine
 10
1.0
 20
7.500000000000014
 30
0.0
 11
1.0
 21
8.500000000000014
 31
0.0
  0
LINE
  5
C6
330
1F
100
AcDbEntity
  8
0
  6
Continuous
 62
     7
100
AcDbLine
 10
6.599986753504254
 20
-43.70003232776208
 30
0.0
 11
6.099997012302537
 21
-44.20002206896378
 31
0.0
  0
LINE
  5
C7
330
1F
100
AcDbEntity
  8
0
  6
Continuous
 62
     7
100
AcDbLine
 10
2.899993896484375
 20
-44.70001220703125
 30
0.0
 11
2.899993896484375
 21
-44.19995117187499
 31
0.0
  0
LINE
  5
C8
330
1F
100
AcDbEntity
  8
0
  6
Continuous
 62
     7
100
AcDbLine
 10
27.077342113942
 20
-4.000005513162249
 30
0.0
 11
27.65470417448887
 21
-5.000025918443497
 31
0.0
  0
LINE
  5
C9
330
1F
100
AcDbEntity
  8
0
  6
Continuous
 62
     7
100
AcDbLine
 10
6.600006103515625
 20
-42.0999755859375
 30
0.0
 11
6.600006103515625
 21
-43.70001220703125
 31
0.0
  0
LINE
  5
CA
330
1F
100
AcDbEntity
  8
0
  6
Continuous
 62
     7
100
AcDbLine
 10
1.5
 20
-44.70001220703125
 30
0.0
 11
2.899993896484375
 21
-44.70001220703125
 31
0.0
  0
LINE
  5
CB
330
1F
100
AcDbEntity
  8
0
  6
Continuous
 62
     7
100
AcDbLine
 10
7.5
 20
-44.70001220703125
 30
0.0
 11
6.100006103515625
 21
-44.70001220703125
 31
0.0
  0
LINE
  5
CC
330
1F
100
AcDbEntity
  8
0
  6
Continuous
 62
     7
100
AcDbLine
 10
2.399993896484375
 20
-42.0999755859375
 30
0.0
 11
2.399993896484375
 21
-43.699951171875
 31
0.0
  0
LINE
  5
CD
330
1F
100
AcDbEntity
  8
0
  6
Continuous
 62
     7
100
AcDbLine
 10
27.07734680175781
 20
-6.0
 30
0.0
 11
25.92265319824219
 21
-6.0
 31
0.0
  0
LINE
  5
CE
330
1F
100
AcDbEntity
  8
0
  6
Continuous
 62
     7
100
AcDbLine
 10
27.07735745327182
 20
-6.00000118817843
 30
0.0
 11
27.65470425502963
 21
-5.000007211894625
 31
0.0
  0
LINE
  5
CF
330
1F
100
AcDbEntity
  8
0
  6
Continuous
 62
     7
100
AcDbLine
 10
30.0
 20
-21.93649291992187
 30
0.0
 11
30.0
 21
-36.0
 31
0.0
  0
LINE
  5
D0
330
1F
100
AcDbEntity
  8
0
  6
Continuous
 62
     7
100
AcDbLine
 10
32.50000399142823
 20
-24.71133135048149
 30
0.0
 11
30.50000943161126
 21
-23.5566339322686
 31
0.0
  0
LINE
  5
D1
330
1F
100
AcDbEntity
  8
0
  6
Continuous
 62
     7
100
AcDbLine
 10
30.0
 20
-8.063507080078125
 30
0.0
 11
30.0
 21
6.000000000000014
 31
0.0
  0
LINE
  5
D2
330
1F
100
AcDbEntity
  8
0
  6
Continuous
 62
     7
100
AcDbLine
 10
29.5
 20
-22.0
 30
0.0
 11
25.0
 21
-22.0
 31
0.0
  0
LINE
  5
D3
330
1F
100
AcDbEntity
  8
0
  6
Continuous
 62
     7
100
AcDbLine
 10
25.92265339800724
 20
-6.000025918443497
 30
0.0
 11
25.34529133746037
 21
-5.000005513162249
 31
0.0
  0
LINE
  5
D4
330
1F
100
AcDbEntity
  8
0
  6
Continuous
 62
     7
100
AcDbLine
 10
31.5
 20
-10.0
 30
0.0
 11
31.5
 21
-20.0
 31
0.0
  0
LINE
  5
D5
330
1F
100
AcDbEntity
  8
0
  6
Continuous
 62
     7
100
AcDbLine
 10
25.92266286184645
 20
-23.99999805049265
 30
0.0
 11
25.34531606008864
 21
-24.99999202677645
 31
0.0
  0
LINE
  5
D6
330
1F
100
AcDbEntity
  8
0
  6
Continuous
 62
     7
100
AcDbLine
 10
8.0
 20
-44.20001220703125
 30
0.0
 11
8.0
 21
-37.50000000000002
 31
0.0
  0
LINE
  5
D7
330
1F
100
AcDbEntity
  8
0
  6
Continuous
 62
     7
100
AcDbLine
 10
8.0
 20
7.500000000000014
 30
0.0
 11
8.0
 21
8.500000000000014
 31
0.0
  0
LINE
  5
D8
330
1F
100
AcDbEntity
  8
0
  6
Continuous
 62
     7
100
AcDbLine
 10
8.0
 20
7.500000000000014
 30
0.0
 11
1.0
 21
7.500000000000014
 31
0.0
  0
LINE
  5
D9
330
1F
100
AcDbEntity
  8
0
  6
Continuous
 62
     7
100
AcDbLine
 10
1.0
 20
8.500000000000014
 30
0.0
 11
0.0
 21
8.500000000000014
 31
0.0
  0
LINE
  5
DA
330
1F
100
AcDbEntity
  8
0
  6
Continuous
 62
     7
100
AcDbLine
 10
25.92264731833348
 20
-26.00001484969289
 30
0.0
 11
25.34530051657567
 21
-25.00002087340909
 31
0.0
  0
LINE
  5
DB
330
1F
100
AcDbEntity
  8
0
  6
Continuous
 62
     7
100
AcDbLine
 10
27.07736683657027
 20
-25.99999202677645
 30
0.0
 11
27.65471363832808
 21
-24.99999805049265
 31
0.0
  0
LINE
  5
DC
330
1F
100
AcDbEntity
  8
0
  6
Continuous
 62
     7
100
AcDbLine
 10
9.813081122969379
 20
-21.9486710713245
 30
0.0
 11
16.68694621015129
 21
-25.917299001012
 31
0.0
  0
LINE
  5
DD
330
1F
100
AcDbEntity
  8
0
  6
Continuous
 62
     7
100
AcDbLine
 10
10.31308112296938
 20
-21.08264568308368
 30
0.0
 11
17.18694621015129
 21
-25.05127361277118
 31
0.0
  0
LINE
  5
DE
330
1F
100
AcDbEntity
  8
0
  6
Continuous
 62
     7
100
AcDbLine
 10
16.32268352800929
 20
-14.0000030268493
 30
0.0
 11
15.74535198504054
 21
-14.99997057413566
 31
0.0
  0
LINE
  5
DF
330
1F
100
AcDbEntity
  8
0
  6
Continuous
 62
     2
100
AcDbLine
 10
34.5
 20
-15.0
 30
0.0
 11
-4.975807081169676
 21
-15.0
 31
0.0
  0
LINE
  5
E0
330
1F
100
AcDbEntity
  8
0
  6
Continuous
 62
     7
100
AcDbLine
 10
0.0
 20
8.500000000000014
 30
0.0
 11
0.0
 21
-7.000058936704591
 31
0.0
  0
LINE
  5
E1
330
1F
100
AcDbEntity
  8
0
  6
Continuous
 62
     7
100
AcDbLine
 10
27.07734680175781
 20
-4.0
 30
0.0
 11
25.92265319824219
 21
-4.0
 31
0.0
  0
LINE
  5
E2
330
1F
100
AcDbEntity
  8
0
  6
Continuous
 62
     7
100
AcDbLine
 10
27.07734680175781
 20
-26.0
 30
0.0
 11
25.92265319824219
 21
-26.0
 31
0.0
  0
LINE
  5
E3
330
1F
100
AcDbEntity
  8
0
  6
Continuous
 62
     7
100
AcDbLine
 10
9.522634072876826
 20
-15.99999832650519
 30
0.0
 11
8.945272012329949
 21
-14.99997792122394
 31
0.0
  0
LINE
  5
E4
330
1F
100
AcDbEntity
  8
0
  6
Continuous
 62
     7
100
AcDbLine
 10
17.47739149058179
 20
-13.99996634147192
 30
0.0
 11
18.05475355112867
 21
-14.99998674675316
 31
0.0
  0
LINE
  5
E5
330
1F
100
AcDbEntity
  8
0
  6
Continuous
 62
     7
100
AcDbLine
 10
29.5
 20
-8.0
 30
0.0
 11
25.0
 21
-8.0
 31
0.0
  0
LINE
  5
E6
330
1F
100
AcDbEntity
  8
0
  6
Continuous
 62
     7
100
AcDbLine
 10
16.32269287109375
 20
-16.0
 30
0.0
 11
17.4774169921875
 21
-16.0
 31
0.0
  0
LINE
  5
E7
330
1F
100
AcDbEntity
  8
0
  6
Continuous
 62
     7
100
AcDbLine
 10
10.67730712890625
 20
-14.0
 30
0.0
 11
9.5225830078125
 21
-14.0
 31
0.0
  0
LINE
  5
E8
330
1F
100
AcDbEntity
  8
0
  6
Continuous
 62
     7
100
AcDbLine
 10
17.47740276152217
 20
-15.99997057413566
 30
0.0
 11
18.05473430449092
 21
-15.0000030268493
 31
0.0
  0
LINE
  5
E9
330
1F
100
AcDbEntity
  8
0
  6
Continuous
 62
     7
100
AcDbLine
 10
16.32269287109375
 20
-14.0
 30
0.0
 11
17.4774169921875
 21
-14.0
 31
0.0
  0
LINE
  5
EA
330
1F
100
AcDbEntity
  8
0
  6
Continuous
 62
     7
100
AcDbLine
 10
10.67730712890625
 20
-16.0
 30
0.0
 11
9.5225830078125
 21
-16.0
 31
0.0
  0
LINE
  5
EB
330
1F
100
AcDbEntity
  8
0
  6
Continuous
 62
     2
100
AcDbLine
 10
13.5
 20
11.50000000000001
 30
0.0
 11
13.5
 21
-41.5
 31
0.0
  0
LINE
  5
EC
330
1F
100
AcDbEntity
  8
0
  6
Continuous
 62
     7
100
AcDbLine
 10
10.67732278881158
 20
-13.99997792122394
 30
0.0
 11
11.25468484935845
 21
-14.99999832650519
 31
0.0
  0
LINE
  5
ED
330
1F
100
AcDbEntity
  8
0
  6
Continuous
 62
     7
100
AcDbLine
 10
9.522614826239077
 20
-13.99999144709727
 30
0.0
 11
8.945283283270327
 21
-14.99995899438363
 31
0.0
  0
LINE
  5
EE
330
1F
100
AcDbEntity
  8
0
  6
Continuous
 62
     7
100
AcDbLine
 10
10.67733405975195
 20
-15.99995899438363
 30
0.0
 11
11.2546656027207
 21
-14.99999144709727
 31
0.0
  0
LINE
  5
EF
330
1F
100
AcDbEntity
  8
0
  6
Continuous
 62
     7
100
AcDbLine
 10
23.0
 20
7.000000000000014
 30
0.0
 11
32.0
 21
7.000000000000014
 31
0.0
  0
LINE
  5
F0
330
1F
100
AcDbEntity
  8
0
  6
Continuous
 62
     7
100
AcDbLine
 10
28.38674493409053
 20
-10.00001324811455
 30
0.0
 11
31.27349420166865
 21
-15.00000955853102
 31
0.0
  0
LINE
  5
F1
330
1F
100
AcDbEntity
  8
0
  6
Continuous
 62
     2
100
AcDbLine
 10
25.5
 20
-8.0
 30
0.0
 11
25.5
 21
-22.0
 31
0.0
  0
LINE
  5
F2
330
1F
100
AcDbEntity
  8
0
  6
Continuous
 62
     7
100
AcDbLine
 10
22.61324031926051
 20
-20.00000955853102
 30
0.0
 11
19.72649105168239
 21
-15.00001324811455
 31
0.0
  0
LINE
  5
F3
330
1F
100
AcDbEntity
  8
0
  6
Continuous
 62
     7
100
AcDbLine
 10
23.0
 20
-37.0
 30
0.0
 11
32.0
 21
-37.0
 31
0.0
  0
LINE
  5
F4
330
1F
100
AcDbEntity
  8
0
  6
Continuous
 62
     7
100
AcDbLine
 10
32.50000113483839
 20
-5.288688803757395
 30
0.0
 11
30.50001318227077
 21
-6.44338240727302
 31
0.0
  0
LINE
  5
F5
330
1F
100
AcDbEntity
  8
0
  6
Continuous
 62
     7
100
AcDbLine
 10
33.0
 20
-25.57736206054688
 30
0.0
 11
33.0
 21
-36.0
 31
0.0
  0
LINE
  5
F6
330
1F
100
AcDbEntity
  8
0
  6
Continuous
 62
     7
100
AcDbLine
 10
0.3000030517578125
 20
-7.300061988462402
 30
0.0
 11
0.3000030517578125
 21
-22.700004311464
 31
0.0
  0
LINE
  5
F7
330
1F
100
AcDbEntity
  8
0
  6
Continuous
 62
     7
100
AcDbLine
 10
0.0000000000000001
 20
-7.000058936704591
 30
0.0
 11
0.3000030517578126
 21
-7.300061988462402
 31
0.0
  0
LINE
  5
F8
330
1F
100
AcDbEntity
  8
0
  6
Continuous
 62
     7
100
AcDbLine
 10
0.0000000000000006
 20
-23.00000736322181
 30
0.0
 11
0.3000030517578121
 21
-22.700004311464
 31
0.0
  0
LINE
  5
F9
330
1F
100
AcDbEntity
  8
0
  6
Continuous
 62
     7
100
AcDbLine
 10
0.0
 20
-23.00000736322181
 30
0.0
 11
0.0
 21
-38.5
 31
0.0
  0
CIRCLE
  5
FA
330
1F
100
AcDbEntity
  8
0
  6
Continuous
 62
     2
100
AcDbCircle
 10
25.5
 20
-15.0
 30
0.0
 40
4.0
  0
ARC
  5
FB
330
1F
100
AcDbEntity
  8
0
  6
Continuous
 62
     7
100
AcDbCircle
 10
22.0
 20
-37.5
 30
0.0
 40
1.0
100
AcDbArc
 50
270.0
 51
0.0000025044781673
  0
ARC
  5
FC
330
1F
100
AcDbEntity
  8
0
  6
Continuous
 62
     7
100
AcDbCircle
 10
32.0
 20
-25.57736206054688
 30
0.0
 40
1.0
100
AcDbArc
 50
0.0000025044781673
 51
59.99999734394111
  0
ARC
  5
FD
330
1F
100
AcDbEntity
  8
0
  6
Continuous
 62
     7
100
AcDbCircle
 10
1.5
 20
-44.20001220703125
 30
0.0
 40
0.5
100
AcDbArc
 50
179.9999974955218
 51
270.0000086514222
  0
ARC
  5
FE
330
1F
100
AcDbEntity
  8
0
  6
Continuous
 62
     7
100
AcDbCircle
 10
4.5
 20
-42.0999755859375
 30
0.0
 40
2.099999904632568
100
AcDbArc
 50
359.9999956742889
 51
180.0000006832453
  0
ARC
  5
FF
330
1F
100
AcDbEntity
  8
0
  6
Continuous
 62
     7
100
AcDbCircle
 10
7.5
 20
-44.20001220703125
 30
0.0
 40
0.5
100
AcDbArc
 50
269.9999949910439
 51
0.0000025044781673
  0
ARC
  5
100
330
1F
100
AcDbEntity
  8
0
  6
Continuous
 62
     7
100
AcDbCircle
 10
31.0
 20
-22.69061279296875
 30
0.0
 40
1.0
100
AcDbArc
 50
179.9999974955218
 51
239.9999991651739
  0
ARC
  5
101
330
1F
100
AcDbEntity
  8
0
  6
Continuous
 62
     7
100
AcDbCircle
 10
31.0
 20
-7.30938720703125
 30
0.0
 40
1.0
100
AcDbArc
 50
120.0000026560589
 51
179.9999974955218
  0
ARC
  5
102
330
1F
100
AcDbEntity
  8
0
  6
Continuous
 62
     7
100
AcDbCircle
 10
29.0
 20
-36.0
 30
0.0
 40
1.0
100
AcDbArc
 50
270.0
 51
0.0000025044781673
  0
ARC
  5
103
330
1F
100
AcDbEntity
  8
0
  6
Continuous
 62
     7
100
AcDbCircle
 10
29.0
 20
6.000000000000014
 30
0.0
 40
1.0
100
AcDbArc
 50
0.0000025044781673
 51
90.00000500895634
  0
ARC
  5
104
330
1F
100
AcDbEntity
  8
0
  6
Continuous
 62
     7
100
AcDbCircle
 10
25.0
 20
-6.0
 30
0.0
 40
2.0
100
AcDbArc
 50
179.9999974955218
 51
270.0
  0
ARC
  5
105
330
1F
100
AcDbEntity
  8
0
  6
Continuous
 62
     7
100
AcDbCircle
 10
22.0
 20
7.500000000000014
 30
0.0
 40
1.0
100
AcDbArc
 50
0.0000025044781673
 51
90.00000500895634
  0
CIRCLE
  5
106
330
1F
100
AcDbEntity
  8
0
  6
Continuous
 62
     7
100
AcDbCircle
 10
13.5
 20
-23.5
 30
0.0
 40
4.0
  0
ARC
  5
107
330
1F
100
AcDbEntity
  8
0
  6
Continuous
 62
     7
100
AcDbCircle
 10
25.0
 20
-24.0
 30
0.0
 40
2.0
100
AcDbArc
 50
89.99999134857798
 51
180.0000006832453
  0
ARC
  5
108
330
1F
100
AcDbEntity
  8
0
  6
Continuous
 62
     7
100
AcDbCircle
 10
29.5
 20
-20.0
 30
0.0
 40
2.0
100
AcDbArc
 50
270.0
 51
0.0000025044781673
  0
ARC
  5
109
330
1F
100
AcDbEntity
  8
0
  6
Continuous
 62
     7
100
AcDbCircle
 10
29.5
 20
-10.0
 30
0.0
 40
2.0
100
AcDbArc
 50
0.0000025044781673
 51
90.00000500895634
  0
CIRCLE
  5
10A
330
1F
100
AcDbEntity
  8
0
  6
Continuous
 62
     7
100
AcDbCircle
 10
26.5
 20
-5.0
 30
0.0
 40
2.25
  0
CIRCLE
  5
10B
330
1F
100
AcDbEntity
  8
0
  6
Continuous
 62
     7
100
AcDbCircle
 10
16.9000244140625
 20
-15.0
 30
0.0
 40
2.75
  0
CIRCLE
  5
10C
330
1F
100
AcDbEntity
  8
0
  6
Continuous
 62
     7
100
AcDbCircle
 10
10.0999755859375
 20
-15.0
 30
0.0
 40
2.75
  0
ARC
  5
10D
330
1F
100
AcDbEntity
  8
0
  6
Continuous
 62
     7
100
AcDbCircle
 10
32.0
 20
-36.0
 30
0.0
 40
1.0
100
AcDbArc
 50
270.0
 51
0.0000025044781673
  0
ARC
  5
10E
330
1F
100
AcDbEntity
  8
0
  6
Continuous
 62
     7
100
AcDbCircle
 10
32.0
 20
6.000000000000014
 30
0.0
 40
1.0
100
AcDbArc
 50
0.0000025044781673
 51
90.00000500895634
  0
CIRCLE
  5
10F
330
1F
100
AcDbEntity
  8
0
  6
Continuous
 62
     7
100
AcDbCircle
 10
25.5
 20
-15.0
 30
0.0
 40
3.5
  0
CIRCLE
  5
110
330
1F
100
AcDbEntity
  8
0
  6
Continuous
 62
     7
100
AcDbCircle
 10
26.5
 20
-25.0
 30
0.0
 40
2.25
  0
CIRCLE
  5
111
330
1F
100
AcDbEntity
  8
0
  6
Continuous
 62
     7
100
AcDbCircle
 10
25.5
 20
-15.0
 30
0.0
 40
5.0
  0
ARC
  5
112
330
1F
100
AcDbEntity
  8
0
  6
Continuous
 62
     7
100
AcDbCircle
 10
32.0
 20
-4.422637939453125
 30
0.0
 40
1.0
100
AcDbArc
 50
300.000000834826
 51
0.0000025044781673
  0
CIRCLE
  5
113
330
1F
100
AcDbEntity
  8
0
  6
Continuous
 62
     7
100
AcDbCircle
 10
13.5
 20
-23.5
 30
0.0
 40
5.5
  0
CIRCLE
  5
114
330
1F
100
AcDbEntity
  8
0
  6
Continuous
 62
     7
100
AcDbCircle
 10
3.849999997275176
 20
-42.20001268468481
 30
0.0
 40
0.5
  0
CIRCLE
  5
115
330
1F
100
AcDbEntity
  8
0
  6
Continuous
 62
     7
100
AcDbCircle
 10
4.5
 20
-42.20001268468481
 30
0.0
 40
1.300000000000011
  0
LINE
  5
116
330
1F
100
AcDbEntity
  8
0
  6
Continuous
 62
     7
100
AcDbLine
 10
6.0
 20
-44.70001220703127
 30
0.0
 11
3.0
 21
-44.70001220703127
 31
0.0
  0
LINE
  5
117
330
1F
100
AcDbEntity
  8
0
  6
Continuous
 62
     7
100
AcDbLine
 10
5.75
 20
-44.93741160885374
 30
0.0
 11
3.25
 21
-44.93741160885374
 31
0.0
  0
LINE
  5
118
330
1F
100
AcDbEntity
  8
0
  6
Continuous
 62
     7
100
AcDbLine
 10
5.550000000000011
 20
-45.13741160885376
 30
0.0
 11
3.449999999999988
 21
-45.13741160885376
 31
0.0
  0
ARC
  5
119
330
1F
100
AcDbEntity
  8
0
  6
Continuous
 62
     7
100
AcDbCircle
 10
4.5
 20
-42.15001220703127
 30
0.0
 40
2.049999999999996
100
AcDbArc
 50
12.68038349181954
 51
167.3196165081805
  0
LINE
  5
11A
330
1F
100
AcDbEntity
  8
0
  6
Continuous
 62
     2
100
AcDbLine
 10
3.449999999999988
 20
-44.70001220703127
 30
0.0
 11
3.449999999999988
 21
-45.13741160885376
 31
0.0
  0
LINE
  5
11B
330
1F
100
AcDbEntity
  8
0
  6
Continuous
 62
     7
100
AcDbLine
 10
3.449999999999988
 20
-45.13741160885376
 30
0.0
 11
3.25
 21
-44.93741160885374
 31
0.0
  0
LINE
  5
11C
330
1F
100
AcDbEntity
  8
0
  6
Continuous
 62
     7
100
AcDbLine
 10
3.25
 20
-44.93741160885374
 30
0.0
 11
3.25
 21
-44.70001220703127
 31
0.0
  0
CIRCLE
  5
11D
330
1F
100
AcDbEntity
  8
0
  6
Continuous
 62
     7
100
AcDbCircle
 10
3.849999997275176
 20
-42.20001268468481
 30
0.0
 40
0.29
  0
LINE
  5
11E
330
1F
100
AcDbEntity
  8
0
  6
Continuous
 62
     7
100
AcDbLine
 10
6.5
 20
-41.70001220703128
 30
0.0
 11
6.5
 21
-43.65027262369792
 31
0.0
  0
LINE
  5
11F
330
1F
100
AcDbEntity
  8
0
  6
Continuous
 62
     7
100
AcDbLine
 10
6.5
 20
-43.65027262369792
 30
0.0
 11
6.0
 21
-44.15287679036459
 31
0.0
  0
LINE
  5
120
330
1F
100
AcDbEntity
  8
0
  6
Continuous
 62
     7
100
AcDbLine
 10
6.0
 20
-44.15287679036459
 30
0.0
 11
6.0
 21
-44.70001220975603
 31
0.0
  0
LINE
  5
121
330
1F
100
AcDbEntity
  8
0
  6
Continuous
 62
     2
100
AcDbLine
 10
5.550000000000011
 20
-44.70001220703127
 30
0.0
 11
5.550000000000011
 21
-45.13741160885376
 31
0.0
  0
LINE
  5
122
330
1F
100
AcDbEntity
  8
0
  6
Continuous
 62
     7
100
AcDbLine
 10
5.75
 20
-44.93741160885374
 30
0.0
 11
5.550000000000011
 21
-45.13741160885376
 31
0.0
  0
LINE
  5
123
330
1F
100
AcDbEntity
  8
0
  6
Continuous
 62
     7
100
AcDbLine
 10
5.75
 20
-44.70001220703127
 30
0.0
 11
5.75
 21
-44.93741160885374
 31
0.0
  0
CIRCLE
  5
124
330
1F
100
AcDbEntity
  8
0
  6
Continuous
 62
     7
100
AcDbCircle
 10
5.150000002724767
 20
-42.20001268468481
 30
0.0
 40
0.5
  0
CIRCLE
  5
125
330
1F
100
AcDbEntity
  8
0
  6
Continuous
 62
     7
100
AcDbCircle
 10
5.150000002724767
 20
-42.20001268468481
 30
0.0
 40
0.29
  0
LINE
  5
126
330
1F
100
AcDbEntity
  8
0
  6
Continuous
 62
     7
100
AcDbLine
 10
2.5
 20
-41.70001220703128
 30
0.0
 11
2.5
 21
-43.65001220703127
 31
0.0
  0
LINE
  5
127
330
1F
100
AcDbEntity
  8
0
  6
Continuous
 62
     7
100
AcDbLine
 10
3.000000006130733
 20
-44.15001221316201
 30
0.0
 11
2.5
 21
-43.65001220703127
 31
0.0
  0
LINE
  5
128
330
1F
100
AcDbEntity
  8
0
  6
Continuous
 62
     7
100
AcDbLine
 10
3.0
 20
-44.15001220703127
 30
0.0
 11
3.0
 21
-44.70001220975603
 31
0.0
  0
LINE
  5
129
330
1F
100
AcDbEntity
  8
0
  6
Continuous
 62
     2
100
AcDbLine
 10
-3.0
 20
0.0
 30
0.0
 11
3.0
 21
0.0
 31
0.0
  0
LINE
  5
12A
330
1F
100
AcDbEntity
  8
0
  6
Continuous
 62
     2
100
AcDbLine
 10
-3.0
 20
-30.0
 30
0.0
 11
3.0
 21
-30.0
 31
0.0
  0
LINE
  5
12B
330
1F
100
AcDbEntity
  8
0
  6
Continuous
 62
     2
100
AcDbLine
 10
30.0
 20
2.0
 30
0.0
 11
36.0
 21
2.0
 31
0.0
  0
LINE
  5
12C
330
1F
100
AcDbEntity
  8
0
  6
Continuous
 62
     2
100
AcDbLine
 10
30.0
 20
-32.0
 30
0.0
 11
36.0
 21
-32.0
 31
0.0
  0
ENDBLK
  5
12D
330
1F
100
AcDbEntity
  8
0
100
AcDbBlockEnd
  0
BLOCK
  5
12E
330
20
100
AcDbEntity
  8
0
100
AcDbBlockBegin
  2
MRVZS14-K2-3
 70
     0
 10
0.0
 20
0.0
 30
0.0
  3
MRVZS14-K2-3
  1

  0
LINE
  5
12F
330
20
100
AcDbEntity
  8
0
  6
Continuous
 62
     7
100
AcDbLine
 10
159.2000144886569
 20
21.99998245958523
 30
0.0
 11
159.6999969482422
 21
21.5
 31
0.0
  0
LINE
  5
130
330
20
100
AcDbEntity
  8
0
  6
Continuous
 62
     2
100
AcDbLine
 10
-8.0
 20
13.5
 30
0.0
 11
180.0
 21
13.5
 31
0.0
  0
LINE
  5
131
330
20
100
AcDbEntity
  8
0
  6
Continuous
 62
     7
100
AcDbLine
 10
58.0
 20
19.29998779296875
 30
0.0
 11
162.0
 21
19.29998779296875
 31
0.0
  0
LINE
  5
132
330
20
100
AcDbEntity
  8
0
  6
Continuous
 62
     7
100
AcDbLine
 10
8.08192443847656
 20
6.100006103515625
 30
0.0
 11
163.4180755615234
 21
6.100006103515625
 31
0.0
  0
LINE
  5
133
330
20
100
AcDbEntity
  8
0
  6
Continuous
 62
     7
100
AcDbLine
 10
-5.0
 20
1.0
 30
0.0
 11
177.0
 21
1.0
 31
0.0
  0
LINE
  5
134
330
20
100
AcDbEntity
  8
0
  6
Continuous
 62
     7
100
AcDbLine
 10
-5.0
 20
8.0
 30
0.0
 11
177.0
 21
8.0
 31
0.0
  0
LINE
  5
135
330
20
100
AcDbEntity
  8
0
  6
Continuous
 62
     7
100
AcDbLine
 10
8.08192443847656
 20
2.899993896484375
 30
0.0
 11
163.4180755615234
 21
2.899993896484375
 31
0.0
  0
CIRCLE
  5
136
330
20
100
AcDbEntity
  8
0
  6
Continuous
 62
     7
100
AcDbCircle
 10
6.5
 20
4.5
 30
0.0
 40
2.25
  0
CIRCLE
  5
137
330
20
100
AcDbEntity
  8
0
  6
Continuous
 62
     7
100
AcDbCircle
 10
6.5
 20
4.5
 30
0.0
 40
1.75
  0
CIRCLE
  5
138
330
20
100
AcDbEntity
  8
0
  6
Continuous
 62
     7
100
AcDbCircle
 10
4.5
 20
13.5
 30
0.0
 40
1.0
  0
CIRCLE
  5
139
330
20
100
AcDbEntity
  8
0
  6
Continuous
 62
     2
100
AcDbCircle
 10
4.5
 20
13.5
 30
0.0
 40
2.5
  0
CIRCLE
  5
13A
330
20
100
AcDbEntity
  8
0
  6
Continuous
 62
     7
100
AcDbCircle
 10
4.5
 20
13.5
 30
0.0
 40
2.0
  0
LINE
  5
13B
330
20
100
AcDbEntity
  8
0
  6
Continuous
 62
     7
100
AcDbLine
 10
10.0
 20
1.0
 30
0.0
 11
10.0
 21
0.0
 31
0.0
  0
LINE
  5
13C
330
20
100
AcDbEntity
  8
0
  6
Continuous
 62
     7
100
AcDbLine
 10
-2.5
 20
6.100006103515625
 30
0.0
 11
4.918075561523437
 21
6.100006103515625
 31
0.0
  0
LINE
  5
13D
330
20
100
AcDbEntity
  8
0
  6
Continuous
 62
     7
100
AcDbLine
 10
7.383894096195489
 20
3.616124799914815
 30
0.0
 11
5.616127173483164
 21
5.38389172262714
 31
0.0
  0
LINE
  5
13E
330
20
100
AcDbEntity
  8
0
  6
Continuous
 62
     7
100
AcDbLine
 10
-2.5
 20
2.899993896484375
 30
0.0
 11
4.918075561523437
 21
2.899993896484375
 31
0.0
  0
LINE
  5
13F
330
20
100
AcDbEntity
  8
0
  6
Continuous
 62
     7
100
AcDbLine
 10
21.5
 20
8.75
 30
0.0
 11
21.5
 21
8.0
 31
0.0
  0
LINE
  5
140
330
20
100
AcDbEntity
  8
0
  6
Continuous
 62
     7
100
AcDbLine
 10
50.5
 20
8.75
 30
0.0
 11
50.5
 21
8.0
 31
0.0
  0
LINE
  5
141
330
20
100
AcDbEntity
  8
0
  6
Continuous
 62
     7
100
AcDbLine
 10
-2.5
 20
8.0
 30
0.0
 11
-2.5
 21
1.0
 31
0.0
  0
LINE
  5
142
330
20
100
AcDbEntity
  8
0
  6
Continuous
 62
     7
100
AcDbLine
 10
21.5
 20
8.75
 30
0.0
 11
50.5
 21
8.75
 31
0.0
  0
LINE
  5
143
330
20
100
AcDbEntity
  8
0
  6
Continuous
 62
     7
100
AcDbLine
 10
5.616121778686647
 20
3.616119405118297
 30
0.0
 11
7.383894096195489
 21
5.38389172262714
 31
0.0
  0
LINE
  5
144
330
20
100
AcDbEntity
  8
0
  6
Continuous
 62
     7
100
AcDbLine
 10
60.5
 20
24.25
 30
0.0
 11
60.5
 21
28.75
 31
0.0
  0
LINE
  5
145
330
20
100
AcDbEntity
  8
0
  6
Continuous
 62
     7
100
AcDbLine
 10
58.0
 20
28.75
 30
0.0
 11
60.5
 21
28.75
 31
0.0
  0
LINE
  5
146
330
20
100
AcDbEntity
  8
0
  6
Continuous
 62
     7
100
AcDbLine
 10
12.79998779296875
 20
24.25
 30
0.0
 11
12.79998779296875
 21
22.0
 31
0.0
  0
LINE
  5
147
330
20
100
AcDbEntity
  8
0
  6
Continuous
 62
     7
100
AcDbLine
 10
12.29998779296875
 20
24.25
 30
0.0
 11
12.29998779296875
 21
21.5
 31
0.0
  0
LINE
  5
148
330
20
100
AcDbEntity
  8
0
  6
Continuous
 62
     2
100
AcDbLine
 10
61.61441040039063
 20
26.5
 30
0.0
 11
55.5
 21
26.5
 31
0.0
  0
LINE
  5
149
330
20
100
AcDbEntity
  8
0
  6
Continuous
 62
     7
100
AcDbLine
 10
58.0
 20
24.25
 30
0.0
 11
60.5
 21
24.25
 31
0.0
  0
LINE
  5
14A
330
20
100
AcDbEntity
  8
0
  6
Continuous
 62
     2
100
AcDbLine
 10
10.38555908203125
 20
26.5
 30
0.0
 11
16.5
 21
26.5
 31
0.0
  0
LINE
  5
14B
330
20
100
AcDbEntity
  8
0
  6
Continuous
 62
     7
100
AcDbLine
 10
14.0
 20
24.25
 30
0.0
 11
11.5
 21
24.25
 31
0.0
  0
LINE
  5
14C
330
20
100
AcDbEntity
  8
0
  6
Continuous
 62
     7
100
AcDbLine
 10
14.0
 20
28.75
 30
0.0
 11
11.5
 21
28.75
 31
0.0
  0
LINE
  5
14D
330
20
100
AcDbEntity
  8
0
  6
Continuous
 62
     7
100
AcDbLine
 10
11.5
 20
24.25
 30
0.0
 11
11.5
 21
28.75
 31
0.0
  0
LINE
  5
14E
330
20
100
AcDbEntity
  8
0
  6
Continuous
 62
     7
100
AcDbLine
 10
14.0
 20
30.0
 30
0.0
 11
15.5999755859375
 21
30.0
 31
0.0
  0
LINE
  5
14F
330
20
100
AcDbEntity
  8
0
  6
Continuous
 62
     2
100
AcDbLine
 10
-18.0
 20
22.0
 30
0.0
 11
-7.0
 21
22.0
 31
0.0
  0
LINE
  5
150
330
20
100
AcDbEntity
  8
0
  6
Continuous
 62
     2
100
AcDbLine
 10
-18.0
 20
29.0
 30
0.0
 11
-7.0
 21
29.0
 31
0.0
  0
LINE
  5
151
330
20
100
AcDbEntity
  8
0
  6
Continuous
 62
     7
100
AcDbLine
 10
-17.5
 20
29.5
 30
0.0
 11
-17.5
 21
21.5
 31
0.0
  0
LINE
  5
152
330
20
100
AcDbEntity
  8
0
  6
Continuous
 62
     7
100
AcDbLine
 10
-17.5
 20
21.5
 30
0.0
 11
-7.0
 21
21.5
 31
0.0
  0
LINE
  5
153
330
20
100
AcDbEntity
  8
0
  6
Continuous
 62
     7
100
AcDbLine
 10
-17.5
 20
29.5
 30
0.0
 11
-7.0
 21
29.5
 31
0.0
  0
LINE
  5
154
330
20
100
AcDbEntity
  8
0
  6
Continuous
 62
     2
100
AcDbLine
 10
36.0
 20
37.20637512207031
 30
0.0
 11
36.0
 21
-3.134552001953125
 31
0.0
  0
LINE
  5
155
330
20
100
AcDbEntity
  8
0
  6
Continuous
 62
     7
100
AcDbLine
 10
58.0
 20
15.75
 30
0.0
 11
60.5
 21
15.75
 31
0.0
  0
LINE
  5
156
330
20
100
AcDbEntity
  8
0
  6
Continuous
 62
     7
100
AcDbLine
 10
14.0
 20
11.25
 30
0.0
 11
11.5
 21
11.25
 31
0.0
  0
LINE
  5
157
330
20
100
AcDbEntity
  8
0
  6
Continuous
 62
     7
100
AcDbLine
 10
14.0
 20
15.75
 30
0.0
 11
11.5
 21
15.75
 31
0.0
  0
LINE
  5
158
330
20
100
AcDbEntity
  8
0
  6
Continuous
 62
     7
100
AcDbLine
 10
60.5
 20
11.25
 30
0.0
 11
60.5
 21
15.75
 31
0.0
  0
LINE
  5
159
330
20
100
AcDbEntity
  8
0
  6
Continuous
 62
     7
100
AcDbLine
 10
58.0
 20
11.25
 30
0.0
 11
60.5
 21
11.25
 31
0.0
  0
LINE
  5
15A
330
20
100
AcDbEntity
  8
0
  6
Continuous
 62
     7
100
AcDbLine
 10
15.5999755859375
 20
33.0
 30
0.0
 11
56.39999389648438
 21
33.0
 31
0.0
  0
LINE
  5
15B
330
20
100
AcDbEntity
  8
0
  6
Continuous
 62
     7
100
AcDbLine
 10
12.29998779296875
 20
29.5
 30
0.0
 11
12.29998779296875
 21
28.75
 31
0.0
  0
LINE
  5
15C
330
20
100
AcDbEntity
  8
0
  6
Continuous
 62
     7
100
AcDbLine
 10
12.79998779296875
 20
22.0
 30
0.0
 11
12.29998779296875
 21
21.5
 31
0.0
  0
LINE
  5
15D
330
20
100
AcDbEntity
  8
0
  6
Continuous
 62
     7
100
AcDbLine
 10
12.79998779296875
 20
29.0
 30
0.0
 11
12.79998779296875
 21
28.75
 31
0.0
  0
LINE
  5
15E
330
20
100
AcDbEntity
  8
0
  6
Continuous
 62
     7
100
AcDbLine
 10
12.79998779296875
 20
29.0
 30
0.0
 11
12.29999805176703
 21
29.49998974120172
 31
0.0
  0
LINE
  5
15F
330
20
100
AcDbEntity
  8
0
  6
Continuous
 62
     2
100
AcDbLine
 10
-21.0
 20
25.5
 30
0.0
 11
17.652099609375
 21
25.5
 31
0.0
  0
LINE
  5
160
330
20
100
AcDbEntity
  8
0
  6
Continuous
 62
     7
100
AcDbLine
 10
-5.0
 20
22.61325073242188
 30
0.0
 11
-7.0
 21
22.61325073242188
 31
0.0
  0
LINE
  5
161
330
20
100
AcDbEntity
  8
0
  6
Continuous
 62
     7
100
AcDbLine
 10
58.0
 20
30.0
 30
0.0
 11
58.0
 21
8.0
 31
0.0
  0
LINE
  5
162
330
20
100
AcDbEntity
  8
0
  6
Continuous
 62
     7
100
AcDbLine
 10
15.5999755859375
 20
33.0
 30
0.0
 11
15.5999755859375
 21
8.0
 31
0.0
  0
LINE
  5
163
330
20
100
AcDbEntity
  8
0
  6
Continuous
 62
     7
100
AcDbLine
 10
14.0
 20
30.0
 30
0.0
 11
14.0
 21
8.0
 31
0.0
  0
LINE
  5
164
330
20
100
AcDbEntity
  8
0
  6
Continuous
 62
     7
100
AcDbLine
 10
56.4000244140625
 20
33.0
 30
0.0
 11
56.4000244140625
 21
8.0
 31
0.0
  0
LINE
  5
165
330
20
100
AcDbEntity
  8
0
  6
Continuous
 62
     2
100
AcDbLine
 10
4.5
 20
17.5
 30
0.0
 11
4.5
 21
9.5
 31
0.0
  0
LINE
  5
166
330
20
100
AcDbEntity
  8
0
  6
Continuous
 62
     7
100
AcDbLine
 10
10.0
 20
19.29998779296875
 30
0.0
 11
14.0
 21
19.29998779296875
 31
0.0
  0
LINE
  5
167
330
20
100
AcDbEntity
  8
0
  6
Continuous
 62
     7
100
AcDbLine
 10
-5.0
 20
0.0
 30
0.0
 11
10.0
 21
0.0
 31
0.0
  0
LINE
  5
168
330
20
100
AcDbEntity
  8
0
  6
Continuous
 62
     7
100
AcDbLine
 10
-5.0
 20
23.0
 30
0.0
 11
10.0
 21
23.0
 31
0.0
  0
LINE
  5
169
330
20
100
AcDbEntity
  8
0
  6
Continuous
 62
     7
100
AcDbLine
 10
10.0
 20
31.5
 30
0.0
 11
10.0
 21
8.0
 31
0.0
  0
LINE
  5
16A
330
20
100
AcDbEntity
  8
0
  6
Continuous
 62
     7
100
AcDbLine
 10
-5.0
 20
31.5
 30
0.0
 11
-5.0
 21
0.0
 31
0.0
  0
LINE
  5
16B
330
20
100
AcDbEntity
  8
0
  6
Continuous
 62
     7
100
AcDbLine
 10
11.5
 20
15.75
 30
0.0
 11
11.5
 21
11.25
 31
0.0
  0
LINE
  5
16C
330
20
100
AcDbEntity
  8
0
  6
Continuous
 62
     7
100
AcDbLine
 10
14.0
 20
10.93782043457031
 30
0.0
 11
58.0
 21
10.93782043457031
 31
0.0
  0
LINE
  5
16D
330
20
100
AcDbEntity
  8
0
  6
Continuous
 62
     7
100
AcDbLine
 10
14.0
 20
10.0
 30
0.0
 11
58.0
 21
10.0
 31
0.0
  0
LINE
  5
16E
330
20
100
AcDbEntity
  8
0
  6
Continuous
 62
     7
100
AcDbLine
 10
58.0
 20
30.0
 30
0.0
 11
56.4000244140625
 21
30.0
 31
0.0
  0
LINE
  5
16F
330
20
100
AcDbEntity
  8
0
  6
Continuous
 62
     7
100
AcDbLine
 10
-5.0
 20
28.38674926757813
 30
0.0
 11
-7.0
 21
28.38674926757813
 31
0.0
  0
LINE
  5
170
330
20
100
AcDbEntity
  8
0
  6
Continuous
 62
     7
100
AcDbLine
 10
-18.0
 20
22.0
 30
0.0
 11
-17.5
 21
21.5
 31
0.0
  0
LINE
  5
171
330
20
100
AcDbEntity
  8
0
  6
Continuous
 62
     7
100
AcDbLine
 10
-7.0
 20
31.27349853515625
 30
0.0
 11
-7.0
 21
19.72650146484375
 31
0.0
  0
LINE
  5
172
330
20
100
AcDbEntity
  8
0
  6
Continuous
 62
     7
100
AcDbLine
 10
-18.0
 20
29.0
 30
0.0
 11
-18.0
 21
22.0
 31
0.0
  0
LINE
  5
173
330
20
100
AcDbEntity
  8
0
  6
Continuous
 62
     7
100
AcDbLine
 10
-18.0
 20
29.0
 30
0.0
 11
-17.5
 21
29.5
 31
0.0
  0
LINE
  5
174
330
20
100
AcDbEntity
  8
0
  6
Continuous
 62
     7
100
AcDbLine
 10
-5.0
 20
19.72650146484375
 30
0.0
 11
-7.0
 21
19.72650146484375
 31
0.0
  0
LINE
  5
175
330
20
100
AcDbEntity
  8
0
  6
Continuous
 62
     7
100
AcDbLine
 10
-5.0
 20
31.27349853515625
 30
0.0
 11
-7.0
 21
31.27349853515625
 31
0.0
  0
LINE
  5
176
330
20
100
AcDbEntity
  8
0
  6
Continuous
 62
     7
100
AcDbLine
 10
-5.0
 20
31.5
 30
0.0
 11
10.0
 21
31.5
 31
0.0
  0
LINE
  5
177
330
20
100
AcDbEntity
  8
0
  6
Continuous
 62
     7
100
AcDbLine
 10
10.0
 20
29.5
 30
0.0
 11
12.29998779296875
 21
29.5
 31
0.0
  0
LINE
  5
178
330
20
100
AcDbEntity
  8
0
  6
Continuous
 62
     2
100
AcDbLine
 10
10.0
 20
29.0
 30
0.0
 11
12.79998779296875
 21
29.0
 31
0.0
  0
LINE
  5
179
330
20
100
AcDbEntity
  8
0
  6
Continuous
 62
     2
100
AcDbLine
 10
10.0
 20
22.0
 30
0.0
 11
12.79998779296875
 21
22.0
 31
0.0
  0
LINE
  5
17A
330
20
100
AcDbEntity
  8
0
  6
Continuous
 62
     7
100
AcDbLine
 10
10.0
 20
21.5
 30
0.0
 11
12.29998779296875
 21
21.5
 31
0.0
  0
LINE
  5
17B
330
20
100
AcDbEntity
  8
0
  6
Continuous
 62
     7
100
AcDbLine
 10
12.79998387511477
 20
29.0
 30
0.0
 11
14.0
 21
29.0
 31
0.0
  0
LINE
  5
17C
330
20
100
AcDbEntity
  8
0
  6
Continuous
 62
     7
100
AcDbLine
 10
12.79998779296875
 20
22.0
 30
0.0
 11
14.0
 21
22.0
 31
0.0
  0
ARC
  5
17D
330
20
100
AcDbEntity
  8
0
  6
Continuous
 62
     7
100
AcDbCircle
 10
165.0
 20
4.5
 30
0.0
 40
2.25
100
AcDbArc
 50
90.00000250447817
 51
270.0000006832453
  0
ARC
  5
17E
330
20
100
AcDbEntity
  8
0
  6
Continuous
 62
     7
100
AcDbCircle
 10
166.0
 20
4.5
 30
0.0
 40
2.25
100
AcDbArc
 50
269.9999974955218
 51
90.00000250447817
  0
CIRCLE
  5
17F
330
20
100
AcDbEntity
  8
0
  6
Continuous
 62
     7
100
AcDbCircle
 10
165.5
 20
4.5
 30
0.0
 40
1.75
  0
CIRCLE
  5
180
330
20
100
AcDbEntity
  8
0
  6
Continuous
 62
     7
100
AcDbCircle
 10
167.5
 20
13.5
 30
0.0
 40
1.0
  0
CIRCLE
  5
181
330
20
100
AcDbEntity
  8
0
  6
Continuous
 62
     2
100
AcDbCircle
 10
167.5
 20
13.5
 30
0.0
 40
2.5
  0
CIRCLE
  5
182
330
20
100
AcDbEntity
  8
0
  6
Continuous
 62
     7
100
AcDbCircle
 10
167.5
 20
13.5
 30
0.0
 40
2.0
  0
LINE
  5
183
330
20
100
AcDbEntity
  8
0
  6
Continuous
 62
     7
100
AcDbLine
 10
162.0
 20
31.5
 30
0.0
 11
162.0
 21
8.0
 31
0.0
  0
LINE
  5
184
330
20
100
AcDbEntity
  8
0
  6
Continuous
 62
     7
100
AcDbLine
 10
162.0
 20
1.0
 30
0.0
 11
162.0
 21
0.0
 31
0.0
  0
LINE
  5
185
330
20
100
AcDbEntity
  8
0
  6
Continuous
 62
     7
100
AcDbLine
 10
164.616112490007
 20
3.616122102516556
 30
0.0
 11
166.3838794127194
 21
5.383889025228882
 31
0.0
  0
LINE
  5
186
330
20
100
AcDbEntity
  8
0
  6
Continuous
 62
     7
100
AcDbLine
 10
174.5
 20
6.100006103515625
 30
0.0
 11
167.5819244384765
 21
6.100006103515625
 31
0.0
  0
LINE
  5
187
330
20
100
AcDbEntity
  8
0
  6
Continuous
 62
     7
100
AcDbLine
 10
166.0
 20
6.75
 30
0.0
 11
165.0
 21
6.75
 31
0.0
  0
LINE
  5
188
330
20
100
AcDbEntity
  8
0
  6
Continuous
 62
     7
100
AcDbLine
 10
166.3838686231263
 20
3.61613289210959
 30
0.0
 11
164.616112490007
 21
5.383889025228882
 31
0.0
  0
LINE
  5
189
330
20
100
AcDbEntity
  8
0
  6
Continuous
 62
     7
100
AcDbLine
 10
174.5
 20
8.0
 30
0.0
 11
174.5
 21
1.0
 31
0.0
  0
LINE
  5
18A
330
20
100
AcDbEntity
  8
0
  6
Continuous
 62
     7
100
AcDbLine
 10
166.0
 20
2.25
 30
0.0
 11
165.0
 21
2.25
 31
0.0
  0
LINE
  5
18B
330
20
100
AcDbEntity
  8
0
  6
Continuous
 62
     7
100
AcDbLine
 10
174.5
 20
2.899993896484375
 30
0.0
 11
167.5819244384765
 21
2.899993896484375
 31
0.0
  0
LINE
  5
18C
330
20
100
AcDbEntity
  8
0
  6
Continuous
 62
     7
100
AcDbLine
 10
162.0
 20
23.0
 30
0.0
 11
177.0
 21
23.0
 31
0.0
  0
LINE
  5
18D
330
20
100
AcDbEntity
  8
0
  6
Continuous
 62
     7
100
AcDbLine
 10
153.0
 20
24.25
 30
0.0
 11
158.0
 21
24.25
 31
0.0
  0
LINE
  5
18E
330
20
100
AcDbEntity
  8
0
  6
Continuous
 62
     7
100
AcDbLine
 10
158.0
 20
29.0
 30
0.0
 11
158.0
 21
22.0
 31
0.0
  0
LINE
  5
18F
330
20
100
AcDbEntity
  8
0
  6
Continuous
 62
     7
100
AcDbLine
 10
153.0
 20
26.75
 30
0.0
 11
153.0
 21
24.25
 31
0.0
  0
LINE
  5
190
330
20
100
AcDbEntity
  8
0
  6
Continuous
 62
     7
100
AcDbLine
 10
153.0
 20
26.75
 30
0.0
 11
158.0
 21
26.75
 31
0.0
  0
LINE
  5
191
330
20
100
AcDbEntity
  8
0
  6
Continuous
 62
     2
100
AcDbLine
 10
190.0
 20
22.0
 30
0.0
 11
179.0
 21
22.0
 31
0.0
  0
LINE
  5
192
330
20
100
AcDbEntity
  8
0
  6
Continuous
 62
     2
100
AcDbLine
 10
190.0
 20
29.0
 30
0.0
 11
179.0
 21
29.0
 31
0.0
  0
LINE
  5
193
330
20
100
AcDbEntity
  8
0
  6
Continuous
 62
     7
100
AcDbLine
 10
189.5
 20
29.5
 30
0.0
 11
189.5
 21
21.5
 31
0.0
  0
LINE
  5
194
330
20
100
AcDbEntity
  8
0
  6
Continuous
 62
     7
100
AcDbLine
 10
189.5
 20
21.5
 30
0.0
 11
179.0
 21
21.5
 31
0.0
  0
LINE
  5
195
330
20
100
AcDbEntity
  8
0
  6
Continuous
 62
     7
100
AcDbLine
 10
189.5
 20
29.5
 30
0.0
 11
179.0
 21
29.5
 31
0.0
  0
LINE
  5
196
330
20
100
AcDbEntity
  8
0
  6
Continuous
 62
     7
100
AcDbLine
 10
177.0
 20
31.5
 30
0.0
 11
162.0
 21
31.5
 31
0.0
  0
LINE
  5
197
330
20
100
AcDbEntity
  8
0
  6
Continuous
 62
     7
100
AcDbLine
 10
177.0
 20
31.27349853515625
 30
0.0
 11
179.0
 21
31.27349853515625
 31
0.0
  0
LINE
  5
198
330
20
100
AcDbEntity
  8
0
  6
Continuous
 62
     7
100
AcDbLine
 10
189.999970709739
 20
22.00001604949421
 30
0.0
 11
189.4999809685373
 21
21.50002630829249
 31
0.0
  0
LINE
  5
199
330
20
100
AcDbEntity
  8
0
  6
Continuous
 62
     7
100
AcDbLine
 10
179.0
 20
31.27349853515625
 30
0.0
 11
179.0
 21
19.72650146484375
 31
0.0
  0
LINE
  5
19A
330
20
100
AcDbEntity
  8
0
  6
Continuous
 62
     7
100
AcDbLine
 10
190.0
 20
29.0
 30
0.0
 11
190.0
 21
22.0
 31
0.0
  0
LINE
  5
19B
330
20
100
AcDbEntity
  8
0
  6
Continuous
 62
     7
100
AcDbLine
 10
189.999970709739
 20
29.00000190143465
 30
0.0
 11
189.4999701789443
 21
29.5000024322294
 31
0.0
  0
LINE
  5
19C
330
20
100
AcDbEntity
  8
0
  6
Continuous
 62
     7
100
AcDbLine
 10
177.0
 20
19.72650146484375
 30
0.0
 11
179.0
 21
19.72650146484375
 31
0.0
  0
LINE
  5
19D
330
20
100
AcDbEntity
  8
0
  6
Continuous
 62
     7
100
AcDbLine
 10
159.1999969482422
 20
29.0
 30
0.0
 11
159.1999969482422
 21
22.0
 31
0.0
  0
LINE
  5
19E
330
20
100
AcDbEntity
  8
0
  6
Continuous
 62
     7
100
AcDbLine
 10
177.0
 20
28.38674926757813
 30
0.0
 11
179.0
 21
28.38674926757813
 31
0.0
  0
LINE
  5
19F
330
20
100
AcDbEntity
  8
0
  6
Continuous
 62
     7
100
AcDbLine
 10
159.6999969482422
 20
29.5
 30
0.0
 11
159.6999969482422
 21
21.5
 31
0.0
  0
LINE
  5
1A0
330
20
100
AcDbEntity
  8
0
  6
Continuous
 62
     2
100
AcDbLine
 10
193.0
 20
25.5
 30
0.0
 11
151.0
 21
25.5
 31
0.0
  0
LINE
  5
1A1
330
20
100
AcDbEntity
  8
0
  6
Continuous
 62
     2
100
AcDbLine
 10
167.5
 20
17.5
 30
0.0
 11
167.5
 21
9.5
 31
0.0
  0
LINE
  5
1A2
330
20
100
AcDbEntity
  8
0
  6
Continuous
 62
     7
100
AcDbLine
 10
162.0
 20
0.0
 30
0.0
 11
177.0
 21
0.0
 31
0.0
  0
LINE
  5
1A3
330
20
100
AcDbEntity
  8
0
  6
Continuous
 62
     7
100
AcDbLine
 10
177.0
 20
31.5
 30
0.0
 11
177.0
 21
0.0
 31
0.0
  0
LINE
  5
1A4
330
20
100
AcDbEntity
  8
0
  6
Continuous
 62
     7
100
AcDbLine
 10
177.0
 20
22.61325073242188
 30
0.0
 11
179.0
 21
22.61325073242188
 31
0.0
  0
LINE
  5
1A5
330
20
100
AcDbEntity
  8
0
  6
Continuous
 62
     7
100
AcDbLine
 10
159.1999969482422
 20
29.0
 30
0.0
 11
159.6999969482422
 21
29.5
 31
0.0
  0
LINE
  5
1A6
330
20
100
AcDbEntity
  8
0
  6
Continuous
 62
     7
100
AcDbLine
 10
162.0
 20
29.5
 30
0.0
 11
159.6999969482422
 21
29.5
 31
0.0
  0
LINE
  5
1A7
330
20
100
AcDbEntity
  8
0
  6
Continuous
 62
     2
100
AcDbLine
 10
162.0
 20
29.0
 30
0.0
 11
159.1999969482422
 21
29.0
 31
0.0
  0
LINE
  5
1A8
330
20
100
AcDbEntity
  8
0
  6
Continuous
 62
     2
100
AcDbLine
 10
162.0
 20
22.0
 30
0.0
 11
159.1999969482422
 21
22.0
 31
0.0
  0
LINE
  5
1A9
330
20
100
AcDbEntity
  8
0
  6
Continuous
 62
     7
100
AcDbLine
 10
162.0
 20
21.5
 30
0.0
 11
159.6999969482422
 21
21.5
 31
0.0
  0
LINE
  5
1AA
330
20
100
AcDbEntity
  8
0
  6
Continuous
 62
     7
100
AcDbLine
 10
158.0
 20
29.0
 30
0.0
 11
159.1999969482422
 21
29.0
 31
0.0
  0
LINE
  5
1AB
330
20
100
AcDbEntity
  8
0
  6
Continuous
 62
     7
100
AcDbLine
 10
158.0
 20
22.0
 30
0.0
 11
159.1999982996081
 21
22.0
 31
0.0
  0
LINE
  5
1AD
330
20
100
AcDbEntity
  8
0
  6
CENTER
 62
     2
100
AcDbLine
 10
43.41040175778528
 20
4.5
 30
0.0
 11
20.4971131639723
 21
4.5
 31
0.0
  0
LINE
  5
1AE
330
20
100
AcDbEntity
  8
0
  6
Continuous
 62
     2
100
AcDbLine
 10
40.0
 20
1.557142857142849
 30
0.0
 11
40.0
 21
7.799984673423465
 31
0.0
  0
LINE
  5
1AF
330
20
100
AcDbEntity
  8
0
  6
Continuous
 62
     2
100
AcDbLine
 10
24.24769053117785
 20
3.199999999999988
 30
0.0
 11
22.74653579676675
 21
5.799999999999997
 31
0.0
  0
LINE
  5
1B0
330
20
100
AcDbEntity
  8
0
  6
Continuous
 62
     7
100
AcDbLine
 10
26.5
 20
5.799999999999997
 30
0.0
 11
22.74653579676675
 21
5.799999999999997
 31
0.0
  0
LINE
  5
1B1
330
20
100
AcDbEntity
  8
0
  6
Continuous
 62
     7
100
AcDbLine
 10
26.5
 20
3.199999999999988
 30
0.0
 11
24.24769053117785
 21
3.199999999999988
 31
0.0
  0
LINE
  5
1B2
330
20
100
AcDbEntity
  8
0
  6
Continuous
 62
     7
100
AcDbLine
 10
38.10000000000002
 20
6.0
 30
0.0
 11
38.10000000000002
 21
3.0
 31
0.0
  0
LINE
  5
1B3
330
20
100
AcDbEntity
  8
0
  6
Continuous
 62
     7
100
AcDbLine
 10
31.60000000000002
 20
6.0
 30
0.0
 11
31.60000000000002
 21
3.0
 31
0.0
  0
LINE
  5
1B4
330
20
100
AcDbEntity
  8
0
  6
Continuous
 62
     7
100
AcDbLine
 10
42.00000000476836
 20
6.100006103515625
 30
0.0
 11
42.00000000476836
 21
2.899993896484375
 31
0.0
  0
LINE
  5
1B5
330
20
100
AcDbEntity
  8
0
  6
Continuous
 62
     7
100
AcDbLine
 10
26.5
 20
6.100006103515625
 30
0.0
 11
26.5
 21
2.899993896484375
 31
0.0
  0
LINE
  5
1B6
330
20
100
AcDbEntity
  8
0
  6
Continuous
 62
     7
100
AcDbLine
 10
42.00000000476836
 20
3.0
 30
0.0
 11
26.5
 21
3.0
 31
0.0
  0
LINE
  5
1B7
330
20
100
AcDbEntity
  8
0
  6
Continuous
 62
     7
100
AcDbLine
 10
42.00000000476836
 20
6.0
 30
0.0
 11
26.5
 21
6.0
 31
0.0
  0
CIRCLE
  5
1B8
330
20
100
AcDbEntity
  8
0
  6
Continuous
 62
     7
100
AcDbCircle
 10
40.0
 20
4.5
 30
0.0
 40
1.399999999999999
  0
CIRCLE
  5
1B9
330
20
100
AcDbEntity
  8
0
  6
Continuous
 62
     7
100
AcDbCircle
 10
40.0
 20
4.5
 30
0.0
 40
1.25
  0
CIRCLE
  5
1BA
330
20
100
AcDbEntity
  8
0
  6
Continuous
 62
     2
100
AcDbCircle
 10
40.0
 20
4.5
 30
0.0
 40
1.05
  0
LINE
  5
1BB
330
20
100
AcDbEntity
  8
0
  6
Continuous
 62
     7
100
AcDbLine
 10
41.04280210609306
 20
5.189248697879008
 30
0.0
 11
39.31075130212099
 21
3.457197893906964
 31
0.0
  0
LINE
  5
1BC
330
20
100
AcDbEntity
  8
0
  6
Continuous
 62
     7
100
AcDbLine
 10
40.68924868583678
 20
5.542802072252555
 30
0.0
 11
38.95719789232528
 21
3.810751278741008
 31
0.0
  0
LINE
  5
1BD
330
20
100
AcDbEntity
  8
0
  6
Continuous
 62
     2
100
AcDbLine
 10
139.9999999952316
 20
1.557142857142849
 30
0.0
 11
139.9999999952316
 21
7.799984673423465
 31
0.0
  0
LINE
  5
1BE
330
20
100
AcDbEntity
  8
0
  6
CENTER
 62
     2
100
AcDbLine
 10
143.4104017530169
 20
4.5
 30
0.0
 11
120.4971131592039
 21
4.5
 31
0.0
  0
LINE
  5
1BF
330
20
100
AcDbEntity
  8
0
  6
Continuous
 62
     7
100
AcDbLine
 10
140.6892486810684
 20
5.542802072252555
 30
0.0
 11
138.9571978875569
 21
3.810751278741008
 31
0.0
  0
LINE
  5
1C0
330
20
100
AcDbEntity
  8
0
  6
Continuous
 62
     7
100
AcDbLine
 10
141.0428021013247
 20
5.189248697879008
 30
0.0
 11
139.3107512973526
 21
3.457197893906964
 31
0.0
  0
CIRCLE
  5
1C1
330
20
100
AcDbEntity
  8
0
  6
Continuous
 62
     2
100
AcDbCircle
 10
139.9999999952316
 20
4.5
 30
0.0
 40
1.05
  0
CIRCLE
  5
1C2
330
20
100
AcDbEntity
  8
0
  6
Continuous
 62
     7
100
AcDbCircle
 10
139.9999999952316
 20
4.5
 30
0.0
 40
1.25
  0
CIRCLE
  5
1C3
330
20
100
AcDbEntity
  8
0
  6
Continuous
 62
     7
100
AcDbCircle
 10
139.9999999952316
 20
4.5
 30
0.0
 40
1.399999999999999
  0
LINE
  5
1C4
330
20
100
AcDbEntity
  8
0
  6
Continuous
 62
     7
100
AcDbLine
 10
142.0
 20
6.0
 30
0.0
 11
126.4999999952316
 21
6.0
 31
0.0
  0
LINE
  5
1C5
330
20
100
AcDbEntity
  8
0
  6
Continuous
 62
     7
100
AcDbLine
 10
142.0
 20
3.0
 30
0.0
 11
126.4999999952316
 21
3.0
 31
0.0
  0
LINE
  5
1C6
330
20
100
AcDbEntity
  8
0
  6
Continuous
 62
     7
100
AcDbLine
 10
126.4999999952316
 20
6.100006103515625
 30
0.0
 11
126.4999999952316
 21
2.899993896484375
 31
0.0
  0
LINE
  5
1C7
330
20
100
AcDbEntity
  8
0
  6
Continuous
 62
     7
100
AcDbLine
 10
142.0
 20
6.100006103515625
 30
0.0
 11
142.0
 21
2.899993896484375
 31
0.0
  0
LINE
  5
1C8
330
20
100
AcDbEntity
  8
0
  6
Continuous
 62
     7
100
AcDbLine
 10
131.5999999952316
 20
6.0
 30
0.0
 11
131.5999999952316
 21
3.0
 31
0.0
  0
LINE
  5
1C9
330
20
100
AcDbEntity
  8
0
  6
Continuous
 62
     7
100
AcDbLine
 10
138.0999999952316
 20
6.0
 30
0.0
 11
138.0999999952316
 21
3.0
 31
0.0
  0
LINE
  5
1CA
330
20
100
AcDbEntity
  8
0
  6
Continuous
 62
     7
100
AcDbLine
 10
126.4999999952316
 20
3.199999999999988
 30
0.0
 11
124.2476905264095
 21
3.199999999999988
 31
0.0
  0
LINE
  5
1CB
330
20
100
AcDbEntity
  8
0
  6
Continuous
 62
     7
100
AcDbLine
 10
126.4999999952316
 20
5.799999999999997
 30
0.0
 11
122.7465357919983
 21
5.799999999999997
 31
0.0
  0
LINE
  5
1CC
330
20
100
AcDbEntity
  8
0
  6
Continuous
 62
     2
100
AcDbLine
 10
124.2476905264095
 20
3.199999999999988
 30
0.0
 11
122.7465357919983
 21
5.799999999999997
 31
0.0
  0
LINE
  5
1CD
330
20
100
AcDbEntity
  8
0
  6
Continuous
 62
     2
100
AcDbLine
 10
0.0
 20
-3.0
 30
0.0
 11
0.0
 21
3.0
 31
0.0
  0
LINE
  5
1CE
330
20
100
AcDbEntity
  8
0
  6
Continuous
 62
     2
100
AcDbLine
 10
21.0
 20
30.0
 30
0.0
 11
21.0
 21
36.0
 31
0.0
  0
LINE
  5
1CF
330
20
100
AcDbEntity
  8
0
  6
Continuous
 62
     2
100
AcDbLine
 10
51.0
 20
30.0
 30
0.0
 11
51.0
 21
36.0
 31
0.0
  0
LINE
  5
1D0
330
20
100
AcDbEntity
  8
0
  6
Continuous
 62
     2
100
AcDbLine
 10
172.0
 20
-3.0
 30
0.0
 11
172.0
 21
3.0
 31
0.0
  0
LINE
  5
1D1
330
20
100
AcDbEntity
  8
0
  6
PHANTOM
 62
     3
100
AcDbLine
 10
105.0
 20
51.72842380456756
 30
0.0
 11
105.0
 21
-15.40726767919565
 31
0.0
  0
ENDBLK
  5
1D2
330
20
100
AcDbEntity
  8
0
100
AcDbBlockEnd
  0
ENDSEC
  0
SECTION
  2
ENTITIES
  0
INSERT
  5
1D3
330
A
100
AcDbEntity
  8
0
  6
ByBlock
100
AcDbBlockReference
  2
MRVZS14-K2-3
 10
-70.0
 20
-60.0
 30
0.0
  0
INSERT
  5
1D4
330
A
100
AcDbEntity
  8
0
  6
ByBlock
100
AcDbBlockReference
  2
MRVZS14-K2-2
 10
-160.0
 20
60.0
 30
0.0
  0
INSERT
  5
1D5
330
A
100
AcDbEntity
  8
0
  6
ByBlock
100
AcDbBlockReference
  2
MRVZS14-K2-1
 10
-70.0
 20
60.0
 30
0.0
  0
MTEXT
  5
1D6
330
A
100
AcDbEntity
  8
0
  6
Continuous
 62
     7
100
AcDbMText
 10
-156.7482014624489
 20
98.95000624656677
 30
0.0
 40
4.5
 41
0.0
 71
     4
 72
     5
  1
\W1.079;\A1;(WITH SENSOR SWITCH)
 73
     1
 44
1.0
1001
ACAD
1000
MTEXTBEGIN
1070
    73
1070
     1
1070
    44
1040
1.0
1070
    74
1070
     0
1000
MTEXTEND
  0
MTEXT
  5
1D7
330
A
100
AcDbEntity
  8
0
  6
Continuous
 62
     7
100
AcDbMText
 10
70.33067142891717
 20
-93.62799907101672
 30
0.0
 40
4.5
 41
0.0
 71
     4
 72
     5
  1
\W0.833;\A1;（ｍｍ）
 73
     1
 44
1.0
1001
ACAD
1000
MTEXTBEGIN
1070
    73
1070
     1
1070
    44
1040
1.0
1070
    74
1070
     0
1000
MTEXTEND
  0
LINE
  5
1D8
330
A
100
AcDbEntity
  8
0
  6
Continuous
 62
     7
100
AcDbLine
 10
-84.52499847412106
 20
-110.0
 30
0.0
 11
85.07500152587891
 21
-110.0
 31
0.0
  0
LINE
  5
1D9
330
A
100
AcDbEntity
  8
0
  6
Continuous
 62
     7
100
AcDbLine
 10
-84.52499847412106
 20
-104.0
 30
0.0
 11
85.07500152587891
 21
-104.0
 31
0.0
  0
LINE
  5
1DA
330
A
100
AcDbEntity
  8
0
  6
Continuous
 62
     7
100
AcDbLine
 10
-84.52499847412106
 20
-98.0
 30
0.0
 11
85.07500152587891
 21
-98.0
 31
0.0
  0
LINE
  5
1DB
330
A
100
AcDbEntity
  8
0
  6
Continuous
 62
     7
100
AcDbLine
 10
-84.52499847412106
 20
-98.0
 30
0.0
 11
-84.52499847412106
 21
-110.0
 31
0.0
  0
MTEXT
  5
1DC
330
A
100
AcDbEntity
  8
0
  6
Continuous
 62
     7
100
AcDbMText
 10
-80.79166527589164
 20
-101.0
 30
0.0
 40
3.200000047683715
 41
0.0
 71
     4
 72
     5
  1
\A1;STROKE
 73
     1
 44
1.0
1001
ACAD
1000
MTEXTBEGIN
1070
    73
1070
     1
1070
    44
1040
1.0
1070
    74
1070
     0
1000
MTEXTEND
  0
MTEXT
  5
1DD
330
A
100
AcDbEntity
  8
0
  6
Continuous
 62
     7
100
AcDbMText
 10
-82.39166529973346
 20
-107.0
 30
0.0
 40
3.200000047683715
 41
0.0
 71
     4
 72
     5
  1
\A1;STRETCH
 73
     1
 44
1.0
1001
ACAD
1000
MTEXTBEGIN
1070
    73
1070
     1
1070
    44
1040
1.0
1070
    74
1070
     0
1000
MTEXTEND
  0
MTEXT
  5
1DE
330
A
100
AcDbEntity
  8
0
  6
Continuous
 62
     7
100
AcDbMText
 10
-39.08499853610994
 20
-101.0
 30
0.0
 40
3.200000047683715
 41
0.0
 71
     4
 72
     5
  1
\W1.200;\A1;150
 73
     1
 44
1.0
1001
ACAD
1000
MTEXTBEGIN
1070
    73
1070
     1
1070
    44
1040
1.0
1070
    74
1070
     0
1000
MTEXTEND
  0
MTEXT
  5
1DF
330
A
100
AcDbEntity
  8
0
  6
Continuous
 62
     7
100
AcDbMText
 10
-37.54318032501159
 20
-107.0
 30
0.0
 40
3.200000047683715
 41
0.0
 71
     4
 72
     5
  1
\W1.091;\A1;50
 73
     1
 44
1.0
1001
ACAD
1000
MTEXTBEGIN
1070
    73
1070
     1
1070
    44
1040
1.0
1070
    74
1070
     0
1000
MTEXTEND
  0
MTEXT
  5
1E0
330
A
100
AcDbEntity
  8
0
  6
Continuous
 62
     7
100
AcDbMText
 10
-23.12499852776529
 20
-101.0
 30
0.0
 40
3.200000047683715
 41
0.0
 71
     4
 72
     5
  1
\W1.125;\A1;200
 73
     1
 44
1.0
1001
ACAD
1000
MTEXTBEGIN
1070
    73
1070
     1
1070
    44
1040
1.0
1070
    74
1070
     0
1000
MTEXTEND
  0
MTEXT
  5
1E1
330
A
100
AcDbEntity
  8
0
  6
Continuous
 62
     7
100
AcDbMText
 10
-23.01428420811285
 20
-107.0
 30
0.0
 40
3.200000047683715
 41
0.0
 71
     4
 72
     5
  1
\W1.286;\A1;100
 73
     1
 44
1.0
1001
ACAD
1000
MTEXTBEGIN
1070
    73
1070
     1
1070
    44
1040
1.0
1070
    74
1070
     0
1000
MTEXTEND
  0
MTEXT
  5
1E2
330
A
100
AcDbEntity
  8
0
  6
Continuous
 62
     7
100
AcDbMText
 10
-7.160292650919091
 20
-101.0
 30
0.0
 40
3.200000047683715
 41
0.0
 71
     4
 72
     5
  1
\W1.059;\A1;250
 73
     1
 44
1.0
1001
ACAD
1000
MTEXTBEGIN
1070
    73
1070
     1
1070
    44
1040
1.0
1070
    74
1070
     0
1000
MTEXTEND
  0
MTEXT
  5
1E3
330
A
100
AcDbEntity
  8
0
  6
Continuous
 62
     7
100
AcDbMText
 10
-7.059998500347168
 20
-107.0
 30
0.0
 40
3.200000047683715
 41
0.0
 71
     4
 72
     5
  1
\W1.200;\A1;150
 73
     1
 44
1.0
1001
ACAD
1000
MTEXTBEGIN
1070
    73
1070
     1
1070
    44
1040
1.0
1070
    74
1070
     0
1000
MTEXTEND
  0
MTEXT
  5
1E4
330
A
100
AcDbEntity
  8
0
  6
Continuous
 62
     7
100
AcDbMText
 10
8.875001472234709
 20
-101.0
 30
0.0
 40
3.200000047683715
 41
0.0
 71
     4
 72
     5
  1
\W1.125;\A1;300
 73
     1
 44
1.0
1001
ACAD
1000
MTEXTBEGIN
1070
    73
1070
     1
1070
    44
1040
1.0
1070
    74
1070
     0
1000
MTEXTEND
  0
MTEXT
  5
1E5
330
A
100
AcDbEntity
  8
0
  6
Continuous
 62
     7
100
AcDbMText
 10
8.900001507997496
 20
-107.0
 30
0.0
 40
3.200000047683715
 41
0.0
 71
     4
 72
     5
  1
\W1.125;\A1;200
 73
     1
 44
1.0
1001
ACAD
1000
MTEXTBEGIN
1070
    73
1070
     1
1070
    44
1040
1.0
1070
    74
1070
     0
1000
MTEXTEND
  0
MTEXT
  5
1E6
330
A
100
AcDbEntity
  8
0
  6
Continuous
 62
     7
100
AcDbMText
 10
24.83970734908095
 20
-101.0
 30
0.0
 40
3.200000047683715
 41
0.0
 71
     4
 72
     5
  1
\W1.059;\A1;350
 73
     1
 44
1.0
1001
ACAD
1000
MTEXTBEGIN
1070
    73
1070
     1
1070
    44
1040
1.0
1070
    74
1070
     0
1000
MTEXTEND
  0
MTEXT
  5
1E7
330
A
100
AcDbEntity
  8
0
  6
Continuous
 62
     7
100
AcDbMText
 10
24.86470738484374
 20
-107.0
 30
0.0
 40
3.200000047683715
 41
0.0
 71
     4
 72
     5
  1
\W1.059;\A1;250
 73
     1
 44
1.0
1001
ACAD
1000
MTEXTBEGIN
1070
    73
1070
     1
1070
    44
1040
1.0
1070
    74
1070
     0
1000
MTEXTEND
  0
LINE
  5
1E8
330
A
100
AcDbEntity
  8
0
  6
Continuous
 62
     7
100
AcDbLine
 10
-58.92499847412111
 20
-98.0
 30
0.0
 11
-58.92499847412111
 21
-110.0
 31
0.0
  0
LINE
  5
1E9
330
A
100
AcDbEntity
  8
0
  6
Continuous
 62
     7
100
AcDbLine
 10
-42.92499847412111
 20
-98.0
 30
0.0
 11
-42.92499847412111
 21
-110.0
 31
0.0
  0
LINE
  5
1EA
330
A
100
AcDbEntity
  8
0
  6
Continuous
 62
     7
100
AcDbLine
 10
-26.92499847412111
 20
-98.0
 30
0.0
 11
-26.92499847412111
 21
-110.0
 31
0.0
  0
LINE
  5
1EB
330
A
100
AcDbEntity
  8
0
  6
Continuous
 62
     7
100
AcDbLine
 10
-10.92499847412111
 20
-98.0
 30
0.0
 11
-10.92499847412111
 21
-110.0
 31
0.0
  0
LINE
  5
1EC
330
A
100
AcDbEntity
  8
0
  6
Continuous
 62
     7
100
AcDbLine
 10
21.07500152587891
 20
-98.0
 30
0.0
 11
21.07500152587891
 21
-110.0
 31
0.0
  0
LINE
  5
1ED
330
A
100
AcDbEntity
  8
0
  6
Continuous
 62
     7
100
AcDbLine
 10
5.075001525878889
 20
-98.0
 30
0.0
 11
5.075001525878889
 21
-110.0
 31
0.0
  0
LINE
  5
1EE
330
A
100
AcDbEntity
  8
0
  6
Continuous
 62
     7
100
AcDbLine
 10
53.07500152587889
 20
-98.0
 30
0.0
 11
53.07500152587889
 21
-110.0
 31
0.0
  0
LINE
  5
1EF
330
A
100
AcDbEntity
  8
0
  6
Continuous
 62
     7
100
AcDbLine
 10
37.0750015258789
 20
-98.0
 30
0.0
 11
37.0750015258789
 21
-110.0
 31
0.0
  0
LINE
  5
1F0
330
A
100
AcDbEntity
  8
0
  6
Continuous
 62
     7
100
AcDbLine
 10
85.07500152587891
 20
-98.0
 30
0.0
 11
85.07500152587891
 21
-110.0
 31
0.0
  0
LINE
  5
1F1
330
A
100
AcDbEntity
  8
0
  6
Continuous
 62
     7
100
AcDbLine
 10
69.0750015258789
 20
-98.0
 30
0.0
 11
69.0750015258789
 21
-110.0
 31
0.0
  0
MTEXT
  5
1F2
330
A
100
AcDbEntity
  8
0
  6
Continuous
 62
     7
100
AcDbMText
 10
-55.03928424387563
 20
-101.0
 30
0.0
 40
3.200000047683715
 41
0.0
 71
     4
 72
     5
  1
\W1.286;\A1;100
 73
     1
 44
1.0
1001
ACAD
1000
MTEXTBEGIN
1070
    73
1070
     1
1070
    44
1040
1.0
1070
    74
1070
     0
1000
MTEXTEND
  0
MTEXT
  5
1F3
330
A
100
AcDbEntity
  8
0
  6
Continuous
 62
     7
100
AcDbMText
 10
-51.85999843740464
 20
-107.0
 30
0.0
 40
3.200000047683715
 41
0.0
 71
     4
 72
     5
  1
\W1.200;\A1;0
 73
     1
 44
1.0
1001
ACAD
1000
MTEXTBEGIN
1070
    73
1070
     1
1070
    44
1040
1.0
1070
    74
1070
     0
1000
MTEXTEND
  0
MTEXT
  5
1F4
330
A
100
AcDbEntity
  8
0
  6
Continuous
 62
     7
100
AcDbMText
 10
40.87500147223471
 20
-101.0
 30
0.0
 40
3.200000047683715
 41
0.0
 71
     4
 72
     5
  1
\W1.125;\A1;400
 73
     1
 44
1.0
1001
ACAD
1000
MTEXTBEGIN
1070
    73
1070
     1
1070
    44
1040
1.0
1070
    74
1070
     0
1000
MTEXTEND
  0
MTEXT
  5
1F5
330
A
100
AcDbEntity
  8
0
  6
Continuous
 62
     7
100
AcDbMText
 10
40.90000150799749
 20
-107.0
 30
0.0
 40
3.200000047683715
 41
0.0
 71
     4
 72
     5
  1
\W1.125;\A1;300
 73
     1
 44
1.0
1001
ACAD
1000
MTEXTBEGIN
1070
    73
1070
     1
1070
    44
1040
1.0
1070
    74
1070
     0
1000
MTEXTEND
  0
MTEXT
  5
1F6
330
A
100
AcDbEntity
  8
0
  6
Continuous
 62
     7
100
AcDbMText
 10
56.83970734908093
 20
-101.0
 30
0.0
 40
3.200000047683715
 41
0.0
 71
     4
 72
     5
  1
\W1.059;\A1;450
 73
     1
 44
1.0
1001
ACAD
1000
MTEXTBEGIN
1070
    73
1070
     1
1070
    44
1040
1.0
1070
    74
1070
     0
1000
MTEXTEND
  0
MTEXT
  5
1F7
330
A
100
AcDbEntity
  8
0
  6
Continuous
 62
     7
100
AcDbMText
 10
56.86470738484371
 20
-107.0
 30
0.0
 40
3.200000047683715
 41
0.0
 71
     4
 72
     5
  1
\W1.059;\A1;350
 73
     1
 44
1.0
1001
ACAD
1000
MTEXTBEGIN
1070
    73
1070
     1
1070
    44
1040
1.0
1070
    74
1070
     0
1000
MTEXTEND
  0
MTEXT
  5
1F8
330
A
100
AcDbEntity
  8
0
  6
Continuous
 62
     7
100
AcDbMText
 10
72.8750014722347
 20
-101.0
 30
0.0
 40
3.200000047683715
 41
0.0
 71
     4
 72
     5
  1
\W1.125;\A1;500
 73
     1
 44
1.0
1001
ACAD
1000
MTEXTBEGIN
1070
    73
1070
     1
1070
    44
1040
1.0
1070
    74
1070
     0
1000
MTEXTEND
  0
MTEXT
  5
1F9
330
A
100
AcDbEntity
  8
0
  6
Continuous
 62
     7
100
AcDbMText
 10
72.9000015079975
 20
-107.0
 30
0.0
 40
3.200000047683715
 41
0.0
 71
     4
 72
     5
  1
\W1.125;\A1;400
 73
     1
 44
1.0
1001
ACAD
1000
MTEXTBEGIN
1070
    73
1070
     1
1070
    44
1040
1.0
1070
    74
1070
     0
1000
MTEXTEND
  0
MTEXT
  5
1FA
330
A
100
AcDbEntity
  8
0
  6
Continuous
 62
     7
100
AcDbMText
 10
-18.35695141548244
 20
-93.36376888795404
 30
0.0
 40
3.200000047683715
 41
0.0
 71
     4
 72
     5
  1
\W1.065;\A1;STRETCH LIST
 73
     1
 44
1.0
1001
ACAD
1000
MTEXTBEGIN
1070
    73
1070
     1
1070
    44
1040
1.0
1070
    74
1070
     0
1000
MTEXTEND
  0
MTEXT
  5
1FB
330
A
100
AcDbEntity
  8
0
  6
Continuous
 62
     7
100
AcDbMText
 10
-173.4999952316284
 20
121.3500061035156
 30
0.0
 40
4.5
 41
0.0
 71
     4
 72
     5
  1
CS-MRVZS14-K2
 73
     1
 44
1.0
1001
ACAD
1000
ACAD_MTEXT_DEFINED_HEIGHT_BEGIN
1070
    46
1040
0.0
1000
ACAD_MTEXT_DEFINED_HEIGHT_END
1000
MTEXTBEGIN
1070
    73
1070
     1
1070
    44
1040
1.0
1070
    74
1070
     0
1000
MTEXTEND
  0
MTEXT
  5
1FC
330
A
100
AcDbEntity
  8
0
  6
Continuous
 62
     7
100
AcDbMText
 10
-186.9639663373357
 20
128.8500061035156
 30
0.0
 40
4.5
 41
0.0
 71
     4
 72
     5
  1
\W1.048;\A1;RODLESS CYLINDER
 73
     1
 44
1.0
1001
ACAD
1000
MTEXTBEGIN
1070
    73
1070
     1
1070
    44
1040
1.0
1070
    74
1070
     0
1000
MTEXTEND
  0
MTEXT
  5
1FD
330
A
100
AcDbEntity
  8
0
  6
Continuous
 62
     3
100
AcDbMText
 10
4.168088651285244
 20
105.1386509510485
 30
0.0
 40
4.5
 41
0.0
 71
     4
 72
     5
  1
\W1.065;\A1;STRETCH LINE
 73
     1
 44
1.0
1001
ACAD
1000
MTEXTBEGIN
1070
    73
1070
     1
1070
    44
1040
1.0
1070
    74
1070
     0
1000
MTEXTEND
  0
MTEXT
  5
1FE
330
A
100
AcDbEntity
  8
0
  6
Continuous
 62
     7
100
AcDbMText
 10
-185.6818181851432
 20
107.6000061035156
 30
0.0
 40
4.5
 41
0.0
 71
     4
 72
     5
  1
{\W1.091;MODEL:CS-MRVZS14*ST(100)-K2}
 73
     1
 44
1.0
1001
ACAD
1000
ACAD_MTEXT_DEFINED_HEIGHT_BEGIN
1070
    46
1040
0.0
1000
ACAD_MTEXT_DEFINED_HEIGHT_END
1000
MTEXTBEGIN
1070
    73
1070
     1
1070
    44
1040
1.0
1070
    74
1070
     0
1000
MTEXTEND
  0
LINE
  5
1FF
330
A
100
AcDbEntity
  8
0
  6
Continuous
 62
     7
100
AcDbLine
 10
-194.25
 20
132.6000061035156
 30
0.0
 11
194.8000030517578
 21
132.6000061035156
 31
0.0
  0
LINE
  5
200
330
A
100
AcDbEntity
  8
0
  6
Continuous
 62
     7
100
AcDbLine
 10
194.8000030517578
 20
132.6000061035156
 30
0.0
 11
194.8000030517578
 21
-133.5
 31
0.0
  0
LINE
  5
201
330
A
100
AcDbEntity
  8
0
  6
Continuous
 62
     7
100
AcDbLine
 10
-194.25
 20
132.6000061035156
 30
0.0
 11
-194.25
 21
-133.5
 31
0.0
  0
LINE
  5
202
330
A
100
AcDbEntity
  8
0
  6
Continuous
 62
     7
100
AcDbLine
 10
-194.25
 20
-133.5
 30
0.0
 11
194.8000030517578
 21
-133.5
 31
0.0
  0
LINE
  5
203
330
A
100
AcDbEntity
  8
0
  6
Continuous
 62
     7
100
AcDbLine
 10
109.8000030517578
 20
-118.5
 30
0.0
 11
109.8000030517578
 21
-133.5
 31
0.0
  0
LINE
  5
204
330
A
100
AcDbEntity
  8
0
  6
Continuous
 62
     7
100
AcDbLine
 10
109.8000030517578
 20
-118.5
 30
0.0
 11
194.8000030517578
 21
-118.5
 31
0.0
  0
LINE
  5
205
330
A
100
AcDbEntity
  8
0
  6
Continuous
 62
     7
100
AcDbLine
 10
109.8000030517578
 20
132.6000061035156
 30
0.0
 11
109.8000030517578
 21
117.6000061035156
 31
0.0
  0
LINE
  5
206
330
A
100
AcDbEntity
  8
0
  6
Continuous
 62
     7
100
AcDbLine
 10
109.8000030517578
 20
117.6000061035156
 30
0.0
 11
194.8000030517578
 21
117.6000061035156
 31
0.0
  0
LINE
  5
207
330
A
100
AcDbEntity
  8
0
  6
Continuous
 62
     7
100
AcDbLine
 10
-194.25
 20
117.6000061035156
 30
0.0
 11
-109.25
 21
117.6000061035156
 31
0.0
  0
LINE
  5
208
330
A
100
AcDbEntity
  8
0
  6
Continuous
 62
     7
100
AcDbLine
 10
-109.25
 20
132.6000061035156
 30
0.0
 11
-109.25
 21
117.6000061035156
 31
0.0
  0
MTEXT
  5
209
330
A
100
AcDbEntity
  8
0
  6
Continuous
 62
     7
100
AcDbMText
 10
135.2836132057677
 20
125.1000061035156
 30
0.0
 40
4.5
 41
0.0
 71
     4
 72
     5
  1
\W1.311;\A1;Ver. 1.0
 73
     1
 44
1.0
1001
ACAD
1000
MTEXTBEGIN
1070
    73
1070
     1
1070
    44
1040
1.0
1070
    74
1070
     0
1000
MTEXTEND
  0
MTEXT
  5
20A
330
A
100
AcDbEntity
  8
0
  6
Continuous
 62
     7
100
AcDbMText
 10
115.5267259825148
 20
-126.0
 30
0.0
 40
6.300000190734863
 41
0.0
 71
     4
 72
     5
  1
\W1.121;\A1;KOGANEI CORP.
 73
     1
 44
1.0
1001
ACAD
1000
MTEXTBEGIN
1070
    73
1070
     1
1070
    44
1040
1.0
1070
    74
1070
     0
1000
MTEXTEND
  0
ENDSEC
  0
SECTION
  2
OBJECTS
  0
DICTIONARY
  5
19
330
0
100
AcDbDictionary
281
     1
  3
ACAD_COLOR
350
213
  3
ACAD_GROUP
350
1A
  3
ACAD_LAYOUT
350
216
  3
ACAD_MATERIAL
350
212
  3
ACAD_MLINESTYLE
350
1B
  3
ACAD_PLOTSETTINGS
350
217
  3
ACAD_PLOTSTYLENAME
350
210
  3
ACAD_TABLESTYLE
350
214
  3
ACDBHEADERROUNDTRIPXREC
350
222
  3
AcDbVariableDictionary
350
21D
  0
DICTIONARY
  5
213
102
{ACAD_REACTORS
330
19
102
}
330
19
100
AcDbDictionary
281
     1
  0
DICTIONARY
  5
1A
102
{ACAD_REACTORS
330
19
102
}
330
19
100
AcDbDictionary
281
     1
  0
DICTIONARY
  5
216
102
{ACAD_REACTORS
330
19
102
}
330
19
100
AcDbDictionary
281
     1
  3
Model
350
218
  3
レイアウト1
350
219
  0
DICTIONARY
  5
212
102
{ACAD_REACTORS
330
19
102
}
330
19
100
AcDbDictionary
281
     1
  0
DICTIONARY
  5
1B
102
{ACAD_REACTORS
330
19
102
}
330
19
100
AcDbDictionary
281
     1
  3
STANDARD
350
1C
  0
DICTIONARY
  5
217
102
{ACAD_REACTORS
330
19
102
}
330
19
100
AcDbDictionary
281
     1
  0
ACDBDICTIONARYWDFLT
  5
210
102
{ACAD_REACTORS
330
19
102
}
330
19
100
AcDbDictionary
281
     1
  3
Normal
350
211
100
AcDbDictionaryWithDefault
340
211
  0
DICTIONARY
  5
214
102
{ACAD_REACTORS
330
19
102
}
330
19
100
AcDbDictionary
281
     1
  3
Standard
350
215
  0
DICTIONARY
  5
222
102
{ACAD_REACTORS
330
19
102
}
330
19
100
AcDbDictionary
281
     1
  0
DICTIONARY
  5
21D
102
{ACAD_REACTORS
330
19
102
}
330
19
100
AcDbDictionary
281
     1
  3
CTABLESTYLE
350
21E
  3
DIMASSOC
350
21F
  3
PROJECTNAME
350
220
  0
LAYOUT
  5
218
102
{ACAD_XDICTIONARY
360
223
102
}
102
{ACAD_REACTORS
330
216
102
}
330
216
100
AcDbPlotSettings
  1

  2
\\Tg_salsvr02\DCCF450-41.214
  4

  6

 40
0.0
 41
0.0
 42
0.0
 43
0.0
 44
0.0
 45
0.0
 46
0.0
 47
0.0
 48
0.0
 49
0.0
140
0.0
141
0.0
142
1.0
143
1.0
 70
  1712
 72
     0
 73
     0
 74
     0
  7

 75
     0
147
1.0
148
0.0
149
0.0
100
AcDbLayout
  1
Model
 70
     1
 71
     0
 10
0.0
 20
0.0
 11
12.0
 21
9.0
 12
0.0
 22
0.0
 32
0.0
 14
0.0
 24
0.0
 34
0.0
 15
0.0
 25
0.0
 35
0.0
146
0.0
 13
0.0
 23
0.0
 33
0.0
 16
1.0
 26
0.0
 36
0.0
 17
0.0
 27
1.0
 37
0.0
 76
     0
330
A
  0
LAYOUT
  5
219
102
{ACAD_XDICTIONARY
360
225
102
}
102
{ACAD_REACTORS
330
216
102
}
330
216
100
AcDbPlotSettings
  1

  2
\\Tg_salsvr02\DCCF450-41.214
  4

  6

 40
0.0
 41
0.0
 42
0.0
 43
0.0
 44
0.0
 45
0.0
 46
0.0
 47
0.0
 48
0.0
 49
0.0
140
0.0
141
0.0
142
1.0
143
1.0
 70
   688
 72
     0
 73
     0
 74
     5
  7

 75
    16
147
1.0
148
0.0
149
0.0
100
AcDbLayout
  1
レイアウト1
 70
     0
 71
     1
 10
0.0
 20
0.0
 11
12.0
 21
9.0
 12
0.0
 22
0.0
 32
0.0
 14
1.000000000000000E+20
 24
1.000000000000000E+20
 34
1.000000000000000E+20
 15
-1.000000000000000E+20
 25
-1.000000000000000E+20
 35
-1.000000000000000E+20
146
0.0
 13
0.0
 23
0.0
 33
0.0
 16
1.0
 26
0.0
 36
0.0
 17
0.0
 27
1.0
 37
0.0
 76
     0
330
B
  0
MLINESTYLE
  5
1C
102
{ACAD_REACTORS
330
1B
102
}
330
1B
100
AcDbMlineStyle
  2
STANDARD
 70
     0
  3

 62
     0
 51
90.0
 52
90.0
 71
     2
 49
0.5
 62
   256
  6
BYLAYER
 49
-0.5
 62
   256
  6
BYLAYER
  0
ACDBPLACEHOLDER
  5
211
102
{ACAD_REACTORS
330
210
102
}
330
210
  0
TABLESTYLE
  5
215
102
{ACAD_REACTORS
330
214
102
}
330
214
100
AcDbTableStyle
  3
Standard
 70
     0
 71
     0
 40
0.06
 41
0.06
280
     0
281
     0
  7
MX_NOTE_STANDARD
140
0.18
170
     2
 62
     0
 63
     7
283
     0
274
    -2
284
     1
 64
     0
275
    -2
285
     1
 65
     0
276
    -2
286
     1
 66
     0
277
    -2
287
     1
 67
     0
278
    -2
288
     1
 68
     0
279
    -2
289
     1
 69
     0
  7
MX_NOTE_STANDARD
140
0.25
170
     5
 62
     0
 63
     7
283
     0
274
    -2
284
     1
 64
     0
275
    -2
285
     1
 65
     0
276
    -2
286
     1
 66
     0
277
    -2
287
     1
 67
     0
278
    -2
288
     1
 68
     0
279
    -2
289
     1
 69
     0
  7
MX_NOTE_STANDARD
140
0.18
170
     5
 62
     0
 63
     7
283
     0
274
    -2
284
     1
 64
     0
275
    -2
285
     1
 65
     0
276
    -2
286
     1
 66
     0
277
    -2
287
     1
 67
     0
278
    -2
288
     1
 68
     0
279
    -2
289
     1
 69
     0
  0
DICTIONARYVAR
  5
21E
102
{ACAD_REACTORS
330
21D
102
}
330
21D
100
DictionaryVariables
280
     0
  1
STANDARD
  0
DICTIONARYVAR
  5
21F
102
{ACAD_REACTORS
330
21D
102
}
330
21D
100
DictionaryVariables
280
     0
  1
1
  0
DICTIONARYVAR
  5
220
102
{ACAD_REACTORS
330
21D
102
}
330
21D
100
DictionaryVariables
280
     0
  1

  0
DICTIONARY
  5
223
330
218
100
AcDbDictionary
280
     1
281
     1
  3
ACAD_XREC_ROUNDTRIP
360
224
  0
DICTIONARY
  5
225
330
219
100
AcDbDictionary
280
     1
281
     1
  3
ACAD_XREC_ROUNDTRIP
360
226
  0
XRECORD
  5
224
102
{ACAD_REACTORS
330
223
102
}
330
223
100
AcDbXrecord
280
     1
102
SHADEPLOT
 70
     0
102
SHADEPLOTRESLEVEL
 70
     2
102
SHADEPLOTCUSTOMDPI
 70
   300
  0
XRECORD
  5
226
102
{ACAD_REACTORS
330
225
102
}
330
225
100
AcDbXrecord
280
     1
102
SHADEPLOT
 70
     0
102
SHADEPLOTRESLEVEL
 70
     2
102
SHADEPLOTCUSTOMDPI
 70
   300
  0
ENDSEC
  0
EOF
