  0
SECTION
  2
HEADER
  9
$ACADVER
  1
AC1015
  9
$ACADMAINTVER
 70
    20
  9
$DWGCODEPAGE
  3
ANSI_932
  9
$INSBASE
 10
0.0
 20
0.0
 30
0.0
  9
$EXTMIN
 10
-281.25
 20
-195.0
 30
0.0
  9
$EXTMAX
 10
283.9503980228688
 20
195.5
 30
0.0
  9
$LIMMIN
 10
-281.25
 20
-195.0
  9
$LIMMAX
 10
285.5999879837036
 20
195.5
  9
$ORTHOMODE
 70
     0
  9
$REGENMODE
 70
     1
  9
$FILLMODE
 70
     1
  9
$QTEXTMODE
 70
     0
  9
$MIRRTEXT
 70
     1
  9
$LTSCALE
 40
1.0
  9
$ATTMODE
 70
     1
  9
$TEXTSIZE
 40
3.200000047683715
  9
$TRACEWID
 40
0.05
  9
$TEXTSTYLE
  7
MX_NOTE_STANDARD
  9
$CLAYER
  8
0
  9
$CELTYPE
  6
CONTINUOUS
  9
$CECOLOR
 62
   256
  9
$CELTSCALE
 40
1.0
  9
$DISPSILH
 70
     0
  9
$DIMSCALE
 40
1.0
  9
$DIMASZ
 40
2.5
  9
$DIMEXO
 40
1.5
  9
$DIMDLI
 40
3.75
  9
$DIMRND
 40
0.0
  9
$DIMDLE
 40
0.0
  9
$DIMEXE
 40
1.5
  9
$DIMTP
 40
0.0
  9
$DIMTM
 40
0.0
  9
$DIMTXT
 40
3.200000047683715
  9
$DIMCEN
 40
2.5
  9
$DIMTSZ
 40
0.0
  9
$DIMTOL
 70
     0
  9
$DIMLIM
 70
     0
  9
$DIMTIH
 70
     0
  9
$DIMTOH
 70
     0
  9
$DIMSE1
 70
     0
  9
$DIMSE2
 70
     0
  9
$DIMTAD
 70
     1
  9
$DIMZIN
 70
     8
  9
$DIMBLK
  1

  9
$DIMASO
 70
     1
  9
$DIMSHO
 70
     1
  9
$DIMPOST
  1

  9
$DIMAPOST
  1

  9
$DIMALT
 70
     0
  9
$DIMALTD
 70
     4
  9
$DIMALTF
 40
0.03937007874016
  9
$DIMLFAC
 40
1.0
  9
$DIMTOFL
 70
     1
  9
$DIMTVP
 40
0.0
  9
$DIMTIX
 70
     0
  9
$DIMSOXD
 70
     0
  9
$DIMSAH
 70
     0
  9
$DIMBLK1
  1

  9
$DIMBLK2
  1

  9
$DIMSTYLE
  2
MXDIMSTYLE
  9
$DIMCLRD
 70
     0
  9
$DIMCLRE
 70
     0
  9
$DIMCLRT
 70
     0
  9
$DIMTFAC
 40
1.0
  9
$DIMGAP
 40
1.0
  9
$DIMJUST
 70
     0
  9
$DIMSD1
 70
     0
  9
$DIMSD2
 70
     0
  9
$DIMTOLJ
 70
     1
  9
$DIMTZIN
 70
     0
  9
$DIMALTZ
 70
     0
  9
$DIMALTTZ
 70
     0
  9
$DIMUPT
 70
     1
  9
$DIMDEC
 70
     4
  9
$DIMTDEC
 70
     4
  9
$DIMALTU
 70
     2
  9
$DIMALTTD
 70
     4
  9
$DIMTXSTY
  7
MX_NOTE_STANDARD
  9
$DIMAUNIT
 70
     0
  9
$DIMADEC
 70
     0
  9
$DIMALTRND
 40
0.0
  9
$DIMAZIN
 70
     0
  9
$DIMDSEP
 70
    46
  9
$DIMATFIT
 70
     3
  9
$DIMFRAC
 70
     0
  9
$DIMLDRBLK
  1

  9
$DIMLUNIT
 70
     2
  9
$DIMLWD
 70
    -2
  9
$DIMLWE
 70
    -2
  9
$DIMTMOVE
 70
     0
  9
$LUNITS
 70
     2
  9
$LUPREC
 70
     4
  9
$SKETCHINC
 40
0.1
  9
$FILLETRAD
 40
0.0
  9
$AUNITS
 70
     0
  9
$AUPREC
 70
     0
  9
$MENU
  1
acad
  9
$ELEVATION
 40
0.0
  9
$PELEVATION
 40
0.0
  9
$THICKNESS
 40
0.0
  9
$LIMCHECK
 70
     0
  9
$CHAMFERA
 40
0.0
  9
$CHAMFERB
 40
0.0
  9
$CHAMFERC
 40
0.0
  9
$CHAMFERD
 40
0.0
  9
$SKPOLY
 70
     0
  9
$TDCREATE
 40
2453510.799884259
  9
$TDUCREATE
 40
2453510.424884259
  9
$TDUPDATE
 40
2454034.807922592
  9
$TDUUPDATE
 40
2454034.432922592
  9
$TDINDWG
 40
0.0002868519
  9
$TDUSRTIMER
 40
0.0002848611
  9
$USRTIMER
 70
     1
  9
$ANGBASE
 50
0.0
  9
$ANGDIR
 70
     0
  9
$PDMODE
 70
     0
  9
$PDSIZE
 40
0.0
  9
$PLINEWID
 40
0.0
  9
$SPLFRAME
 70
     0
  9
$SPLINETYPE
 70
     6
  9
$SPLINESEGS
 70
     8
  9
$HANDSEED
  5
24A
  9
$SURFTAB1
 70
     6
  9
$SURFTAB2
 70
     6
  9
$SURFTYPE
 70
     6
  9
$SURFU
 70
     6
  9
$SURFV
 70
     6
  9
$UCSBASE
  2

  9
$UCSNAME
  2

  9
$UCSORG
 10
0.0
 20
0.0
 30
0.0
  9
$UCSXDIR
 10
1.0
 20
0.0
 30
0.0
  9
$UCSYDIR
 10
0.0
 20
1.0
 30
0.0
  9
$UCSORTHOREF
  2

  9
$UCSORTHOVIEW
 70
     0
  9
$UCSORGTOP
 10
0.0
 20
0.0
 30
0.0
  9
$UCSORGBOTTOM
 10
0.0
 20
0.0
 30
0.0
  9
$UCSORGLEFT
 10
0.0
 20
0.0
 30
0.0
  9
$UCSORGRIGHT
 10
0.0
 20
0.0
 30
0.0
  9
$UCSORGFRONT
 10
0.0
 20
0.0
 30
0.0
  9
$UCSORGBACK
 10
0.0
 20
0.0
 30
0.0
  9
$PUCSBASE
  2

  9
$PUCSNAME
  2

  9
$PUCSORG
 10
0.0
 20
0.0
 30
0.0
  9
$PUCSXDIR
 10
1.0
 20
0.0
 30
0.0
  9
$PUCSYDIR
 10
0.0
 20
1.0
 30
0.0
  9
$PUCSORTHOREF
  2

  9
$PUCSORTHOVIEW
 70
     0
  9
$PUCSORGTOP
 10
0.0
 20
0.0
 30
0.0
  9
$PUCSORGBOTTOM
 10
0.0
 20
0.0
 30
0.0
  9
$PUCSORGLEFT
 10
0.0
 20
0.0
 30
0.0
  9
$PUCSORGRIGHT
 10
0.0
 20
0.0
 30
0.0
  9
$PUCSORGFRONT
 10
0.0
 20
0.0
 30
0.0
  9
$PUCSORGBACK
 10
0.0
 20
0.0
 30
0.0
  9
$USERI1
 70
     0
  9
$USERI2
 70
     0
  9
$USERI3
 70
     0
  9
$USERI4
 70
     0
  9
$USERI5
 70
     0
  9
$USERR1
 40
0.0
  9
$USERR2
 40
0.0
  9
$USERR3
 40
0.0
  9
$USERR4
 40
0.0
  9
$USERR5
 40
0.0
  9
$WORLDVIEW
 70
     1
  9
$SHADEDGE
 70
     3
  9
$SHADEDIF
 70
    70
  9
$TILEMODE
 70
     1
  9
$MAXACTVP
 70
    16
  9
$PINSBASE
 10
0.0
 20
0.0
 30
0.0
  9
$PLIMCHECK
 70
     0
  9
$PEXTMIN
 10
1.000000000000000E+20
 20
1.000000000000000E+20
 30
1.000000000000000E+20
  9
$PEXTMAX
 10
-1.000000000000000E+20
 20
-1.000000000000000E+20
 30
-1.000000000000000E+20
  9
$PLIMMIN
 10
0.0
 20
0.0
  9
$PLIMMAX
 10
12.0
 20
9.0
  9
$UNITMODE
 70
     0
  9
$VISRETAIN
 70
     0
  9
$PLINEGEN
 70
     1
  9
$PSLTSCALE
 70
     0
  9
$TREEDEPTH
 70
  3020
  9
$CMLSTYLE
  2
STANDARD
  9
$CMLJUST
 70
     0
  9
$CMLSCALE
 40
1.0
  9
$PROXYGRAPHICS
 70
     1
  9
$MEASUREMENT
 70
     0
  9
$CELWEIGHT
370
    -1
  9
$ENDCAPS
280
     0
  9
$JOINSTYLE
280
     0
  9
$LWDISPLAY
290
     0
  9
$INSUNITS
 70
     0
  9
$HYPERLINKBASE
  1

  9
$STYLESHEET
  1

  9
$XEDIT
290
     1
  9
$CEPSNTYPE
380
     0
  9
$PSTYLEMODE
290
     1
  9
$FINGERPRINTGUID
  2
{4B850DC8-8909-46EB-BA3B-93232175E4B0}
  9
$VERSIONGUID
  2
{00DCF742-5E9E-42C3-A1AF-272AA8B18396}
  9
$EXTNAMES
290
     1
  9
$PSVPSCALE
 40
0.0
  9
$OLESTARTUP
290
     0
  0
ENDSEC
  0
SECTION
  2
CLASSES
  0
CLASS
  1
IMAGE
  2
AcDbRasterImage
  3
ISM
 90
    32895
280
     0
281
     1
  0
CLASS
  1
DICTIONARYVAR
  2
AcDbDictionaryVar
  3
ObjectDBX Classes
 90
        0
280
     0
281
     0
  0
CLASS
  1
RASTERVARIABLES
  2
AcDbRasterVariables
  3
ISM
 90
    32768
280
     0
281
     0
  0
CLASS
  1
IMAGEDEF
  2
AcDbRasterImageDef
  3
ISM
 90
    32768
280
     0
281
     0
  0
CLASS
  1
IMAGEDEF_REACTOR
  2
AcDbRasterImageDefReactor
  3
ISM
 90
    32769
280
     0
281
     0
  0
CLASS
  1
IDBUFFER
  2
AcDbIdBuffer
  3
ObjectDBX Classes
 90
    32768
280
     0
281
     0
  0
CLASS
  1
SPATIAL_FILTER
  2
AcDbSpatialFilter
  3
ObjectDBX Classes
 90
    32768
280
     0
281
     0
  0
CLASS
  1
SORTENTSTABLE
  2
AcDbSortentsTable
  3
ObjectDBX Classes
 90
    32768
280
     0
281
     0
  0
CLASS
  1
LAYER_INDEX
  2
AcDbLayerIndex
  3
ObjectDBX Classes
 90
    32768
280
     0
281
     0
  0
CLASS
  1
SPATIAL_INDEX
  2
AcDbSpatialIndex
  3
ObjectDBX Classes
 90
    32768
280
     0
281
     0
  0
CLASS
  1
OBJECT_PTR
  2
CAseDLPNTableRecord
  3
"ASE-LPNTableRecord"
 90
    32768
280
     0
281
     0
  0
CLASS
  1
LAYOUT
  2
AcDbLayout
  3
ObjectDBX Classes
 90
        0
280
     0
281
     0
  0
CLASS
  1
PLOTSETTINGS
  2
AcDbPlotSettings
  3
ObjectDBX Classes
 90
    32768
280
     0
281
     0
  0
CLASS
  1
ACDBDICTIONARYWDFLT
  2
AcDbDictionaryWithDefault
  3
ObjectDBX Classes
 90
        0
280
     0
281
     0
  0
CLASS
  1
ACDBPLACEHOLDER
  2
AcDbPlaceHolder
  3
ObjectDBX Classes
 90
        0
280
     0
281
     0
  0
CLASS
  1
TABLESTYLE
  2
AcDbTableStyle
  3
ObjectDBX Classes
 90
     2047
280
     0
281
     0
  0
ENDSEC
  0
SECTION
  2
TABLES
  0
TABLE
  2
VPORT
  5
7
330
0
100
AcDbSymbolTable
 70
     2
  0
VPORT
  5
244
330
7
100
AcDbSymbolTableRecord
100
AcDbViewportTableRecord
  2
*Active
 70
     0
 10
0.0
 20
0.0
 11
1.0
 21
1.0
 12
2.174993991851863
 22
64.08617879894894
 13
0.0
 23
0.0
 14
1.0
 24
1.0
 15
0.0
 25
0.0
 16
0.0
 26
0.0
 36
1.0
 17
0.0
 27
0.0
 37
0.0
 40
522.0773575978978
 41
1.308483290488431
 42
50.0
 43
0.0
 44
0.0
 50
0.0
 51
0.0
 71
     0
 72
   100
 73
     1
 74
     1
 75
     0
 76
     0
 77
     0
 78
     0
281
     0
 65
     1
110
0.0
120
0.0
130
0.0
111
1.0
121
0.0
131
0.0
112
0.0
122
1.0
132
0.0
 79
     0
146
0.0
  0
ENDTAB
  0
TABLE
  2
LTYPE
  5
4
330
0
100
AcDbSymbolTable
 70
     3
  0
LTYPE
  5
11
330
4
100
AcDbSymbolTableRecord
100
AcDbLinetypeTableRecord
  2
BYBLOCK
 70
     0
  3

 72
    65
 73
     0
 40
0.0
  0
LTYPE
  5
12
330
4
100
AcDbSymbolTableRecord
100
AcDbLinetypeTableRecord
  2
BYLAYER
 70
     0
  3

 72
    65
 73
     0
 40
0.0
  0
LTYPE
  5
13
330
4
100
AcDbSymbolTableRecord
100
AcDbLinetypeTableRecord
  2
CONTINUOUS
 70
     0
  3
Solid line
 72
    65
 73
     0
 40
0.0
  0
LTYPE
  5
4F
330
4
100
AcDbSymbolTableRecord
100
AcDbLinetypeTableRecord
  2
PHANTOM
 70
     0
  3
Phantom ______  __  __  ______  __  __  ______
 72
    65
 73
     6
 40
30.0
 49
20.0
 74
     0
 49
-2.0
 74
     0
 49
2.0
 74
     0
 49
-2.0
 74
     0
 49
2.0
 74
     0
 49
-2.0
 74
     0
  0
LTYPE
  5
1CA
330
4
100
AcDbSymbolTableRecord
100
AcDbLinetypeTableRecord
  2
CENTER
 70
     0
  3
Center ____ _ ____ _ ____ _ ____ _ ____ _ ____
 72
    65
 73
     4
 40
26.0
 49
20.0
 74
     0
 49
-2.0
 74
     0
 49
2.0
 74
     0
 49
-2.0
 74
     0
  0
ENDTAB
  0
TABLE
  2
LAYER
  5
2
330
0
100
AcDbSymbolTable
 70
     2
  0
LAYER
  5
14
330
2
100
AcDbSymbolTableRecord
100
AcDbLayerTableRecord
  2
0
 70
     0
 62
     7
  6
CONTINUOUS
370
    -3
390
234
  0
LAYER
  5
1D
330
2
100
AcDbSymbolTableRecord
100
AcDbLayerTableRecord
  2
DEFPOINTS
 70
     0
 62
     7
  6
CONTINUOUS
290
     0
370
    -3
390
234
  0
ENDTAB
  0
TABLE
  2
STYLE
  5
3
330
0
100
AcDbSymbolTable
 70
     2
  0
STYLE
  5
17
330
3
100
AcDbSymbolTableRecord
100
AcDbTextStyleTableRecord
  2
MX_NOTE_STANDARD
 70
     0
 40
0.0
 41
1.0
 50
0.0
 71
     0
 42
3.200000047683715
  3
txt.shx
  4
extfont.shx
  0
STYLE
  5
232
330
3
100
AcDbSymbolTableRecord
100
AcDbTextStyleTableRecord
  2
Standard
 70
     0
 40
0.0
 41
1.0
 50
0.0
 71
     0
 42
0.2
  3

  4

  0
ENDTAB
  0
TABLE
  2
VIEW
  5
5
330
0
100
AcDbSymbolTable
 70
     0
  0
ENDTAB
  0
TABLE
  2
UCS
  5
6
330
0
100
AcDbSymbolTable
 70
     0
  0
ENDTAB
  0
TABLE
  2
APPID
  5
8
330
0
100
AcDbSymbolTable
 70
     1
  0
APPID
  5
16
330
8
100
AcDbSymbolTableRecord
100
AcDbRegAppTableRecord
  2
ACAD
 70
     0
  0
ENDTAB
  0
TABLE
  2
DIMSTYLE
  5
9
330
0
100
AcDbSymbolTable
 70
     1
100
AcDbDimStyleTable
 71
     0
  0
DIMSTYLE
105
18
330
9
100
AcDbSymbolTableRecord
100
AcDbDimStyleTableRecord
  2
MXDIMSTYLE
 70
     0
 41
2.5
 42
1.5
 43
3.75
 44
1.5
 73
     0
 74
     0
 77
     1
 78
     8
140
3.200000047683715
141
2.5
143
0.03937007874016
147
1.0
171
     4
172
     1
274
     4
288
     1
340
17
  0
ENDTAB
  0
TABLE
  2
BLOCK_RECORD
  5
1
330
0
100
AcDbSymbolTable
 70
     3
  0
BLOCK_RECORD
  5
A
330
1
100
AcDbSymbolTableRecord
100
AcDbBlockTableRecord
  2
*MODEL_SPACE
340
23B
  0
BLOCK_RECORD
  5
B
330
1
100
AcDbSymbolTableRecord
100
AcDbBlockTableRecord
  2
*PAPER_SPACE
340
23C
  0
BLOCK_RECORD
  5
1E
330
1
100
AcDbSymbolTableRecord
100
AcDbBlockTableRecord
  2
MRVZS22-K2-1
340
0
102
{BLKREFS
331
21C
102
}
  0
BLOCK_RECORD
  5
1F
330
1
100
AcDbSymbolTableRecord
100
AcDbBlockTableRecord
  2
MRVZS22-K2-2
340
0
102
{BLKREFS
331
21B
102
}
  0
BLOCK_RECORD
  5
20
330
1
100
AcDbSymbolTableRecord
100
AcDbBlockTableRecord
  2
MRVZS22-K2-3
340
0
102
{BLKREFS
331
21A
102
}
  0
ENDTAB
  0
ENDSEC
  0
SECTION
  2
BLOCKS
  0
BLOCK
  5
D
330
A
100
AcDbEntity
  8
0
100
AcDbBlockBegin
  2
*MODEL_SPACE
 70
     0
 10
0.0
 20
0.0
 30
0.0
  3
*MODEL_SPACE
  1

  0
ENDBLK
  5
E
330
A
100
AcDbEntity
  8
0
100
AcDbBlockEnd
  0
BLOCK
  5
F
330
B
100
AcDbEntity
 67
     1
  8
0
100
AcDbBlockBegin
  2
*PAPER_SPACE
 70
     0
 10
0.0
 20
0.0
 30
0.0
  3
*PAPER_SPACE
  1

  0
ENDBLK
  5
10
330
B
100
AcDbEntity
 67
     1
  8
0
100
AcDbBlockEnd
  0
BLOCK
  5
21
330
1E
100
AcDbEntity
  8
0
100
AcDbBlockBegin
  2
MRVZS22-K2-1
 70
     0
 10
0.0
 20
0.0
 30
0.0
  3
MRVZS22-K2-1
  1

  0
LINE
  5
22
330
1E
100
AcDbEntity
  8
0
  6
Continuous
 62
     7
100
AcDbLine
 10
175.0
 20
-22.5
 30
0.0
 11
176.1999969482422
 21
-22.5
 31
0.0
  0
LINE
  5
23
330
1E
100
AcDbEntity
  8
0
  6
Continuous
 62
     7
100
AcDbLine
 10
175.0
 20
-15.5
 30
0.0
 11
176.1999969482422
 21
-15.5
 31
0.0
  0
LINE
  5
24
330
1E
100
AcDbEntity
  8
0
  6
Continuous
 62
     7
100
AcDbLine
 10
15.80000305175781
 20
-22.49999666959411
 30
0.0
 11
17.0
 21
-22.49999666959411
 31
0.0
  0
LINE
  5
25
330
1E
100
AcDbEntity
  8
0
  6
Continuous
 62
     7
100
AcDbLine
 10
15.80000305175781
 20
-15.5
 30
0.0
 11
17.0
 21
-15.5
 31
0.0
  0
LINE
  5
26
330
1E
100
AcDbEntity
  8
0
  6
Continuous
 62
     7
100
AcDbLine
 10
180.0
 20
-23.0
 30
0.0
 11
176.6999969482422
 21
-23.0
 31
0.0
  0
LINE
  5
27
330
1E
100
AcDbEntity
  8
0
  6
Continuous
 62
     2
100
AcDbLine
 10
180.0
 20
-22.5
 30
0.0
 11
176.1999969482422
 21
-22.5
 31
0.0
  0
LINE
  5
28
330
1E
100
AcDbEntity
  8
0
  6
Continuous
 62
     2
100
AcDbLine
 10
180.0
 20
-15.5
 30
0.0
 11
176.1999969482422
 21
-15.5
 31
0.0
  0
LINE
  5
29
330
1E
100
AcDbEntity
  8
0
  6
Continuous
 62
     7
100
AcDbLine
 10
180.0
 20
-15.0
 30
0.0
 11
176.6999969482422
 21
-15.0
 31
0.0
  0
LINE
  5
2A
330
1E
100
AcDbEntity
  8
0
  6
Continuous
 62
     7
100
AcDbLine
 10
12.0
 20
-23.0
 30
0.0
 11
15.30000305175781
 21
-23.0
 31
0.0
  0
LINE
  5
2B
330
1E
100
AcDbEntity
  8
0
  6
Continuous
 62
     2
100
AcDbLine
 10
12.0
 20
-22.5
 30
0.0
 11
15.80000305175781
 21
-22.5
 31
0.0
  0
LINE
  5
2C
330
1E
100
AcDbEntity
  8
0
  6
Continuous
 62
     2
100
AcDbLine
 10
12.0
 20
-15.5
 30
0.0
 11
15.80000305175781
 21
-15.5
 31
0.0
  0
LINE
  5
2D
330
1E
100
AcDbEntity
  8
0
  6
Continuous
 62
     7
100
AcDbLine
 10
12.0
 20
-15.0
 30
0.0
 11
15.30000305175781
 21
-15.0
 31
0.0
  0
LINE
  5
2E
330
1E
100
AcDbEntity
  8
0
  6
Continuous
 62
     2
100
AcDbLine
 10
71.03999328613281
 20
-42.0
 30
0.0
 11
60.96000671386718
 21
-42.0
 31
0.0
  0
LINE
  5
2F
330
1E
100
AcDbEntity
  8
0
  6
Continuous
 62
     7
100
AcDbLine
 10
75.0
 20
10.0
 30
0.0
 11
75.0
 21
-48.0
 31
0.0
  0
LINE
  5
30
330
1E
100
AcDbEntity
  8
0
  6
Continuous
 62
     7
100
AcDbLine
 10
17.0
 20
-48.0
 30
0.0
 11
75.0
 21
-48.0
 31
0.0
  0
LINE
  5
31
330
1E
100
AcDbEntity
  8
0
  6
Continuous
 62
     7
100
AcDbLine
 10
17.0
 20
-48.0
 30
0.0
 11
17.0
 21
10.0
 31
0.0
  0
LINE
  5
32
330
1E
100
AcDbEntity
  8
0
  6
Continuous
 62
     7
100
AcDbLine
 10
18.60000610351562
 20
-48.0
 30
0.0
 11
18.60000610351562
 21
10.0
 31
0.0
  0
LINE
  5
33
330
1E
100
AcDbEntity
  8
0
  6
Continuous
 62
     2
100
AcDbLine
 10
46.0
 20
13.69869995117187
 30
0.0
 11
46.0
 21
-59.0
 31
0.0
  0
LINE
  5
34
330
1E
100
AcDbEntity
  8
0
  6
Continuous
 62
     2
100
AcDbLine
 10
71.03999328613281
 20
4.0
 30
0.0
 11
60.96000671386718
 21
4.0
 31
0.0
  0
LINE
  5
35
330
1E
100
AcDbEntity
  8
0
  6
Continuous
 62
     7
100
AcDbLine
 10
73.39999389648437
 20
10.0
 30
0.0
 11
73.39999389648437
 21
-48.0
 31
0.0
  0
LINE
  5
36
330
1E
100
AcDbEntity
  8
0
  6
Continuous
 62
     2
100
AcDbLine
 10
20.96000671386719
 20
4.0
 30
0.0
 11
31.03999328613281
 21
4.0
 31
0.0
  0
LINE
  5
37
330
1E
100
AcDbEntity
  8
0
  6
Continuous
 62
     2
100
AcDbLine
 10
26.0
 20
9.039993286132812
 30
0.0
 11
26.0
 21
-1.039993286132812
 31
0.0
  0
LINE
  5
38
330
1E
100
AcDbEntity
  8
0
  6
Continuous
 62
     7
100
AcDbLine
 10
75.0
 20
-37.50001525878906
 30
0.0
 11
180.0
 21
-37.50001525878906
 31
0.0
  0
LINE
  5
39
330
1E
100
AcDbEntity
  8
0
  6
Continuous
 62
     2
100
AcDbLine
 10
-18.0
 20
-19.0
 30
0.0
 11
210.0
 21
-19.0
 31
0.0
  0
LINE
  5
3A
330
1E
100
AcDbEntity
  8
0
  6
Continuous
 62
     2
100
AcDbLine
 10
26.0
 20
-47.03999328613281
 30
0.0
 11
26.0
 21
-36.96000671386719
 31
0.0
  0
LINE
  5
3B
330
1E
100
AcDbEntity
  8
0
  6
Continuous
 62
     2
100
AcDbLine
 10
20.96000671386719
 20
-42.0
 30
0.0
 11
31.03999328613281
 21
-42.0
 31
0.0
  0
LINE
  5
3C
330
1E
100
AcDbEntity
  8
0
  6
Continuous
 62
     2
100
AcDbLine
 10
66.0
 20
9.039993286132812
 30
0.0
 11
66.0
 21
-1.039993286132812
 31
0.0
  0
LINE
  5
3D
330
1E
100
AcDbEntity
  8
0
  6
Continuous
 62
     7
100
AcDbLine
 10
75.0
 20
-0.4999847412109375
 30
0.0
 11
180.0
 21
-0.4999847412109375
 31
0.0
  0
LINE
  5
3E
330
1E
100
AcDbEntity
  8
0
  6
Continuous
 62
     7
100
AcDbLine
 10
17.0
 20
10.0
 30
0.0
 11
75.0
 21
10.0
 31
0.0
  0
LINE
  5
3F
330
1E
100
AcDbEntity
  8
0
  6
Continuous
 62
     7
100
AcDbLine
 10
12.0
 20
-0.4999847412109375
 30
0.0
 11
17.0
 21
-0.4999847412109375
 31
0.0
  0
LINE
  5
40
330
1E
100
AcDbEntity
  8
0
  6
Continuous
 62
     7
100
AcDbLine
 10
12.0
 20
-37.50001525878906
 30
0.0
 11
17.0
 21
-37.50001525878906
 31
0.0
  0
LINE
  5
41
330
1E
100
AcDbEntity
  8
0
  6
Continuous
 62
     2
100
AcDbLine
 10
66.0
 20
-47.03999328613281
 30
0.0
 11
66.0
 21
-36.96000671386719
 31
0.0
  0
LINE
  5
42
330
1E
100
AcDbEntity
  8
0
  6
Continuous
 62
     2
100
AcDbLine
 10
186.5
 20
-45.28997802734375
 30
0.0
 11
186.5
 21
-53.0
 31
0.0
  0
LINE
  5
43
330
1E
100
AcDbEntity
  8
0
  6
Continuous
 62
     7
100
AcDbLine
 10
198.0
 20
11.5
 30
0.0
 11
198.0
 21
-49.5
 31
0.0
  0
LINE
  5
44
330
1E
100
AcDbEntity
  8
0
  6
Continuous
 62
     2
100
AcDbLine
 10
192.0
 20
-7.28997802734375
 30
0.0
 11
192.0
 21
7.290008544921875
 31
0.0
  0
LINE
  5
45
330
1E
100
AcDbEntity
  8
0
  6
Continuous
 62
     2
100
AcDbLine
 10
192.0
 20
-30.71002197265625
 30
0.0
 11
192.0
 21
-45.28997802734375
 31
0.0
  0
LINE
  5
46
330
1E
100
AcDbEntity
  8
0
  6
Continuous
 62
     7
100
AcDbLine
 10
198.0
 20
11.5
 30
0.0
 11
180.0
 21
11.5
 31
0.0
  0
LINE
  5
47
330
1E
100
AcDbEntity
  8
0
  6
Continuous
 62
     7
100
AcDbLine
 10
198.0
 20
-49.5
 30
0.0
 11
180.0
 21
-49.5
 31
0.0
  0
LINE
  5
48
330
1E
100
AcDbEntity
  8
0
  6
Continuous
 62
     2
100
AcDbLine
 10
199.2900009155273
 20
-38.0
 30
0.0
 11
184.2783050537109
 21
-38.0
 31
0.0
  0
LINE
  5
49
330
1E
100
AcDbEntity
  8
0
  6
Continuous
 62
     2
100
AcDbLine
 10
199.2900009155273
 20
0.0
 30
0.0
 11
183.5958557128906
 21
0.0
 31
0.0
  0
LINE
  5
4A
330
1E
100
AcDbEntity
  8
0
  6
Continuous
 62
     7
100
AcDbLine
 10
180.0
 20
-10.0
 30
0.0
 11
198.0
 21
-10.0
 31
0.0
  0
LINE
  5
4B
330
1E
100
AcDbEntity
  8
0
  6
Continuous
 62
     7
100
AcDbLine
 10
176.1999969482422
 20
-15.5
 30
0.0
 11
176.1999969482422
 21
-22.5
 31
0.0
  0
LINE
  5
4C
330
1E
100
AcDbEntity
  8
0
  6
Continuous
 62
     7
100
AcDbLine
 10
176.1999969482422
 20
-15.5
 30
0.0
 11
176.6999969482422
 21
-15.0
 31
0.0
  0
LINE
  5
4D
330
1E
100
AcDbEntity
  8
0
  6
Continuous
 62
     7
100
AcDbLine
 10
176.6999969482422
 20
-15.0
 30
0.0
 11
176.6999969482422
 21
-23.0
 31
0.0
  0
LINE
  5
4E
330
1E
100
AcDbEntity
  8
0
  6
Continuous
 62
     7
100
AcDbLine
 10
176.1999969482422
 20
-22.5
 30
0.0
 11
176.6999969482422
 21
-23.0
 31
0.0
  0
LINE
  5
50
330
1E
100
AcDbEntity
  8
0
  6
PHANTOM
 62
     7
100
AcDbLine
 10
198.0
 20
-19.0
 30
0.0
 11
200.0
 21
-19.0
 31
0.0
  0
LINE
  5
51
330
1E
100
AcDbEntity
  8
0
  6
Continuous
 62
     7
100
AcDbLine
 10
206.5
 20
-15.0
 30
0.0
 11
206.5
 21
-23.0
 31
0.0
  0
LINE
  5
52
330
1E
100
AcDbEntity
  8
0
  6
Continuous
 62
     7
100
AcDbLine
 10
207.0
 20
-15.5
 30
0.0
 11
206.5
 21
-15.0
 31
0.0
  0
LINE
  5
53
330
1E
100
AcDbEntity
  8
0
  6
Continuous
 62
     7
100
AcDbLine
 10
207.0
 20
-15.5
 30
0.0
 11
207.0
 21
-22.5
 31
0.0
  0
LINE
  5
54
330
1E
100
AcDbEntity
  8
0
  6
Continuous
 62
     7
100
AcDbLine
 10
198.0
 20
-24.0
 30
0.0
 11
200.0
 21
-24.0
 31
0.0
  0
LINE
  5
55
330
1E
100
AcDbEntity
  8
0
  6
Continuous
 62
     7
100
AcDbLine
 10
207.0
 20
-22.5
 30
0.0
 11
206.5
 21
-23.0
 31
0.0
  0
LINE
  5
56
330
1E
100
AcDbEntity
  8
0
  6
Continuous
 62
     7
100
AcDbLine
 10
200.0
 20
-14.0
 30
0.0
 11
200.0
 21
-24.0
 31
0.0
  0
LINE
  5
57
330
1E
100
AcDbEntity
  8
0
  6
Continuous
 62
     7
100
AcDbLine
 10
206.5
 20
-15.0
 30
0.0
 11
200.0
 21
-15.0
 31
0.0
  0
LINE
  5
58
330
1E
100
AcDbEntity
  8
0
  6
Continuous
 62
     7
100
AcDbLine
 10
206.5
 20
-23.0
 30
0.0
 11
200.0
 21
-23.0
 31
0.0
  0
LINE
  5
59
330
1E
100
AcDbEntity
  8
0
  6
Continuous
 62
     2
100
AcDbLine
 10
207.0
 20
-15.5
 30
0.0
 11
200.0
 21
-15.5
 31
0.0
  0
LINE
  5
5A
330
1E
100
AcDbEntity
  8
0
  6
Continuous
 62
     2
100
AcDbLine
 10
207.0
 20
-22.5
 30
0.0
 11
200.0
 21
-22.5
 31
0.0
  0
LINE
  5
5B
330
1E
100
AcDbEntity
  8
0
  6
Continuous
 62
     7
100
AcDbLine
 10
198.0
 20
-14.0
 30
0.0
 11
200.0
 21
-14.0
 31
0.0
  0
LINE
  5
5C
330
1E
100
AcDbEntity
  8
0
  6
Continuous
 62
     7
100
AcDbLine
 10
180.0
 20
-28.0
 30
0.0
 11
198.0
 21
-28.0
 31
0.0
  0
LINE
  5
5D
330
1E
100
AcDbEntity
  8
0
  6
Continuous
 62
     7
100
AcDbLine
 10
180.0
 20
-49.5
 30
0.0
 11
180.0
 21
11.5
 31
0.0
  0
LINE
  5
5E
330
1E
100
AcDbEntity
  8
0
  6
Continuous
 62
     7
100
AcDbLine
 10
175.0
 20
-20.25
 30
0.0
 11
170.0
 21
-20.25
 31
0.0
  0
LINE
  5
5F
330
1E
100
AcDbEntity
  8
0
  6
Continuous
 62
     7
100
AcDbLine
 10
175.0
 20
-15.5
 30
0.0
 11
175.0
 21
-22.5
 31
0.0
  0
LINE
  5
60
330
1E
100
AcDbEntity
  8
0
  6
Continuous
 62
     7
100
AcDbLine
 10
175.0
 20
-17.75
 30
0.0
 11
170.0
 21
-17.75
 31
0.0
  0
LINE
  5
61
330
1E
100
AcDbEntity
  8
0
  6
Continuous
 62
     7
100
AcDbLine
 10
170.0
 20
-17.75
 30
0.0
 11
170.0
 21
-20.25
 31
0.0
  0
LINE
  5
62
330
1E
100
AcDbEntity
  8
0
  6
Continuous
 62
     7
100
AcDbLine
 10
12.0
 20
-49.5
 30
0.0
 11
12.0
 21
11.5
 31
0.0
  0
LINE
  5
63
330
1E
100
AcDbEntity
  8
0
  6
Continuous
 62
     7
100
AcDbLine
 10
12.0
 20
-28.0
 30
0.0
 11
-6.0
 21
-28.0
 31
0.0
  0
LINE
  5
64
330
1E
100
AcDbEntity
  8
0
  6
Continuous
 62
     7
100
AcDbLine
 10
-6.0
 20
-14.0
 30
0.0
 11
-8.0
 21
-14.0
 31
0.0
  0
LINE
  5
65
330
1E
100
AcDbEntity
  8
0
  6
Continuous
 62
     2
100
AcDbLine
 10
-15.0
 20
-22.5
 30
0.0
 11
-8.0
 21
-22.5
 31
0.0
  0
LINE
  5
66
330
1E
100
AcDbEntity
  8
0
  6
Continuous
 62
     2
100
AcDbLine
 10
-15.0
 20
-15.5
 30
0.0
 11
-8.0
 21
-15.5
 31
0.0
  0
LINE
  5
67
330
1E
100
AcDbEntity
  8
0
  6
Continuous
 62
     7
100
AcDbLine
 10
-14.5
 20
-23.0
 30
0.0
 11
-8.0
 21
-23.0
 31
0.0
  0
LINE
  5
68
330
1E
100
AcDbEntity
  8
0
  6
Continuous
 62
     7
100
AcDbLine
 10
-14.5
 20
-15.0
 30
0.0
 11
-8.0
 21
-15.0
 31
0.0
  0
LINE
  5
69
330
1E
100
AcDbEntity
  8
0
  6
Continuous
 62
     7
100
AcDbLine
 10
-8.0
 20
-14.0
 30
0.0
 11
-8.0
 21
-24.0
 31
0.0
  0
LINE
  5
6A
330
1E
100
AcDbEntity
  8
0
  6
Continuous
 62
     7
100
AcDbLine
 10
-15.0
 20
-22.5
 30
0.0
 11
-14.5
 21
-23.0
 31
0.0
  0
LINE
  5
6B
330
1E
100
AcDbEntity
  8
0
  6
Continuous
 62
     7
100
AcDbLine
 10
-6.0
 20
-24.0
 30
0.0
 11
-8.0
 21
-24.0
 31
0.0
  0
LINE
  5
6C
330
1E
100
AcDbEntity
  8
0
  6
Continuous
 62
     7
100
AcDbLine
 10
-15.0
 20
-15.5
 30
0.0
 11
-15.0
 21
-22.5
 31
0.0
  0
LINE
  5
6D
330
1E
100
AcDbEntity
  8
0
  6
Continuous
 62
     7
100
AcDbLine
 10
-15.0
 20
-15.5
 30
0.0
 11
-14.5
 21
-15.0
 31
0.0
  0
LINE
  5
6E
330
1E
100
AcDbEntity
  8
0
  6
Continuous
 62
     7
100
AcDbLine
 10
-14.5
 20
-15.0
 30
0.0
 11
-14.5
 21
-23.0
 31
0.0
  0
LINE
  5
6F
330
1E
100
AcDbEntity
  8
0
  6
PHANTOM
 62
     7
100
AcDbLine
 10
-6.0
 20
-19.0
 30
0.0
 11
-8.0
 21
-19.0
 31
0.0
  0
LINE
  5
70
330
1E
100
AcDbEntity
  8
0
  6
Continuous
 62
     7
100
AcDbLine
 10
15.80000305175781
 20
-22.5
 30
0.0
 11
15.30000305175781
 21
-23.0
 31
0.0
  0
LINE
  5
71
330
1E
100
AcDbEntity
  8
0
  6
Continuous
 62
     7
100
AcDbLine
 10
15.30000305175781
 20
-15.0
 30
0.0
 11
15.30000305175781
 21
-23.0
 31
0.0
  0
LINE
  5
72
330
1E
100
AcDbEntity
  8
0
  6
Continuous
 62
     7
100
AcDbLine
 10
15.80000305175781
 20
-15.5
 30
0.0
 11
15.30000353150979
 21
-15.00000047975197
 31
0.0
  0
LINE
  5
73
330
1E
100
AcDbEntity
  8
0
  6
Continuous
 62
     7
100
AcDbLine
 10
15.80000305175781
 20
-15.5
 30
0.0
 11
15.80000305175781
 21
-22.5
 31
0.0
  0
LINE
  5
74
330
1E
100
AcDbEntity
  8
0
  6
Continuous
 62
     7
100
AcDbLine
 10
12.0
 20
-10.0
 30
0.0
 11
-6.0
 21
-10.0
 31
0.0
  0
LINE
  5
75
330
1E
100
AcDbEntity
  8
0
  6
Continuous
 62
     2
100
AcDbLine
 10
-7.290008544921875
 20
0.0
 30
0.0
 11
8.404144287109375
 21
0.0
 31
0.0
  0
LINE
  5
76
330
1E
100
AcDbEntity
  8
0
  6
Continuous
 62
     2
100
AcDbLine
 10
-7.290008544921875
 20
-38.0
 30
0.0
 11
7.721694946289062
 21
-38.0
 31
0.0
  0
LINE
  5
77
330
1E
100
AcDbEntity
  8
0
  6
Continuous
 62
     7
100
AcDbLine
 10
-6.0
 20
-49.5
 30
0.0
 11
12.0
 21
-49.5
 31
0.0
  0
LINE
  5
78
330
1E
100
AcDbEntity
  8
0
  6
Continuous
 62
     7
100
AcDbLine
 10
-6.0
 20
11.5
 30
0.0
 11
12.0
 21
11.5
 31
0.0
  0
LINE
  5
79
330
1E
100
AcDbEntity
  8
0
  6
Continuous
 62
     2
100
AcDbLine
 10
0.0
 20
-30.71002197265625
 30
0.0
 11
0.0
 21
-45.28997802734375
 31
0.0
  0
LINE
  5
7A
330
1E
100
AcDbEntity
  8
0
  6
Continuous
 62
     2
100
AcDbLine
 10
0.0
 20
-7.28997802734375
 30
0.0
 11
0.0
 21
7.290008544921875
 31
0.0
  0
LINE
  5
7B
330
1E
100
AcDbEntity
  8
0
  6
Continuous
 62
     7
100
AcDbLine
 10
-6.0
 20
11.5
 30
0.0
 11
-6.0
 21
-49.5
 31
0.0
  0
LINE
  5
7C
330
1E
100
AcDbEntity
  8
0
  6
Continuous
 62
     2
100
AcDbLine
 10
5.5
 20
-45.28997802734375
 30
0.0
 11
5.5
 21
-53.0
 31
0.0
  0
LINE
  5
7D
330
1E
100
AcDbEntity
  8
0
  6
Continuous
 62
     7
100
AcDbLine
 10
76.64999389648437
 20
-46.20001220703125
 30
0.0
 11
76.64999389648437
 21
-41.79998779296875
 31
0.0
  0
LINE
  5
7E
330
1E
100
AcDbEntity
  8
0
  6
Continuous
 62
     7
100
AcDbLine
 10
75.0
 20
8.850006103515625
 30
0.0
 11
75.48114013671875
 21
8.850006103515625
 31
0.0
  0
LINE
  5
7F
330
1E
100
AcDbEntity
  8
0
  6
Continuous
 62
     7
100
AcDbLine
 10
75.0
 20
-46.85000610351561
 30
0.0
 11
75.48114013671875
 21
-46.85000610351561
 31
0.0
  0
LINE
  5
80
330
1E
100
AcDbEntity
  8
0
  6
Continuous
 62
     7
100
AcDbLine
 10
75.0
 20
-41.14999389648438
 30
0.0
 11
75.48114013671875
 21
-41.14999389648438
 31
0.0
  0
LINE
  5
81
330
1E
100
AcDbEntity
  8
0
  6
Continuous
 62
     7
100
AcDbLine
 10
75.0
 20
3.149993896484375
 30
0.0
 11
75.48114013671875
 21
3.149993896484375
 31
0.0
  0
LINE
  5
82
330
1E
100
AcDbEntity
  8
0
  6
Continuous
 62
     7
100
AcDbLine
 10
76.64999389648437
 20
3.79998779296875
 30
0.0
 11
76.64999389648437
 21
8.20001220703125
 31
0.0
  0
LINE
  5
83
330
1E
100
AcDbEntity
  8
0
  6
Continuous
 62
     7
100
AcDbLine
 10
15.35000610351562
 20
-46.20001220703125
 30
0.0
 11
15.35000610351562
 21
-41.79998779296875
 31
0.0
  0
LINE
  5
84
330
1E
100
AcDbEntity
  8
0
  6
Continuous
 62
     7
100
AcDbLine
 10
17.0
 20
-46.85000610351561
 30
0.0
 11
16.51885986328125
 21
-46.85000610351561
 31
0.0
  0
LINE
  5
85
330
1E
100
AcDbEntity
  8
0
  6
Continuous
 62
     7
100
AcDbLine
 10
17.0
 20
-41.14999389648438
 30
0.0
 11
16.51885986328125
 21
-41.14999389648438
 31
0.0
  0
LINE
  5
86
330
1E
100
AcDbEntity
  8
0
  6
Continuous
 62
     7
100
AcDbLine
 10
17.0
 20
8.850006103515625
 30
0.0
 11
16.51885986328125
 21
8.850006103515625
 31
0.0
  0
LINE
  5
87
330
1E
100
AcDbEntity
  8
0
  6
Continuous
 62
     7
100
AcDbLine
 10
17.0
 20
3.149993896484375
 30
0.0
 11
16.51885986328125
 21
3.149993896484375
 31
0.0
  0
LINE
  5
88
330
1E
100
AcDbEntity
  8
0
  6
Continuous
 62
     7
100
AcDbLine
 10
15.35000610351562
 20
3.79998779296875
 30
0.0
 11
15.35000610351562
 21
8.20001220703125
 31
0.0
  0
LINE
  5
89
330
1E
100
AcDbEntity
  8
0
  6
Continuous
 62
     7
100
AcDbLine
 10
18.60000610351562
 20
-34.0
 30
0.0
 11
73.39999389648437
 21
-34.0
 31
0.0
  0
LINE
  5
8A
330
1E
100
AcDbEntity
  8
0
  6
Continuous
 62
     7
100
AcDbLine
 10
18.60000610351562
 20
-4.0
 30
0.0
 11
73.39999389648437
 21
-4.0
 31
0.0
  0
LINE
  5
8B
330
1E
100
AcDbEntity
  8
0
  6
Continuous
 62
     7
100
AcDbLine
 10
17.0
 20
-1.149993896484375
 30
0.0
 11
16.51885986328125
 21
-1.149993896484375
 31
0.0
  0
LINE
  5
8C
330
1E
100
AcDbEntity
  8
0
  6
Continuous
 62
     7
100
AcDbLine
 10
17.0
 20
-6.850006103515625
 30
0.0
 11
16.51885986328125
 21
-6.850006103515625
 31
0.0
  0
LINE
  5
8D
330
1E
100
AcDbEntity
  8
0
  6
Continuous
 62
     7
100
AcDbLine
 10
15.35000610351562
 20
-6.20001220703125
 30
0.0
 11
15.35000610351562
 21
-1.79998779296875
 31
0.0
  0
LINE
  5
8E
330
1E
100
AcDbEntity
  8
0
  6
Continuous
 62
     7
100
AcDbLine
 10
17.0
 20
-36.85000610351563
 30
0.0
 11
16.51885986328125
 21
-36.85000610351563
 31
0.0
  0
LINE
  5
8F
330
1E
100
AcDbEntity
  8
0
  6
Continuous
 62
     7
100
AcDbLine
 10
17.0
 20
-31.14999389648437
 30
0.0
 11
16.51885986328125
 21
-31.14999389648437
 31
0.0
  0
LINE
  5
90
330
1E
100
AcDbEntity
  8
0
  6
Continuous
 62
     7
100
AcDbLine
 10
15.35000610351562
 20
-31.79998779296875
 30
0.0
 11
15.35000610351562
 21
-36.20001220703125
 31
0.0
  0
LINE
  5
91
330
1E
100
AcDbEntity
  8
0
  6
Continuous
 62
     7
100
AcDbLine
 10
75.0
 20
-1.149993896484375
 30
0.0
 11
75.48114013671875
 21
-1.149993896484375
 31
0.0
  0
LINE
  5
92
330
1E
100
AcDbEntity
  8
0
  6
Continuous
 62
     7
100
AcDbLine
 10
75.0
 20
-6.850006103515625
 30
0.0
 11
75.48114013671875
 21
-6.850006103515625
 31
0.0
  0
LINE
  5
93
330
1E
100
AcDbEntity
  8
0
  6
Continuous
 62
     7
100
AcDbLine
 10
76.64999389648437
 20
-6.20001220703125
 30
0.0
 11
76.64999389648437
 21
-1.79998779296875
 31
0.0
  0
LINE
  5
94
330
1E
100
AcDbEntity
  8
0
  6
Continuous
 62
     7
100
AcDbLine
 10
75.0
 20
-36.85000610351563
 30
0.0
 11
75.48114013671875
 21
-36.85000610351563
 31
0.0
  0
LINE
  5
95
330
1E
100
AcDbEntity
  8
0
  6
Continuous
 62
     7
100
AcDbLine
 10
75.0
 20
-31.14999389648437
 30
0.0
 11
75.48114013671875
 21
-31.14999389648437
 31
0.0
  0
LINE
  5
96
330
1E
100
AcDbEntity
  8
0
  6
Continuous
 62
     7
100
AcDbLine
 10
76.64999389648437
 20
-31.79998779296875
 30
0.0
 11
76.64999389648437
 21
-36.20001220703125
 31
0.0
  0
LINE
  5
97
330
1E
100
AcDbEntity
  8
0
  6
Continuous
 62
     7
100
AcDbLine
 10
18.60000610351562
 20
-5.7320556640625
 30
0.0
 11
73.39999389648437
 21
-5.7320556640625
 31
0.0
  0
LINE
  5
98
330
1E
100
AcDbEntity
  8
0
  6
Continuous
 62
     7
100
AcDbLine
 10
18.60000610351562
 20
-32.2679443359375
 30
0.0
 11
73.39999389648437
 21
-32.2679443359375
 31
0.0
  0
LINE
  5
99
330
1E
100
AcDbEntity
  8
0
  6
Continuous
 62
     7
100
AcDbLine
 10
193.0
 20
-55.69999694824218
 30
0.0
 11
-1.0
 21
-55.69999694824218
 31
0.0
  0
LINE
  5
9A
330
1E
100
AcDbEntity
  8
0
  6
Continuous
 62
     7
100
AcDbLine
 10
193.0
 20
-55.69999694824218
 30
0.0
 11
193.0
 21
-49.5
 31
0.0
  0
LINE
  5
9B
330
1E
100
AcDbEntity
  8
0
  6
Continuous
 62
     7
100
AcDbLine
 10
-1.0
 20
-55.69999694824218
 30
0.0
 11
-1.0
 21
-49.5
 31
0.0
  0
LINE
  5
9C
330
1E
100
AcDbEntity
  8
0
  6
Continuous
 62
     7
100
AcDbLine
 10
180.0
 20
-48.5
 30
0.0
 11
12.0
 21
-48.5
 31
0.0
  0
CIRCLE
  5
9D
330
1E
100
AcDbEntity
  8
0
  6
Continuous
 62
     7
100
AcDbCircle
 10
26.0
 20
4.0
 30
0.0
 40
2.0
  0
CIRCLE
  5
9E
330
1E
100
AcDbEntity
  8
0
  6
Continuous
 62
     2
100
AcDbCircle
 10
26.0
 20
4.0
 30
0.0
 40
2.5
  0
CIRCLE
  5
9F
330
1E
100
AcDbEntity
  8
0
  6
Continuous
 62
     2
100
AcDbCircle
 10
66.0
 20
4.0
 30
0.0
 40
2.5
  0
CIRCLE
  5
A0
330
1E
100
AcDbEntity
  8
0
  6
Continuous
 62
     7
100
AcDbCircle
 10
66.0
 20
4.0
 30
0.0
 40
2.0
  0
CIRCLE
  5
A1
330
1E
100
AcDbEntity
  8
0
  6
Continuous
 62
     7
100
AcDbCircle
 10
26.0
 20
-42.0
 30
0.0
 40
2.0
  0
CIRCLE
  5
A2
330
1E
100
AcDbEntity
  8
0
  6
Continuous
 62
     2
100
AcDbCircle
 10
26.0
 20
-42.0
 30
0.0
 40
2.5
  0
CIRCLE
  5
A3
330
1E
100
AcDbEntity
  8
0
  6
Continuous
 62
     2
100
AcDbCircle
 10
66.0
 20
-42.0
 30
0.0
 40
2.5
  0
CIRCLE
  5
A4
330
1E
100
AcDbEntity
  8
0
  6
Continuous
 62
     7
100
AcDbCircle
 10
66.0
 20
-42.0
 30
0.0
 40
2.0
  0
CIRCLE
  5
A5
330
1E
100
AcDbEntity
  8
0
  6
Continuous
 62
     7
100
AcDbCircle
 10
192.0
 20
0.0
 30
0.0
 40
4.75
  0
CIRCLE
  5
A6
330
1E
100
AcDbEntity
  8
0
  6
Continuous
 62
     7
100
AcDbCircle
 10
192.0
 20
-38.0
 30
0.0
 40
4.75
  0
CIRCLE
  5
A7
330
1E
100
AcDbEntity
  8
0
  6
Continuous
 62
     7
100
AcDbCircle
 10
192.0
 20
0.0
 30
0.0
 40
2.900000095367431
  0
CIRCLE
  5
A8
330
1E
100
AcDbEntity
  8
0
  6
Continuous
 62
     7
100
AcDbCircle
 10
192.0
 20
-38.0
 30
0.0
 40
2.900000095367431
  0
CIRCLE
  5
A9
330
1E
100
AcDbEntity
  8
0
  6
Continuous
 62
     7
100
AcDbCircle
 10
0.0
 20
-38.0
 30
0.0
 40
2.900000095367431
  0
CIRCLE
  5
AA
330
1E
100
AcDbEntity
  8
0
  6
Continuous
 62
     7
100
AcDbCircle
 10
0.0
 20
0.0
 30
0.0
 40
2.900000095367431
  0
CIRCLE
  5
AB
330
1E
100
AcDbEntity
  8
0
  6
Continuous
 62
     7
100
AcDbCircle
 10
0.0
 20
-38.0
 30
0.0
 40
4.75
  0
CIRCLE
  5
AC
330
1E
100
AcDbEntity
  8
0
  6
Continuous
 62
     7
100
AcDbCircle
 10
0.0
 20
0.0
 30
0.0
 40
4.75
  0
ARC
  5
AD
330
1E
100
AcDbEntity
  8
0
  6
Continuous
 62
     7
100
AcDbCircle
 10
74.89483642578125
 20
-44.41973876953125
 30
0.0
 40
2.5
100
AcDbArc
 50
283.5636671870891
 51
314.5931516996599
  0
ARC
  5
AE
330
1E
100
AcDbEntity
  8
0
  6
Continuous
 62
     7
100
AcDbCircle
 10
74.89483642578125
 20
5.58026123046875
 30
0.0
 40
2.5
100
AcDbArc
 50
283.5636671870891
 51
314.5931516996599
  0
ARC
  5
AF
330
1E
100
AcDbEntity
  8
0
  6
Continuous
 62
     7
100
AcDbCircle
 10
74.89483642578125
 20
6.41973876953125
 30
0.0
 40
2.5
100
AcDbArc
 50
45.40684830034007
 51
76.43633281291086
  0
ARC
  5
B0
330
1E
100
AcDbEntity
  8
0
  6
Continuous
 62
     7
100
AcDbCircle
 10
74.89483642578125
 20
-43.58026123046875
 30
0.0
 40
2.5
100
AcDbArc
 50
45.40684830034007
 51
76.43633281291086
  0
ARC
  5
B1
330
1E
100
AcDbEntity
  8
0
  6
Continuous
 62
     7
100
AcDbCircle
 10
17.10516357421875
 20
-44.41973876953125
 30
0.0
 40
2.5
100
AcDbArc
 50
225.4068467064783
 51
256.4363346341437
  0
ARC
  5
B2
330
1E
100
AcDbEntity
  8
0
  6
Continuous
 62
     7
100
AcDbCircle
 10
17.10516357421875
 20
-43.58026123046875
 30
0.0
 40
2.5
100
AcDbArc
 50
103.5636653658563
 51
134.5931532935217
  0
ARC
  5
B3
330
1E
100
AcDbEntity
  8
0
  6
Continuous
 62
     7
100
AcDbCircle
 10
17.10516357421875
 20
5.58026123046875
 30
0.0
 40
2.5
100
AcDbArc
 50
225.4068467064783
 51
256.4363346341437
  0
ARC
  5
B4
330
1E
100
AcDbEntity
  8
0
  6
Continuous
 62
     7
100
AcDbCircle
 10
17.10516357421875
 20
6.41973876953125
 30
0.0
 40
2.5
100
AcDbArc
 50
103.5636653658563
 51
134.5931532935217
  0
ARC
  5
B5
330
1E
100
AcDbEntity
  8
0
  6
Continuous
 62
     7
100
AcDbCircle
 10
17.10516357421875
 20
-4.41973876953125
 30
0.0
 40
2.5
100
AcDbArc
 50
225.4068467064783
 51
256.4363346341437
  0
ARC
  5
B6
330
1E
100
AcDbEntity
  8
0
  6
Continuous
 62
     7
100
AcDbCircle
 10
17.10516357421875
 20
-3.58026123046875
 30
0.0
 40
2.5
100
AcDbArc
 50
103.5636653658563
 51
134.5931532935217
  0
ARC
  5
B7
330
1E
100
AcDbEntity
  8
0
  6
Continuous
 62
     7
100
AcDbCircle
 10
17.10516357421875
 20
-33.58026123046875
 30
0.0
 40
2.5
100
AcDbArc
 50
103.5636653658563
 51
134.5931532935217
  0
ARC
  5
B8
330
1E
100
AcDbEntity
  8
0
  6
Continuous
 62
     7
100
AcDbCircle
 10
17.10516357421875
 20
-34.41973876953125
 30
0.0
 40
2.5
100
AcDbArc
 50
225.4068467064783
 51
256.4363346341437
  0
ARC
  5
B9
330
1E
100
AcDbEntity
  8
0
  6
Continuous
 62
     7
100
AcDbCircle
 10
74.89483642578125
 20
-4.41973876953125
 30
0.0
 40
2.5
100
AcDbArc
 50
283.5636671870891
 51
314.5931516996599
  0
ARC
  5
BA
330
1E
100
AcDbEntity
  8
0
  6
Continuous
 62
     7
100
AcDbCircle
 10
74.89483642578125
 20
-3.58026123046875
 30
0.0
 40
2.5
100
AcDbArc
 50
45.40684830034007
 51
76.43633281291086
  0
ARC
  5
BB
330
1E
100
AcDbEntity
  8
0
  6
Continuous
 62
     7
100
AcDbCircle
 10
74.89483642578125
 20
-33.58026123046875
 30
0.0
 40
2.5
100
AcDbArc
 50
45.40684830034007
 51
76.43633281291086
  0
ARC
  5
BC
330
1E
100
AcDbEntity
  8
0
  6
Continuous
 62
     7
100
AcDbCircle
 10
74.89483642578125
 20
-34.41973876953125
 30
0.0
 40
2.5
100
AcDbArc
 50
283.5636671870891
 51
314.5931516996599
  0
LINE
  5
BD
330
1E
100
AcDbEntity
  8
0
  6
PHANTOM
 62
     3
100
AcDbLine
 10
114.0
 20
44.24859649122809
 30
0.0
 11
114.0
 21
-75.62491228070175
 31
0.0
  0
ENDBLK
  5
BE
330
1E
100
AcDbEntity
  8
0
100
AcDbBlockEnd
  0
BLOCK
  5
BF
330
1F
100
AcDbEntity
  8
0
100
AcDbBlockBegin
  2
MRVZS22-K2-2
 70
     0
 10
0.0
 20
0.0
 30
0.0
  3
MRVZS22-K2-2
  1

  0
LINE
  5
C0
330
1F
100
AcDbEntity
  8
0
  6
Continuous
 62
     2
100
AcDbLine
 10
16.5
 20
-52.5
 30
0.0
 11
16.5
 21
14.5
 31
0.0
  0
LINE
  5
C1
330
1F
100
AcDbEntity
  8
0
  6
Continuous
 62
     2
100
AcDbLine
 10
6.0
 20
-47.68200683593749
 30
0.0
 11
6.0
 21
-56.39181518554688
 31
0.0
  0
LINE
  5
C2
330
1F
100
AcDbEntity
  8
0
  6
Continuous
 62
     2
100
AcDbLine
 10
23.53999328613281
 20
-28.69998168945313
 30
0.0
 11
9.460006713867187
 21
-28.69998168945313
 31
0.0
  0
LINE
  5
C3
330
1F
100
AcDbEntity
  8
0
  6
Continuous
 62
     2
100
AcDbLine
 10
41.01412963867188
 20
-19.0
 30
0.0
 11
-5.74897756494721
 21
-19.0
 31
0.0
  0
LINE
  5
C4
330
1F
100
AcDbEntity
  8
0
  6
Continuous
 62
     7
100
AcDbLine
 10
32.57734680175781
 20
-3.0
 30
0.0
 11
31.42265319824219
 21
-3.0
 31
0.0
  0
LINE
  5
C5
330
1F
100
AcDbEntity
  8
0
  6
Continuous
 62
     7
100
AcDbLine
 10
31.422650145121
 20
-33.00000468310646
 30
0.0
 11
30.84530334336319
 21
-33.99999865939025
 31
0.0
  0
LINE
  5
C6
330
1F
100
AcDbEntity
  8
0
  6
Continuous
 62
     7
100
AcDbLine
 10
7.600006103515625
 20
-55.70001220703125
 30
0.0
 11
7.600006103515625
 21
-55.20001220703125
 31
0.0
  0
LINE
  5
C7
330
1F
100
AcDbEntity
  8
0
  6
Continuous
 62
     7
100
AcDbLine
 10
3.900009338290146
 20
-54.70000199531296
 30
0.0
 11
4.400020658677931
 21
-55.20001331570075
 31
0.0
  0
LINE
  5
C8
330
1F
100
AcDbEntity
  8
0
  6
Continuous
 62
     7
100
AcDbLine
 10
8.100009481128834
 20
-54.70000199531296
 30
0.0
 11
7.599998160741052
 21
-55.20001331570075
 31
0.0
  0
LINE
  5
C9
330
1F
100
AcDbEntity
  8
0
  6
Continuous
 62
     7
100
AcDbLine
 10
12.81305379357536
 20
-27.14867270320611
 30
0.0
 11
19.68691888075727
 21
-31.11730063289361
 31
0.0
  0
LINE
  5
CA
330
1F
100
AcDbEntity
  8
0
  6
Continuous
 62
     7
100
AcDbLine
 10
4.399993896484375
 20
-55.70001220703125
 30
0.0
 11
4.399993896484375
 21
-55.19998168945313
 31
0.0
  0
LINE
  5
CB
330
1F
100
AcDbEntity
  8
0
  6
Continuous
 62
     7
100
AcDbLine
 10
32.57734680175781
 20
-5.0
 30
0.0
 11
31.42265319824219
 21
-5.0
 31
0.0
  0
LINE
  5
CC
330
1F
100
AcDbEntity
  8
0
  6
Continuous
 62
     7
100
AcDbLine
 10
38.5
 20
-13.0
 30
0.0
 11
38.5
 21
-25.0
 31
0.0
  0
LINE
  5
CD
330
1F
100
AcDbEntity
  8
0
  6
Continuous
 62
     7
100
AcDbLine
 10
31.42264728853116
 20
-5.000015471132428
 30
0.0
 11
30.84530048677334
 21
-4.000021494848624
 31
0.0
  0
LINE
  5
CE
330
1F
100
AcDbEntity
  8
0
  6
Continuous
 62
     7
100
AcDbLine
 10
0.0
 20
11.5
 30
0.0
 11
0.0
 21
-8.000007642713171
 31
0.0
  0
LINE
  5
CF
330
1F
100
AcDbEntity
  8
0
  6
Continuous
 62
     7
100
AcDbLine
 10
28.0
 20
11.5
 30
0.0
 11
9.5
 21
11.5
 31
0.0
  0
LINE
  5
D0
330
1F
100
AcDbEntity
  8
0
  6
Continuous
 62
     7
100
AcDbLine
 10
13.31306700807408
 20
-26.28265494435983
 30
0.0
 11
20.18691888075728
 21
-30.25127524465279
 31
0.0
  0
LINE
  5
D1
330
1F
100
AcDbEntity
  8
0
  6
Continuous
 62
     7
100
AcDbLine
 10
21.7783203125
 20
-20.25
 30
0.0
 11
23.2216796875
 21
-20.25
 31
0.0
  0
LINE
  5
D2
330
1F
100
AcDbEntity
  8
0
  6
Continuous
 62
     7
100
AcDbLine
 10
21.77829060409021
 20
-20.25002793548356
 30
0.0
 11
21.05661091659021
 21
-19.00004207237816
 31
0.0
  0
LINE
  5
D3
330
1F
100
AcDbEntity
  8
0
  6
Continuous
 62
     7
100
AcDbLine
 10
23.22167291801225
 20
-20.24999320370807
 30
0.0
 11
23.94336786430131
 21
-18.99998091160523
 31
0.0
  0
LINE
  5
D4
330
1F
100
AcDbEntity
  8
0
  6
Continuous
 62
     7
100
AcDbLine
 10
23.22167438719225
 20
-17.75004207237816
 30
0.0
 11
23.94335407469225
 21
-19.00002793548356
 31
0.0
  0
LINE
  5
D5
330
1F
100
AcDbEntity
  8
0
  6
Continuous
 62
     7
100
AcDbLine
 10
21.77830439369927
 20
-17.74998091160523
 30
0.0
 11
21.05660944741021
 21
-18.99999320370807
 31
0.0
  0
LINE
  5
D6
330
1F
100
AcDbEntity
  8
0
  6
Continuous
 62
     7
100
AcDbLine
 10
21.7783203125
 20
-17.75
 30
0.0
 11
23.2216796875
 21
-17.75
 31
0.0
  0
LINE
  5
D7
330
1F
100
AcDbEntity
  8
0
  6
Continuous
 62
     7
100
AcDbLine
 10
11.22166442871093
 20
-20.25
 30
0.0
 11
9.778305053710935
 21
-20.25
 31
0.0
  0
LINE
  5
D8
330
1F
100
AcDbEntity
  8
0
  6
Continuous
 62
     7
100
AcDbLine
 10
11.22168748796184
 20
-20.25000142914905
 30
0.0
 11
11.94338243425091
 21
-18.99998913704621
 31
0.0
  0
LINE
  5
D9
330
1F
100
AcDbEntity
  8
0
  6
Continuous
 62
     7
100
AcDbLine
 10
9.77834481753598
 20
-20.24999682185899
 30
0.0
 11
9.05666513003598
 21
-19.00001095875359
 31
0.0
  0
LINE
  5
DA
330
1F
100
AcDbEntity
  8
0
  6
Continuous
 62
     7
100
AcDbLine
 10
9.778318963648871
 20
-17.74998913704622
 30
0.0
 11
9.056624017359808
 21
-19.00000142914904
 31
0.0
  0
LINE
  5
DB
330
1F
100
AcDbEntity
  8
0
  6
Continuous
 62
     7
100
AcDbLine
 10
11.22172860063801
 20
-17.75001095875359
 30
0.0
 11
11.94340828813801
 21
-18.99999682185898
 31
0.0
  0
LINE
  5
DC
330
1F
100
AcDbEntity
  8
0
  6
Continuous
 62
     7
100
AcDbLine
 10
11.22166442871093
 20
-17.75
 30
0.0
 11
9.778305053710935
 21
-17.75
 31
0.0
  0
LINE
  5
DD
330
1F
100
AcDbEntity
  8
0
  6
Continuous
 62
     7
100
AcDbLine
 10
32.57734500033416
 20
-5.000015262516171
 30
0.0
 11
33.15470706088104
 21
-3.999994857234923
 31
0.0
  0
LINE
  5
DE
330
1F
100
AcDbEntity
  8
0
  6
Continuous
 62
     7
100
AcDbLine
 10
2.5
 20
10.5
 30
0.0
 11
2.5
 21
11.5
 31
0.0
  0
LINE
  5
DF
330
1F
100
AcDbEntity
  8
0
  6
Continuous
 62
     7
100
AcDbLine
 10
2.5
 20
11.5
 30
0.0
 11
0.0
 21
11.5
 31
0.0
  0
LINE
  5
E0
330
1F
100
AcDbEntity
  8
0
  6
Continuous
 62
     7
100
AcDbLine
 10
2.5
 20
-55.20001220703125
 30
0.0
 11
2.5
 21
-48.5
 31
0.0
  0
LINE
  5
E1
330
1F
100
AcDbEntity
  8
0
  6
Continuous
 62
     7
100
AcDbLine
 10
37.0
 20
-10.40192378864668
 30
0.0
 11
37.0
 21
8.999999999999998
 31
0.0
  0
LINE
  5
E2
330
1F
100
AcDbEntity
  8
0
  6
Continuous
 62
     7
100
AcDbLine
 10
32.57735126325497
 20
-3.000021494848625
 30
0.0
 11
33.15469806501278
 21
-4.000015471132428
 31
0.0
  0
LINE
  5
E3
330
1F
100
AcDbEntity
  8
0
  6
Continuous
 62
     7
100
AcDbLine
 10
9.5
 20
10.5
 30
0.0
 11
2.5
 21
10.5
 31
0.0
  0
LINE
  5
E4
330
1F
100
AcDbEntity
  8
0
  6
Continuous
 62
     7
100
AcDbLine
 10
0.0
 20
-49.5
 30
0.0
 11
2.5
 21
-49.5
 31
0.0
  0
LINE
  5
E5
330
1F
100
AcDbEntity
  8
0
  6
Continuous
 62
     7
100
AcDbLine
 10
39.49999975681112
 20
-33.71130766489477
 30
0.0
 11
37.49999858974478
 21
-32.55660643198461
 31
0.0
  0
LINE
  5
E6
330
1F
100
AcDbEntity
  8
0
  6
Continuous
 62
     7
100
AcDbLine
 10
9.5
 20
-55.20001220703125
 30
0.0
 11
9.5
 21
-48.5
 31
0.0
  0
LINE
  5
E7
330
1F
100
AcDbEntity
  8
0
  6
Continuous
 62
     7
100
AcDbLine
 10
32.57734214374432
 20
-33.00000489172271
 30
0.0
 11
33.15470420429119
 21
-34.00002529700396
 31
0.0
  0
LINE
  5
E8
330
1F
100
AcDbEntity
  8
0
  6
Continuous
 62
     7
100
AcDbLine
 10
32.57734680175781
 20
-33.0
 30
0.0
 11
31.42265319824219
 21
-33.0
 31
0.0
  0
LINE
  5
E9
330
1F
100
AcDbEntity
  8
0
  6
Continuous
 62
     7
100
AcDbLine
 10
9.5
 20
10.5
 30
0.0
 11
9.5
 21
11.5
 31
0.0
  0
LINE
  5
EA
330
1F
100
AcDbEntity
  8
0
  6
Continuous
 62
     7
100
AcDbLine
 10
31.42265628439941
 20
-2.999994857234923
 30
0.0
 11
30.84529422385253
 21
-4.000015262516171
 31
0.0
  0
LINE
  5
EB
330
1F
100
AcDbEntity
  8
0
  6
Continuous
 62
     7
100
AcDbLine
 10
8.100006103515625
 20
-53.10000610351561
 30
0.0
 11
8.100006103515625
 21
-54.70001220703125
 31
0.0
  0
LINE
  5
EC
330
1F
100
AcDbEntity
  8
0
  6
Continuous
 62
     7
100
AcDbLine
 10
32.57734680175781
 20
-35.0
 30
0.0
 11
31.42265319824219
 21
-35.0
 31
0.0
  0
LINE
  5
ED
330
1F
100
AcDbEntity
  8
0
  6
Continuous
 62
     7
100
AcDbLine
 10
32.57735411984481
 20
-34.99999865939025
 30
0.0
 11
33.15470092160263
 21
-34.00000468310646
 31
0.0
  0
LINE
  5
EE
330
1F
100
AcDbEntity
  8
0
  6
Continuous
 62
     7
100
AcDbLine
 10
3.0
 20
-55.70001220703125
 30
0.0
 11
4.399993896484375
 21
-55.70001220703125
 31
0.0
  0
LINE
  5
EF
330
1F
100
AcDbEntity
  8
0
  6
Continuous
 62
     7
100
AcDbLine
 10
9.0
 20
-55.70001220703125
 30
0.0
 11
7.600006103515625
 21
-55.70001220703125
 31
0.0
  0
LINE
  5
F0
330
1F
100
AcDbEntity
  8
0
  6
Continuous
 62
     7
100
AcDbLine
 10
31.42265342780957
 20
-35.00002529700396
 30
0.0
 11
30.84529136726269
 21
-34.00000489172271
 31
0.0
  0
LINE
  5
F1
330
1F
100
AcDbEntity
  8
0
  6
Continuous
 62
     7
100
AcDbLine
 10
3.899993896484375
 20
-53.10000610351561
 30
0.0
 11
3.899993896484375
 21
-54.69998168945313
 31
0.0
  0
LINE
  5
F2
330
1F
100
AcDbEntity
  8
0
  6
Continuous
 62
     7
100
AcDbLine
 10
37.0
 20
-27.59807621135332
 30
0.0
 11
37.0
 21
-47.0
 31
0.0
  0
LINE
  5
F3
330
1F
100
AcDbEntity
  8
0
  6
Continuous
 62
     7
100
AcDbLine
 10
29.0
 20
10.5
 30
0.0
 11
29.0
 21
-7.0
 31
0.0
  0
LINE
  5
F4
330
1F
100
AcDbEntity
  8
0
  6
Continuous
 62
     7
100
AcDbLine
 10
34.88674988014259
 20
-24.00000812801955
 30
0.0
 11
37.77349914772071
 21
-19.00001181760307
 31
0.0
  0
LINE
  5
F5
330
1F
100
AcDbEntity
  8
0
  6
Continuous
 62
     7
100
AcDbLine
 10
29.11324240872273
 20
-24.0000083366358
 30
0.0
 11
26.2264931411446
 21
-19.00001202621934
 31
0.0
  0
LINE
  5
F6
330
1F
100
AcDbEntity
  8
0
  6
Continuous
 62
     7
100
AcDbLine
 10
39.0
 20
10.0
 30
0.0
 11
29.0
 21
10.0
 31
0.0
  0
LINE
  5
F7
330
1F
100
AcDbEntity
  8
0
  6
Continuous
 62
     7
100
AcDbLine
 10
39.0
 20
-48.0
 30
0.0
 11
29.0
 21
-48.0
 31
0.0
  0
LINE
  5
F8
330
1F
100
AcDbEntity
  8
0
  6
Continuous
 62
     7
100
AcDbLine
 10
39.49998698934724
 20
-4.288718211390004
 30
0.0
 11
37.49997260778218
 21
-5.443427073694692
 31
0.0
  0
LINE
  5
F9
330
1F
100
AcDbEntity
  8
0
  6
Continuous
 62
     7
100
AcDbLine
 10
34.88674926757813
 20
-14.0
 30
0.0
 11
29.11325073242188
 21
-14.0
 31
0.0
  0
LINE
  5
FA
330
1F
100
AcDbEntity
  8
0
  6
Continuous
 62
     7
100
AcDbLine
 10
34.88674702355274
 20
-14.00001202621934
 30
0.0
 11
37.77349629113087
 21
-19.0000083366358
 31
0.0
  0
LINE
  5
FB
330
1F
100
AcDbEntity
  8
0
  6
Continuous
 62
     7
100
AcDbLine
 10
40.0
 20
9.0
 30
0.0
 11
40.0
 21
-3.42266845703125
 31
0.0
  0
LINE
  5
FC
330
1F
100
AcDbEntity
  8
0
  6
Continuous
 62
     2
100
AcDbLine
 10
32.0
 20
-10.0
 30
0.0
 11
32.0
 21
-28.0
 31
0.0
  0
LINE
  5
FD
330
1F
100
AcDbEntity
  8
0
  6
Continuous
 62
     7
100
AcDbLine
 10
29.11324526531257
 20
-14.00001181760308
 30
0.0
 11
26.22649599773445
 21
-19.00000812801955
 31
0.0
  0
LINE
  5
FE
330
1F
100
AcDbEntity
  8
0
  6
Continuous
 62
     7
100
AcDbLine
 10
34.88674926757813
 20
-24.0
 30
0.0
 11
29.11325073242188
 21
-24.0
 31
0.0
  0
LINE
  5
FF
330
1F
100
AcDbEntity
  8
0
  6
Continuous
 62
     7
100
AcDbLine
 10
40.0
 20
-34.57733154296875
 30
0.0
 11
40.0
 21
-47.0
 31
0.0
  0
LINE
  5
100
330
1F
100
AcDbEntity
  8
0
  6
Continuous
 62
     7
100
AcDbLine
 10
29.0
 20
-48.5
 30
0.0
 11
29.0
 21
-31.0
 31
0.0
  0
LINE
  5
101
330
1F
100
AcDbEntity
  8
0
  6
Continuous
 62
     7
100
AcDbLine
 10
35.5
 20
-28.0
 30
0.0
 11
32.0
 21
-28.0
 31
0.0
  0
LINE
  5
102
330
1F
100
AcDbEntity
  8
0
  6
Continuous
 62
     7
100
AcDbLine
 10
35.5
 20
-10.0
 30
0.0
 11
32.0
 21
-10.0
 31
0.0
  0
LINE
  5
103
330
1F
100
AcDbEntity
  8
0
  6
Continuous
 62
     7
100
AcDbLine
 10
0.3000030517578125
 20
-8.300010694470984
 30
0.0
 11
0.3000030517578125
 21
-29.69999086789721
 31
0.0
  0
LINE
  5
104
330
1F
100
AcDbEntity
  8
0
  6
Continuous
 62
     7
100
AcDbLine
 10
0.0000000000000004
 20
-29.99999391965502
 30
0.0
 11
0.3000030517578127
 21
-29.69999086789721
 31
0.0
  0
LINE
  5
105
330
1F
100
AcDbEntity
  8
0
  6
Continuous
 62
     7
100
AcDbLine
 10
0.0
 20
-8.000007642713171
 30
0.0
 11
0.3000030517578123
 21
-8.300010694470984
 31
0.0
  0
LINE
  5
106
330
1F
100
AcDbEntity
  8
0
  6
Continuous
 62
     7
100
AcDbLine
 10
0.0
 20
-29.99999391965502
 30
0.0
 11
0.0
 21
-49.5
 31
0.0
  0
CIRCLE
  5
107
330
1F
100
AcDbEntity
  8
0
  6
Continuous
 62
     7
100
AcDbCircle
 10
32.0
 20
-4.0
 30
0.0
 40
2.849999904632568
  0
CIRCLE
  5
108
330
1F
100
AcDbEntity
  8
0
  6
Continuous
 62
     7
100
AcDbCircle
 10
22.5
 20
-19.0
 30
0.0
 40
3.25
  0
CIRCLE
  5
109
330
1F
100
AcDbEntity
  8
0
  6
Continuous
 62
     7
100
AcDbCircle
 10
10.49998474121093
 20
-19.0
 30
0.0
 40
3.25
  0
CIRCLE
  5
10A
330
1F
100
AcDbEntity
  8
0
  6
Continuous
 62
     7
100
AcDbCircle
 10
16.5
 20
-28.69998168945313
 30
0.0
 40
4.0
  0
CIRCLE
  5
10B
330
1F
100
AcDbEntity
  8
0
  6
Continuous
 62
     7
100
AcDbCircle
 10
32.0
 20
-34.0
 30
0.0
 40
2.849999904632568
  0
ARC
  5
10C
330
1F
100
AcDbEntity
  8
0
  6
Continuous
 62
     7
100
AcDbCircle
 10
28.0
 20
10.5
 30
0.0
 40
1.0
100
AcDbArc
 50
359.9999956742889
 51
90.00000500895634
  0
ARC
  5
10D
330
1F
100
AcDbEntity
  8
0
  6
Continuous
 62
     7
100
AcDbCircle
 10
28.0
 20
-48.5
 30
0.0
 40
1.0
100
AcDbArc
 50
269.9999949910439
 51
359.9999956742889
  0
ARC
  5
10E
330
1F
100
AcDbEntity
  8
0
  6
Continuous
 62
     7
100
AcDbCircle
 10
36.0
 20
9.0
 30
0.0
 40
1.0
100
AcDbArc
 50
0.0000025044781673
 51
90.00000500895634
  0
ARC
  5
10F
330
1F
100
AcDbEntity
  8
0
  6
Continuous
 62
     7
100
AcDbCircle
 10
3.0
 20
-55.20001220703125
 30
0.0
 40
0.5
100
AcDbArc
 50
179.9999974955218
 51
270.0000086514222
  0
ARC
  5
110
330
1F
100
AcDbEntity
  8
0
  6
Continuous
 62
     7
100
AcDbCircle
 10
6.0
 20
-53.10000610351561
 30
0.0
 40
2.099999904632568
100
AcDbArc
 50
359.9999956742889
 51
180.0000006832453
  0
ARC
  5
111
330
1F
100
AcDbEntity
  8
0
  6
Continuous
 62
     7
100
AcDbCircle
 10
9.0
 20
-55.20001220703125
 30
0.0
 40
0.5
100
AcDbArc
 50
269.9999949910439
 51
0.0000025044781673
  0
ARC
  5
112
330
1F
100
AcDbEntity
  8
0
  6
Continuous
 62
     7
100
AcDbCircle
 10
32.0
 20
-31.0
 30
0.0
 40
3.0
100
AcDbArc
 50
89.99999134857798
 51
180.0000006832453
  0
ARC
  5
113
330
1F
100
AcDbEntity
  8
0
  6
Continuous
 62
     7
100
AcDbCircle
 10
36.0
 20
-47.0
 30
0.0
 40
1.0
100
AcDbArc
 50
270.0
 51
0.0000025044781673
  0
ARC
  5
114
330
1F
100
AcDbEntity
  8
0
  6
Continuous
 62
     7
100
AcDbCircle
 10
39.0
 20
-3.42266845703125
 30
0.0
 40
1.0
100
AcDbArc
 50
300.000000834826
 51
0.0000025044781673
  0
ARC
  5
115
330
1F
100
AcDbEntity
  8
0
  6
Continuous
 62
     7
100
AcDbCircle
 10
39.0
 20
-34.57733154296875
 30
0.0
 40
1.0
100
AcDbArc
 50
0.0000025044781673
 51
59.99999734394111
  0
ARC
  5
116
330
1F
100
AcDbEntity
  8
0
  6
Continuous
 62
     7
100
AcDbCircle
 10
38.0
 20
-31.69058227539063
 30
0.0
 40
1.0
100
AcDbArc
 50
179.9999974955218
 51
239.9999991651739
  0
CIRCLE
  5
117
330
1F
100
AcDbEntity
  8
0
  6
Continuous
 62
     7
100
AcDbCircle
 10
32.0
 20
-19.0
 30
0.0
 40
5.0
  0
CIRCLE
  5
118
330
1F
100
AcDbEntity
  8
0
  6
Continuous
 62
     7
100
AcDbCircle
 10
32.0
 20
-19.0
 30
0.0
 40
3.5
  0
CIRCLE
  5
119
330
1F
100
AcDbEntity
  8
0
  6
Continuous
 62
     2
100
AcDbCircle
 10
32.0
 20
-19.0
 30
0.0
 40
4.0
  0
ARC
  5
11A
330
1F
100
AcDbEntity
  8
0
  6
Continuous
 62
     7
100
AcDbCircle
 10
38.0
 20
-6.309417724609375
 30
0.0
 40
1.0
100
AcDbArc
 50
120.0000026560589
 51
179.9999974955218
  0
ARC
  5
11B
330
1F
100
AcDbEntity
  8
0
  6
Continuous
 62
     7
100
AcDbCircle
 10
39.0
 20
-47.0
 30
0.0
 40
1.0
100
AcDbArc
 50
270.0
 51
0.0000025044781673
  0
ARC
  5
11C
330
1F
100
AcDbEntity
  8
0
  6
Continuous
 62
     7
100
AcDbCircle
 10
39.0
 20
9.0
 30
0.0
 40
1.0
100
AcDbArc
 50
0.0000025044781673
 51
90.00000500895634
  0
ARC
  5
11D
330
1F
100
AcDbEntity
  8
0
  6
Continuous
 62
     7
100
AcDbCircle
 10
32.0
 20
-7.0
 30
0.0
 40
3.0
100
AcDbArc
 50
179.9999974955218
 51
270.0000000000001
  0
ARC
  5
11E
330
1F
100
AcDbEntity
  8
0
  6
Continuous
 62
     7
100
AcDbCircle
 10
35.5
 20
-25.0
 30
0.0
 40
3.0
100
AcDbArc
 50
270.0
 51
0.0000025044781673
  0
ARC
  5
11F
330
1F
100
AcDbEntity
  8
0
  6
Continuous
 62
     7
100
AcDbCircle
 10
35.5
 20
-13.0
 30
0.0
 40
3.0
100
AcDbArc
 50
0.0000025044781673
 51
90.00000500895634
  0
CIRCLE
  5
120
330
1F
100
AcDbEntity
  8
0
  6
Continuous
 62
     7
100
AcDbCircle
 10
16.5
 20
-28.69998168945313
 30
0.0
 40
5.5
  0
LINE
  5
121
330
1F
100
AcDbEntity
  8
0
  6
Continuous
 62
     7
100
AcDbLine
 10
9.5
 20
-48.5
 30
0.0
 11
2.5
 21
-48.5
 31
0.0
  0
LINE
  5
122
330
1F
100
AcDbEntity
  8
0
  6
Continuous
 62
     7
100
AcDbLine
 10
9.5
 20
-49.5
 30
0.0
 11
28.0
 21
-49.5
 31
0.0
  0
CIRCLE
  5
123
330
1F
100
AcDbEntity
  8
0
  6
Continuous
 62
     7
100
AcDbCircle
 10
5.349999997275176
 20
-53.20001268468479
 30
0.0
 40
0.5
  0
CIRCLE
  5
124
330
1F
100
AcDbEntity
  8
0
  6
Continuous
 62
     7
100
AcDbCircle
 10
5.349999997275176
 20
-53.20001268468479
 30
0.0
 40
0.29
  0
CIRCLE
  5
125
330
1F
100
AcDbEntity
  8
0
  6
Continuous
 62
     7
100
AcDbCircle
 10
6.0
 20
-53.20001268468479
 30
0.0
 40
1.300000000000011
  0
LINE
  5
126
330
1F
100
AcDbEntity
  8
0
  6
Continuous
 62
     7
100
AcDbLine
 10
7.5
 20
-55.70001220703125
 30
0.0
 11
4.5
 21
-55.70001220703125
 31
0.0
  0
LINE
  5
127
330
1F
100
AcDbEntity
  8
0
  6
Continuous
 62
     7
100
AcDbLine
 10
7.25
 20
-55.93741160885373
 30
0.0
 11
4.75
 21
-55.93741160885373
 31
0.0
  0
LINE
  5
128
330
1F
100
AcDbEntity
  8
0
  6
Continuous
 62
     7
100
AcDbLine
 10
7.050000000000011
 20
-56.13741160885375
 30
0.0
 11
4.949999999999988
 21
-56.13741160885375
 31
0.0
  0
ARC
  5
129
330
1F
100
AcDbEntity
  8
0
  6
Continuous
 62
     7
100
AcDbCircle
 10
6.0
 20
-53.15001220703125
 30
0.0
 40
2.049999999999996
100
AcDbArc
 50
12.68038349181954
 51
167.3196165081805
  0
LINE
  5
12A
330
1F
100
AcDbEntity
  8
0
  6
Continuous
 62
     2
100
AcDbLine
 10
4.949999999999988
 20
-55.70001220703125
 30
0.0
 11
4.949999999999988
 21
-56.13741160885375
 31
0.0
  0
LINE
  5
12B
330
1F
100
AcDbEntity
  8
0
  6
Continuous
 62
     7
100
AcDbLine
 10
4.949999999999988
 20
-56.13741160885375
 30
0.0
 11
4.75
 21
-55.93741160885373
 31
0.0
  0
LINE
  5
12C
330
1F
100
AcDbEntity
  8
0
  6
Continuous
 62
     7
100
AcDbLine
 10
4.75
 20
-55.93741160885373
 30
0.0
 11
4.75
 21
-55.70001220703125
 31
0.0
  0
CIRCLE
  5
12D
330
1F
100
AcDbEntity
  8
0
  6
Continuous
 62
     7
100
AcDbCircle
 10
6.650000002724767
 20
-53.2000126846848
 30
0.0
 40
0.5
  0
LINE
  5
12E
330
1F
100
AcDbEntity
  8
0
  6
Continuous
 62
     7
100
AcDbLine
 10
8.0
 20
-54.65027262369792
 30
0.0
 11
7.5
 21
-55.15287679036458
 31
0.0
  0
LINE
  5
12F
330
1F
100
AcDbEntity
  8
0
  6
Continuous
 62
     2
100
AcDbLine
 10
7.050000000000011
 20
-55.70001220703125
 30
0.0
 11
7.050000000000011
 21
-56.13741160885375
 31
0.0
  0
LINE
  5
130
330
1F
100
AcDbEntity
  8
0
  6
Continuous
 62
     7
100
AcDbLine
 10
7.25
 20
-55.93741160885373
 30
0.0
 11
7.050000000000011
 21
-56.13741160885375
 31
0.0
  0
LINE
  5
131
330
1F
100
AcDbEntity
  8
0
  6
Continuous
 62
     7
100
AcDbLine
 10
7.25
 20
-55.70001220703125
 30
0.0
 11
7.25
 21
-55.93741160885373
 31
0.0
  0
LINE
  5
132
330
1F
100
AcDbEntity
  8
0
  6
Continuous
 62
     7
100
AcDbLine
 10
7.5
 20
-55.15287679036458
 30
0.0
 11
7.5
 21
-55.70001220975601
 31
0.0
  0
CIRCLE
  5
133
330
1F
100
AcDbEntity
  8
0
  6
Continuous
 62
     7
100
AcDbCircle
 10
6.650000002724767
 20
-53.2000126846848
 30
0.0
 40
0.29
  0
LINE
  5
134
330
1F
100
AcDbEntity
  8
0
  6
Continuous
 62
     7
100
AcDbLine
 10
8.0
 20
-52.70001220703125
 30
0.0
 11
8.0
 21
-54.65027262369792
 31
0.0
  0
LINE
  5
135
330
1F
100
AcDbEntity
  8
0
  6
Continuous
 62
     7
100
AcDbLine
 10
4.0
 20
-52.70001220703125
 30
0.0
 11
4.0
 21
-54.65001220703125
 31
0.0
  0
LINE
  5
136
330
1F
100
AcDbEntity
  8
0
  6
Continuous
 62
     7
100
AcDbLine
 10
4.500000006130732
 20
-55.15001221316202
 30
0.0
 11
4.0
 21
-54.65001220703125
 31
0.0
  0
LINE
  5
137
330
1F
100
AcDbEntity
  8
0
  6
Continuous
 62
     7
100
AcDbLine
 10
4.5
 20
-55.15001220703125
 30
0.0
 11
4.5
 21
-55.70001220975601
 31
0.0
  0
LINE
  5
138
330
1F
100
AcDbEntity
  8
0
  6
Continuous
 62
     2
100
AcDbLine
 10
-3.0
 20
0.0
 30
0.0
 11
3.0
 21
0.0
 31
0.0
  0
LINE
  5
139
330
1F
100
AcDbEntity
  8
0
  6
Continuous
 62
     2
100
AcDbLine
 10
-3.0
 20
-38.0
 30
0.0
 11
3.0
 21
-38.0
 31
0.0
  0
LINE
  5
13A
330
1F
100
AcDbEntity
  8
0
  6
Continuous
 62
     2
100
AcDbLine
 10
37.0
 20
4.0
 30
0.0
 11
43.0
 21
4.0
 31
0.0
  0
LINE
  5
13B
330
1F
100
AcDbEntity
  8
0
  6
Continuous
 62
     2
100
AcDbLine
 10
37.0
 20
-42.0
 30
0.0
 11
43.0
 21
-42.0
 31
0.0
  0
ENDBLK
  5
13C
330
1F
100
AcDbEntity
  8
0
100
AcDbBlockEnd
  0
BLOCK
  5
13D
330
20
100
AcDbEntity
  8
0
100
AcDbBlockBegin
  2
MRVZS22-K2-3
 70
     0
 10
0.0
 20
0.0
 30
0.0
  3
MRVZS22-K2-3
  1

  0
LINE
  5
13E
330
20
100
AcDbEntity
  8
0
  6
Continuous
 62
     7
100
AcDbLine
 10
183.5
 20
3.75
 30
0.0
 11
184.5
 21
3.75
 31
0.0
  0
LINE
  5
13F
330
20
100
AcDbEntity
  8
0
  6
Continuous
 62
     7
100
AcDbLine
 10
15.79998779296875
 20
28.5
 30
0.0
 11
17.0
 21
28.5
 31
0.0
  0
LINE
  5
140
330
20
100
AcDbEntity
  8
0
  6
Continuous
 62
     7
100
AcDbLine
 10
15.79998779296875
 20
35.5
 30
0.0
 11
17.0
 21
35.5
 31
0.0
  0
LINE
  5
141
330
20
100
AcDbEntity
  8
0
  6
Continuous
 62
     7
100
AcDbLine
 10
175.0
 20
35.5
 30
0.0
 11
176.1999969482422
 21
35.5
 31
0.0
  0
LINE
  5
142
330
20
100
AcDbEntity
  8
0
  6
Continuous
 62
     7
100
AcDbLine
 10
175.0
 20
28.5
 30
0.0
 11
176.1999969482422
 21
28.5
 31
0.0
  0
LINE
  5
143
330
20
100
AcDbEntity
  8
0
  6
Continuous
 62
     7
100
AcDbLine
 10
180.0
 20
28.0
 30
0.0
 11
176.6999969482422
 21
28.0
 31
0.0
  0
LINE
  5
144
330
20
100
AcDbEntity
  8
0
  6
Continuous
 62
     2
100
AcDbLine
 10
180.0
 20
28.5
 30
0.0
 11
176.1999969482422
 21
28.5
 31
0.0
  0
LINE
  5
145
330
20
100
AcDbEntity
  8
0
  6
Continuous
 62
     2
100
AcDbLine
 10
180.0
 20
35.5
 30
0.0
 11
176.1999969482422
 21
35.5
 31
0.0
  0
LINE
  5
146
330
20
100
AcDbEntity
  8
0
  6
Continuous
 62
     7
100
AcDbLine
 10
180.0
 20
36.0
 30
0.0
 11
176.6999969482422
 21
36.0
 31
0.0
  0
LINE
  5
147
330
20
100
AcDbEntity
  8
0
  6
Continuous
 62
     7
100
AcDbLine
 10
12.0
 20
28.0
 30
0.0
 11
15.29998779296875
 21
28.0
 31
0.0
  0
LINE
  5
148
330
20
100
AcDbEntity
  8
0
  6
Continuous
 62
     2
100
AcDbLine
 10
12.0
 20
28.5
 30
0.0
 11
15.79998779296875
 21
28.5
 31
0.0
  0
LINE
  5
149
330
20
100
AcDbEntity
  8
0
  6
Continuous
 62
     2
100
AcDbLine
 10
12.0
 20
35.5
 30
0.0
 11
15.79998779296875
 21
35.5
 31
0.0
  0
LINE
  5
14A
330
20
100
AcDbEntity
  8
0
  6
Continuous
 62
     7
100
AcDbLine
 10
12.0
 20
36.0
 30
0.0
 11
15.29998779296875
 21
36.0
 31
0.0
  0
LINE
  5
14B
330
20
100
AcDbEntity
  8
0
  6
Continuous
 62
     2
100
AcDbLine
 10
-9.0
 20
16.5
 30
0.0
 11
201.0
 21
16.5
 31
0.0
  0
LINE
  5
14C
330
20
100
AcDbEntity
  8
0
  6
Continuous
 62
     7
100
AcDbLine
 10
75.0
 20
25.29998779296875
 30
0.0
 11
180.0
 21
25.29998779296875
 31
0.0
  0
LINE
  5
14D
330
20
100
AcDbEntity
  8
0
  6
Continuous
 62
     2
100
AcDbLine
 10
186.5
 20
21.53999328613281
 30
0.0
 11
186.5
 21
11.46000671386719
 31
0.0
  0
LINE
  5
14E
330
20
100
AcDbEntity
  8
0
  6
Continuous
 62
     7
100
AcDbLine
 10
198.0
 20
0.0
 30
0.0
 11
180.0
 21
0.0
 31
0.0
  0
LINE
  5
14F
330
20
100
AcDbEntity
  8
0
  6
Continuous
 62
     7
100
AcDbLine
 10
198.0
 20
29.0
 30
0.0
 11
180.0
 21
29.0
 31
0.0
  0
LINE
  5
150
330
20
100
AcDbEntity
  8
0
  6
Continuous
 62
     7
100
AcDbLine
 10
198.0
 20
38.5
 30
0.0
 11
198.0
 21
0.0
 31
0.0
  0
LINE
  5
151
330
20
100
AcDbEntity
  8
0
  6
Continuous
 62
     7
100
AcDbLine
 10
180.0
 20
38.5
 30
0.0
 11
180.0
 21
9.5
 31
0.0
  0
LINE
  5
152
330
20
100
AcDbEntity
  8
0
  6
Continuous
 62
     7
100
AcDbLine
 10
180.0
 20
38.5
 30
0.0
 11
198.0
 21
38.5
 31
0.0
  0
LINE
  5
153
330
20
100
AcDbEntity
  8
0
  6
Continuous
 62
     2
100
AcDbLine
 10
209.194076538086
 20
32.0
 30
0.0
 11
168.5125122070312
 21
32.0
 31
0.0
  0
LINE
  5
154
330
20
100
AcDbEntity
  8
0
  6
Continuous
 62
     2
100
AcDbLine
 10
207.0
 20
28.5
 30
0.0
 11
200.0
 21
28.5
 31
0.0
  0
LINE
  5
155
330
20
100
AcDbEntity
  8
0
  6
Continuous
 62
     2
100
AcDbLine
 10
207.0
 20
35.5
 30
0.0
 11
200.0
 21
35.5
 31
0.0
  0
LINE
  5
156
330
20
100
AcDbEntity
  8
0
  6
Continuous
 62
     7
100
AcDbLine
 10
206.5
 20
28.0
 30
0.0
 11
200.0
 21
28.0
 31
0.0
  0
LINE
  5
157
330
20
100
AcDbEntity
  8
0
  6
Continuous
 62
     7
100
AcDbLine
 10
206.5
 20
36.0
 30
0.0
 11
200.0
 21
36.0
 31
0.0
  0
LINE
  5
158
330
20
100
AcDbEntity
  8
0
  6
Continuous
 62
     7
100
AcDbLine
 10
200.0
 20
37.77349853515625
 30
0.0
 11
200.0
 21
26.22650146484375
 31
0.0
  0
LINE
  5
159
330
20
100
AcDbEntity
  8
0
  6
Continuous
 62
     7
100
AcDbLine
 10
207.0
 20
28.5
 30
0.0
 11
206.5
 21
28.00000000000001
 31
0.0
  0
LINE
  5
15A
330
20
100
AcDbEntity
  8
0
  6
Continuous
 62
     7
100
AcDbLine
 10
200.0
 20
37.77349853515625
 30
0.0
 11
198.0
 21
37.77349853515625
 31
0.0
  0
LINE
  5
15B
330
20
100
AcDbEntity
  8
0
  6
Continuous
 62
     7
100
AcDbLine
 10
207.0
 20
35.5
 30
0.0
 11
207.0
 21
28.5
 31
0.0
  0
LINE
  5
15C
330
20
100
AcDbEntity
  8
0
  6
Continuous
 62
     7
100
AcDbLine
 10
207.0
 20
35.49999999999999
 30
0.0
 11
206.5
 21
36.0
 31
0.0
  0
LINE
  5
15D
330
20
100
AcDbEntity
  8
0
  6
Continuous
 62
     7
100
AcDbLine
 10
206.5
 20
36.0
 30
0.0
 11
206.5
 21
28.0
 31
0.0
  0
LINE
  5
15E
330
20
100
AcDbEntity
  8
0
  6
Continuous
 62
     7
100
AcDbLine
 10
200.0
 20
26.22650146484375
 30
0.0
 11
198.0
 21
26.22650146484375
 31
0.0
  0
LINE
  5
15F
330
20
100
AcDbEntity
  8
0
  6
Continuous
 62
     7
100
AcDbLine
 10
200.0
 20
29.11325073242188
 30
0.0
 11
198.0
 21
29.11325073242188
 31
0.0
  0
LINE
  5
160
330
20
100
AcDbEntity
  8
0
  6
Continuous
 62
     7
100
AcDbLine
 10
200.0
 20
34.88674926757813
 30
0.0
 11
198.0
 21
34.88674926757813
 31
0.0
  0
LINE
  5
161
330
20
100
AcDbEntity
  8
0
  6
Continuous
 62
     7
100
AcDbLine
 10
176.1999969482422
 20
28.5
 30
0.0
 11
176.6999974790369
 21
27.99999946920525
 31
0.0
  0
LINE
  5
162
330
20
100
AcDbEntity
  8
0
  6
Continuous
 62
     7
100
AcDbLine
 10
176.6999969482422
 20
36.0
 30
0.0
 11
176.6999969482422
 21
28.0
 31
0.0
  0
LINE
  5
163
330
20
100
AcDbEntity
  8
0
  6
Continuous
 62
     7
100
AcDbLine
 10
176.1999969482422
 20
35.49999999999999
 30
0.0
 11
176.6999969482422
 21
36.0
 31
0.0
  0
LINE
  5
164
330
20
100
AcDbEntity
  8
0
  6
Continuous
 62
     7
100
AcDbLine
 10
176.1999969482422
 20
35.5
 30
0.0
 11
176.1999969482422
 21
28.5
 31
0.0
  0
LINE
  5
165
330
20
100
AcDbEntity
  8
0
  6
Continuous
 62
     7
100
AcDbLine
 10
175.0
 20
35.5
 30
0.0
 11
175.0
 21
28.5
 31
0.0
  0
LINE
  5
166
330
20
100
AcDbEntity
  8
0
  6
Continuous
 62
     7
100
AcDbLine
 10
175.0
 20
30.75
 30
0.0
 11
170.0
 21
30.75
 31
0.0
  0
LINE
  5
167
330
20
100
AcDbEntity
  8
0
  6
Continuous
 62
     7
100
AcDbLine
 10
175.0
 20
33.25
 30
0.0
 11
170.0
 21
33.25
 31
0.0
  0
LINE
  5
168
330
20
100
AcDbEntity
  8
0
  6
Continuous
 62
     7
100
AcDbLine
 10
170.0
 20
33.25
 30
0.0
 11
170.0
 21
30.75
 31
0.0
  0
LINE
  5
169
330
20
100
AcDbEntity
  8
0
  6
Continuous
 62
     7
100
AcDbLine
 10
17.0
 20
13.64999389648437
 30
0.0
 11
16.51885986328125
 21
13.64999389648437
 31
0.0
  0
LINE
  5
16A
330
20
100
AcDbEntity
  8
0
  6
Continuous
 62
     7
100
AcDbLine
 10
17.0
 20
19.35000610351562
 30
0.0
 11
16.51885986328125
 21
19.35000610351562
 31
0.0
  0
LINE
  5
16B
330
20
100
AcDbEntity
  8
0
  6
Continuous
 62
     7
100
AcDbLine
 10
15.35000610351562
 20
14.30000305175781
 30
0.0
 11
15.35000610351562
 21
18.69999694824219
 31
0.0
  0
LINE
  5
16C
330
20
100
AcDbEntity
  8
0
  6
Continuous
 62
     7
100
AcDbLine
 10
18.60000610351562
 20
40.0
 30
0.0
 11
73.39999389648437
 21
40.0
 31
0.0
  0
LINE
  5
16D
330
20
100
AcDbEntity
  8
0
  6
Continuous
 62
     2
100
AcDbLine
 10
46.0
 20
43.64732360839844
 30
0.0
 11
46.0
 21
-4.42364501953125
 31
0.0
  0
LINE
  5
16E
330
20
100
AcDbEntity
  8
0
  6
Continuous
 62
     7
100
AcDbLine
 10
18.60000610351562
 20
37.0
 30
0.0
 11
17.0
 21
37.0
 31
0.0
  0
LINE
  5
16F
330
20
100
AcDbEntity
  8
0
  6
Continuous
 62
     7
100
AcDbLine
 10
73.39999389648437
 20
37.0
 30
0.0
 11
75.0
 21
37.0
 31
0.0
  0
LINE
  5
170
330
20
100
AcDbEntity
  8
0
  6
Continuous
 62
     7
100
AcDbLine
 10
15.35000610351562
 20
29.80000305175781
 30
0.0
 11
15.35000610351562
 21
34.1999969482422
 31
0.0
  0
LINE
  5
171
330
20
100
AcDbEntity
  8
0
  6
Continuous
 62
     7
100
AcDbLine
 10
17.0
 20
2.0
 30
0.0
 11
75.0
 21
2.0
 31
0.0
  0
LINE
  5
172
330
20
100
AcDbEntity
  8
0
  6
Continuous
 62
     7
100
AcDbLine
 10
12.0
 20
25.29998779296875
 30
0.0
 11
17.0
 21
25.29998779296875
 31
0.0
  0
LINE
  5
173
330
20
100
AcDbEntity
  8
0
  6
Continuous
 62
     7
100
AcDbLine
 10
76.64999389648437
 20
29.80000305175781
 30
0.0
 11
76.64999389648437
 21
34.1999969482422
 31
0.0
  0
LINE
  5
174
330
20
100
AcDbEntity
  8
0
  6
Continuous
 62
     7
100
AcDbLine
 10
75.0
 20
29.14999389648437
 30
0.0
 11
75.48114013671875
 21
29.14999389648437
 31
0.0
  0
LINE
  5
175
330
20
100
AcDbEntity
  8
0
  6
Continuous
 62
     7
100
AcDbLine
 10
75.0
 20
34.85000610351562
 30
0.0
 11
75.48114013671875
 21
34.85000610351562
 31
0.0
  0
LINE
  5
176
330
20
100
AcDbEntity
  8
0
  6
Continuous
 62
     7
100
AcDbLine
 10
17.0
 20
29.14999389648437
 30
0.0
 11
16.51885986328125
 21
29.14999389648437
 31
0.0
  0
LINE
  5
177
330
20
100
AcDbEntity
  8
0
  6
Continuous
 62
     2
100
AcDbLine
 10
5.5
 20
21.53999328613281
 30
0.0
 11
5.5
 21
11.46000671386719
 31
0.0
  0
LINE
  5
178
330
20
100
AcDbEntity
  8
0
  6
Continuous
 62
     7
100
AcDbLine
 10
-6.0
 20
0.0
 30
0.0
 11
12.0
 21
0.0
 31
0.0
  0
LINE
  5
179
330
20
100
AcDbEntity
  8
0
  6
Continuous
 62
     7
100
AcDbLine
 10
-6.0
 20
29.0
 30
0.0
 11
12.0
 21
29.0
 31
0.0
  0
LINE
  5
17A
330
20
100
AcDbEntity
  8
0
  6
Continuous
 62
     7
100
AcDbLine
 10
-6.0
 20
38.5
 30
0.0
 11
-6.0
 21
0.0
 31
0.0
  0
LINE
  5
17B
330
20
100
AcDbEntity
  8
0
  6
Continuous
 62
     7
100
AcDbLine
 10
12.0
 20
38.5
 30
0.0
 11
12.0
 21
9.5
 31
0.0
  0
LINE
  5
17C
330
20
100
AcDbEntity
  8
0
  6
Continuous
 62
     7
100
AcDbLine
 10
75.0
 20
13.64999389648437
 30
0.0
 11
75.48114013671875
 21
13.64999389648437
 31
0.0
  0
LINE
  5
17D
330
20
100
AcDbEntity
  8
0
  6
Continuous
 62
     7
100
AcDbLine
 10
75.0
 20
19.35000610351562
 30
0.0
 11
75.48114013671875
 21
19.35000610351562
 31
0.0
  0
LINE
  5
17E
330
20
100
AcDbEntity
  8
0
  6
Continuous
 62
     7
100
AcDbLine
 10
76.64999389648437
 20
14.30000305175781
 30
0.0
 11
76.64999389648437
 21
18.69999694824219
 31
0.0
  0
LINE
  5
17F
330
20
100
AcDbEntity
  8
0
  6
Continuous
 62
     7
100
AcDbLine
 10
-6.0
 20
38.5
 30
0.0
 11
12.0
 21
38.5
 31
0.0
  0
LINE
  5
180
330
20
100
AcDbEntity
  8
0
  6
Continuous
 62
     7
100
AcDbLine
 10
17.0
 20
14.09805297851562
 30
0.0
 11
75.0
 21
14.09805297851562
 31
0.0
  0
LINE
  5
181
330
20
100
AcDbEntity
  8
0
  6
Continuous
 62
     7
100
AcDbLine
 10
17.0
 20
34.85000610351562
 30
0.0
 11
16.51885986328125
 21
34.85000610351562
 31
0.0
  0
LINE
  5
182
330
20
100
AcDbEntity
  8
0
  6
Continuous
 62
     7
100
AcDbLine
 10
-8.0
 20
37.77349853515625
 30
0.0
 11
-6.0
 21
37.77349853515625
 31
0.0
  0
LINE
  5
183
330
20
100
AcDbEntity
  8
0
  6
Continuous
 62
     7
100
AcDbLine
 10
-8.0
 20
37.77349853515625
 30
0.0
 11
-8.0
 21
26.22650146484375
 31
0.0
  0
LINE
  5
184
330
20
100
AcDbEntity
  8
0
  6
Continuous
 62
     7
100
AcDbLine
 10
15.79998779296875
 20
28.5
 30
0.0
 11
15.29998779296875
 21
28.0
 31
0.0
  0
LINE
  5
185
330
20
100
AcDbEntity
  8
0
  6
Continuous
 62
     7
100
AcDbLine
 10
-15.0
 20
28.5
 30
0.0
 11
-14.5
 21
28.00000000000001
 31
0.0
  0
LINE
  5
186
330
20
100
AcDbEntity
  8
0
  6
Continuous
 62
     7
100
AcDbLine
 10
15.29998779296875
 20
36.0
 30
0.0
 11
15.29998779296875
 21
28.0
 31
0.0
  0
LINE
  5
187
330
20
100
AcDbEntity
  8
0
  6
Continuous
 62
     7
100
AcDbLine
 10
-14.5
 20
36.0
 30
0.0
 11
-8.0
 21
36.0
 31
0.0
  0
LINE
  5
188
330
20
100
AcDbEntity
  8
0
  6
Continuous
 62
     7
100
AcDbLine
 10
-14.5
 20
28.0
 30
0.0
 11
-8.0
 21
28.0
 31
0.0
  0
LINE
  5
189
330
20
100
AcDbEntity
  8
0
  6
Continuous
 62
     2
100
AcDbLine
 10
-15.0
 20
35.5
 30
0.0
 11
-8.0
 21
35.5
 31
0.0
  0
LINE
  5
18A
330
20
100
AcDbEntity
  8
0
  6
Continuous
 62
     2
100
AcDbLine
 10
-15.0
 20
28.5
 30
0.0
 11
-8.0
 21
28.5
 31
0.0
  0
LINE
  5
18B
330
20
100
AcDbEntity
  8
0
  6
Continuous
 62
     7
100
AcDbLine
 10
15.79998779296875
 20
35.5
 30
0.0
 11
15.29998779296875
 21
36.0
 31
0.0
  0
LINE
  5
18C
330
20
100
AcDbEntity
  8
0
  6
Continuous
 62
     2
100
AcDbLine
 10
-17.194091796875
 20
32.0
 30
0.0
 11
22.0806884765625
 21
32.0
 31
0.0
  0
LINE
  5
18D
330
20
100
AcDbEntity
  8
0
  6
Continuous
 62
     7
100
AcDbLine
 10
-15.0
 20
35.5
 30
0.0
 11
-15.0
 21
28.5
 31
0.0
  0
LINE
  5
18E
330
20
100
AcDbEntity
  8
0
  6
Continuous
 62
     7
100
AcDbLine
 10
-15.0
 20
35.5
 30
0.0
 11
-14.5
 21
36.0
 31
0.0
  0
LINE
  5
18F
330
20
100
AcDbEntity
  8
0
  6
Continuous
 62
     7
100
AcDbLine
 10
-14.5
 20
36.0
 30
0.0
 11
-14.5
 21
28.0
 31
0.0
  0
LINE
  5
190
330
20
100
AcDbEntity
  8
0
  6
Continuous
 62
     7
100
AcDbLine
 10
15.79998779296875
 20
35.5
 30
0.0
 11
15.79998779296875
 21
34.552001953125
 31
0.0
  0
LINE
  5
191
330
20
100
AcDbEntity
  8
0
  6
Continuous
 62
     7
100
AcDbLine
 10
-8.0
 20
26.22650146484375
 30
0.0
 11
-6.0
 21
26.22650146484375
 31
0.0
  0
LINE
  5
192
330
20
100
AcDbEntity
  8
0
  6
Continuous
 62
     7
100
AcDbLine
 10
-8.0
 20
29.11325073242188
 30
0.0
 11
-6.0
 21
29.11325073242188
 31
0.0
  0
LINE
  5
193
330
20
100
AcDbEntity
  8
0
  6
Continuous
 62
     7
100
AcDbLine
 10
-8.0
 20
34.88674926757813
 30
0.0
 11
-6.0
 21
34.88674926757813
 31
0.0
  0
LINE
  5
194
330
20
100
AcDbEntity
  8
0
  6
Continuous
 62
     7
100
AcDbLine
 10
15.79998779296875
 20
29.447998046875
 30
0.0
 11
15.79998779296875
 21
28.5
 31
0.0
  0
LINE
  5
195
330
20
100
AcDbEntity
  8
0
  6
Continuous
 62
     7
100
AcDbLine
 10
19.5
 20
13.74996948242187
 30
0.0
 11
72.5
 21
13.74996948242187
 31
0.0
  0
LINE
  5
196
330
20
100
AcDbEntity
  8
0
  6
Continuous
 62
     7
100
AcDbLine
 10
20.13035583496094
 20
11.21129608154296
 30
0.0
 11
71.73164367675781
 21
11.21129608154296
 31
0.0
  0
LINE
  5
197
330
20
100
AcDbEntity
  8
0
  6
Continuous
 62
     7
100
AcDbLine
 10
17.0
 20
11.49998474121094
 30
0.0
 11
19.5
 21
11.49998474121094
 31
0.0
  0
LINE
  5
198
330
20
100
AcDbEntity
  8
0
  6
Continuous
 62
     7
100
AcDbLine
 10
31.5
 20
10.25
 30
0.0
 11
60.5
 21
10.25
 31
0.0
  0
LINE
  5
199
330
20
100
AcDbEntity
  8
0
  6
Continuous
 62
     7
100
AcDbLine
 10
-6.0
 20
9.5
 30
0.0
 11
198.0
 21
9.5
 31
0.0
  0
LINE
  5
19A
330
20
100
AcDbEntity
  8
0
  6
Continuous
 62
     7
100
AcDbLine
 10
-1.0
 20
4.399993896484375
 30
0.0
 11
6.418075561523437
 21
4.399993896484375
 31
0.0
  0
LINE
  5
19B
330
20
100
AcDbEntity
  8
0
  6
Continuous
 62
     7
100
AcDbLine
 10
8.883906651870802
 20
5.116109763963777
 30
0.0
 11
7.116139729158476
 21
6.883876686676104
 31
0.0
  0
LINE
  5
19C
330
20
100
AcDbEntity
  8
0
  6
Continuous
 62
     7
100
AcDbLine
 10
-1.0
 20
7.600006103515625
 30
0.0
 11
6.418075561523437
 21
7.600006103515625
 31
0.0
  0
LINE
  5
19D
330
20
100
AcDbEntity
  8
0
  6
Continuous
 62
     7
100
AcDbLine
 10
17.0
 20
2.5
 30
0.0
 11
17.0
 21
2.0
 31
0.0
  0
LINE
  5
19E
330
20
100
AcDbEntity
  8
0
  6
Continuous
 62
     7
100
AcDbLine
 10
184.8838754100464
 20
5.116127297052457
 30
0.0
 11
183.1161192769272
 21
6.883883430171749
 31
0.0
  0
LINE
  5
19F
330
20
100
AcDbEntity
  8
0
  6
Continuous
 62
     7
100
AcDbLine
 10
193.0
 20
9.5
 30
0.0
 11
193.0
 21
2.5
 31
0.0
  0
LINE
  5
1A0
330
20
100
AcDbEntity
  8
0
  6
Continuous
 62
     7
100
AcDbLine
 10
-6.0
 20
2.5
 30
0.0
 11
198.0
 21
2.5
 31
0.0
  0
LINE
  5
1A1
330
20
100
AcDbEntity
  8
0
  6
Continuous
 62
     7
100
AcDbLine
 10
17.0
 20
37.0
 30
0.0
 11
17.0
 21
9.5
 31
0.0
  0
LINE
  5
1A2
330
20
100
AcDbEntity
  8
0
  6
Continuous
 62
     7
100
AcDbLine
 10
75.0
 20
37.0
 30
0.0
 11
75.0
 21
9.5
 31
0.0
  0
LINE
  5
1A3
330
20
100
AcDbEntity
  8
0
  6
Continuous
 62
     7
100
AcDbLine
 10
73.39999389648437
 20
40.0
 30
0.0
 11
73.39999389648437
 21
9.5
 31
0.0
  0
LINE
  5
1A4
330
20
100
AcDbEntity
  8
0
  6
Continuous
 62
     7
100
AcDbLine
 10
18.60000610351562
 20
40.0
 30
0.0
 11
18.60000610351562
 21
9.5
 31
0.0
  0
LINE
  5
1A5
330
20
100
AcDbEntity
  8
0
  6
Continuous
 62
     7
100
AcDbLine
 10
19.5
 20
13.31695556640625
 30
0.0
 11
72.5
 21
13.31695556640625
 31
0.0
  0
LINE
  5
1A6
330
20
100
AcDbEntity
  8
0
  6
Continuous
 62
     7
100
AcDbLine
 10
72.5
 20
9.5
 30
0.0
 11
72.5
 21
13.74996948242187
 31
0.0
  0
LINE
  5
1A7
330
20
100
AcDbEntity
  8
0
  6
Continuous
 62
     7
100
AcDbLine
 10
19.5
 20
9.5
 30
0.0
 11
19.5
 21
13.74996948242187
 31
0.0
  0
LINE
  5
1A8
330
20
100
AcDbEntity
  8
0
  6
Continuous
 62
     7
100
AcDbLine
 10
72.5
 20
11.49998474121094
 30
0.0
 11
75.0
 21
11.49998474121094
 31
0.0
  0
LINE
  5
1A9
330
20
100
AcDbEntity
  8
0
  6
Continuous
 62
     7
100
AcDbLine
 10
60.5
 20
10.25
 30
0.0
 11
60.5
 21
9.5
 31
0.0
  0
LINE
  5
1AA
330
20
100
AcDbEntity
  8
0
  6
Continuous
 62
     7
100
AcDbLine
 10
31.5
 20
10.25
 30
0.0
 11
31.5
 21
9.5
 31
0.0
  0
LINE
  5
1AB
330
20
100
AcDbEntity
  8
0
  6
Continuous
 62
     7
100
AcDbLine
 10
-1.0
 20
9.5
 30
0.0
 11
-1.0
 21
2.5
 31
0.0
  0
LINE
  5
1AC
330
20
100
AcDbEntity
  8
0
  6
Continuous
 62
     7
100
AcDbLine
 10
7.116139729158476
 20
5.116109763963777
 30
0.0
 11
8.883906651870802
 21
6.883876686676104
 31
0.0
  0
LINE
  5
1AD
330
20
100
AcDbEntity
  8
0
  6
Continuous
 62
     7
100
AcDbLine
 10
9.58192443847656
 20
4.399993896484375
 30
0.0
 11
181.9180755615234
 21
4.399993896484375
 31
0.0
  0
LINE
  5
1AE
330
20
100
AcDbEntity
  8
0
  6
Continuous
 62
     7
100
AcDbLine
 10
18.60000610351562
 20
2.5
 30
0.0
 11
18.60000610351562
 21
2.0
 31
0.0
  0
LINE
  5
1AF
330
20
100
AcDbEntity
  8
0
  6
Continuous
 62
     7
100
AcDbLine
 10
193.0
 20
7.600006103515625
 30
0.0
 11
186.0819244384765
 21
7.600006103515625
 31
0.0
  0
LINE
  5
1B0
330
20
100
AcDbEntity
  8
0
  6
Continuous
 62
     7
100
AcDbLine
 10
184.5
 20
8.25
 30
0.0
 11
183.5
 21
8.25
 31
0.0
  0
LINE
  5
1B1
330
20
100
AcDbEntity
  8
0
  6
Continuous
 62
     7
100
AcDbLine
 10
193.0
 20
4.399993896484375
 30
0.0
 11
186.0819244384765
 21
4.399993896484375
 31
0.0
  0
LINE
  5
1B2
330
20
100
AcDbEntity
  8
0
  6
Continuous
 62
     7
100
AcDbLine
 10
183.1161192769272
 20
5.116116507459423
 30
0.0
 11
184.8838861996395
 21
6.883883430171749
 31
0.0
  0
LINE
  5
1B3
330
20
100
AcDbEntity
  8
0
  6
Continuous
 62
     7
100
AcDbLine
 10
9.58192443847656
 20
7.600006103515625
 30
0.0
 11
181.9180755615234
 21
7.600006103515625
 31
0.0
  0
LINE
  5
1B4
330
20
100
AcDbEntity
  8
0
  6
Continuous
 62
     7
100
AcDbLine
 10
73.39999389648437
 20
2.5
 30
0.0
 11
73.39999389648437
 21
2.0
 31
0.0
  0
LINE
  5
1B5
330
20
100
AcDbEntity
  8
0
  6
Continuous
 62
     7
100
AcDbLine
 10
75.0
 20
2.5
 30
0.0
 11
75.0
 21
2.0
 31
0.0
  0
LINE
  5
1B6
330
20
100
AcDbEntity
  8
0
  6
Continuous
 62
     7
100
AcDbLine
 10
180.0
 20
2.5
 30
0.0
 11
180.0
 21
0.0
 31
0.0
  0
LINE
  5
1B7
330
20
100
AcDbEntity
  8
0
  6
Continuous
 62
     7
100
AcDbLine
 10
12.0
 20
2.5
 30
0.0
 11
12.0
 21
0.0
 31
0.0
  0
CIRCLE
  5
1B8
330
20
100
AcDbEntity
  8
0
  6
Continuous
 62
     7
100
AcDbCircle
 10
186.5
 20
16.5
 30
0.0
 40
2.0
  0
CIRCLE
  5
1B9
330
20
100
AcDbEntity
  8
0
  6
Continuous
 62
     2
100
AcDbCircle
 10
186.5
 20
16.5
 30
0.0
 40
2.5
  0
ARC
  5
1BA
330
20
100
AcDbEntity
  8
0
  6
Continuous
 62
     7
100
AcDbCircle
 10
17.10516357421875
 20
16.91972351074219
 30
0.0
 40
2.5
100
AcDbArc
 50
103.5636653658563
 51
134.5931532935217
  0
ARC
  5
1BB
330
20
100
AcDbEntity
  8
0
  6
Continuous
 62
     7
100
AcDbCircle
 10
17.10516357421875
 20
16.08027648925781
 30
0.0
 40
2.5
100
AcDbArc
 50
225.4068467064783
 51
256.4363346341437
  0
ARC
  5
1BC
330
20
100
AcDbEntity
  8
0
  6
Continuous
 62
     7
100
AcDbCircle
 10
74.89483642578125
 20
16.91972351074219
 30
0.0
 40
2.5
100
AcDbArc
 50
45.40684488524547
 51
76.43633964310002
  0
ARC
  5
1BD
330
20
100
AcDbEntity
  8
0
  6
Continuous
 62
     7
100
AcDbCircle
 10
17.10516357421875
 20
32.41972351074219
 30
0.0
 40
2.5
100
AcDbArc
 50
103.5636585356671
 51
134.5931532935217
  0
ARC
  5
1BE
330
20
100
AcDbEntity
  8
0
  6
Continuous
 62
     7
100
AcDbCircle
 10
74.89483642578125
 20
32.41972351074219
 30
0.0
 40
2.5
100
AcDbArc
 50
45.40684488524547
 51
76.43633964310002
  0
ARC
  5
1BF
330
20
100
AcDbEntity
  8
0
  6
Continuous
 62
     7
100
AcDbCircle
 10
74.89483642578125
 20
31.58027648925781
 30
0.0
 40
2.5
100
AcDbArc
 50
283.5636603569
 51
314.5931551147545
  0
ARC
  5
1C0
330
20
100
AcDbEntity
  8
0
  6
Continuous
 62
     7
100
AcDbCircle
 10
17.10516357421875
 20
31.58027648925781
 30
0.0
 40
2.5
100
AcDbArc
 50
225.4068467064783
 51
256.4363414643329
  0
CIRCLE
  5
1C1
330
20
100
AcDbEntity
  8
0
  6
Continuous
 62
     7
100
AcDbCircle
 10
5.5
 20
16.5
 30
0.0
 40
2.0
  0
CIRCLE
  5
1C2
330
20
100
AcDbEntity
  8
0
  6
Continuous
 62
     2
100
AcDbCircle
 10
5.5
 20
16.5
 30
0.0
 40
2.5
  0
ARC
  5
1C3
330
20
100
AcDbEntity
  8
0
  6
Continuous
 62
     7
100
AcDbCircle
 10
74.89483642578125
 20
16.08027648925781
 30
0.0
 40
2.5
100
AcDbArc
 50
283.5636603569
 51
314.5931551147545
  0
CIRCLE
  5
1C4
330
20
100
AcDbEntity
  8
0
  6
Continuous
 62
     7
100
AcDbCircle
 10
184.0
 20
6.0
 30
0.0
 40
1.75
  0
CIRCLE
  5
1C5
330
20
100
AcDbEntity
  8
0
  6
Continuous
 62
     7
100
AcDbCircle
 10
8.0
 20
6.0
 30
0.0
 40
1.75
  0
CIRCLE
  5
1C6
330
20
100
AcDbEntity
  8
0
  6
Continuous
 62
     7
100
AcDbCircle
 10
8.0
 20
6.0
 30
0.0
 40
2.25
  0
ARC
  5
1C7
330
20
100
AcDbEntity
  8
0
  6
Continuous
 62
     7
100
AcDbCircle
 10
184.5
 20
6.0
 30
0.0
 40
2.25
100
AcDbArc
 50
269.9999974955218
 51
90.00000250447817
  0
ARC
  5
1C8
330
20
100
AcDbEntity
  8
0
  6
Continuous
 62
     7
100
AcDbCircle
 10
183.5
 20
6.0
 30
0.0
 40
2.25
100
AcDbArc
 50
90.00000250447817
 51
270.0000006832453
  0
LINE
  5
1C9
330
20
100
AcDbEntity
  8
0
  6
Continuous
 62
     2
100
AcDbLine
 10
50.0
 20
8.94285714285715
 30
0.0
 11
50.0
 21
2.700015326576532
 31
0.0
  0
LINE
  5
1CB
330
20
100
AcDbEntity
  8
0
  6
CENTER
 62
     2
100
AcDbLine
 10
53.41040175778528
 20
6.0
 30
0.0
 11
30.4971131639723
 21
6.0
 31
0.0
  0
LINE
  5
1CC
330
20
100
AcDbEntity
  8
0
  6
Continuous
 62
     7
100
AcDbLine
 10
50.68924868583679
 20
4.957197927747444
 30
0.0
 11
48.95719789232527
 21
6.689248721258991
 31
0.0
  0
LINE
  5
1CD
330
20
100
AcDbEntity
  8
0
  6
Continuous
 62
     7
100
AcDbLine
 10
51.04280210609307
 20
5.310751302120991
 30
0.0
 11
49.31075130212099
 21
7.042802106093034
 31
0.0
  0
CIRCLE
  5
1CE
330
20
100
AcDbEntity
  8
0
  6
Continuous
 62
     2
100
AcDbCircle
 10
50.0
 20
6.0
 30
0.0
 40
1.05
  0
CIRCLE
  5
1CF
330
20
100
AcDbEntity
  8
0
  6
Continuous
 62
     7
100
AcDbCircle
 10
50.0
 20
6.0
 30
0.0
 40
1.25
  0
CIRCLE
  5
1D0
330
20
100
AcDbEntity
  8
0
  6
Continuous
 62
     7
100
AcDbCircle
 10
50.0
 20
6.0
 30
0.0
 40
1.399999999999999
  0
LINE
  5
1D1
330
20
100
AcDbEntity
  8
0
  6
Continuous
 62
     7
100
AcDbLine
 10
52.00000000476837
 20
4.5
 30
0.0
 11
36.5
 21
4.5
 31
0.0
  0
LINE
  5
1D2
330
20
100
AcDbEntity
  8
0
  6
Continuous
 62
     7
100
AcDbLine
 10
52.00000000476837
 20
7.5
 30
0.0
 11
36.5
 21
7.5
 31
0.0
  0
LINE
  5
1D3
330
20
100
AcDbEntity
  8
0
  6
Continuous
 62
     7
100
AcDbLine
 10
36.5
 20
4.399993896484375
 30
0.0
 11
36.5
 21
7.600006103515625
 31
0.0
  0
LINE
  5
1D4
330
20
100
AcDbEntity
  8
0
  6
Continuous
 62
     7
100
AcDbLine
 10
52.00000000476837
 20
4.399993896484375
 30
0.0
 11
52.00000000476837
 21
7.600006103515625
 31
0.0
  0
LINE
  5
1D5
330
20
100
AcDbEntity
  8
0
  6
Continuous
 62
     7
100
AcDbLine
 10
41.60000000000001
 20
4.5
 30
0.0
 11
41.60000000000001
 21
7.5
 31
0.0
  0
LINE
  5
1D6
330
20
100
AcDbEntity
  8
0
  6
Continuous
 62
     7
100
AcDbLine
 10
48.10000000000002
 20
4.5
 30
0.0
 11
48.10000000000002
 21
7.5
 31
0.0
  0
LINE
  5
1D7
330
20
100
AcDbEntity
  8
0
  6
Continuous
 62
     7
100
AcDbLine
 10
36.5
 20
7.300000000000011
 30
0.0
 11
34.24769053117785
 21
7.300000000000011
 31
0.0
  0
LINE
  5
1D8
330
20
100
AcDbEntity
  8
0
  6
Continuous
 62
     7
100
AcDbLine
 10
36.5
 20
4.700000000000002
 30
0.0
 11
32.74653579676675
 21
4.700000000000002
 31
0.0
  0
LINE
  5
1D9
330
20
100
AcDbEntity
  8
0
  6
Continuous
 62
     2
100
AcDbLine
 10
34.24769053117785
 20
7.300000000000011
 30
0.0
 11
32.74653579676675
 21
4.700000000000002
 31
0.0
  0
LINE
  5
1DA
330
20
100
AcDbEntity
  8
0
  6
Continuous
 62
     2
100
AcDbLine
 10
149.9999999952316
 20
8.94285714285715
 30
0.0
 11
149.9999999952316
 21
2.700015326576532
 31
0.0
  0
LINE
  5
1DB
330
20
100
AcDbEntity
  8
0
  6
CENTER
 62
     2
100
AcDbLine
 10
153.4104017530169
 20
6.0
 30
0.0
 11
130.4971131592039
 21
6.0
 31
0.0
  0
LINE
  5
1DC
330
20
100
AcDbEntity
  8
0
  6
Continuous
 62
     7
100
AcDbLine
 10
150.6892486810684
 20
4.957197927747444
 30
0.0
 11
148.9571978875569
 21
6.689248721258991
 31
0.0
  0
LINE
  5
1DD
330
20
100
AcDbEntity
  8
0
  6
Continuous
 62
     7
100
AcDbLine
 10
151.0428021013247
 20
5.310751302120991
 30
0.0
 11
149.3107512973526
 21
7.042802106093034
 31
0.0
  0
CIRCLE
  5
1DE
330
20
100
AcDbEntity
  8
0
  6
Continuous
 62
     2
100
AcDbCircle
 10
149.9999999952316
 20
6.0
 30
0.0
 40
1.05
  0
CIRCLE
  5
1DF
330
20
100
AcDbEntity
  8
0
  6
Continuous
 62
     7
100
AcDbCircle
 10
149.9999999952316
 20
6.0
 30
0.0
 40
1.25
  0
CIRCLE
  5
1E0
330
20
100
AcDbEntity
  8
0
  6
Continuous
 62
     7
100
AcDbCircle
 10
149.9999999952316
 20
6.0
 30
0.0
 40
1.399999999999999
  0
LINE
  5
1E1
330
20
100
AcDbEntity
  8
0
  6
Continuous
 62
     7
100
AcDbLine
 10
152.0
 20
7.5
 30
0.0
 11
136.4999999952316
 21
7.5
 31
0.0
  0
LINE
  5
1E2
330
20
100
AcDbEntity
  8
0
  6
Continuous
 62
     7
100
AcDbLine
 10
152.0
 20
4.399993896484375
 30
0.0
 11
152.0
 21
7.600006103515625
 31
0.0
  0
LINE
  5
1E3
330
20
100
AcDbEntity
  8
0
  6
Continuous
 62
     7
100
AcDbLine
 10
141.5999999952316
 20
4.5
 30
0.0
 11
141.5999999952316
 21
7.5
 31
0.0
  0
LINE
  5
1E4
330
20
100
AcDbEntity
  8
0
  6
Continuous
 62
     7
100
AcDbLine
 10
148.0999999952316
 20
4.5
 30
0.0
 11
148.0999999952316
 21
7.5
 31
0.0
  0
LINE
  5
1E5
330
20
100
AcDbEntity
  8
0
  6
Continuous
 62
     2
100
AcDbLine
 10
134.2476905264095
 20
7.300000000000011
 30
0.0
 11
132.7465357919983
 21
4.700000000000002
 31
0.0
  0
LINE
  5
1E6
330
20
100
AcDbEntity
  8
0
  6
Continuous
 62
     7
100
AcDbLine
 10
136.4999999952316
 20
4.700000000000002
 30
0.0
 11
132.7465357919983
 21
4.700000000000002
 31
0.0
  0
LINE
  5
1E7
330
20
100
AcDbEntity
  8
0
  6
Continuous
 62
     7
100
AcDbLine
 10
136.4999999952316
 20
7.300000000000011
 30
0.0
 11
134.2476905264095
 21
7.300000000000011
 31
0.0
  0
LINE
  5
1E8
330
20
100
AcDbEntity
  8
0
  6
Continuous
 62
     7
100
AcDbLine
 10
136.4999999952316
 20
4.399993896484375
 30
0.0
 11
136.4999999952316
 21
7.600006103515625
 31
0.0
  0
LINE
  5
1E9
330
20
100
AcDbEntity
  8
0
  6
Continuous
 62
     7
100
AcDbLine
 10
152.0
 20
4.5
 30
0.0
 11
136.4999999952316
 21
4.5
 31
0.0
  0
LINE
  5
1EA
330
20
100
AcDbEntity
  8
0
  6
Continuous
 62
     2
100
AcDbLine
 10
0.0
 20
-3.0
 30
0.0
 11
0.0
 21
3.0
 31
0.0
  0
LINE
  5
1EB
330
20
100
AcDbEntity
  8
0
  6
Continuous
 62
     2
100
AcDbLine
 10
192.0
 20
-3.0
 30
0.0
 11
192.0
 21
3.0
 31
0.0
  0
LINE
  5
1EC
330
20
100
AcDbEntity
  8
0
  6
Continuous
 62
     2
100
AcDbLine
 10
26.0
 20
37.0
 30
0.0
 11
26.0
 21
43.0
 31
0.0
  0
LINE
  5
1ED
330
20
100
AcDbEntity
  8
0
  6
Continuous
 62
     2
100
AcDbLine
 10
66.0
 20
37.0
 30
0.0
 11
66.0
 21
43.0
 31
0.0
  0
LINE
  5
1EE
330
20
100
AcDbEntity
  8
0
  6
PHANTOM
 62
     3
100
AcDbLine
 10
114.0
 20
63.28167919799501
 30
0.0
 11
114.0
 21
-18.00000000000002
 31
0.0
  0
ENDBLK
  5
1EF
330
20
100
AcDbEntity
  8
0
100
AcDbBlockEnd
  0
ENDSEC
  0
SECTION
  2
ENTITIES
  0
LINE
  5
1F0
330
A
100
AcDbEntity
  8
0
  6
Continuous
 62
     7
100
AcDbLine
 10
-130.0750732421875
 20
-140.0
 30
0.0
 11
130.9249267578124
 21
-140.0
 31
0.0
  0
LINE
  5
1F1
330
A
100
AcDbEntity
  8
0
  6
Continuous
 62
     7
100
AcDbLine
 10
-130.0750732421875
 20
-132.0
 30
0.0
 11
130.9249267578124
 21
-132.0
 31
0.0
  0
LINE
  5
1F2
330
A
100
AcDbEntity
  8
0
  6
Continuous
 62
     7
100
AcDbLine
 10
-130.0750732421875
 20
-124.0
 30
0.0
 11
130.9249267578124
 21
-124.0
 31
0.0
  0
LINE
  5
1F3
330
A
100
AcDbEntity
  8
0
  6
Continuous
 62
     7
100
AcDbLine
 10
-130.0750732421875
 20
-124.0
 30
0.0
 11
-130.0750732421875
 21
-140.0
 31
0.0
  0
MTEXT
  5
1F4
330
A
100
AcDbEntity
  8
0
  6
Continuous
 62
     7
100
AcDbMText
 10
-124.8250732421875
 20
-128.0
 30
0.0
 40
4.5
 41
0.0
 71
     4
 72
     5
  1
\A1;STROKE
 73
     1
 44
1.0
1001
ACAD
1000
MTEXTBEGIN
1070
    73
1070
     1
1070
    44
1040
1.0
1070
    74
1070
     0
1000
MTEXTEND
  0
MTEXT
  5
1F5
330
A
100
AcDbEntity
  8
0
  6
Continuous
 62
     7
100
AcDbMText
 10
-127.0750732421875
 20
-136.0
 30
0.0
 40
4.5
 41
0.0
 71
     4
 72
     5
  1
\A1;STRETCH
 73
     1
 44
1.0
1001
ACAD
1000
MTEXTBEGIN
1070
    73
1070
     1
1070
    44
1040
1.0
1070
    74
1070
     0
1000
MTEXTEND
  0
MTEXT
  5
1F6
330
A
100
AcDbEntity
  8
0
  6
Continuous
 62
     7
100
AcDbMText
 10
-88.73132322961467
 20
-128.0
 30
0.0
 40
4.5
 41
0.0
 71
     4
 72
     5
  1
\W1.125;\A1;200
 73
     1
 44
1.0
1001
ACAD
1000
MTEXTBEGIN
1070
    73
1070
     1
1070
    44
1040
1.0
1070
    74
1070
     0
1000
MTEXTEND
  0
MTEXT
  5
1F7
330
A
100
AcDbEntity
  8
0
  6
Continuous
 62
     7
100
AcDbMText
 10
-88.61078751969099
 20
-136.0
 30
0.0
 40
4.5
 41
0.0
 71
     4
 72
     5
  1
\W1.286;\A1;100
 73
     1
 44
1.0
1001
ACAD
1000
MTEXTBEGIN
1070
    73
1070
     1
1070
    44
1040
1.0
1070
    74
1070
     0
1000
MTEXTEND
  0
MTEXT
  5
1F8
330
A
100
AcDbEntity
  8
0
  6
Continuous
 62
     7
100
AcDbMText
 10
-66.28095558956012
 20
-128.0
 30
0.0
 40
4.5
 41
0.0
 71
     4
 72
     5
  1
\W1.059;\A1;250
 73
     1
 44
1.0
1001
ACAD
1000
MTEXTBEGIN
1070
    73
1070
     1
1070
    44
1040
1.0
1070
    74
1070
     0
1000
MTEXTEND
  0
MTEXT
  5
1F9
330
A
100
AcDbEntity
  8
0
  6
Continuous
 62
     7
100
AcDbMText
 10
-66.17507324218753
 20
-136.0
 30
0.0
 40
4.5
 41
0.0
 71
     4
 72
     5
  1
\W1.200;\A1;150
 73
     1
 44
1.0
1001
ACAD
1000
MTEXTBEGIN
1070
    73
1070
     1
1070
    44
1040
1.0
1070
    74
1070
     0
1000
MTEXTEND
  0
MTEXT
  5
1FA
330
A
100
AcDbEntity
  8
0
  6
Continuous
 62
     7
100
AcDbMText
 10
-43.73132322961466
 20
-128.0
 30
0.0
 40
4.5
 41
0.0
 71
     4
 72
     5
  1
\W1.125;\A1;300
 73
     1
 44
1.0
1001
ACAD
1000
MTEXTBEGIN
1070
    73
1070
     1
1070
    44
1040
1.0
1070
    74
1070
     0
1000
MTEXTEND
  0
MTEXT
  5
1FB
330
A
100
AcDbEntity
  8
0
  6
Continuous
 62
     7
100
AcDbMText
 10
-43.73132322961466
 20
-136.0
 30
0.0
 40
4.5
 41
0.0
 71
     4
 72
     5
  1
\W1.125;\A1;200
 73
     1
 44
1.0
1001
ACAD
1000
MTEXTBEGIN
1070
    73
1070
     1
1070
    44
1040
1.0
1070
    74
1070
     0
1000
MTEXTEND
  0
MTEXT
  5
1FC
330
A
100
AcDbEntity
  8
0
  6
Continuous
 62
     7
100
AcDbMText
 10
-21.28095558956008
 20
-128.0
 30
0.0
 40
4.5
 41
0.0
 71
     4
 72
     5
  1
\W1.059;\A1;350
 73
     1
 44
1.0
1001
ACAD
1000
MTEXTBEGIN
1070
    73
1070
     1
1070
    44
1040
1.0
1070
    74
1070
     0
1000
MTEXTEND
  0
MTEXT
  5
1FD
330
A
100
AcDbEntity
  8
0
  6
Continuous
 62
     7
100
AcDbMText
 10
-21.28095558956008
 20
-136.0
 30
0.0
 40
4.5
 41
0.0
 71
     4
 72
     5
  1
\W1.059;\A1;250
 73
     1
 44
1.0
1001
ACAD
1000
MTEXTBEGIN
1070
    73
1070
     1
1070
    44
1040
1.0
1070
    74
1070
     0
1000
MTEXTEND
  0
LINE
  5
1FE
330
A
100
AcDbEntity
  8
0
  6
Continuous
 62
     7
100
AcDbLine
 10
-94.07507324218752
 20
-124.0
 30
0.0
 11
-94.07507324218752
 21
-140.0
 31
0.0
  0
LINE
  5
1FF
330
A
100
AcDbEntity
  8
0
  6
Continuous
 62
     7
100
AcDbLine
 10
-94.07507324218752
 20
-124.0
 30
0.0
 11
-94.07507324218752
 21
-140.0
 31
0.0
  0
LINE
  5
200
330
A
100
AcDbEntity
  8
0
  6
Continuous
 62
     7
100
AcDbLine
 10
-71.57507324218753
 20
-124.0
 30
0.0
 11
-71.57507324218753
 21
-140.0
 31
0.0
  0
LINE
  5
201
330
A
100
AcDbEntity
  8
0
  6
Continuous
 62
     7
100
AcDbLine
 10
-26.57507324218753
 20
-124.0
 30
0.0
 11
-26.57507324218753
 21
-140.0
 31
0.0
  0
LINE
  5
202
330
A
100
AcDbEntity
  8
0
  6
Continuous
 62
     7
100
AcDbLine
 10
-49.07507324218753
 20
-124.0
 30
0.0
 11
-49.07507324218753
 21
-140.0
 31
0.0
  0
LINE
  5
203
330
A
100
AcDbEntity
  8
0
  6
Continuous
 62
     7
100
AcDbLine
 10
18.42492675781249
 20
-124.0
 30
0.0
 11
18.42492675781249
 21
-140.0
 31
0.0
  0
LINE
  5
204
330
A
100
AcDbEntity
  8
0
  6
Continuous
 62
     7
100
AcDbLine
 10
-4.075073242187513
 20
-124.0
 30
0.0
 11
-4.075073242187513
 21
-140.0
 31
0.0
  0
LINE
  5
205
330
A
100
AcDbEntity
  8
0
  6
Continuous
 62
     7
100
AcDbLine
 10
63.42492675781249
 20
-124.0
 30
0.0
 11
63.42492675781249
 21
-140.0
 31
0.0
  0
LINE
  5
206
330
A
100
AcDbEntity
  8
0
  6
Continuous
 62
     7
100
AcDbLine
 10
40.92492675781249
 20
-124.0
 30
0.0
 11
40.92492675781249
 21
-140.0
 31
0.0
  0
MTEXT
  5
207
330
A
100
AcDbEntity
  8
0
  6
Continuous
 62
     7
100
AcDbMText
 10
1.268676770385326
 20
-128.0
 30
0.0
 40
4.5
 41
0.0
 71
     4
 72
     5
  1
\W1.125;\A1;400
 73
     1
 44
1.0
1001
ACAD
1000
MTEXTBEGIN
1070
    73
1070
     1
1070
    44
1040
1.0
1070
    74
1070
     0
1000
MTEXTEND
  0
MTEXT
  5
208
330
A
100
AcDbEntity
  8
0
  6
Continuous
 62
     7
100
AcDbMText
 10
1.268676770385326
 20
-136.0
 30
0.0
 40
4.5
 41
0.0
 71
     4
 72
     5
  1
\W1.125;\A1;300
 73
     1
 44
1.0
1001
ACAD
1000
MTEXTBEGIN
1070
    73
1070
     1
1070
    44
1040
1.0
1070
    74
1070
     0
1000
MTEXTEND
  0
MTEXT
  5
209
330
A
100
AcDbEntity
  8
0
  6
Continuous
 62
     7
100
AcDbMText
 10
23.7190444104399
 20
-128.0
 30
0.0
 40
4.5
 41
0.0
 71
     4
 72
     5
  1
\W1.059;\A1;450
 73
     1
 44
1.0
1001
ACAD
1000
MTEXTBEGIN
1070
    73
1070
     1
1070
    44
1040
1.0
1070
    74
1070
     0
1000
MTEXTEND
  0
MTEXT
  5
20A
330
A
100
AcDbEntity
  8
0
  6
Continuous
 62
     7
100
AcDbMText
 10
23.7190444104399
 20
-136.0
 30
0.0
 40
4.5
 41
0.0
 71
     4
 72
     5
  1
\W1.059;\A1;350
 73
     1
 44
1.0
1001
ACAD
1000
MTEXTBEGIN
1070
    73
1070
     1
1070
    44
1040
1.0
1070
    74
1070
     0
1000
MTEXTEND
  0
MTEXT
  5
20B
330
A
100
AcDbEntity
  8
0
  6
Continuous
 62
     7
100
AcDbMText
 10
46.26867677038533
 20
-128.0
 30
0.0
 40
4.5
 41
0.0
 71
     4
 72
     5
  1
\W1.125;\A1;500
 73
     1
 44
1.0
1001
ACAD
1000
MTEXTBEGIN
1070
    73
1070
     1
1070
    44
1040
1.0
1070
    74
1070
     0
1000
MTEXTEND
  0
MTEXT
  5
20C
330
A
100
AcDbEntity
  8
0
  6
Continuous
 62
     7
100
AcDbMText
 10
46.26867677038533
 20
-136.0
 30
0.0
 40
4.5
 41
0.0
 71
     4
 72
     5
  1
\W1.125;\A1;400
 73
     1
 44
1.0
1001
ACAD
1000
MTEXTBEGIN
1070
    73
1070
     1
1070
    44
1040
1.0
1070
    74
1070
     0
1000
MTEXTEND
  0
LINE
  5
20D
330
A
100
AcDbEntity
  8
0
  6
Continuous
 62
     7
100
AcDbLine
 10
85.92492675781246
 20
-124.0
 30
0.0
 11
85.92492675781246
 21
-140.0
 31
0.0
  0
MTEXT
  5
20E
330
A
100
AcDbEntity
  8
0
  6
Continuous
 62
     7
100
AcDbMText
 10
68.76867677038532
 20
-128.0
 30
0.0
 40
4.5
 41
0.0
 71
     4
 72
     5
  1
\W1.125;\A1;600
 73
     1
 44
1.0
1001
ACAD
1000
MTEXTBEGIN
1070
    73
1070
     1
1070
    44
1040
1.0
1070
    74
1070
     0
1000
MTEXTEND
  0
MTEXT
  5
20F
330
A
100
AcDbEntity
  8
0
  6
Continuous
 62
     7
100
AcDbMText
 10
68.76867677038532
 20
-136.0
 30
0.0
 40
4.5
 41
0.0
 71
     4
 72
     5
  1
\W1.125;\A1;500
 73
     1
 44
1.0
1001
ACAD
1000
MTEXTBEGIN
1070
    73
1070
     1
1070
    44
1040
1.0
1070
    74
1070
     0
1000
MTEXTEND
  0
LINE
  5
210
330
A
100
AcDbEntity
  8
0
  6
Continuous
 62
     7
100
AcDbLine
 10
108.4249267578125
 20
-124.0
 30
0.0
 11
108.4249267578125
 21
-140.0
 31
0.0
  0
LINE
  5
211
330
A
100
AcDbEntity
  8
0
  6
Continuous
 62
     7
100
AcDbLine
 10
130.9249267578124
 20
-124.0
 30
0.0
 11
130.9249267578124
 21
-140.0
 31
0.0
  0
MTEXT
  5
212
330
A
100
AcDbEntity
  8
0
  6
Continuous
 62
     7
100
AcDbMText
 10
91.26867677038529
 20
-128.0
 30
0.0
 40
4.5
 41
0.0
 71
     4
 72
     5
  1
\W1.125;\A1;700
 73
     1
 44
1.0
1001
ACAD
1000
MTEXTBEGIN
1070
    73
1070
     1
1070
    44
1040
1.0
1070
    74
1070
     0
1000
MTEXTEND
  0
MTEXT
  5
213
330
A
100
AcDbEntity
  8
0
  6
Continuous
 62
     7
100
AcDbMText
 10
91.26867677038529
 20
-136.0
 30
0.0
 40
4.5
 41
0.0
 71
     4
 72
     5
  1
\W1.125;\A1;600
 73
     1
 44
1.0
1001
ACAD
1000
MTEXTBEGIN
1070
    73
1070
     1
1070
    44
1040
1.0
1070
    74
1070
     0
1000
MTEXTEND
  0
MTEXT
  5
214
330
A
100
AcDbEntity
  8
0
  6
Continuous
 62
     7
100
AcDbMText
 10
112.8686767703853
 20
-128.0
 30
0.0
 40
4.5
 41
0.0
 71
     4
 72
     5
  1
\W1.125;\A1;800
 73
     1
 44
1.0
1001
ACAD
1000
MTEXTBEGIN
1070
    73
1070
     1
1070
    44
1040
1.0
1070
    74
1070
     0
1000
MTEXTEND
  0
MTEXT
  5
215
330
A
100
AcDbEntity
  8
0
  6
Continuous
 62
     7
100
AcDbMText
 10
112.8686767703853
 20
-136.0
 30
0.0
 40
4.5
 41
0.0
 71
     4
 72
     5
  1
\W1.125;\A1;700
 73
     1
 44
1.0
1001
ACAD
1000
MTEXTBEGIN
1070
    73
1070
     1
1070
    44
1040
1.0
1070
    74
1070
     0
1000
MTEXTEND
  0
LINE
  5
216
330
A
100
AcDbEntity
  8
0
  6
Continuous
 62
     7
100
AcDbLine
 10
130.9249267578125
 20
-124.0
 30
0.0
 11
130.9249267578125
 21
-140.0
 31
0.0
  0
LINE
  5
217
330
A
100
AcDbEntity
  8
0
  6
Continuous
 62
     7
100
AcDbLine
 10
130.9249267578124
 20
-124.0
 30
0.0
 11
130.9249267578124
 21
-140.0
 31
0.0
  0
MTEXT
  5
218
330
A
100
AcDbEntity
  8
0
  6
Continuous
 62
     7
100
AcDbMText
 10
116.1805966608507
 20
-119.6279990710167
 30
0.0
 40
4.5
 41
0.0
 71
     4
 72
     5
  1
\W0.833;\A1;（ｍｍ）
 73
     1
 44
1.0
1001
ACAD
1000
MTEXTBEGIN
1070
    73
1070
     1
1070
    44
1040
1.0
1070
    74
1070
     0
1000
MTEXTEND
  0
MTEXT
  5
219
330
A
100
AcDbEntity
  8
0
  6
Continuous
 62
     7
100
AcDbMText
 10
-25.77625667554885
 20
-119.363768887954
 30
0.0
 40
4.5
 41
0.0
 71
     4
 72
     5
  1
\W1.065;\A1;STRETCH LIST
 73
     1
 44
1.0
1001
ACAD
1000
MTEXTBEGIN
1070
    73
1070
     1
1070
    44
1040
1.0
1070
    74
1070
     0
1000
MTEXTEND
  0
INSERT
  5
21A
330
A
100
AcDbEntity
  8
0
  6
ByBlock
100
AcDbBlockReference
  2
MRVZS22-K2-3
 10
-50.0
 20
-70.0
 30
0.0
  0
INSERT
  5
21B
330
A
100
AcDbEntity
  8
0
  6
ByBlock
100
AcDbBlockReference
  2
MRVZS22-K2-2
 10
-170.0
 20
70.0
 30
0.0
  0
INSERT
  5
21C
330
A
100
AcDbEntity
  8
0
  6
ByBlock
100
AcDbBlockReference
  2
MRVZS22-K2-1
 10
-50.0
 20
70.0
 30
0.0
  0
MTEXT
  5
21D
330
A
100
AcDbEntity
  8
0
  6
Continuous
 62
     7
100
AcDbMText
 10
-227.7474808817503
 20
150.5
 30
0.0
 40
6.300000190734863
 41
0.0
 71
     4
 72
     5
  1
\W1.079;\A1;(WITH SENSOR SWITCH)
 73
     1
 44
1.0
1001
ACAD
1000
MTEXTBEGIN
1070
    73
1070
     1
1070
    44
1040
1.0
1070
    74
1070
     0
1000
MTEXTEND
  0
MTEXT
  5
21E
330
A
100
AcDbEntity
  8
0
  6
Continuous
 62
     3
100
AcDbMText
 10
20.58157470494657
 20
122.4944932596872
 30
0.0
 40
6.300000190734863
 41
0.0
 71
     4
 72
     5
  1
\W1.065;\A1;STRETCH LINE
 73
     1
 44
1.0
1001
ACAD
1000
MTEXTBEGIN
1070
    73
1070
     1
1070
    44
1040
1.0
1070
    74
1070
     0
1000
MTEXTEND
  0
MTEXT
  5
21F
330
A
100
AcDbEntity
  8
0
  6
Continuous
 62
     7
100
AcDbMText
 10
-251.73387189456
 20
180.5
 30
0.0
 40
6.300000190734863
 41
0.0
 71
     4
 72
     5
  1
{\W0.968;CS-MRVZS22-K2}
 73
     1
 44
1.0
1001
ACAD
1000
ACAD_MTEXT_DEFINED_HEIGHT_BEGIN
1070
    46
1040
0.0
1000
ACAD_MTEXT_DEFINED_HEIGHT_END
1000
MTEXTBEGIN
1070
    73
1070
     1
1070
    44
1040
1.0
1070
    74
1070
     0
1000
MTEXTEND
  0
MTEXT
  5
220
330
A
100
AcDbEntity
  8
0
  6
Continuous
 62
     7
100
AcDbMText
 10
-270.5495648127721
 20
190.5
 30
0.0
 40
6.300000190734863
 41
0.0
 71
     4
 72
     5
  1
\W1.048;\A1;RODLESS CYLINDER
 73
     1
 44
1.0
1001
ACAD
1000
MTEXTBEGIN
1070
    73
1070
     1
1070
    44
1040
1.0
1070
    74
1070
     0
1000
MTEXTEND
  0
LINE
  5
221
330
A
100
AcDbEntity
  8
0
  6
Continuous
 62
     7
100
AcDbLine
 10
-281.25
 20
175.5
 30
0.0
 11
-161.25
 21
175.5
 31
0.0
  0
LINE
  5
222
330
A
100
AcDbEntity
  8
0
  6
Continuous
 62
     7
100
AcDbLine
 10
-161.25
 20
195.5
 30
0.0
 11
-161.25
 21
175.5
 31
0.0
  0
LINE
  5
223
330
A
100
AcDbEntity
  8
0
  6
Continuous
 62
     7
100
AcDbLine
 10
162.0999755859375
 20
-175.0
 30
0.0
 11
162.0999755859375
 21
-195.0
 31
0.0
  0
LINE
  5
224
330
A
100
AcDbEntity
  8
0
  6
Continuous
 62
     7
100
AcDbLine
 10
162.0999755859375
 20
-175.0
 30
0.0
 11
282.099853515625
 21
-175.0
 31
0.0
  0
MTEXT
  5
225
330
A
100
AcDbEntity
  8
0
  6
Continuous
 62
     7
100
AcDbMText
 10
170.2809980228688
 20
-185.0
 30
0.0
 40
9.0
 41
0.0
 71
     4
 72
     5
  1
\W1.121;\A1;KOGANEI CORP.
 73
     1
 44
1.0
1001
ACAD
1000
MTEXTBEGIN
1070
    73
1070
     1
1070
    44
1040
1.0
1070
    74
1070
     0
1000
MTEXTEND
  0
MTEXT
  5
226
330
A
100
AcDbEntity
  8
0
  6
Continuous
 62
     7
100
AcDbMText
 10
198.2770240315611
 20
185.5
 30
0.0
 40
6.300000190734863
 41
0.0
 71
     4
 72
     5
  1
\W1.311;\A1;Ver. 1.0
 73
     1
 44
1.0
1001
ACAD
1000
MTEXTBEGIN
1070
    73
1070
     1
1070
    44
1040
1.0
1070
    74
1070
     0
1000
MTEXTEND
  0
LINE
  5
227
330
A
100
AcDbEntity
  8
0
  6
Continuous
 62
     7
100
AcDbLine
 10
162.0999755859375
 20
175.5
 30
0.0
 11
282.099853515625
 21
175.5
 31
0.0
  0
LINE
  5
228
330
A
100
AcDbEntity
  8
0
  6
Continuous
 62
     7
100
AcDbLine
 10
162.0999755859375
 20
195.5
 30
0.0
 11
162.0999755859375
 21
175.5
 31
0.0
  0
LINE
  5
229
330
A
100
AcDbEntity
  8
0
  6
Continuous
 62
     7
100
AcDbLine
 10
282.099853515625
 20
195.5
 30
0.0
 11
282.099853515625
 21
-195.0
 31
0.0
  0
LINE
  5
22A
330
A
100
AcDbEntity
  8
0
  6
Continuous
 62
     7
100
AcDbLine
 10
-281.25
 20
195.5
 30
0.0
 11
282.099853515625
 21
195.5
 31
0.0
  0
LINE
  5
22B
330
A
100
AcDbEntity
  8
0
  6
Continuous
 62
     7
100
AcDbLine
 10
-281.25
 20
195.5
 30
0.0
 11
-281.25
 21
-195.0
 31
0.0
  0
LINE
  5
22C
330
A
100
AcDbEntity
  8
0
  6
Continuous
 62
     7
100
AcDbLine
 10
-281.25
 20
-195.0
 30
0.0
 11
282.099853515625
 21
-195.0
 31
0.0
  0
MTEXT
  5
22D
330
A
100
AcDbEntity
  8
0
  6
Continuous
 62
     7
100
AcDbMText
 10
-268.2716418557641
 20
160.5
 30
0.0
 40
6.300000190734863
 41
0.0
 71
     4
 72
     5
  1
{\W1.075;MODEL:CS-MRVZS22*ST(100)-K2}
 73
     1
 44
1.0
1001
ACAD
1000
ACAD_MTEXT_DEFINED_HEIGHT_BEGIN
1070
    46
1040
0.0
1000
ACAD_MTEXT_DEFINED_HEIGHT_END
1000
MTEXTBEGIN
1070
    73
1070
     1
1070
    44
1040
1.0
1070
    74
1070
     0
1000
MTEXTEND
  0
ENDSEC
  0
SECTION
  2
OBJECTS
  0
DICTIONARY
  5
19
330
0
100
AcDbDictionary
281
     1
  3
ACAD_COLOR
350
236
  3
ACAD_GROUP
350
1A
  3
ACAD_LAYOUT
350
239
  3
ACAD_MATERIAL
350
235
  3
ACAD_MLINESTYLE
350
1B
  3
ACAD_PLOTSETTINGS
350
23A
  3
ACAD_PLOTSTYLENAME
350
233
  3
ACAD_TABLESTYLE
350
237
  3
ACDBHEADERROUNDTRIPXREC
350
245
  3
AcDbVariableDictionary
350
240
  0
DICTIONARY
  5
236
102
{ACAD_REACTORS
330
19
102
}
330
19
100
AcDbDictionary
281
     1
  0
DICTIONARY
  5
1A
102
{ACAD_REACTORS
330
19
102
}
330
19
100
AcDbDictionary
281
     1
  0
DICTIONARY
  5
239
102
{ACAD_REACTORS
330
19
102
}
330
19
100
AcDbDictionary
281
     1
  3
Model
350
23B
  3
レイアウト1
350
23C
  0
DICTIONARY
  5
235
102
{ACAD_REACTORS
330
19
102
}
330
19
100
AcDbDictionary
281
     1
  0
DICTIONARY
  5
1B
102
{ACAD_REACTORS
330
19
102
}
330
19
100
AcDbDictionary
281
     1
  3
STANDARD
350
1C
  0
DICTIONARY
  5
23A
102
{ACAD_REACTORS
330
19
102
}
330
19
100
AcDbDictionary
281
     1
  0
ACDBDICTIONARYWDFLT
  5
233
102
{ACAD_REACTORS
330
19
102
}
330
19
100
AcDbDictionary
281
     1
  3
Normal
350
234
100
AcDbDictionaryWithDefault
340
234
  0
DICTIONARY
  5
237
102
{ACAD_REACTORS
330
19
102
}
330
19
100
AcDbDictionary
281
     1
  3
Standard
350
238
  0
DICTIONARY
  5
245
102
{ACAD_REACTORS
330
19
102
}
330
19
100
AcDbDictionary
281
     1
  0
DICTIONARY
  5
240
102
{ACAD_REACTORS
330
19
102
}
330
19
100
AcDbDictionary
281
     1
  3
CTABLESTYLE
350
241
  3
DIMASSOC
350
242
  3
PROJECTNAME
350
243
  0
LAYOUT
  5
23B
102
{ACAD_XDICTIONARY
360
246
102
}
102
{ACAD_REACTORS
330
239
102
}
330
239
100
AcDbPlotSettings
  1

  2
\\Tg_salsvr02\DCCF450-41.214
  4

  6

 40
0.0
 41
0.0
 42
0.0
 43
0.0
 44
0.0
 45
0.0
 46
0.0
 47
0.0
 48
0.0
 49
0.0
140
0.0
141
0.0
142
1.0
143
1.0
 70
  1712
 72
     0
 73
     0
 74
     0
  7

 75
     0
147
1.0
148
0.0
149
0.0
100
AcDbLayout
  1
Model
 70
     1
 71
     0
 10
0.0
 20
0.0
 11
12.0
 21
9.0
 12
0.0
 22
0.0
 32
0.0
 14
0.0
 24
0.0
 34
0.0
 15
0.0
 25
0.0
 35
0.0
146
0.0
 13
0.0
 23
0.0
 33
0.0
 16
1.0
 26
0.0
 36
0.0
 17
0.0
 27
1.0
 37
0.0
 76
     0
330
A
  0
LAYOUT
  5
23C
102
{ACAD_XDICTIONARY
360
248
102
}
102
{ACAD_REACTORS
330
239
102
}
330
239
100
AcDbPlotSettings
  1

  2
\\Tg_salsvr02\DCCF450-41.214
  4

  6

 40
0.0
 41
0.0
 42
0.0
 43
0.0
 44
0.0
 45
0.0
 46
0.0
 47
0.0
 48
0.0
 49
0.0
140
0.0
141
0.0
142
1.0
143
1.0
 70
   688
 72
     0
 73
     0
 74
     5
  7

 75
    16
147
1.0
148
0.0
149
0.0
100
AcDbLayout
  1
レイアウト1
 70
     0
 71
     1
 10
0.0
 20
0.0
 11
12.0
 21
9.0
 12
0.0
 22
0.0
 32
0.0
 14
1.000000000000000E+20
 24
1.000000000000000E+20
 34
1.000000000000000E+20
 15
-1.000000000000000E+20
 25
-1.000000000000000E+20
 35
-1.000000000000000E+20
146
0.0
 13
0.0
 23
0.0
 33
0.0
 16
1.0
 26
0.0
 36
0.0
 17
0.0
 27
1.0
 37
0.0
 76
     0
330
B
  0
MLINESTYLE
  5
1C
102
{ACAD_REACTORS
330
1B
102
}
330
1B
100
AcDbMlineStyle
  2
STANDARD
 70
     0
  3

 62
     0
 51
90.0
 52
90.0
 71
     2
 49
0.5
 62
   256
  6
BYLAYER
 49
-0.5
 62
   256
  6
BYLAYER
  0
ACDBPLACEHOLDER
  5
234
102
{ACAD_REACTORS
330
233
102
}
330
233
  0
TABLESTYLE
  5
238
102
{ACAD_REACTORS
330
237
102
}
330
237
100
AcDbTableStyle
  3
Standard
 70
     0
 71
     0
 40
0.06
 41
0.06
280
     0
281
     0
  7
MX_NOTE_STANDARD
140
0.18
170
     2
 62
     0
 63
     7
283
     0
274
    -2
284
     1
 64
     0
275
    -2
285
     1
 65
     0
276
    -2
286
     1
 66
     0
277
    -2
287
     1
 67
     0
278
    -2
288
     1
 68
     0
279
    -2
289
     1
 69
     0
  7
MX_NOTE_STANDARD
140
0.25
170
     5
 62
     0
 63
     7
283
     0
274
    -2
284
     1
 64
     0
275
    -2
285
     1
 65
     0
276
    -2
286
     1
 66
     0
277
    -2
287
     1
 67
     0
278
    -2
288
     1
 68
     0
279
    -2
289
     1
 69
     0
  7
MX_NOTE_STANDARD
140
0.18
170
     5
 62
     0
 63
     7
283
     0
274
    -2
284
     1
 64
     0
275
    -2
285
     1
 65
     0
276
    -2
286
     1
 66
     0
277
    -2
287
     1
 67
     0
278
    -2
288
     1
 68
     0
279
    -2
289
     1
 69
     0
  0
DICTIONARYVAR
  5
241
102
{ACAD_REACTORS
330
240
102
}
330
240
100
DictionaryVariables
280
     0
  1
STANDARD
  0
DICTIONARYVAR
  5
242
102
{ACAD_REACTORS
330
240
102
}
330
240
100
DictionaryVariables
280
     0
  1
1
  0
DICTIONARYVAR
  5
243
102
{ACAD_REACTORS
330
240
102
}
330
240
100
DictionaryVariables
280
     0
  1

  0
DICTIONARY
  5
246
330
23B
100
AcDbDictionary
280
     1
281
     1
  3
ACAD_XREC_ROUNDTRIP
360
247
  0
DICTIONARY
  5
248
330
23C
100
AcDbDictionary
280
     1
281
     1
  3
ACAD_XREC_ROUNDTRIP
360
249
  0
XRECORD
  5
247
102
{ACAD_REACTORS
330
246
102
}
330
246
100
AcDbXrecord
280
     1
102
SHADEPLOT
 70
     0
102
SHADEPLOTRESLEVEL
 70
     2
102
SHADEPLOTCUSTOMDPI
 70
   300
  0
XRECORD
  5
249
102
{ACAD_REACTORS
330
248
102
}
330
248
100
AcDbXrecord
280
     1
102
SHADEPLOT
 70
     0
102
SHADEPLOTRESLEVEL
 70
     2
102
SHADEPLOTCUSTOMDPI
 70
   300
  0
ENDSEC
  0
EOF
