  0
SECTION
  2
HEADER
  9
$ACADVER
  1
AC1012
  9
$DWGCODEPAGE
  3
dos932
  9
$INSBASE
 10
0.0
 20
0.0
 30
0.0
  9
$EXTMIN
 10
-194.25
 20
-133.5
 30
0.0
  9
$EXTMAX
 10
196.25000429153442
 20
132.59999999999999
 30
0.0
  9
$LIMMIN
 10
-194.25
 20
-133.5
  9
$LIMMAX
 10
196.25000429153442
 20
132.59999999999999
  9
$ORTHOMODE
 70
               0
  9
$REGENMODE
 70
               1
  9
$FILLMODE
 70
               1
  9
$QTEXTMODE
 70
               0
  9
$MIRRTEXT
 70
               1
  9
$DRAGMODE
 70
               2
  9
$LTSCALE
 40
1.0
  9
$OSMODE
 70
               0
  9
$ATTMODE
 70
               1
  9
$TEXTSIZE
 40
3.2000000476837158
  9
$TRACEWID
 40
0.05
  9
$TEXTSTYLE
  7
MX_NOTE_STANDARD
  9
$CLAYER
  8
0
  9
$CELTYPE
  6
CONTINUOUS
  9
$CECOLOR
 62
             256
  9
$CELTSCALE
 40
1.0
  9
$DELOBJ
 70
               1
  9
$DISPSILH
 70
               0
  9
$DIMSCALE
 40
1.0
  9
$DIMASZ
 40
2.5
  9
$DIMEXO
 40
1.5
  9
$DIMDLI
 40
3.75
  9
$DIMRND
 40
0.0
  9
$DIMDLE
 40
0.0
  9
$DIMEXE
 40
1.5
  9
$DIMTP
 40
0.0
  9
$DIMTM
 40
0.0
  9
$DIMTXT
 40
3.2000000476837158
  9
$DIMCEN
 40
2.5
  9
$DIMTSZ
 40
0.0
  9
$DIMTOL
 70
               0
  9
$DIMLIM
 70
               0
  9
$DIMTIH
 70
               0
  9
$DIMTOH
 70
               0
  9
$DIMSE1
 70
               0
  9
$DIMSE2
 70
               0
  9
$DIMTAD
 70
               1
  9
$DIMZIN
 70
               8
  9
$DIMBLK
  1

  9
$DIMASO
 70
               1
  9
$DIMSHO
 70
               1
  9
$DIMPOST
  1

  9
$DIMAPOST
  1

  9
$DIMALT
 70
               0
  9
$DIMALTD
 70
               4
  9
$DIMALTF
 40
0.03937007874016
  9
$DIMLFAC
 40
1.0
  9
$DIMTOFL
 70
               1
  9
$DIMTVP
 40
0.0
  9
$DIMTIX
 70
               0
  9
$DIMSOXD
 70
               0
  9
$DIMSAH
 70
               0
  9
$DIMBLK1
  1

  9
$DIMBLK2
  1

  9
$DIMSTYLE
  2
MXDIMSTYLE
  9
$DIMCLRD
 70
               0
  9
$DIMCLRE
 70
               0
  9
$DIMCLRT
 70
               0
  9
$DIMTFAC
 40
1.0
  9
$DIMGAP
 40
1.0
  9
$DIMJUST
 70
               0
  9
$DIMSD1
 70
               0
  9
$DIMSD2
 70
               0
  9
$DIMTOLJ
 70
               1
  9
$DIMTZIN
 70
               0
  9
$DIMALTZ
 70
               0
  9
$DIMALTTZ
 70
               0
  9
$DIMFIT
 70
               3
  9
$DIMUPT
 70
               1
  9
$DIMUNIT
 70
               2
  9
$DIMDEC
 70
               4
  9
$DIMTDEC
 70
               4
  9
$DIMALTU
 70
               2
  9
$DIMALTTD
 70
               4
  9
$DIMTXSTY
  7
MX_NOTE_STANDARD
  9
$DIMAUNIT
 70
               0
  9
$LUNITS
 70
               2
  9
$LUPREC
 70
               4
  9
$SKETCHINC
 40
0.1
  9
$FILLETRAD
 40
0.0
  9
$AUNITS
 70
               0
  9
$AUPREC
 70
               0
  9
$MENU
  1
acad
  9
$ELEVATION
 40
0.0
  9
$PELEVATION
 40
0.0
  9
$THICKNESS
 40
0.0
  9
$LIMCHECK
 70
               0
  9
$BLIPMODE
 70
               1
  9
$CHAMFERA
 40
0.0
  9
$CHAMFERB
 40
0.0
  9
$CHAMFERC
 40
0.0
  9
$CHAMFERD
 40
0.0
  9
$SKPOLY
 70
               0
  9
$TDCREATE
 40
2453525.383657408
  9
$TDUPDATE
 40
2453525.383657408
  9
$TDINDWG
 40
0.0000000000
  9
$TDUSRTIMER
 40
0.0000000000
  9
$USRTIMER
 70
               1
  9
$ANGBASE
 50
0.0
  9
$ANGDIR
 70
               0
  9
$PDMODE
 70
               0
  9
$PDSIZE
 40
0.0
  9
$PLINEWID
 40
0.0
  9
$COORDS
 70
               1
  9
$SPLFRAME
 70
               0
  9
$SPLINETYPE
 70
               6
  9
$SPLINESEGS
 70
               8
  9
$ATTDIA
 70
               0
  9
$ATTREQ
 70
               1
  9
$HANDLING
 70
               1
  9
$HANDSEED
  5
2F5
  9
$SURFTAB1
 70
               6
  9
$SURFTAB2
 70
               6
  9
$SURFTYPE
 70
               6
  9
$SURFU
 70
               6
  9
$SURFV
 70
               6
  9
$UCSNAME
  2

  9
$UCSORG
 10
0.0
 20
0.0
 30
0.0
  9
$UCSXDIR
 10
1.0
 20
0.0
 30
0.0
  9
$UCSYDIR
 10
0.0
 20
1.0
 30
0.0
  9
$PUCSNAME
  2

  9
$PUCSORG
 10
0.0
 20
0.0
 30
0.0
  9
$PUCSXDIR
 10
1.0
 20
0.0
 30
0.0
  9
$PUCSYDIR
 10
0.0
 20
1.0
 30
0.0
  9
$USERI1
 70
               0
  9
$USERI2
 70
               0
  9
$USERI3
 70
               0
  9
$USERI4
 70
               0
  9
$USERI5
 70
               0
  9
$USERR1
 40
0.0
  9
$USERR2
 40
0.0
  9
$USERR3
 40
0.0
  9
$USERR4
 40
0.0
  9
$USERR5
 40
0.0
  9
$WORLDVIEW
 70
               1
  9
$SHADEDGE
 70
               3
  9
$SHADEDIF
 70
              70
  9
$TILEMODE
 70
               1
  9
$MAXACTVP
 70
              16
  9
$PINSBASE
 10
0.0
 20
0.0
 30
0.0
  9
$PLIMCHECK
 70
               0
  9
$PEXTMIN
 10
1.0000000000000000E+20
 20
1.0000000000000000E+20
 30
1.0000000000000000E+20
  9
$PEXTMAX
 10
-1.0000000000000000E+20
 20
-1.0000000000000000E+20
 30
-1.0000000000000000E+20
  9
$PLIMMIN
 10
0.0
 20
0.0
  9
$PLIMMAX
 10
12.0
 20
9.0
  9
$UNITMODE
 70
               0
  9
$VISRETAIN
 70
               0
  9
$PLINEGEN
 70
               1
  9
$PSLTSCALE
 70
               0
  9
$TREEDEPTH
 70
            3020
  9
$PICKSTYLE
 70
               1
  9
$CMLSTYLE
  2
Standard
  9
$CMLJUST
 70
               0
  9
$CMLSCALE
 40
1.0
  9
$SAVEIMAGES
 70
               0
  0
ENDSEC
  0
SECTION
  2
CLASSES
  0
CLASS
  1
LWPOLYLINE
  2
AcDbPolyline
  3
"AutoCAD"
 90
        0
280
               0
281
               1
  0
CLASS
  1
IMAGE
  2
AcDbRasterImage
  3
ISM
 90
      127
280
               0
281
               1
  0
CLASS
  1
OLE2FRAME
  2
AcDbOle2Frame
  3
""
 90
        0
280
               0
281
               1
  0
CLASS
  1
HATCH
  2
AcDbHatch
  3
"ACAD_SEDONA"
 90
        0
280
               0
281
               1
  0
CLASS
  1
DICTIONARYVAR
  2
AcDbDictionaryVar
  3
"AutoCAD"
 90
        0
280
               0
281
               0
  0
CLASS
  1
RASTERVARIABLES
  2
AcDbRasterVariables
  3
ISM
 90
        0
280
               0
281
               0
  0
CLASS
  1
IMAGEDEF
  2
AcDbRasterImageDef
  3
ISM
 90
        0
280
               0
281
               0
  0
CLASS
  1
IMAGEDEF_REACTOR
  2
AcDbRasterImageDefReactor
  3
ISM
 90
        1
280
               0
281
               0
  0
CLASS
  1
IDBUFFER
  2
AcDbIdBuffer
  3
"Acad"
 90
        0
280
               0
281
               0
  0
CLASS
  1
SPATIAL_FILTER
  2
AcDbSpatialFilter
  3
"Acad"
 90
        0
280
               0
281
               0
  0
CLASS
  1
XRECORD
  2
AcDbXrecord
  3
"<Built In>"
 90
        0
280
               0
281
               0
  0
CLASS
  1
SORTENTSTABLE
  2
AcDbSortentsTable
  3
"AutoCAD"
 90
        0
280
               0
281
               0
  0
CLASS
  1
LAYER_INDEX
  2
AcDbLayerIndex
  3
"Acad"
 90
        0
280
               0
281
               0
  0
CLASS
  1
SPATIAL_INDEX
  2
AcDbSpatialIndex
  3
"Acad"
 90
        0
280
               0
281
               0
  0
CLASS
  1
OBJECT_PTR
  2
CAseDLPNTableRecord
  3
"ASE-LPNTableRecord"
 90
        1
280
               0
281
               0
  0
CLASS
  1
LAYOUT
  2
AcDbLayout
  3
"AutoCAD 2000"
 90
        1
280
               0
281
               0
  0
CLASS
  1
PLOTSETTINGS
  2
AcDbPlotSettings
  3
"AutoCAD 2000"
 90
        1
280
               0
281
               0
  0
CLASS
  1
ACDBDICTIONARYWDFLT
  2
AcDbDictionaryWithDefault
  3
"AutoCAD 2000"
 90
        1
280
               0
281
               0
  0
CLASS
  1
ACDBPLACEHOLDER
  2
AcDbPlaceHolder
  3
"AutoCAD 2000"
 90
        1
280
               0
281
               0
  0
ENDSEC
  0
SECTION
  2
TABLES
  0
TABLE
  2
VPORT
  5
7
100
AcDbSymbolTable
 70
               1
  0
VPORT
  5
15
100
AcDbSymbolTableRecord
100
AcDbViewportTableRecord
  2
*ACTIVE
 70
               0
 10
0.0
 20
0.0
 11
1.0
 21
1.0
 12
1.0000021457672119
 22
-0.4499999999999886
 13
0.0
 23
0.0
 14
1.0
 24
1.0
 15
0.0
 25
0.0
 16
0.0
 26
0.0
 36
1.0
 17
0.0
 27
0.0
 37
0.0
 40
268.76100000000002
 41
1.7320508075688772
 42
50.0
 43
0.0
 44
0.0
 50
0.0
 51
0.0
 71
               0
 72
             100
 73
               1
 74
               1
 75
               0
 76
               0
 77
               0
 78
               0
  0
ENDTAB
  0
TABLE
  2
LTYPE
  5
4
100
AcDbSymbolTable
 70
               3
  0
LTYPE
  5
11
100
AcDbSymbolTableRecord
100
AcDbLinetypeTableRecord
  2
BYBLOCK
 70
              64
  3

 72
              65
 73
               0
 40
0.0
  0
LTYPE
  5
12
100
AcDbSymbolTableRecord
100
AcDbLinetypeTableRecord
  2
BYLAYER
 70
              64
  3

 72
              65
 73
               0
 40
0.0
  0
LTYPE
  5
13
100
AcDbSymbolTableRecord
100
AcDbLinetypeTableRecord
  2
CONTINUOUS
 70
              64
  3
Solid line
 72
              65
 73
               0
 40
0.0
  0
ENDTAB
  0
TABLE
  2
LAYER
  5
2
100
AcDbSymbolTable
 70
               2
  0
LAYER
  5
14
100
AcDbSymbolTableRecord
100
AcDbLayerTableRecord
  2
0
 70
               0
 62
               7
  6
CONTINUOUS
  0
LAYER
  5
1D
100
AcDbSymbolTableRecord
100
AcDbLayerTableRecord
  2
DEFPOINTS
 70
               0
 62
               7
  6
CONTINUOUS
  0
ENDTAB
  0
TABLE
  2
STYLE
  5
3
100
AcDbSymbolTable
 70
               1
  0
STYLE
  5
17
100
AcDbSymbolTableRecord
100
AcDbTextStyleTableRecord
  2
MX_NOTE_STANDARD
 70
               0
 40
0.0
 41
1.0
 50
0.0
 71
               0
 42
3.2000000476837158
  3
txt.shx
  4
extfont.shx
  0
ENDTAB
  0
TABLE
  2
VIEW
  5
5
100
AcDbSymbolTable
 70
               0
  0
ENDTAB
  0
TABLE
  2
UCS
  5
6
100
AcDbSymbolTable
 70
               0
  0
ENDTAB
  0
TABLE
  2
APPID
  5
8
100
AcDbSymbolTable
 70
               1
  0
APPID
  5
16
100
AcDbSymbolTableRecord
100
AcDbRegAppTableRecord
  2
ACAD
 70
               0
  0
ENDTAB
  0
TABLE
  2
DIMSTYLE
  5
9
100
AcDbSymbolTable
 70
               1
  0
DIMSTYLE
105
18
100
AcDbSymbolTableRecord
100
AcDbDimStyleTableRecord
  2
MXDIMSTYLE
 70
               0
  3

  4

  5

  6

  7

 40
1.0
 41
2.5
 42
1.5
 43
3.75
 44
1.5
 45
0.0
 46
0.0
 47
0.0
 48
0.0
 71
               0
 72
               0
 73
               0
 74
               0
 75
               0
 76
               0
 77
               1
 78
               8
140
3.2000000476837158
141
2.5
142
0.0
143
0.03937007874016
144
1.0
145
0.0
146
1.0
147
1.0
170
               0
171
               4
172
               1
173
               0
174
               0
175
               0
176
               0
177
               0
178
               0
270
               2
271
               4
272
               4
273
               2
274
               4
275
               0
280
               0
281
               0
282
               0
283
               1
284
               0
285
               0
286
               0
287
               3
288
               1
340
17
  0
ENDTAB
  0
TABLE
  2
BLOCK_RECORD
  5
1
100
AcDbSymbolTable
 70
              12
  0
BLOCK_RECORD
  5
A
100
AcDbSymbolTableRecord
100
AcDbBlockTableRecord
  2
*MODEL_SPACE
  0
BLOCK_RECORD
  5
B
100
AcDbSymbolTableRecord
100
AcDbBlockTableRecord
  2
*PAPER_SPACE
  0
BLOCK_RECORD
  5
1E
100
AcDbSymbolTableRecord
100
AcDbBlockTableRecord
  2
CS-NHBDPG-16-1
  0
BLOCK_RECORD
  5
1F
100
AcDbSymbolTableRecord
100
AcDbBlockTableRecord
  2
CS-NHBDPG-16-2
  0
BLOCK_RECORD
  5
20
100
AcDbSymbolTableRecord
100
AcDbBlockTableRecord
  2
CS-NHBDPG-16-3
  0
BLOCK_RECORD
  5
21
100
AcDbSymbolTableRecord
100
AcDbBlockTableRecord
  2
CS-NHBDPG-16-4
  0
BLOCK_RECORD
  5
22
100
AcDbSymbolTableRecord
100
AcDbBlockTableRecord
  2
CS-NHBDPG-16-5
  0
BLOCK_RECORD
  5
23
100
AcDbSymbolTableRecord
100
AcDbBlockTableRecord
  2
CS-NHBDPG-16-6
  0
BLOCK_RECORD
  5
24
100
AcDbSymbolTableRecord
100
AcDbBlockTableRecord
  2
CS-NHBDPG-16-7
  0
BLOCK_RECORD
  5
25
100
AcDbSymbolTableRecord
100
AcDbBlockTableRecord
  2
CS-NHBDPG-16-8
  0
BLOCK_RECORD
  5
26
100
AcDbSymbolTableRecord
100
AcDbBlockTableRecord
  2
CS-NHBDPG-16-9
  0
BLOCK_RECORD
  5
27
100
AcDbSymbolTableRecord
100
AcDbBlockTableRecord
  2
CS-NHBDPG-16-10
  0
BLOCK_RECORD
  5
28
100
AcDbSymbolTableRecord
100
AcDbBlockTableRecord
  2
CS-NHBDPG-16-11
  0
BLOCK_RECORD
  5
29
100
AcDbSymbolTableRecord
100
AcDbBlockTableRecord
  2
CS-NHBDPG-16-12
  0
ENDTAB
  0
ENDSEC
  0
SECTION
  2
BLOCKS
  0
BLOCK
  5
D
100
AcDbEntity
  8
0
100
AcDbBlockBegin
  2
*MODEL_SPACE
 70
               0
 10
0.0
 20
0.0
 30
0.0
  3
*MODEL_SPACE
  1

  0
ENDBLK
  5
E
100
AcDbEntity
  8
0
100
AcDbBlockEnd
  0
BLOCK
  5
F
100
AcDbEntity
 67
               1
  8
0
100
AcDbBlockBegin
  2
*PAPER_SPACE
 70
               0
 10
0.0
 20
0.0
 30
0.0
  3
*PAPER_SPACE
  1

  0
ENDBLK
  5
10
100
AcDbEntity
 67
               1
  8
0
100
AcDbBlockEnd
  0
BLOCK
  5
2A
100
AcDbEntity
  8
0
100
AcDbBlockBegin
  2
CS-NHBDPG-16-1
 70
               0
 10
0.0
 20
0.0
 30
0.0
  3
CS-NHBDPG-16-1
  1

  0
LINE
  5
2B
100
AcDbEntity
  8
0
  6
CONTINUOUS
 62
               2
100
AcDbLine
 10
-6.6955425262451165
 20
-11.0
 30
0.0
 11
0.0000007629394538
 21
-11.0
 31
0.0
  0
LINE
  5
2C
100
AcDbEntity
  8
0
  6
CONTINUOUS
 62
               7
100
AcDbLine
 10
-4.9089519500732415
 20
-9.0
 30
0.0
 11
-2.1999999999999993
 21
-9.0
 31
0.0
  0
LINE
  5
2D
100
AcDbEntity
  8
0
  6
CONTINUOUS
 62
               7
100
AcDbLine
 10
-4.9089519500732415
 20
-13.0
 30
0.0
 11
-2.1999999999999993
 21
-13.0
 31
0.0
  0
CIRCLE
  5
2E
100
AcDbEntity
  8
0
  6
CONTINUOUS
 62
               7
100
AcDbCircle
 10
13.800000000000001
 20
0.0
 30
0.0
 40
4.25
  0
CIRCLE
  5
2F
100
AcDbEntity
  8
0
  6
CONTINUOUS
 62
               2
100
AcDbCircle
 10
13.800000000000001
 20
0.0
 30
0.0
 40
2.5
  0
ARC
  5
30
100
AcDbEntity
  8
0
  6
CONTINUOUS
 62
               7
100
AcDbCircle
 10
48.799999999999997
 20
19.0
 30
0.0
 40
1.0
100
AcDbArc
 50
0.0000025044781673
 51
89.99997768819965
  0
ARC
  5
31
100
AcDbEntity
  8
0
  6
CONTINUOUS
 62
               7
100
AcDbCircle
 10
43.799999999999997
 20
19.0
 30
0.0
 40
1.0
100
AcDbArc
 50
89.99997768819965
 51
179.99997336248865
  0
ARC
  5
32
100
AcDbEntity
  8
0
  6
CONTINUOUS
 62
               7
100
AcDbCircle
 10
37.299999999999997
 20
19.0
 30
0.0
 40
1.0
100
AcDbArc
 50
0.0000025044781673
 51
89.99997768819965
  0
ARC
  5
33
100
AcDbEntity
  8
0
  6
CONTINUOUS
 62
               7
100
AcDbCircle
 10
32.300000238418576
 20
19.0
 30
0.0
 40
1.0
100
AcDbArc
 50
89.99997768819965
 51
179.99997336248865
  0
CIRCLE
  5
34
100
AcDbEntity
  8
0
  6
CONTINUOUS
 62
               2
100
AcDbCircle
 10
46.299999999999997
 20
-7.5
 30
0.0
 40
2.5
  0
CIRCLE
  5
35
100
AcDbEntity
  8
0
  6
CONTINUOUS
 62
               7
100
AcDbCircle
 10
34.800000476837155
 20
7.5
 30
0.0
 40
4.25
  0
CIRCLE
  5
36
100
AcDbEntity
  8
0
  6
CONTINUOUS
 62
               2
100
AcDbCircle
 10
34.800000476837155
 20
7.5
 30
0.0
 40
2.5
  0
CIRCLE
  5
37
100
AcDbEntity
  8
0
  6
CONTINUOUS
 62
               7
100
AcDbCircle
 10
46.299999999999997
 20
-7.5
 30
0.0
 40
4.25
  0
CIRCLE
  5
38
100
AcDbEntity
  8
0
  6
CONTINUOUS
 62
               2
100
AcDbCircle
 10
11.800000000000001
 20
15.0
 30
0.0
 40
1.5
  0
CIRCLE
  5
39
100
AcDbEntity
  8
0
  6
CONTINUOUS
 62
               7
100
AcDbCircle
 10
18.800000000000001
 20
8.0
 30
0.0
 40
1.5
  0
LINE
  5
3A
100
AcDbEntity
  8
0
  6
CONTINUOUS
 62
               2
100
AcDbLine
 10
13.800000000000001
 20
5.2000000000000028
 30
0.0
 11
13.800000000000001
 21
-5.1999999999999993
 31
0.0
  0
LINE
  5
3B
100
AcDbEntity
  8
0
  6
CONTINUOUS
 62
               7
100
AcDbLine
 10
5.8000000000000007
 20
25.0
 30
0.0
 11
5.8000000000000007
 21
-25.000007629394531
 31
0.0
  0
LINE
  5
3C
100
AcDbEntity
  8
0
  6
CONTINUOUS
 62
               7
100
AcDbLine
 10
-2.1999999999999993
 20
-25.0
 30
0.0
 11
0.0
 21
-25.0
 31
0.0
  0
LINE
  5
3D
100
AcDbEntity
  8
0
  6
CONTINUOUS
 62
               7
100
AcDbLine
 10
-2.1999999999999993
 20
-5.0
 30
0.0
 11
0.0
 21
-5.0
 31
0.0
  0
LINE
  5
3E
100
AcDbEntity
  8
0
  6
CONTINUOUS
 62
               2
100
AcDbLine
 10
34.800000476837155
 20
12.700000000000003
 30
0.0
 11
34.800000476837155
 21
2.2999999999999972
 31
0.0
  0
LINE
  5
3F
100
AcDbEntity
  8
0
  6
CONTINUOUS
 62
               2
100
AcDbLine
 10
46.299999999999997
 20
-2.2999999999999972
 30
0.0
 11
46.299999999999997
 21
-12.699999999999999
 31
0.0
  0
LINE
  5
40
100
AcDbEntity
  8
0
  6
CONTINUOUS
 62
               7
100
AcDbLine
 10
35.200002002716062
 20
20.0
 30
0.0
 11
37.299999999999997
 21
20.0
 31
0.0
  0
LINE
  5
41
100
AcDbEntity
  8
0
  6
CONTINUOUS
 62
               7
100
AcDbLine
 10
45.899998474121091
 20
18.5
 30
0.0
 11
46.700001525878903
 21
18.5
 31
0.0
  0
LINE
  5
42
100
AcDbEntity
  8
0
  6
CONTINUOUS
 62
               7
100
AcDbLine
 10
34.399998950958249
 20
18.5
 30
0.0
 11
35.200002002716062
 21
18.5
 31
0.0
  0
LINE
  5
43
100
AcDbEntity
  8
0
  6
CONTINUOUS
 62
               7
100
AcDbLine
 10
46.700001525878903
 20
20.0
 30
0.0
 11
48.799999999999997
 21
20.0
 31
0.0
  0
LINE
  5
44
100
AcDbEntity
  8
0
  6
CONTINUOUS
 62
               7
100
AcDbLine
 10
43.799999999999997
 20
20.0
 30
0.0
 11
45.899998474121091
 21
20.0
 31
0.0
  0
LINE
  5
45
100
AcDbEntity
  8
0
  6
CONTINUOUS
 62
               7
100
AcDbLine
 10
45.899998474121091
 20
20.0
 30
0.0
 11
45.899998474121091
 21
18.5
 31
0.0
  0
LINE
  5
46
100
AcDbEntity
  8
0
  6
CONTINUOUS
 62
               7
100
AcDbLine
 10
46.700001525878903
 20
20.0
 30
0.0
 11
46.700001525878903
 21
18.5
 31
0.0
  0
LINE
  5
47
100
AcDbEntity
  8
0
  6
CONTINUOUS
 62
               7
100
AcDbLine
 10
35.200002002716062
 20
20.0
 30
0.0
 11
35.200002002716062
 21
18.5
 31
0.0
  0
LINE
  5
48
100
AcDbEntity
  8
0
  6
CONTINUOUS
 62
               7
100
AcDbLine
 10
34.399998950958249
 20
20.0
 30
0.0
 11
34.399998950958249
 21
18.5
 31
0.0
  0
LINE
  5
49
100
AcDbEntity
  8
0
  6
CONTINUOUS
 62
               7
100
AcDbLine
 10
38.299999999999997
 20
19.0
 30
0.0
 11
38.299999999999997
 21
17.0
 31
0.0
  0
LINE
  5
4A
100
AcDbEntity
  8
0
  6
CONTINUOUS
 62
               7
100
AcDbLine
 10
31.30000023841858
 20
19.0
 30
0.0
 11
31.30000023841858
 21
17.0
 31
0.0
  0
LINE
  5
4B
100
AcDbEntity
  8
0
  6
CONTINUOUS
 62
               7
100
AcDbLine
 10
49.799999999999997
 20
19.0
 30
0.0
 11
49.799999999999997
 21
17.0
 31
0.0
  0
LINE
  5
4C
100
AcDbEntity
  8
0
  6
CONTINUOUS
 62
               7
100
AcDbLine
 10
42.800000953674314
 20
19.0
 30
0.0
 11
42.800000953674314
 21
17.0
 31
0.0
  0
LINE
  5
4D
100
AcDbEntity
  8
0
  6
CONTINUOUS
 62
               7
100
AcDbLine
 10
32.300000238418576
 20
20.0
 30
0.0
 11
34.399998950958249
 21
20.0
 31
0.0
  0
LINE
  5
4E
100
AcDbEntity
  8
0
  6
CONTINUOUS
 62
               2
100
AcDbLine
 10
-6.6955425262451165
 20
0.0
 30
0.0
 11
57.756817626953122
 21
0.0
 31
0.0
  0
LINE
  5
4F
100
AcDbEntity
  8
0
  6
CONTINUOUS
 62
               2
100
AcDbLine
 10
26.200000312924384
 20
12.0
 30
0.0
 11
31.400000312924387
 21
12.0
 31
0.0
  0
LINE
  5
50
100
AcDbEntity
  8
0
  6
CONTINUOUS
 62
               2
100
AcDbLine
 10
28.800000312924386
 20
14.600000000000001
 30
0.0
 11
28.800000312924386
 21
9.3999999999999986
 31
0.0
  0
LINE
  5
51
100
AcDbEntity
  8
0
  6
CONTINUOUS
 62
               7
100
AcDbLine
 10
14.800000000000001
 20
-15.599845886230469
 30
0.0
 11
14.800000000000001
 21
-25.0
 31
0.0
  0
LINE
  5
52
100
AcDbEntity
  8
0
  6
CONTINUOUS
 62
               7
100
AcDbLine
 10
5.8000000000000007
 20
23.958515167236328
 30
0.0
 11
14.800000000000001
 21
23.958515167236328
 31
0.0
  0
LINE
  5
53
100
AcDbEntity
  8
0
  6
CONTINUOUS
 62
               7
100
AcDbLine
 10
14.800000000000001
 20
-15.599845886230469
 30
0.0
 11
53.799999999999997
 21
-15.599845886230469
 31
0.0
  0
LINE
  5
54
100
AcDbEntity
  8
0
  6
CONTINUOUS
 62
               7
100
AcDbLine
 10
5.8000000000000007
 20
-23.937294006347656
 30
0.0
 11
14.800000000000001
 21
-23.937294006347656
 31
0.0
  0
LINE
  5
55
100
AcDbEntity
  8
0
  6
CONTINUOUS
 62
               2
100
AcDbLine
 10
11.800000000000001
 20
17.600000000000001
 30
0.0
 11
11.800000000000001
 21
12.399999999999999
 31
0.0
  0
LINE
  5
56
100
AcDbEntity
  8
0
  6
CONTINUOUS
 62
               2
100
AcDbLine
 10
9.1999999999999993
 20
15.0
 30
0.0
 11
14.400000000000002
 21
15.0
 31
0.0
  0
LINE
  5
57
100
AcDbEntity
  8
0
  6
CONTINUOUS
 62
               2
100
AcDbLine
 10
16.199999999999999
 20
8.0
 30
0.0
 11
21.400000000000002
 21
8.0
 31
0.0
  0
LINE
  5
58
100
AcDbEntity
  8
0
  6
CONTINUOUS
 62
               2
100
AcDbLine
 10
18.800000000000001
 20
10.600000000000001
 30
0.0
 11
18.800000000000001
 21
5.3999999999999986
 31
0.0
  0
LINE
  5
59
100
AcDbEntity
  8
0
  6
CONTINUOUS
 62
               2
100
AcDbLine
 10
34.800000476837155
 20
20.880168914794922
 30
0.0
 11
34.800000476837155
 21
14.894119131382922
 31
0.0
  0
LINE
  5
5A
100
AcDbEntity
  8
0
  6
CONTINUOUS
 62
               2
100
AcDbLine
 10
46.299999999999997
 20
20.880168914794922
 30
0.0
 11
46.299999999999997
 21
14.894119131382922
 31
0.0
  0
LINE
  5
5B
100
AcDbEntity
  8
0
  6
CONTINUOUS
 62
               2
100
AcDbLine
 10
41.099999999999994
 20
-7.5
 30
0.0
 11
51.5
 21
-7.5
 31
0.0
  0
LINE
  5
5C
100
AcDbEntity
  8
0
  6
CONTINUOUS
 62
               2
100
AcDbLine
 10
29.600000476837156
 20
7.5
 30
0.0
 11
40.000000476837158
 21
7.5
 31
0.0
  0
LINE
  5
5D
100
AcDbEntity
  8
0
  6
CONTINUOUS
 62
               7
100
AcDbLine
 10
-2.1999999999999993
 20
-24.0
 30
0.0
 11
0.0
 21
-24.0
 31
0.0
  0
LINE
  5
5E
100
AcDbEntity
  8
0
  6
CONTINUOUS
 62
               7
100
AcDbLine
 10
-2.1999999999999993
 20
-5.0
 30
0.0
 11
-2.1999999999999993
 21
-25.0
 31
0.0
  0
LINE
  5
5F
100
AcDbEntity
  8
0
  6
CONTINUOUS
 62
               7
100
AcDbLine
 10
53.799999999999997
 20
17.0
 30
0.0
 11
53.799999999999997
 21
-17.0
 31
0.0
  0
LINE
  5
60
100
AcDbEntity
  8
0
  6
CONTINUOUS
 62
               7
100
AcDbLine
 10
14.800000000000001
 20
-17.0
 30
0.0
 11
53.799999999999997
 21
-17.0
 31
0.0
  0
LINE
  5
61
100
AcDbEntity
  8
0
  6
CONTINUOUS
 62
               7
100
AcDbLine
 10
14.800000000000001
 20
25.0
 30
0.0
 11
14.800000000000001
 21
15.599845886230469
 31
0.0
  0
LINE
  5
62
100
AcDbEntity
  8
0
  6
CONTINUOUS
 62
               7
100
AcDbLine
 10
-2.1999999999999993
 20
-6.0
 30
0.0
 11
0.0
 21
-6.0
 31
0.0
  0
LINE
  5
63
100
AcDbEntity
  8
0
  6
CONTINUOUS
 62
               7
100
AcDbLine
 10
0.0
 20
25.0
 30
0.0
 11
0.0
 21
-25.0
 31
0.0
  0
LINE
  5
64
100
AcDbEntity
  8
0
  6
CONTINUOUS
 62
               7
100
AcDbLine
 10
-5.1999999999999993
 20
-9.2910480253932448
 30
0.0
 11
-5.1999999999999993
 21
-12.708951974606759
 31
0.0
  0
LINE
  5
65
100
AcDbEntity
  8
0
  6
CONTINUOUS
 62
               7
100
AcDbLine
 10
-4.9089519500732415
 20
-9.0
 30
0.0
 11
-4.9089519500732415
 21
-13.0
 31
0.0
  0
CIRCLE
  5
66
100
AcDbEntity
  8
0
  6
CONTINUOUS
 62
               7
100
AcDbCircle
 10
46.299999999999997
 20
-7.5
 30
0.0
 40
2.0670000000000002
  0
CIRCLE
  5
67
100
AcDbEntity
  8
0
  6
CONTINUOUS
 62
               7
100
AcDbCircle
 10
34.800000476837155
 20
7.5
 30
0.0
 40
2.0670000000000002
  0
CIRCLE
  5
68
100
AcDbEntity
  8
0
  6
CONTINUOUS
 62
               7
100
AcDbCircle
 10
13.800000000000001
 20
0.0
 30
0.0
 40
2.0670000000000002
  0
CIRCLE
  5
69
100
AcDbEntity
  8
0
  6
CONTINUOUS
 62
               7
100
AcDbCircle
 10
11.800000000000001
 20
15.0
 30
0.0
 40
1.2295
  0
LINE
  5
6A
100
AcDbEntity
  8
0
  6
CONTINUOUS
 62
               7
100
AcDbLine
 10
-5.1999999999999993
 20
-9.2910480253932448
 30
0.0
 11
-4.9089519500732415
 21
-9.0
 31
0.0
  0
LINE
  5
6B
100
AcDbEntity
  8
0
  6
CONTINUOUS
 62
               7
100
AcDbLine
 10
-5.1999999999999993
 20
-12.708951974606759
 30
0.0
 11
-4.9089519500732415
 21
-13.0
 31
0.0
  0
LINE
  5
6C
100
AcDbEntity
  8
0
  6
CONTINUOUS
 62
               7
100
AcDbLine
 10
0.0
 20
-25.0
 30
0.0
 11
14.800000000000001
 21
-25.0
 31
0.0
  0
LINE
  5
6D
100
AcDbEntity
  8
0
  6
CONTINUOUS
 62
               2
100
AcDbLine
 10
-6.6955425262451165
 20
11.0
 30
0.0
 11
0.0000007629394538
 21
11.0
 31
0.0
  0
LINE
  5
6E
100
AcDbEntity
  8
0
  6
CONTINUOUS
 62
               7
100
AcDbLine
 10
-2.1999999999999993
 20
25.0
 30
0.0
 11
0.0
 21
25.0
 31
0.0
  0
LINE
  5
6F
100
AcDbEntity
  8
0
  6
CONTINUOUS
 62
               7
100
AcDbLine
 10
-2.1999999999999993
 20
5.0
 30
0.0
 11
0.0
 21
5.0
 31
0.0
  0
LINE
  5
70
100
AcDbEntity
  8
0
  6
CONTINUOUS
 62
               7
100
AcDbLine
 10
-2.1999999999999993
 20
24.0
 30
0.0
 11
0.0
 21
24.0
 31
0.0
  0
LINE
  5
71
100
AcDbEntity
  8
0
  6
CONTINUOUS
 62
               7
100
AcDbLine
 10
-2.1999999999999993
 20
6.0
 30
0.0
 11
0.0
 21
6.0
 31
0.0
  0
LINE
  5
72
100
AcDbEntity
  8
0
  6
CONTINUOUS
 62
               7
100
AcDbLine
 10
-5.1999999999999993
 20
12.708951974606762
 30
0.0
 11
-4.9089519500732415
 21
13.0
 31
0.0
  0
LINE
  5
73
100
AcDbEntity
  8
0
  6
CONTINUOUS
 62
               7
100
AcDbLine
 10
-5.1999999999999993
 20
9.2910480253932448
 30
0.0
 11
-4.9089519500732415
 21
9.0
 31
0.0
  0
LINE
  5
74
100
AcDbEntity
  8
0
  6
CONTINUOUS
 62
               7
100
AcDbLine
 10
-4.9089519500732415
 20
9.0
 30
0.0
 11
-4.9089519500732415
 21
13.0
 31
0.0
  0
LINE
  5
75
100
AcDbEntity
  8
0
  6
CONTINUOUS
 62
               7
100
AcDbLine
 10
-5.1999999999999993
 20
9.2910480253932448
 30
0.0
 11
-5.1999999999999993
 21
12.708951974606762
 31
0.0
  0
LINE
  5
76
100
AcDbEntity
  8
0
  6
CONTINUOUS
 62
               7
100
AcDbLine
 10
-2.1999999999999993
 20
5.0
 30
0.0
 11
-2.1999999999999993
 21
25.0
 31
0.0
  0
LINE
  5
77
100
AcDbEntity
  8
0
  6
CONTINUOUS
 62
               7
100
AcDbLine
 10
-4.9089519500732415
 20
13.0
 30
0.0
 11
-2.1999999999999993
 21
13.0
 31
0.0
  0
LINE
  5
78
100
AcDbEntity
  8
0
  6
CONTINUOUS
 62
               7
100
AcDbLine
 10
-4.9089519500732415
 20
9.0
 30
0.0
 11
-2.1999999999999993
 21
9.0
 31
0.0
  0
LINE
  5
79
100
AcDbEntity
  8
0
  6
CONTINUOUS
 62
               7
100
AcDbLine
 10
0.0
 20
25.0
 30
0.0
 11
14.800000000000001
 21
25.0
 31
0.0
  0
LINE
  5
7A
100
AcDbEntity
  8
0
  6
CONTINUOUS
 62
               7
100
AcDbLine
 10
14.800000000000001
 20
15.599845886230469
 30
0.0
 11
53.799999999999997
 21
15.599845886230469
 31
0.0
  0
LINE
  5
7B
100
AcDbEntity
  8
0
  6
CONTINUOUS
 62
               7
100
AcDbLine
 10
14.800000000000001
 20
17.0
 30
0.0
 11
53.799999999999997
 21
17.0
 31
0.0
  0
LINE
  5
7C
100
AcDbEntity
  8
0
  6
CONTINUOUS
 62
               2
100
AcDbLine
 10
26.200000312924384
 20
-12.0
 30
0.0
 11
31.400000312924387
 21
-12.0
 31
0.0
  0
LINE
  5
7D
100
AcDbEntity
  8
0
  6
CONTINUOUS
 62
               2
100
AcDbLine
 10
28.800000312924386
 20
-14.600000000000001
 30
0.0
 11
28.800000312924386
 21
-9.3999999999999986
 31
0.0
  0
CIRCLE
  5
7E
100
AcDbEntity
  8
0
  6
CONTINUOUS
 62
               7
100
AcDbCircle
 10
18.800000000000001
 20
-8.0
 30
0.0
 40
1.5
  0
LINE
  5
7F
100
AcDbEntity
  8
0
  6
CONTINUOUS
 62
               2
100
AcDbLine
 10
16.199999999999999
 20
-8.0
 30
0.0
 11
21.400000000000002
 21
-8.0
 31
0.0
  0
LINE
  5
80
100
AcDbEntity
  8
0
  6
CONTINUOUS
 62
               2
100
AcDbLine
 10
18.800000000000001
 20
-10.600000000000001
 30
0.0
 11
18.800000000000001
 21
-5.3999999999999986
 31
0.0
  0
CIRCLE
  5
81
100
AcDbEntity
  8
0
  6
CONTINUOUS
 62
               2
100
AcDbCircle
 10
11.800000000000001
 20
-15.0
 30
0.0
 40
1.5
  0
LINE
  5
82
100
AcDbEntity
  8
0
  6
CONTINUOUS
 62
               2
100
AcDbLine
 10
11.800000000000001
 20
-17.600000000000001
 30
0.0
 11
11.800000000000001
 21
-12.399999999999999
 31
0.0
  0
CIRCLE
  5
83
100
AcDbEntity
  8
0
  6
CONTINUOUS
 62
               7
100
AcDbCircle
 10
11.800000000000001
 20
-15.0
 30
0.0
 40
1.2295
  0
LINE
  5
84
100
AcDbEntity
  8
0
  6
CONTINUOUS
 62
               2
100
AcDbLine
 10
9.1999999999999993
 20
-15.0
 30
0.0
 11
14.400000000000002
 21
-15.0
 31
0.0
  0
CIRCLE
  5
85
100
AcDbEntity
  8
0
  6
CONTINUOUS
 62
               7
100
AcDbCircle
 10
28.800000312924386
 20
12.0
 30
0.0
 40
1.7
  0
CIRCLE
  5
86
100
AcDbEntity
  8
0
  6
CONTINUOUS
 62
               7
100
AcDbCircle
 10
28.800000312924386
 20
-12.0
 30
0.0
 40
1.7
  0
LINE
  5
87
100
AcDbEntity
  8
0
  6
CONTINUOUS
 62
               2
100
AcDbLine
 10
51.299999999999997
 20
13.0
 30
0.0
 11
56.299999999999997
 21
13.0
 31
0.0
  0
LINE
  5
88
100
AcDbEntity
  8
0
  6
CONTINUOUS
 62
               2
100
AcDbLine
 10
51.299999999999997
 20
-12.999999999999993
 30
0.0
 11
56.299999999999997
 21
-12.999999999999993
 31
0.0
  0
LINE
  5
89
100
AcDbEntity
  8
0
  6
CONTINUOUS
 62
               2
100
AcDbLine
 10
12.300000000000001
 20
21.0
 30
0.0
 11
17.300000000000001
 21
21.0
 31
0.0
  0
LINE
  5
8A
100
AcDbEntity
  8
0
  6
CONTINUOUS
 62
               2
100
AcDbLine
 10
12.300000000000001
 20
-20.999999999999993
 30
0.0
 11
17.300000000000001
 21
-20.999999999999993
 31
0.0
  0
LINE
  5
8B
100
AcDbEntity
  8
0
  6
CONTINUOUS
 62
               2
100
AcDbLine
 10
-4.6999999999999993
 20
19.0
 30
0.0
 11
1.3000000000000007
 21
19.0
 31
0.0
  0
LINE
  5
8C
100
AcDbEntity
  8
0
  6
CONTINUOUS
 62
               2
100
AcDbLine
 10
-4.6999999999999993
 20
-19.0
 30
0.0
 11
1.3000000000000007
 21
-19.0
 31
0.0
  0
LINE
  5
8D
100
AcDbEntity
  8
0
  6
CONTINUOUS
 62
               2
100
AcDbLine
 10
33.800000476837155
 20
-19.5
 30
0.0
 11
33.800000476837155
 21
-14.5
 31
0.0
  0
ENDBLK
  5
8E
100
AcDbEntity
  8
0
100
AcDbBlockEnd
  0
BLOCK
  5
8F
100
AcDbEntity
  8
0
100
AcDbBlockBegin
  2
CS-NHBDPG-16-2
 70
               0
 10
0.0
 20
0.0
 30
0.0
  3
CS-NHBDPG-16-2
  1

  0
ARC
  5
90
100
AcDbEntity
  8
0
  6
CONTINUOUS
 62
               7
100
AcDbCircle
 10
0.0
 20
0.0
 30
0.0
 40
27.0
100
AcDbArc
 50
292.19160656627275
 51
297.57846836885761
  0
ARC
  5
91
100
AcDbEntity
  8
0
  6
CONTINUOUS
 62
               7
100
AcDbCircle
 10
0.0
 20
0.0
 30
0.0
 40
27.0
100
AcDbArc
 50
242.42153202187686
 51
247.80839343372719
  0
ARC
  5
92
100
AcDbEntity
  8
0
  6
CONTINUOUS
 62
               7
100
AcDbCircle
 10
0.0
 20
0.0
 30
0.0
 40
27.0
100
AcDbArc
 50
112.19162799842775
 51
117.57846797812314
  0
ARC
  5
93
100
AcDbEntity
  8
0
  6
CONTINUOUS
 62
               7
100
AcDbCircle
 10
0.0
 20
0.0
 30
0.0
 40
27.0
100
AcDbArc
 50
62.421532021876871
 51
67.808372001572238
  0
CIRCLE
  5
94
100
AcDbEntity
  8
0
  6
CONTINUOUS
 62
               2
100
AcDbCircle
 10
0.0
 20
-19.0
 30
0.0
 40
2.0
  0
CIRCLE
  5
95
100
AcDbEntity
  8
0
  6
CONTINUOUS
 62
               2
100
AcDbCircle
 10
0.0
 20
19.000000000000007
 30
0.0
 40
2.0
  0
CIRCLE
  5
96
100
AcDbEntity
  8
0
  6
CONTINUOUS
 62
               7
100
AcDbCircle
 10
0.0
 20
11.000000000000007
 30
0.0
 40
2.0
  0
CIRCLE
  5
97
100
AcDbEntity
  8
0
  6
CONTINUOUS
 62
               7
100
AcDbCircle
 10
0.0
 20
-11.0
 30
0.0
 40
2.0
  0
LINE
  5
98
100
AcDbEntity
  8
0
  6
CONTINUOUS
 62
               7
100
AcDbLine
 10
-4.5
 20
-25.0
 30
0.0
 11
-10.198039027185573
 21
-25.0
 31
0.0
  0
LINE
  5
99
100
AcDbEntity
  8
0
  6
CONTINUOUS
 62
               7
100
AcDbLine
 10
-4.5
 20
24.999996185302741
 30
0.0
 11
-10.198048378726597
 21
24.999996185302741
 31
0.0
  0
LINE
  5
9A
100
AcDbEntity
  8
0
  6
CONTINUOUS
 62
               7
100
AcDbLine
 10
10.0
 20
-25.0
 30
0.0
 11
10.0
 21
24.999996185302741
 31
0.0
  0
LINE
  5
9B
100
AcDbEntity
  8
0
  6
CONTINUOUS
 62
               7
100
AcDbLine
 10
-10.0
 20
-25.0
 30
0.0
 11
-10.0
 21
24.999996185302741
 31
0.0
  0
LINE
  5
9C
100
AcDbEntity
  8
0
  6
CONTINUOUS
 62
               2
100
AcDbLine
 10
0.0
 20
-27.133020233760071
 30
0.0
 11
0.0
 21
27.133020233760071
 31
0.0
  0
LINE
  5
9D
100
AcDbEntity
  8
0
  6
CONTINUOUS
 62
               7
100
AcDbLine
 10
-4.5
 20
5.0000000000000071
 30
0.0
 11
-4.5
 21
25.000000000000007
 31
0.0
  0
LINE
  5
9E
100
AcDbEntity
  8
0
  6
CONTINUOUS
 62
               7
100
AcDbLine
 10
4.5
 20
5.0000000000000071
 30
0.0
 11
4.5
 21
25.000000000000007
 31
0.0
  0
LINE
  5
9F
100
AcDbEntity
  8
0
  6
CONTINUOUS
 62
               7
100
AcDbLine
 10
-5.0
 20
-25.0
 30
0.0
 11
-5.0
 21
24.999996185302741
 31
0.0
  0
LINE
  5
A0
100
AcDbEntity
  8
0
  6
CONTINUOUS
 62
               7
100
AcDbLine
 10
5.0
 20
-25.0
 30
0.0
 11
5.0
 21
24.999996185302741
 31
0.0
  0
LINE
  5
A1
100
AcDbEntity
  8
0
  6
CONTINUOUS
 62
               7
100
AcDbLine
 10
-12.5
 20
-23.932195887548637
 30
0.0
 11
-12.5
 21
23.932195887548637
 31
0.0
  0
LINE
  5
A2
100
AcDbEntity
  8
0
  6
CONTINUOUS
 62
               7
100
AcDbLine
 10
12.5
 20
-23.932195887548644
 30
0.0
 11
12.5
 21
23.932195887548644
 31
0.0
  0
LINE
  5
A3
100
AcDbEntity
  8
0
  6
CONTINUOUS
 62
               7
100
AcDbLine
 10
4.5
 20
-6.0
 30
0.0
 11
-4.5
 21
-6.0
 31
0.0
  0
LINE
  5
A4
100
AcDbEntity
  8
0
  6
CONTINUOUS
 62
               7
100
AcDbLine
 10
4.5
 20
6.0000000000000071
 30
0.0
 11
-4.5
 21
6.0000000000000071
 31
0.0
  0
LINE
  5
A5
100
AcDbEntity
  8
0
  6
CONTINUOUS
 62
               7
100
AcDbLine
 10
4.5
 20
24.000000000000007
 30
0.0
 11
-4.5
 21
24.000000000000007
 31
0.0
  0
LINE
  5
A6
100
AcDbEntity
  8
0
  6
CONTINUOUS
 62
               7
100
AcDbLine
 10
4.5
 20
-24.0
 30
0.0
 11
-4.5
 21
-24.0
 31
0.0
  0
LINE
  5
A7
100
AcDbEntity
  8
0
  6
CONTINUOUS
 62
               2
100
AcDbLine
 10
3.3999999999999986
 20
-19.0
 30
0.0
 11
-3.3999999999999986
 21
-19.0
 31
0.0
  0
LINE
  5
A8
100
AcDbEntity
  8
0
  6
CONTINUOUS
 62
               2
100
AcDbLine
 10
3.3999999999999986
 20
19.000000000000007
 30
0.0
 11
-3.3999999999999986
 21
19.000000000000007
 31
0.0
  0
LINE
  5
A9
100
AcDbEntity
  8
0
  6
CONTINUOUS
 62
               2
100
AcDbLine
 10
3.3999999999999986
 20
11.000000000000007
 30
0.0
 11
-3.3999999999999986
 21
11.000000000000007
 31
0.0
  0
LINE
  5
AA
100
AcDbEntity
  8
0
  6
CONTINUOUS
 62
               2
100
AcDbLine
 10
3.3999999999999986
 20
-11.0
 30
0.0
 11
-3.3999999999999986
 21
-11.0
 31
0.0
  0
LINE
  5
AB
100
AcDbEntity
  8
0
  6
CONTINUOUS
 62
               7
100
AcDbLine
 10
4.5
 20
-5.0
 30
0.0
 11
-4.5
 21
-5.0
 31
0.0
  0
LINE
  5
AC
100
AcDbEntity
  8
0
  6
CONTINUOUS
 62
               7
100
AcDbLine
 10
4.5
 20
-25.0
 30
0.0
 11
-4.5
 21
-25.0
 31
0.0
  0
LINE
  5
AD
100
AcDbEntity
  8
0
  6
CONTINUOUS
 62
               7
100
AcDbLine
 10
4.5
 20
25.000000000000007
 30
0.0
 11
-4.5
 21
25.000000000000007
 31
0.0
  0
LINE
  5
AE
100
AcDbEntity
  8
0
  6
CONTINUOUS
 62
               7
100
AcDbLine
 10
4.5
 20
5.0000000000000071
 30
0.0
 11
-4.5
 21
5.0000000000000071
 31
0.0
  0
LINE
  5
AF
100
AcDbEntity
  8
0
  6
CONTINUOUS
 62
               7
100
AcDbLine
 10
-4.5
 20
-25.0
 30
0.0
 11
-4.5
 21
-5.0
 31
0.0
  0
LINE
  5
B0
100
AcDbEntity
  8
0
  6
CONTINUOUS
 62
               7
100
AcDbLine
 10
4.5
 20
-25.0
 30
0.0
 11
4.5
 21
-5.0
 31
0.0
  0
LINE
  5
B1
100
AcDbEntity
  8
0
  6
CONTINUOUS
 62
               7
100
AcDbLine
 10
10.198039027185558
 20
-25.0
 30
0.0
 11
4.5
 21
-25.0
 31
0.0
  0
LINE
  5
B2
100
AcDbEntity
  8
0
  6
CONTINUOUS
 62
               7
100
AcDbLine
 10
10.198048378726611
 20
24.999996185302741
 30
0.0
 11
4.5
 21
24.999996185302741
 31
0.0
  0
CIRCLE
  5
B3
100
AcDbEntity
  8
0
  6
CONTINUOUS
 62
               7
100
AcDbCircle
 10
0.0
 20
19.000000000000007
 30
0.0
 40
1.621
  0
CIRCLE
  5
B4
100
AcDbEntity
  8
0
  6
CONTINUOUS
 62
               7
100
AcDbCircle
 10
0.0
 20
-19.0
 30
0.0
 40
1.621
  0
LINE
  5
B5
100
AcDbEntity
  8
0
  6
CONTINUOUS
 62
               2
100
AcDbLine
 10
10.0
 20
15.000000000000007
 30
0.0
 11
15.0
 21
15.000000000000007
 31
0.0
  0
LINE
  5
B6
100
AcDbEntity
  8
0
  6
CONTINUOUS
 62
               2
100
AcDbLine
 10
10.0
 20
7.5000000000000071
 30
0.0
 11
15.0
 21
7.5000000000000071
 31
0.0
  0
LINE
  5
B7
100
AcDbEntity
  8
0
  6
CONTINUOUS
 62
               2
100
AcDbLine
 10
10.0
 20
-7.4999999999999929
 30
0.0
 11
15.0
 21
-7.4999999999999929
 31
0.0
  0
LINE
  5
B8
100
AcDbEntity
  8
0
  6
CONTINUOUS
 62
               2
100
AcDbLine
 10
10.0
 20
-14.999999999999993
 30
0.0
 11
15.0
 21
-14.999999999999993
 31
0.0
  0
LINE
  5
B9
100
AcDbEntity
  8
0
  6
CONTINUOUS
 62
               2
100
AcDbLine
 10
-15.0
 20
14.999999999999993
 30
0.0
 11
-10.0
 21
14.999999999999993
 31
0.0
  0
LINE
  5
BA
100
AcDbEntity
  8
0
  6
CONTINUOUS
 62
               2
100
AcDbLine
 10
-15.0
 20
8.0
 30
0.0
 11
-10.0
 21
8.0
 31
0.0
  0
LINE
  5
BB
100
AcDbEntity
  8
0
  6
CONTINUOUS
 62
               2
100
AcDbLine
 10
-15.0
 20
-8.0
 30
0.0
 11
-10.0
 21
-8.0
 31
0.0
  0
LINE
  5
BC
100
AcDbEntity
  8
0
  6
CONTINUOUS
 62
               2
100
AcDbLine
 10
-15.0
 20
-15.000000000000007
 30
0.0
 11
-10.0
 21
-15.000000000000007
 31
0.0
  0
LINE
  5
BD
100
AcDbEntity
  8
0
  6
CONTINUOUS
 62
               2
100
AcDbLine
 10
-15.0
 20
-12.0
 30
0.0
 11
15.0
 21
-12.0
 31
0.0
  0
LINE
  5
BE
100
AcDbEntity
  8
0
  6
CONTINUOUS
 62
               2
100
AcDbLine
 10
-15.0
 20
12.0
 30
0.0
 11
15.0
 21
12.0
 31
0.0
  0
LINE
  5
BF
100
AcDbEntity
  8
0
  6
CONTINUOUS
 62
               2
100
AcDbLine
 10
16.351844787597656
 20
0.0
 30
0.0
 11
-16.351844787597656
 21
0.0
 31
0.0
  0
ENDBLK
  5
C0
100
AcDbEntity
  8
0
100
AcDbBlockEnd
  0
BLOCK
  5
C1
100
AcDbEntity
  8
0
100
AcDbBlockBegin
  2
CS-NHBDPG-16-3
 70
               0
 10
0.0
 20
0.0
 30
0.0
  3
CS-NHBDPG-16-3
  1

  0
CIRCLE
  5
C2
100
AcDbEntity
  8
0
  6
CONTINUOUS
 62
               2
100
AcDbCircle
 10
0.0
 20
21.0
 30
0.0
 40
2.0
  0
CIRCLE
  5
C3
100
AcDbEntity
  8
0
  6
CONTINUOUS
 62
               2
100
AcDbCircle
 10
0.0
 20
-20.999999999999993
 30
0.0
 40
2.0
  0
ARC
  5
C4
100
AcDbEntity
  8
0
  6
CONTINUOUS
 62
               7
100
AcDbCircle
 10
7.5
 20
21.25
 30
0.0
 40
2.5499999523162842
100
AcDbArc
 50
316.89290641762852
 51
209.35344898104881
  0
ARC
  5
C5
100
AcDbEntity
  8
0
  6
CONTINUOUS
 62
               7
100
AcDbCircle
 10
7.5
 20
21.25
 30
0.0
 40
3.0
100
AcDbArc
 50
311.81029266455937
 51
204.62433528275869
  0
ARC
  5
C6
100
AcDbEntity
  8
0
  6
CONTINUOUS
 62
               7
100
AcDbCircle
 10
-7.5
 20
21.25
 30
0.0
 40
2.5499999523162842
100
AcDbArc
 50
330.64650639535051
 51
0.0000025044781673
  0
ARC
  5
C7
100
AcDbEntity
  8
0
  6
CONTINUOUS
 62
               7
100
AcDbCircle
 10
-7.5
 20
21.25
 30
0.0
 40
3.0
100
AcDbArc
 50
335.37567473515395
 51
0.0000025044781673
  0
ARC
  5
C8
100
AcDbEntity
  8
0
  6
CONTINUOUS
 62
               7
100
AcDbCircle
 10
8.5
 20
19.0
 30
0.0
 40
1.0
100
AcDbArc
 50
0.0000025044781673
 51
89.99997768819965
  0
ARC
  5
C9
100
AcDbEntity
  8
0
  6
CONTINUOUS
 62
               7
100
AcDbCircle
 10
3.5
 20
19.0
 30
0.0
 40
1.0
100
AcDbArc
 50
89.99997768819965
 51
179.99997336248865
  0
ARC
  5
CA
100
AcDbEntity
  8
0
  6
CONTINUOUS
 62
               7
100
AcDbCircle
 10
-3.5
 20
19.0
 30
0.0
 40
1.0
100
AcDbArc
 50
0.0000025044781673
 51
89.99997768819965
  0
ARC
  5
CB
100
AcDbEntity
  8
0
  6
CONTINUOUS
 62
               7
100
AcDbCircle
 10
-8.5
 20
19.0
 30
0.0
 40
1.0
100
AcDbArc
 50
89.99997768819965
 51
179.99997336248865
  0
CIRCLE
  5
CC
100
AcDbEntity
  8
0
  6
CONTINUOUS
 62
               2
100
AcDbCircle
 10
7.0
 20
-12.999999999999993
 30
0.0
 40
2.0
  0
CIRCLE
  5
CD
100
AcDbEntity
  8
0
  6
CONTINUOUS
 62
               2
100
AcDbCircle
 10
-7.0
 20
13.0
 30
0.0
 40
2.0
  0
CIRCLE
  5
CE
100
AcDbEntity
  8
0
  6
CONTINUOUS
 62
               7
100
AcDbCircle
 10
7.5
 20
-21.249999999999993
 30
0.0
 40
3.0
  0
CIRCLE
  5
CF
100
AcDbEntity
  8
0
  6
CONTINUOUS
 62
               7
100
AcDbCircle
 10
-7.5
 20
-21.249999999999993
 30
0.0
 40
2.5499999523162842
  0
CIRCLE
  5
D0
100
AcDbEntity
  8
0
  6
CONTINUOUS
 62
               7
100
AcDbCircle
 10
-7.5
 20
-21.249999999999993
 30
0.0
 40
3.0
  0
CIRCLE
  5
D1
100
AcDbEntity
  8
0
  6
CONTINUOUS
 62
               7
100
AcDbCircle
 10
7.5
 20
-21.249999999999993
 30
0.0
 40
2.5499999523162842
  0
ARC
  5
D2
100
AcDbEntity
  8
0
  6
CONTINUOUS
 62
               7
100
AcDbCircle
 10
-7.5
 20
21.25
 30
0.0
 40
3.0
100
AcDbArc
 50
0.0000025044781673
 51
228.18966271183993
  0
CIRCLE
  5
D3
100
AcDbEntity
  8
0
  6
CONTINUOUS
 62
               7
100
AcDbCircle
 10
0.0
 20
-0.0000000000000071
 30
0.0
 40
8.5
  0
ARC
  5
D4
100
AcDbEntity
  8
0
  6
CONTINUOUS
 62
               7
100
AcDbCircle
 10
0.7875137329101563
 20
-0.0000000000000071
 30
0.0
 40
7.5
100
AcDbArc
 50
34.136884995040866
 51
325.86311637144979
  0
ARC
  5
D5
100
AcDbEntity
  8
0
  6
CONTINUOUS
 62
               7
100
AcDbCircle
 10
7.5
 20
3.3455162048339844
 30
0.0
 40
0.5
100
AcDbArc
 50
80.332177438297506
 51
327.74814373162616
  0
ARC
  5
D6
100
AcDbEntity
  8
0
  6
CONTINUOUS
 62
               7
100
AcDbCircle
 10
7.5
 20
3.3455162048339844
 30
0.0
 40
1.0
100
AcDbArc
 50
120.31432796166288
 51
307.44423996211043
  0
ARC
  5
D7
100
AcDbEntity
  8
0
  6
CONTINUOUS
 62
               7
100
AcDbCircle
 10
7.5
 20
-3.3455200195312429
 30
0.0
 40
0.5
100
AcDbArc
 50
32.252053262461438
 51
279.66757695596516
  0
ARC
  5
D8
100
AcDbEntity
  8
0
  6
CONTINUOUS
 62
               7
100
AcDbCircle
 10
7.5
 20
-3.3455200195312429
 30
0.0
 40
1.0
100
AcDbArc
 50
52.55582984799225
 51
239.6856907076718
  0
ARC
  5
D9
100
AcDbEntity
  8
0
  6
CONTINUOUS
 62
               7
100
AcDbCircle
 10
-7.5
 20
21.25
 30
0.0
 40
2.5499999523162842
100
AcDbArc
 50
0.0000025044781673
 51
218.34268826845928
  0
CIRCLE
  5
DA
100
AcDbEntity
  8
0
  6
CONTINUOUS
 62
               7
100
AcDbCircle
 10
0.0
 20
-11.999999999999993
 30
0.0
 40
2.5
  0
CIRCLE
  5
DB
100
AcDbEntity
  8
0
  6
CONTINUOUS
 62
               7
100
AcDbCircle
 10
0.0
 20
12.0
 30
0.0
 40
2.5
  0
ARC
  5
DC
100
AcDbEntity
  8
0
  6
CONTINUOUS
 62
               7
100
AcDbCircle
 10
0.0
 20
-0.0000000000000071
 30
0.0
 40
20.0
100
AcDbArc
 50
231.31781254651054
 51
238.21166938294829
  0
ARC
  5
DD
100
AcDbEntity
  8
0
  6
CONTINUOUS
 62
               7
100
AcDbCircle
 10
0.0
 20
-0.0000000000000071
 30
0.0
 40
20.0
100
AcDbArc
 50
301.78833061705171
 51
308.68218745348946
  0
ARC
  5
DE
100
AcDbEntity
  8
0
  6
CONTINUOUS
 62
               7
100
AcDbCircle
 10
0.0
 20
-0.0000000000000071
 30
0.0
 40
20.0
100
AcDbArc
 50
51.317812546510567
 51
58.211669382948401
  0
ARC
  5
DF
100
AcDbEntity
  8
0
  6
CONTINUOUS
 62
               7
100
AcDbCircle
 10
0.0
 20
-0.0000000000000071
 30
0.0
 40
27.0
100
AcDbArc
 50
242.42153202187686
 51
247.80839343372713
  0
ARC
  5
E0
100
AcDbEntity
  8
0
  6
CONTINUOUS
 62
               7
100
AcDbCircle
 10
0.0
 20
-0.0000000000000071
 30
0.0
 40
27.0
100
AcDbArc
 50
292.19160656627287
 51
297.57846797812311
  0
ARC
  5
E1
100
AcDbEntity
  8
0
  6
CONTINUOUS
 62
               7
100
AcDbCircle
 10
0.0
 20
-0.0000000000000071
 30
0.0
 40
27.0
100
AcDbArc
 50
62.421532021876871
 51
67.808393433727247
  0
ARC
  5
E2
100
AcDbEntity
  8
0
  6
CONTINUOUS
 62
               7
100
AcDbCircle
 10
0.0
 20
-0.0000000000000071
 30
0.0
 40
27.0
100
AcDbArc
 50
112.19160656627275
 51
117.57846797812314
  0
ARC
  5
E3
100
AcDbEntity
  8
0
  6
CONTINUOUS
 62
               7
100
AcDbCircle
 10
0.0
 20
-0.0000000000000071
 30
0.0
 40
20.0
100
AcDbArc
 50
121.78833061705157
 51
128.68218745348943
  0
LINE
  5
E4
100
AcDbEntity
  8
0
  6
CONTINUOUS
 62
               7
100
AcDbLine
 10
8.9999929170539872
 20
-21.249994227511245
 30
0.0
 11
8.2499929170539872
 21
-19.950956145150023
 31
0.0
  0
LINE
  5
E5
100
AcDbEntity
  8
0
  6
CONTINUOUS
 62
               7
100
AcDbLine
 10
8.25
 20
-19.950958251953118
 30
0.0
 11
6.75
 21
-19.950958251953118
 31
0.0
  0
LINE
  5
E6
100
AcDbEntity
  8
0
  6
CONTINUOUS
 62
               2
100
AcDbLine
 10
-3.2291412353515625
 20
-20.999999999999993
 30
0.0
 11
3.2291412353515625
 21
-20.999999999999993
 31
0.0
  0
LINE
  5
E7
100
AcDbEntity
  8
0
  6
CONTINUOUS
 62
               2
100
AcDbLine
 10
-3.2291412353515625
 20
21.0
 30
0.0
 11
3.2291412353515625
 21
21.0
 31
0.0
  0
LINE
  5
E8
100
AcDbEntity
  8
0
  6
CONTINUOUS
 62
               2
100
AcDbLine
 10
6.0
 20
21.717044830322266
 30
0.0
 11
6.0
 21
15.982532501220703
 31
0.0
  0
LINE
  5
E9
100
AcDbEntity
  8
0
  6
CONTINUOUS
 62
               2
100
AcDbLine
 10
-6.0
 20
21.478107452392578
 30
0.0
 11
-6.0
 21
15.982532501220703
 31
0.0
  0
LINE
  5
EA
100
AcDbEntity
  8
0
  6
CONTINUOUS
 62
               7
100
AcDbLine
 10
3.5
 20
20.0
 30
0.0
 11
8.5
 21
20.0
 31
0.0
  0
LINE
  5
EB
100
AcDbEntity
  8
0
  6
CONTINUOUS
 62
               7
100
AcDbLine
 10
2.5
 20
19.0
 30
0.0
 11
2.5
 21
17.0
 31
0.0
  0
LINE
  5
EC
100
AcDbEntity
  8
0
  6
CONTINUOUS
 62
               7
100
AcDbLine
 10
9.5
 20
19.0
 30
0.0
 11
9.5
 21
17.0
 31
0.0
  0
LINE
  5
ED
100
AcDbEntity
  8
0
  6
CONTINUOUS
 62
               7
100
AcDbLine
 10
-2.5
 20
19.0
 30
0.0
 11
-2.5
 21
17.0
 31
0.0
  0
LINE
  5
EE
100
AcDbEntity
  8
0
  6
CONTINUOUS
 62
               7
100
AcDbLine
 10
-9.5
 20
19.0
 30
0.0
 11
-9.5
 21
17.0
 31
0.0
  0
LINE
  5
EF
100
AcDbEntity
  8
0
  6
CONTINUOUS
 62
               7
100
AcDbLine
 10
-8.5
 20
20.0
 30
0.0
 11
-3.5
 21
20.0
 31
0.0
  0
LINE
  5
F0
100
AcDbEntity
  8
0
  6
CONTINUOUS
 62
               2
100
AcDbLine
 10
-16.200965881347656
 20
-0.0000000000000071
 30
0.0
 11
16.200965881347656
 21
0.0000000000000071
 31
0.0
  0
LINE
  5
F1
100
AcDbEntity
  8
0
  6
CONTINUOUS
 62
               2
100
AcDbLine
 10
-7.0
 20
15.600000000000001
 30
0.0
 11
-7.0
 21
10.399999999999999
 31
0.0
  0
LINE
  5
F2
100
AcDbEntity
  8
0
  6
CONTINUOUS
 62
               2
100
AcDbLine
 10
7.0
 20
-10.399999999999999
 30
0.0
 11
7.0
 21
-15.599999999999987
 31
0.0
  0
LINE
  5
F3
100
AcDbEntity
  8
0
  6
CONTINUOUS
 62
               7
100
AcDbLine
 10
-6.75
 20
-19.950958251953118
 30
0.0
 11
-8.25
 21
-19.950958251953118
 31
0.0
  0
LINE
  5
F4
100
AcDbEntity
  8
0
  6
CONTINUOUS
 62
               7
100
AcDbLine
 10
-6.000007040444757
 20
-21.249994436127501
 30
0.0
 11
-6.750007040444757
 21
-19.95095635376628
 31
0.0
  0
LINE
  5
F5
100
AcDbEntity
  8
0
  6
CONTINUOUS
 62
               2
100
AcDbLine
 10
4.4000000000000057
 20
-12.999999999999993
 30
0.0
 11
9.5999999999999943
 21
-12.999999999999993
 31
0.0
  0
LINE
  5
F6
100
AcDbEntity
  8
0
  6
CONTINUOUS
 62
               2
100
AcDbLine
 10
-9.5999999999999943
 20
13.0
 30
0.0
 11
-4.4000000000000057
 21
13.0
 31
0.0
  0
LINE
  5
F7
100
AcDbEntity
  8
0
  6
CONTINUOUS
 62
               7
100
AcDbLine
 10
-8.2500035966472751
 20
-19.950961291087417
 30
0.0
 11
-9.0000035966472751
 21
-21.249999373448638
 31
0.0
  0
LINE
  5
F8
100
AcDbEntity
  8
0
  6
CONTINUOUS
 62
               7
100
AcDbLine
 10
8.9999926565428723
 20
21.249997408320951
 30
0.0
 11
8.2783063034094084
 21
20.0
 31
0.0
  0
LINE
  5
F9
100
AcDbEntity
  8
0
  6
CONTINUOUS
 62
               7
100
AcDbLine
 10
6.7216838635325757
 20
20.0
 30
0.0
 11
5.9999947311316646
 21
21.250002222153398
 31
0.0
  0
LINE
  5
FA
100
AcDbEntity
  8
0
  6
CONTINUOUS
 62
               7
100
AcDbLine
 10
5.9999929954055915
 20
21.249997259309339
 30
0.0
 11
6.7499929954055915
 21
22.54903534167056
 31
0.0
  0
LINE
  5
FB
100
AcDbEntity
  8
0
  6
CONTINUOUS
 62
               7
100
AcDbLine
 10
8.25
 20
22.549037933349609
 30
0.0
 11
6.75
 21
22.549037933349609
 31
0.0
  0
LINE
  5
FC
100
AcDbEntity
  8
0
  6
CONTINUOUS
 62
               7
100
AcDbLine
 10
8.9999943922689454
 20
21.250002073141786
 30
0.0
 11
8.2499943922689454
 21
22.549040155503008
 31
0.0
  0
LINE
  5
FD
100
AcDbEntity
  8
0
  6
CONTINUOUS
 62
               7
100
AcDbLine
 10
-6.0000039355099943
 20
-21.249999224437026
 30
0.0
 11
-6.7500039355099943
 21
-22.549037306798247
 31
0.0
  0
LINE
  5
FE
100
AcDbEntity
  8
0
  6
CONTINUOUS
 62
               7
100
AcDbLine
 10
-6.75
 20
-22.549041748046868
 30
0.0
 11
-8.25
 21
-22.549041748046868
 31
0.0
  0
LINE
  5
FF
100
AcDbEntity
  8
0
  6
CONTINUOUS
 62
               7
100
AcDbLine
 10
8.25
 20
-22.549041748046868
 30
0.0
 11
6.75
 21
-22.549041748046868
 31
0.0
  0
LINE
  5
100
100
AcDbEntity
  8
0
  6
CONTINUOUS
 62
               7
100
AcDbLine
 10
8.9999924628277768
 20
-21.250001783003647
 30
0.0
 11
8.2499943701764096
 21
-22.549036561740188
 31
0.0
  0
LINE
  5
101
100
AcDbEntity
  8
0
  6
CONTINUOUS
 62
               7
100
AcDbLine
 10
-6.000007217042139
 20
21.250000910851213
 30
0.0
 11
-6.750007217042139
 21
22.549038993212434
 31
0.0
  0
LINE
  5
102
100
AcDbEntity
  8
0
  6
CONTINUOUS
 62
               7
100
AcDbLine
 10
-6.75
 20
22.549037933349609
 30
0.0
 11
-8.25
 21
22.549037933349609
 31
0.0
  0
LINE
  5
103
100
AcDbEntity
  8
0
  6
CONTINUOUS
 62
               7
100
AcDbLine
 10
-9.0000053102808124
 20
21.249996514251279
 30
0.0
 11
-8.2500053102808124
 21
22.549034596612501
 31
0.0
  0
LINE
  5
104
100
AcDbEntity
  8
0
  6
CONTINUOUS
 62
               7
100
AcDbLine
 10
5.9999916041043662
 20
-21.249995032173949
 30
0.0
 11
6.7499916041043662
 21
-22.54903311453517
 31
0.0
  0
LINE
  5
105
100
AcDbEntity
  8
0
  6
CONTINUOUS
 62
               7
100
AcDbLine
 10
-9.0000067015820377
 20
-21.249994287115889
 30
0.0
 11
-8.2500067015820377
 21
-22.549032369477111
 31
0.0
  0
LINE
  5
106
100
AcDbEntity
  8
0
  6
CONTINUOUS
 62
               7
100
AcDbLine
 10
6.749992801690496
 20
-19.950963849654038
 30
0.0
 11
5.9999947090391288
 21
-21.249998628390578
 31
0.0
  0
LINE
  5
107
100
AcDbEntity
  8
0
  6
CONTINUOUS
 62
               7
100
AcDbLine
 10
1.5999984741210938
 20
-13.920938542174149
 30
0.0
 11
1.5999984741210938
 21
-14.999999999999993
 31
0.0
  0
LINE
  5
108
100
AcDbEntity
  8
0
  6
CONTINUOUS
 62
               7
100
AcDbLine
 10
-1.5999984741210938
 20
-13.920938542174149
 30
0.0
 11
-1.5999984741210938
 21
-14.999999999999993
 31
0.0
  0
LINE
  5
109
100
AcDbEntity
  8
0
  6
CONTINUOUS
 62
               7
100
AcDbLine
 10
1.5999984741210938
 20
15.0
 30
0.0
 11
1.5999984741210938
 21
13.920938542174156
 31
0.0
  0
LINE
  5
10A
100
AcDbEntity
  8
0
  6
CONTINUOUS
 62
               7
100
AcDbLine
 10
-1.5999984741210938
 20
15.0
 30
0.0
 11
-1.5999984741210938
 21
13.920938542174156
 31
0.0
  0
LINE
  5
10B
100
AcDbEntity
  8
0
  6
CONTINUOUS
 62
               7
100
AcDbLine
 10
2.5
 20
-14.999999999999993
 30
0.0
 11
2.5
 21
-16.999999999999993
 31
0.0
  0
LINE
  5
10C
100
AcDbEntity
  8
0
  6
CONTINUOUS
 62
               7
100
AcDbLine
 10
-2.5
 20
-14.999999999999993
 30
0.0
 11
-2.5
 21
-16.999999999999993
 31
0.0
  0
LINE
  5
10D
100
AcDbEntity
  8
0
  6
CONTINUOUS
 62
               7
100
AcDbLine
 10
2.5
 20
17.0
 30
0.0
 11
2.5
 21
15.0
 31
0.0
  0
LINE
  5
10E
100
AcDbEntity
  8
0
  6
CONTINUOUS
 62
               7
100
AcDbLine
 10
-2.5
 20
17.0
 30
0.0
 11
-2.5
 21
15.0
 31
0.0
  0
LINE
  5
10F
100
AcDbEntity
  8
0
  6
CONTINUOUS
 62
               7
100
AcDbLine
 10
-2.5
 20
-14.999999999999993
 30
0.0
 11
2.5
 21
-14.999999999999993
 31
0.0
  0
LINE
  5
110
100
AcDbEntity
  8
0
  6
CONTINUOUS
 62
               7
100
AcDbLine
 10
-2.5
 20
15.0
 30
0.0
 11
2.5
 21
15.0
 31
0.0
  0
LINE
  5
111
100
AcDbEntity
  8
0
  6
CONTINUOUS
 62
               7
100
AcDbLine
 10
-8.2783184168272328
 20
20.0
 30
0.0
 11
-9.0000068781794198
 21
21.250001059862825
 31
0.0
  0
LINE
  5
112
100
AcDbEntity
  8
0
  6
CONTINUOUS
 62
               7
100
AcDbLine
 10
-6.0000056491435316
 20
21.249996663262891
 30
0.0
 11
-6.7216915721174928
 21
20.0
 31
0.0
  0
LINE
  5
113
100
AcDbEntity
  8
0
  6
CONTINUOUS
 62
               7
100
AcDbLine
 10
-10.198039027185601
 20
-24.999999999999993
 30
0.0
 11
10.198039027185587
 21
-24.999999999999993
 31
0.0
  0
LINE
  5
114
100
AcDbEntity
  8
0
  6
CONTINUOUS
 62
               7
100
AcDbLine
 10
-10.535653752852767
 20
-16.999999999999993
 30
0.0
 11
10.535653752852767
 21
-16.999999999999993
 31
0.0
  0
LINE
  5
115
100
AcDbEntity
  8
0
  6
CONTINUOUS
 62
               7
100
AcDbLine
 10
-10.535653752852724
 20
17.0
 30
0.0
 11
10.535653752852738
 21
17.0
 31
0.0
  0
LINE
  5
116
100
AcDbEntity
  8
0
  6
CONTINUOUS
 62
               7
100
AcDbLine
 10
-10.198039027185558
 20
25.0
 30
0.0
 11
10.198039027185558
 21
25.0
 31
0.0
  0
LINE
  5
117
100
AcDbEntity
  8
0
  6
CONTINUOUS
 62
               7
100
AcDbLine
 10
-12.5
 20
23.93219588754863
 30
0.0
 11
-12.5
 21
-23.932195887548644
 31
0.0
  0
LINE
  5
118
100
AcDbEntity
  8
0
  6
CONTINUOUS
 62
               7
100
AcDbLine
 10
12.5
 20
23.93219588754863
 30
0.0
 11
12.5
 21
-23.932195887548652
 31
0.0
  0
CIRCLE
  5
119
100
AcDbEntity
  8
0
  6
CONTINUOUS
 62
               7
100
AcDbCircle
 10
7.0
 20
-12.999999999999993
 30
0.0
 40
1.621
  0
CIRCLE
  5
11A
100
AcDbEntity
  8
0
  6
CONTINUOUS
 62
               7
100
AcDbCircle
 10
0.0
 20
-20.999999999999993
 30
0.0
 40
1.621
  0
CIRCLE
  5
11B
100
AcDbEntity
  8
0
  6
CONTINUOUS
 62
               7
100
AcDbCircle
 10
-7.0
 20
13.0
 30
0.0
 40
1.621
  0
CIRCLE
  5
11C
100
AcDbEntity
  8
0
  6
CONTINUOUS
 62
               7
100
AcDbCircle
 10
0.0
 20
21.0
 30
0.0
 40
1.621
  0
LINE
  5
11D
100
AcDbEntity
  8
0
  6
CONTINUOUS
 62
               2
100
AcDbLine
 10
0.0
 20
27.133020675057331
 30
0.0
 11
0.0
 21
-27.133019792462811
 31
0.0
  0
LINE
  5
11E
100
AcDbEntity
  8
0
  6
CONTINUOUS
 62
               2
100
AcDbLine
 10
-15.0
 20
12.0
 30
0.0
 11
15.0
 21
12.0
 31
0.0
  0
LINE
  5
11F
100
AcDbEntity
  8
0
  6
CONTINUOUS
 62
               2
100
AcDbLine
 10
-15.0
 20
-12.0
 30
0.0
 11
15.0
 21
-12.0
 31
0.0
  0
LINE
  5
120
100
AcDbEntity
  8
0
  6
CONTINUOUS
 62
               2
100
AcDbLine
 10
10.0
 20
15.000000000000007
 30
0.0
 11
15.0
 21
15.000000000000007
 31
0.0
  0
LINE
  5
121
100
AcDbEntity
  8
0
  6
CONTINUOUS
 62
               2
100
AcDbLine
 10
10.0
 20
8.0000000000000071
 30
0.0
 11
15.0
 21
8.0000000000000071
 31
0.0
  0
LINE
  5
122
100
AcDbEntity
  8
0
  6
CONTINUOUS
 62
               2
100
AcDbLine
 10
10.0
 20
-7.9999999999999929
 30
0.0
 11
15.0
 21
-7.9999999999999929
 31
0.0
  0
LINE
  5
123
100
AcDbEntity
  8
0
  6
CONTINUOUS
 62
               2
100
AcDbLine
 10
10.0
 20
-14.999999999999993
 30
0.0
 11
15.0
 21
-14.999999999999993
 31
0.0
  0
LINE
  5
124
100
AcDbEntity
  8
0
  6
CONTINUOUS
 62
               2
100
AcDbLine
 10
-15.0
 20
14.999999999999993
 30
0.0
 11
-10.0
 21
14.999999999999993
 31
0.0
  0
LINE
  5
125
100
AcDbEntity
  8
0
  6
CONTINUOUS
 62
               2
100
AcDbLine
 10
-15.0
 20
7.5
 30
0.0
 11
-10.0
 21
7.5
 31
0.0
  0
LINE
  5
126
100
AcDbEntity
  8
0
  6
CONTINUOUS
 62
               2
100
AcDbLine
 10
-15.0
 20
-7.5
 30
0.0
 11
-10.0
 21
-7.5
 31
0.0
  0
LINE
  5
127
100
AcDbEntity
  8
0
  6
CONTINUOUS
 62
               2
100
AcDbLine
 10
-15.0
 20
-15.000000000000007
 30
0.0
 11
-10.0
 21
-15.000000000000007
 31
0.0
  0
LINE
  5
128
100
AcDbEntity
  8
0
  6
CONTINUOUS
 62
               2
100
AcDbLine
 10
-7.5
 20
-19.499999999999993
 30
0.0
 11
-7.5
 21
-14.499999999999993
 31
0.0
  0
LINE
  5
129
100
AcDbEntity
  8
0
  6
CONTINUOUS
 62
               2
100
AcDbLine
 10
7.5
 20
-19.499999999999993
 30
0.0
 11
7.5
 21
-14.499999999999993
 31
0.0
  0
ENDBLK
  5
12A
100
AcDbEntity
  8
0
100
AcDbBlockEnd
  0
BLOCK
  5
12B
100
AcDbEntity
  8
0
100
AcDbBlockBegin
  2
CS-NHBDPG-16-4
 70
               0
 10
0.0
 20
0.0
 30
0.0
  3
CS-NHBDPG-16-4
  1

  0
LINE
  5
12C
100
AcDbEntity
  8
0
  6
CONTINUOUS
 62
               2
100
AcDbLine
 10
-6.6955432891845703
 20
0.0
 30
0.0
 11
57.756816864013672
 21
0.0
 31
0.0
  0
ARC
  5
12D
100
AcDbEntity
  8
0
  6
CONTINUOUS
 62
               7
100
AcDbCircle
 10
34.799999713897705
 20
-6.0000001192092896
 30
0.0
 40
4.25
100
AcDbArc
 50
124.5603150592013
 51
55.439671280420356
  0
ARC
  5
12E
100
AcDbEntity
  8
0
  6
CONTINUOUS
 62
               7
100
AcDbCircle
 10
46.299999237060547
 20
6.0
 30
0.0
 40
4.25
100
AcDbArc
 50
304.56032006815764
 51
235.43966262899835
  0
CIRCLE
  5
12F
100
AcDbEntity
  8
0
  6
CONTINUOUS
 62
               7
100
AcDbCircle
 10
34.799999713897705
 20
-6.0000001192092896
 30
0.0
 40
3.5
  0
CIRCLE
  5
130
100
AcDbEntity
  8
0
  6
CONTINUOUS
 62
               7
100
AcDbCircle
 10
46.299999237060547
 20
6.0
 30
0.0
 40
3.5
  0
ARC
  5
131
100
AcDbEntity
  8
0
  6
CONTINUOUS
 62
               7
100
AcDbCircle
 10
27.299999594688416
 20
0.0
 30
0.0
 40
2.5
100
AcDbArc
 50
90.000008651422007
 51
270.0000006832451
  0
ARC
  5
132
100
AcDbEntity
  8
0
  6
CONTINUOUS
 62
               7
100
AcDbCircle
 10
26.39999794960022
 20
0.0
 30
0.0
 40
1.6000000238418579
100
AcDbArc
 50
90.000008651422007
 51
270.0000006832451
  0
CIRCLE
  5
133
100
AcDbEntity
  8
0
  6
CONTINUOUS
 62
               7
100
AcDbCircle
 10
1.8999977111816406
 20
2.25
 30
0.0
 40
1.0
  0
CIRCLE
  5
134
100
AcDbEntity
  8
0
  6
CONTINUOUS
 62
               7
100
AcDbCircle
 10
1.8999977111816406
 20
-2.25
 30
0.0
 40
1.0
  0
ARC
  5
135
100
AcDbEntity
  8
0
  6
CONTINUOUS
 62
               7
100
AcDbCircle
 10
1.8997688293457031
 20
-4.8582459688186646
 30
0.0
 40
1.1000000238418579
100
AcDbArc
 50
163.7266278356704
 51
16.273372164329597
  0
ARC
  5
136
100
AcDbEntity
  8
0
  6
CONTINUOUS
 62
               7
100
AcDbCircle
 10
1.8999977111816406
 20
-4.5000001192092896
 30
0.0
 40
1.0
100
AcDbArc
 50
179.99999749552182
 51
0.0000025044781673
  0
ARC
  5
137
100
AcDbEntity
  8
0
  6
CONTINUOUS
 62
               7
100
AcDbCircle
 10
1.8997688293457031
 20
4.8582382202148437
 30
0.0
 40
1.1000000238418579
100
AcDbArc
 50
343.72663284462675
 51
196.27336351290759
  0
ARC
  5
138
100
AcDbEntity
  8
0
  6
CONTINUOUS
 62
               7
100
AcDbCircle
 10
1.8999977111816406
 20
4.5
 30
0.0
 40
1.0
100
AcDbArc
 50
0.0000025044781673
 51
180.00000068324533
  0
LINE
  5
139
100
AcDbEntity
  8
0
  6
CONTINUOUS
 62
               7
100
AcDbLine
 10
5.7999992370605469
 20
12.5
 30
0.0
 11
5.7999992370605469
 21
10.0
 31
0.0
  0
LINE
  5
13A
100
AcDbEntity
  8
0
  6
CONTINUOUS
 62
               7
100
AcDbLine
 10
5.7999992370605469
 20
-10.0
 30
0.0
 11
5.7999992370605469
 21
-12.5
 31
0.0
  0
LINE
  5
13B
100
AcDbEntity
  8
0
  6
CONTINUOUS
 62
               7
100
AcDbLine
 10
45.899997711181641
 20
9.4770660400390625
 30
0.0
 11
45.899997711181641
 21
2.5229339599609375
 31
0.0
  0
LINE
  5
13C
100
AcDbEntity
  8
0
  6
CONTINUOUS
 62
               7
100
AcDbLine
 10
5.7999992370605469
 20
10.199996948242187
 30
0.0
 11
14.799999237060547
 21
10.199996948242187
 31
0.0
  0
LINE
  5
13D
100
AcDbEntity
  8
0
  6
CONTINUOUS
 62
               7
100
AcDbLine
 10
5.7999992370605469
 20
-10.200004577636719
 30
0.0
 11
14.799999237060547
 21
-10.200004577636719
 31
0.0
  0
LINE
  5
13E
100
AcDbEntity
  8
0
  6
CONTINUOUS
 62
               7
100
AcDbLine
 10
14.799999237060547
 20
10.534996032714844
 30
0.0
 11
53.799999237060547
 21
10.534996032714844
 31
0.0
  0
LINE
  5
13F
100
AcDbEntity
  8
0
  6
CONTINUOUS
 62
               7
100
AcDbLine
 10
14.799999237060547
 20
-10.535003662109375
 30
0.0
 11
53.799999237060547
 21
-10.535003662109375
 31
0.0
  0
LINE
  5
140
100
AcDbEntity
  8
0
  6
CONTINUOUS
 62
               7
100
AcDbLine
 10
35.200001239776611
 20
-2.5229339599609375
 30
0.0
 11
35.200001239776611
 21
-9.4770660400390625
 31
0.0
  0
LINE
  5
141
100
AcDbEntity
  8
0
  6
CONTINUOUS
 62
               7
100
AcDbLine
 10
34.399998188018799
 20
-2.5229339599609375
 30
0.0
 11
34.399998188018799
 21
-9.4770660400390625
 31
0.0
  0
LINE
  5
142
100
AcDbEntity
  8
0
  6
CONTINUOUS
 62
               2
100
AcDbLine
 10
41.099999237060544
 20
6.0
 30
0.0
 11
51.49999923706055
 21
6.0
 31
0.0
  0
LINE
  5
143
100
AcDbEntity
  8
0
  6
CONTINUOUS
 62
               2
100
AcDbLine
 10
29.599999713897702
 20
-6.0000001192092896
 30
0.0
 11
39.999999713897708
 21
-6.0000001192092896
 31
0.0
  0
LINE
  5
144
100
AcDbEntity
  8
0
  6
CONTINUOUS
 62
               2
100
AcDbLine
 10
46.299999237060547
 20
11.200000000000003
 30
0.0
 11
46.299999237060547
 21
0.7999999999999972
 31
0.0
  0
LINE
  5
145
100
AcDbEntity
  8
0
  6
CONTINUOUS
 62
               7
100
AcDbLine
 10
-0.7000007629394531
 20
4.5
 30
0.0
 11
-0.7000007629394531
 21
-4.5000001192092896
 31
0.0
  0
LINE
  5
146
100
AcDbEntity
  8
0
  6
CONTINUOUS
 62
               2
100
AcDbLine
 10
0.155517578125
 20
2.25
 30
0.0
 11
3.4049911499023437
 21
2.25
 31
0.0
  0
LINE
  5
147
100
AcDbEntity
  8
0
  6
CONTINUOUS
 62
               7
100
AcDbLine
 10
2.8999977111816406
 20
-4.5000001192092896
 30
0.0
 11
3.7999992370605469
 21
-4.5000001192092896
 31
0.0
  0
LINE
  5
148
100
AcDbEntity
  8
0
  6
CONTINUOUS
 62
               7
100
AcDbLine
 10
2.9556999206542969
 20
-4.5500031709671021
 30
0.0
 11
4.2999992370605469
 21
-4.5500031709671021
 31
0.0
  0
LINE
  5
149
100
AcDbEntity
  8
0
  6
CONTINUOUS
 62
               7
100
AcDbLine
 10
2.8999977111816406
 20
4.5
 30
0.0
 11
3.7988624572753906
 21
4.5
 31
0.0
  0
LINE
  5
14A
100
AcDbEntity
  8
0
  6
CONTINUOUS
 62
               7
100
AcDbLine
 10
-2.2000007629394531
 20
4.5
 30
0.0
 11
0.8999977111816406
 21
4.5
 31
0.0
  0
LINE
  5
14B
100
AcDbEntity
  8
0
  6
CONTINUOUS
 62
               7
100
AcDbLine
 10
-2.2000007629394531
 20
-4.5000001192092896
 30
0.0
 11
0.8999977111816406
 21
-4.5000001192092896
 31
0.0
  0
LINE
  5
14C
100
AcDbEntity
  8
0
  6
CONTINUOUS
 62
               7
100
AcDbLine
 10
2.9556999206542969
 20
4.5499954223632812
 30
0.0
 11
4.2999992370605469
 21
4.5499954223632812
 31
0.0
  0
LINE
  5
14D
100
AcDbEntity
  8
0
  6
CONTINUOUS
 62
               7
100
AcDbLine
 10
0.0
 20
-4.5500031709671021
 30
0.0
 11
0.843841552734375
 21
-4.5500031709671021
 31
0.0
  0
LINE
  5
14E
100
AcDbEntity
  8
0
  6
CONTINUOUS
 62
               7
100
AcDbLine
 10
0.0
 20
4.5499954223632812
 30
0.0
 11
0.843841552734375
 21
4.5499954223632812
 31
0.0
  0
LINE
  5
14F
100
AcDbEntity
  8
0
  6
CONTINUOUS
 62
               7
100
AcDbLine
 10
4.2999992370605469
 20
4.5499954223632812
 30
0.0
 11
4.2999992370605469
 21
-4.5500031709671021
 31
0.0
  0
LINE
  5
150
100
AcDbEntity
  8
0
  6
CONTINUOUS
 62
               7
100
AcDbLine
 10
3.7999992370605469
 20
4.5
 30
0.0
 11
3.7999992370605469
 21
-4.5000001192092896
 31
0.0
  0
LINE
  5
151
100
AcDbEntity
  8
0
  6
CONTINUOUS
 62
               7
100
AcDbLine
 10
-2.2000007629394531
 20
4.5
 30
0.0
 11
-2.2000007629394531
 21
-4.5000001192092896
 31
0.0
  0
LINE
  5
152
100
AcDbEntity
  8
0
  6
CONTINUOUS
 62
               7
100
AcDbLine
 10
0.0
 20
10.0
 30
0.0
 11
0.0
 21
4.5
 31
0.0
  0
LINE
  5
153
100
AcDbEntity
  8
0
  6
CONTINUOUS
 62
               7
100
AcDbLine
 10
7.7999992370605469
 20
10.0
 30
0.0
 11
7.7999992370605469
 21
-10.0
 31
0.0
  0
LINE
  5
154
100
AcDbEntity
  8
0
  6
CONTINUOUS
 62
               7
100
AcDbLine
 10
26.39999794960022
 20
-1.5999984741210938
 30
0.0
 11
53.799999237060547
 21
-1.5999984741210938
 31
0.0
  0
LINE
  5
155
100
AcDbEntity
  8
0
  6
CONTINUOUS
 62
               7
100
AcDbLine
 10
26.39999794960022
 20
1.5999984741210938
 30
0.0
 11
53.799999237060547
 21
1.5999984741210938
 31
0.0
  0
LINE
  5
156
100
AcDbEntity
  8
0
  6
CONTINUOUS
 62
               7
100
AcDbLine
 10
27.299999594688416
 20
-2.5
 30
0.0
 11
53.799999237060547
 21
-2.5
 31
0.0
  0
LINE
  5
157
100
AcDbEntity
  8
0
  6
CONTINUOUS
 62
               2
100
AcDbLine
 10
1.8999977111816406
 20
-0.69085693359375
 30
0.0
 11
1.8999977111816406
 21
-3.8598256051436124
 31
0.0
  0
LINE
  5
158
100
AcDbEntity
  8
0
  6
CONTINUOUS
 62
               7
100
AcDbLine
 10
27.299999594688416
 20
2.5
 30
0.0
 11
53.799999237060547
 21
2.5
 31
0.0
  0
LINE
  5
159
100
AcDbEntity
  8
0
  6
CONTINUOUS
 62
               2
100
AcDbLine
 10
0.155517578125
 20
-2.25
 30
0.0
 11
3.4049911499023437
 21
-2.25
 31
0.0
  0
LINE
  5
15A
100
AcDbEntity
  8
0
  6
CONTINUOUS
 62
               2
100
AcDbLine
 10
1.8999977111816406
 20
3.8867273485661826
 30
0.0
 11
1.8999977111816406
 21
0.6452619282194974
 31
0.0
  0
LINE
  5
15B
100
AcDbEntity
  8
0
  6
CONTINUOUS
 62
               7
100
AcDbLine
 10
14.799999237060547
 20
12.5
 30
0.0
 11
14.799999237060547
 21
-12.5
 31
0.0
  0
LINE
  5
15C
100
AcDbEntity
  8
0
  6
CONTINUOUS
 62
               7
100
AcDbLine
 10
0.0
 20
-4.5000001192092896
 30
0.0
 11
0.0
 21
-10.0
 31
0.0
  0
LINE
  5
15D
100
AcDbEntity
  8
0
  6
CONTINUOUS
 62
               7
100
AcDbLine
 10
0.0
 20
10.0
 30
0.0
 11
7.7999992370605469
 21
10.0
 31
0.0
  0
LINE
  5
15E
100
AcDbEntity
  8
0
  6
CONTINUOUS
 62
               7
100
AcDbLine
 10
46.700000762939453
 20
9.4770660400390625
 30
0.0
 11
46.700000762939453
 21
2.5229339599609375
 31
0.0
  0
LINE
  5
15F
100
AcDbEntity
  8
0
  6
CONTINUOUS
 62
               7
100
AcDbLine
 10
53.799999237060547
 20
12.5
 30
0.0
 11
53.799999237060547
 21
-12.5
 31
0.0
  0
LINE
  5
160
100
AcDbEntity
  8
0
  6
CONTINUOUS
 62
               7
100
AcDbLine
 10
0.0
 20
-10.0
 30
0.0
 11
7.7999992370605469
 21
-10.0
 31
0.0
  0
LINE
  5
161
100
AcDbEntity
  8
0
  6
CONTINUOUS
 62
               7
100
AcDbLine
 10
5.7999992370605469
 20
12.5
 30
0.0
 11
53.799999237060547
 21
12.5
 31
0.0
  0
LINE
  5
162
100
AcDbEntity
  8
0
  6
CONTINUOUS
 62
               7
100
AcDbLine
 10
5.7999992370605469
 20
-12.5
 30
0.0
 11
53.799999237060547
 21
-12.5
 31
0.0
  0
LINE
  5
163
100
AcDbEntity
  8
0
  6
CONTINUOUS
 62
               7
100
AcDbLine
 10
-4.9089527130126953
 20
2.0000000000000142
 30
0.0
 11
-2.2000007629394531
 21
2.0000000000000142
 31
0.0
  0
LINE
  5
164
100
AcDbEntity
  8
0
  6
CONTINUOUS
 62
               7
100
AcDbLine
 10
-5.2000007629394531
 20
1.7089519746067765
 30
0.0
 11
-5.2000007629394531
 21
-1.7089519746067481
 31
0.0
  0
LINE
  5
165
100
AcDbEntity
  8
0
  6
CONTINUOUS
 62
               7
100
AcDbLine
 10
-4.9089527130126953
 20
2.0000000000000142
 30
0.0
 11
-4.9089527130126953
 21
-1.9999999999999858
 31
0.0
  0
LINE
  5
166
100
AcDbEntity
  8
0
  6
CONTINUOUS
 62
               7
100
AcDbLine
 10
-5.2000007629394531
 20
1.7089519746067765
 30
0.0
 11
-4.9089527130126953
 21
2.0000000000000142
 31
0.0
  0
LINE
  5
167
100
AcDbEntity
  8
0
  6
CONTINUOUS
 62
               7
100
AcDbLine
 10
-4.9089527130126953
 20
-1.9999999999999858
 30
0.0
 11
-2.2000007629394531
 21
-1.9999999999999858
 31
0.0
  0
LINE
  5
168
100
AcDbEntity
  8
0
  6
CONTINUOUS
 62
               7
100
AcDbLine
 10
-5.2000007629394531
 20
-1.7089519746067481
 30
0.0
 11
-4.9089527130126953
 21
-1.9999999999999858
 31
0.0
  0
LINE
  5
169
100
AcDbEntity
  8
0
  6
CONTINUOUS
 62
               2
100
AcDbLine
 10
28.799999549984932
 20
15.0
 30
0.0
 11
28.799999549984932
 21
-15.0
 31
0.0
  0
LINE
  5
16A
100
AcDbEntity
  8
0
  6
CONTINUOUS
 62
               2
100
AcDbLine
 10
46.299999237060547
 20
-15.0
 30
0.0
 11
46.299999237060547
 21
-10.0
 31
0.0
  0
LINE
  5
16B
100
AcDbEntity
  8
0
  6
CONTINUOUS
 62
               2
100
AcDbLine
 10
18.799999237060547
 20
10.0
 30
0.0
 11
18.799999237060547
 21
15.0
 31
0.0
  0
LINE
  5
16C
100
AcDbEntity
  8
0
  6
CONTINUOUS
 62
               2
100
AcDbLine
 10
11.799999237060547
 20
10.0
 30
0.0
 11
11.799999237060547
 21
15.0
 31
0.0
  0
LINE
  5
16D
100
AcDbEntity
  8
0
  6
CONTINUOUS
 62
               2
100
AcDbLine
 10
11.799999237060547
 20
-15.0
 30
0.0
 11
11.799999237060547
 21
-10.0
 31
0.0
  0
LINE
  5
16E
100
AcDbEntity
  8
0
  6
CONTINUOUS
 62
               2
100
AcDbLine
 10
51.299999237060547
 20
7.0000000000000284
 30
0.0
 11
56.299999237060547
 21
7.0000000000000284
 31
0.0
  0
LINE
  5
16F
100
AcDbEntity
  8
0
  6
CONTINUOUS
 62
               2
100
AcDbLine
 10
51.299999237060547
 20
-6.9999999999999716
 30
0.0
 11
56.299999237060547
 21
-6.9999999999999716
 31
0.0
  0
LINE
  5
170
100
AcDbEntity
  8
0
  6
CONTINUOUS
 62
               2
100
AcDbLine
 10
34.799999713897705
 20
-15.0
 30
0.0
 11
34.799999713897705
 21
-0.8000001192092867
 31
0.0
  0
ENDBLK
  5
171
100
AcDbEntity
  8
0
100
AcDbBlockEnd
  0
BLOCK
  5
172
100
AcDbEntity
  8
0
100
AcDbBlockBegin
  2
CS-NHBDPG-16-5
 70
               0
 10
0.0
 20
0.0
 30
0.0
  3
CS-NHBDPG-16-5
  1

  0
CIRCLE
  5
173
100
AcDbEntity
  8
0
  6
CONTINUOUS
 62
               2
100
AcDbCircle
 10
33.799999713897705
 20
-7.5
 30
0.0
 40
2.0
  0
CIRCLE
  5
174
100
AcDbEntity
  8
0
  6
CONTINUOUS
 62
               2
100
AcDbCircle
 10
33.799999713897705
 20
7.5
 30
0.0
 40
2.0
  0
ARC
  5
175
100
AcDbEntity
  8
0
  6
CONTINUOUS
 62
               7
100
AcDbCircle
 10
26.39999794960022
 20
0.0
 30
0.0
 40
1.6000000238418579
100
AcDbArc
 50
90.000008651422007
 51
270.0000006832451
  0
ARC
  5
176
100
AcDbEntity
  8
0
  6
CONTINUOUS
 62
               7
100
AcDbCircle
 10
27.299999594688416
 20
0.0
 30
0.0
 40
2.5
100
AcDbArc
 50
90.000008651422007
 51
270.0000006832451
  0
CIRCLE
  5
177
100
AcDbEntity
  8
0
  6
CONTINUOUS
 62
               7
100
AcDbCircle
 10
1.8999977111816406
 20
-2.25
 30
0.0
 40
1.0
  0
CIRCLE
  5
178
100
AcDbEntity
  8
0
  6
CONTINUOUS
 62
               7
100
AcDbCircle
 10
1.8999977111816406
 20
2.25
 30
0.0
 40
1.0
  0
ARC
  5
179
100
AcDbEntity
  8
0
  6
CONTINUOUS
 62
               7
100
AcDbCircle
 10
1.8997688293457031
 20
4.858245849609375
 30
0.0
 40
1.1000000238418579
100
AcDbArc
 50
343.72663284462675
 51
196.27336351290759
  0
ARC
  5
17A
100
AcDbEntity
  8
0
  6
CONTINUOUS
 62
               7
100
AcDbCircle
 10
1.8999977111816406
 20
4.5
 30
0.0
 40
1.0
100
AcDbArc
 50
0.0000025044781673
 51
180.00000068324533
  0
ARC
  5
17B
100
AcDbEntity
  8
0
  6
CONTINUOUS
 62
               7
100
AcDbCircle
 10
1.8997688293457031
 20
-4.858245849609375
 30
0.0
 40
1.1000000238418579
100
AcDbArc
 50
163.7266278356704
 51
16.273372164329597
  0
ARC
  5
17C
100
AcDbEntity
  8
0
  6
CONTINUOUS
 62
               7
100
AcDbCircle
 10
1.8999977111816406
 20
-4.5
 30
0.0
 40
1.0
100
AcDbArc
 50
179.99999749552182
 51
0.0000025044781673
  0
LINE
  5
17D
100
AcDbEntity
  8
0
  6
CONTINUOUS
 62
               2
100
AcDbLine
 10
30.799999713897705
 20
-7.5
 30
0.0
 11
36.799999713897705
 21
-7.5
 31
0.0
  0
LINE
  5
17E
100
AcDbEntity
  8
0
  6
CONTINUOUS
 62
               2
100
AcDbLine
 10
33.799999713897705
 20
-4.5
 30
0.0
 11
33.799999713897705
 21
-10.5
 31
0.0
  0
LINE
  5
17F
100
AcDbEntity
  8
0
  6
CONTINUOUS
 62
               2
100
AcDbLine
 10
30.799999713897705
 20
7.5
 30
0.0
 11
36.799999713897705
 21
7.5
 31
0.0
  0
LINE
  5
180
100
AcDbEntity
  8
0
  6
CONTINUOUS
 62
               2
100
AcDbLine
 10
33.799999713897705
 20
4.5
 30
0.0
 11
33.799999713897705
 21
10.5
 31
0.0
  0
LINE
  5
181
100
AcDbEntity
  8
0
  6
CONTINUOUS
 62
               7
100
AcDbLine
 10
5.7999992370605469
 20
10.0
 30
0.0
 11
5.7999992370605469
 21
12.5
 31
0.0
  0
LINE
  5
182
100
AcDbEntity
  8
0
  6
CONTINUOUS
 62
               7
100
AcDbLine
 10
5.7999992370605469
 20
-12.5
 30
0.0
 11
5.7999992370605469
 21
-10.0
 31
0.0
  0
LINE
  5
183
100
AcDbEntity
  8
0
  6
CONTINUOUS
 62
               7
100
AcDbLine
 10
5.7999992370605469
 20
10.199996948242187
 30
0.0
 11
14.799999237060547
 21
10.199996948242187
 31
0.0
  0
LINE
  5
184
100
AcDbEntity
  8
0
  6
CONTINUOUS
 62
               7
100
AcDbLine
 10
5.7999992370605469
 20
-10.199996948242187
 30
0.0
 11
14.799999237060547
 21
-10.199996948242187
 31
0.0
  0
LINE
  5
185
100
AcDbEntity
  8
0
  6
CONTINUOUS
 62
               7
100
AcDbLine
 10
14.799999237060547
 20
-10.535003662109375
 30
0.0
 11
53.799999237060547
 21
-10.535003662109375
 31
0.0
  0
LINE
  5
186
100
AcDbEntity
  8
0
  6
CONTINUOUS
 62
               7
100
AcDbLine
 10
14.799999237060547
 20
10.534988403320312
 30
0.0
 11
53.799999237060547
 21
10.534988403320312
 31
0.0
  0
LINE
  5
187
100
AcDbEntity
  8
0
  6
CONTINUOUS
 62
               7
100
AcDbLine
 10
7.7999992370605469
 20
-10.0
 30
0.0
 11
7.7999992370605469
 21
10.0
 31
0.0
  0
LINE
  5
188
100
AcDbEntity
  8
0
  6
CONTINUOUS
 62
               7
100
AcDbLine
 10
27.299999594688416
 20
-2.5
 30
0.0
 11
53.799999237060547
 21
-2.5
 31
0.0
  0
LINE
  5
189
100
AcDbEntity
  8
0
  6
CONTINUOUS
 62
               7
100
AcDbLine
 10
27.299999594688416
 20
2.5
 30
0.0
 11
53.799999237060547
 21
2.5
 31
0.0
  0
LINE
  5
18A
100
AcDbEntity
  8
0
  6
CONTINUOUS
 62
               7
100
AcDbLine
 10
26.39999794960022
 20
-1.600006103515625
 30
0.0
 11
53.799999237060547
 21
-1.600006103515625
 31
0.0
  0
LINE
  5
18B
100
AcDbEntity
  8
0
  6
CONTINUOUS
 62
               7
100
AcDbLine
 10
26.39999794960022
 20
1.5999908447265625
 30
0.0
 11
53.799999237060547
 21
1.5999908447265625
 31
0.0
  0
LINE
  5
18C
100
AcDbEntity
  8
0
  6
CONTINUOUS
 62
               2
100
AcDbLine
 10
1.8999977111816406
 20
0.69085693359375
 30
0.0
 11
1.8999977111816406
 21
3.8255770149611408
 31
0.0
  0
LINE
  5
18D
100
AcDbEntity
  8
0
  6
CONTINUOUS
 62
               7
100
AcDbLine
 10
-0.7000007629394531
 20
-4.5
 30
0.0
 11
-0.7000007629394531
 21
4.5
 31
0.0
  0
LINE
  5
18E
100
AcDbEntity
  8
0
  6
CONTINUOUS
 62
               2
100
AcDbLine
 10
0.4485435485839844
 20
2.25
 30
0.0
 11
3.4049911499023437
 21
2.25
 31
0.0
  0
LINE
  5
18F
100
AcDbEntity
  8
0
  6
CONTINUOUS
 62
               2
100
AcDbLine
 10
0.4485435485839844
 20
-2.25
 30
0.0
 11
3.5036849975585938
 21
-2.25
 31
0.0
  0
LINE
  5
190
100
AcDbEntity
  8
0
  6
CONTINUOUS
 62
               7
100
AcDbLine
 10
2.8999977111816406
 20
4.5
 30
0.0
 11
3.7999992370605469
 21
4.5
 31
0.0
  0
LINE
  5
191
100
AcDbEntity
  8
0
  6
CONTINUOUS
 62
               7
100
AcDbLine
 10
2.9556999206542969
 20
4.5500030517578125
 30
0.0
 11
4.2999992370605469
 21
4.5500030517578125
 31
0.0
  0
LINE
  5
192
100
AcDbEntity
  8
0
  6
CONTINUOUS
 62
               7
100
AcDbLine
 10
2.9556999206542969
 20
-4.5500030517578125
 30
0.0
 11
4.2999992370605469
 21
-4.5500030517578125
 31
0.0
  0
LINE
  5
193
100
AcDbEntity
  8
0
  6
CONTINUOUS
 62
               7
100
AcDbLine
 10
2.8999977111816406
 20
-4.5
 30
0.0
 11
3.7988624572753906
 21
-4.5
 31
0.0
  0
LINE
  5
194
100
AcDbEntity
  8
0
  6
CONTINUOUS
 62
               7
100
AcDbLine
 10
0.0
 20
4.5500030517578125
 30
0.0
 11
0.843841552734375
 21
4.5500030517578125
 31
0.0
  0
LINE
  5
195
100
AcDbEntity
  8
0
  6
CONTINUOUS
 62
               7
100
AcDbLine
 10
0.0
 20
-4.5500030517578125
 30
0.0
 11
0.843841552734375
 21
-4.5500030517578125
 31
0.0
  0
LINE
  5
196
100
AcDbEntity
  8
0
  6
CONTINUOUS
 62
               7
100
AcDbLine
 10
4.2999992370605469
 20
-4.5500030517578125
 30
0.0
 11
4.2999992370605469
 21
4.5500030517578125
 31
0.0
  0
LINE
  5
197
100
AcDbEntity
  8
0
  6
CONTINUOUS
 62
               2
100
AcDbLine
 10
1.8999977111816406
 20
-3.8658653150305753
 30
0.0
 11
1.8999977111816406
 21
-0.6509238120181635
 31
0.0
  0
LINE
  5
198
100
AcDbEntity
  8
0
  6
CONTINUOUS
 62
               7
100
AcDbLine
 10
3.7999992370605469
 20
-4.5
 30
0.0
 11
3.7999992370605469
 21
4.5
 31
0.0
  0
LINE
  5
199
100
AcDbEntity
  8
0
  6
CONTINUOUS
 62
               7
100
AcDbLine
 10
-2.2000007629394531
 20
-4.5
 30
0.0
 11
-2.2000007629394531
 21
4.5
 31
0.0
  0
LINE
  5
19A
100
AcDbEntity
  8
0
  6
CONTINUOUS
 62
               7
100
AcDbLine
 10
-2.2000007629394531
 20
4.5
 30
0.0
 11
0.8999977111816406
 21
4.5
 31
0.0
  0
LINE
  5
19B
100
AcDbEntity
  8
0
  6
CONTINUOUS
 62
               7
100
AcDbLine
 10
0.0
 20
4.5
 30
0.0
 11
0.0
 21
10.0
 31
0.0
  0
LINE
  5
19C
100
AcDbEntity
  8
0
  6
CONTINUOUS
 62
               7
100
AcDbLine
 10
0.0
 20
10.0
 30
0.0
 11
7.7999992370605469
 21
10.0
 31
0.0
  0
LINE
  5
19D
100
AcDbEntity
  8
0
  6
CONTINUOUS
 62
               7
100
AcDbLine
 10
5.7999992370605469
 20
12.5
 30
0.0
 11
53.799999237060547
 21
12.5
 31
0.0
  0
LINE
  5
19E
100
AcDbEntity
  8
0
  6
CONTINUOUS
 62
               7
100
AcDbLine
 10
53.799999237060547
 20
-12.5
 30
0.0
 11
53.799999237060547
 21
12.5
 31
0.0
  0
LINE
  5
19F
100
AcDbEntity
  8
0
  6
CONTINUOUS
 62
               7
100
AcDbLine
 10
5.7999992370605469
 20
-12.5
 30
0.0
 11
53.799999237060547
 21
-12.5
 31
0.0
  0
LINE
  5
1A0
100
AcDbEntity
  8
0
  6
CONTINUOUS
 62
               7
100
AcDbLine
 10
0.0
 20
-10.0
 30
0.0
 11
7.7999992370605469
 21
-10.0
 31
0.0
  0
LINE
  5
1A1
100
AcDbEntity
  8
0
  6
CONTINUOUS
 62
               7
100
AcDbLine
 10
0.0
 20
-10.0
 30
0.0
 11
0.0
 21
-4.5
 31
0.0
  0
LINE
  5
1A2
100
AcDbEntity
  8
0
  6
CONTINUOUS
 62
               7
100
AcDbLine
 10
-2.2000007629394531
 20
-4.5
 30
0.0
 11
0.8999977111816406
 21
-4.5
 31
0.0
  0
LINE
  5
1A3
100
AcDbEntity
  8
0
  6
CONTINUOUS
 62
               7
100
AcDbLine
 10
14.799999237060547
 20
-12.5
 30
0.0
 11
14.799999237060547
 21
12.5
 31
0.0
  0
CIRCLE
  5
1A4
100
AcDbEntity
  8
0
  6
CONTINUOUS
 62
               7
100
AcDbCircle
 10
33.799999713897705
 20
-7.5
 30
0.0
 40
1.621
  0
CIRCLE
  5
1A5
100
AcDbEntity
  8
0
  6
CONTINUOUS
 62
               7
100
AcDbCircle
 10
33.799999713897705
 20
7.5
 30
0.0
 40
1.621
  0
LINE
  5
1A6
100
AcDbEntity
  8
0
  6
CONTINUOUS
 62
               7
100
AcDbLine
 10
-4.9089527130126953
 20
2.0
 30
0.0
 11
-2.2000007629394531
 21
2.0
 31
0.0
  0
LINE
  5
1A7
100
AcDbEntity
  8
0
  6
CONTINUOUS
 62
               7
100
AcDbLine
 10
-5.2000007629394531
 20
1.7089519746067552
 30
0.0
 11
-5.2000007629394531
 21
-1.7089519746067623
 31
0.0
  0
LINE
  5
1A8
100
AcDbEntity
  8
0
  6
CONTINUOUS
 62
               7
100
AcDbLine
 10
-4.9089527130126953
 20
2.0
 30
0.0
 11
-4.9089527130126953
 21
-2.0
 31
0.0
  0
LINE
  5
1A9
100
AcDbEntity
  8
0
  6
CONTINUOUS
 62
               7
100
AcDbLine
 10
-5.2000007629394531
 20
1.7089519746067552
 30
0.0
 11
-4.9089527130126953
 21
2.0
 31
0.0
  0
LINE
  5
1AA
100
AcDbEntity
  8
0
  6
CONTINUOUS
 62
               7
100
AcDbLine
 10
-4.9089527130126953
 20
-2.0
 30
0.0
 11
-2.2000007629394531
 21
-2.0
 31
0.0
  0
LINE
  5
1AB
100
AcDbEntity
  8
0
  6
CONTINUOUS
 62
               7
100
AcDbLine
 10
-5.2000007629394531
 20
-1.7089519746067623
 30
0.0
 11
-4.9089527130126953
 21
-2.0
 31
0.0
  0
LINE
  5
1AC
100
AcDbEntity
  8
0
  6
CONTINUOUS
 62
               2
100
AcDbLine
 10
28.799999549984932
 20
15.100631352377874
 30
0.0
 11
28.799999549984932
 21
-14.800000000000011
 31
0.0
  0
LINE
  5
1AD
100
AcDbEntity
  8
0
  6
CONTINUOUS
 62
               2
100
AcDbLine
 10
11.799999237060547
 20
10.0
 30
0.0
 11
11.799999237060547
 21
15.0
 31
0.0
  0
LINE
  5
1AE
100
AcDbEntity
  8
0
  6
CONTINUOUS
 62
               2
100
AcDbLine
 10
34.799999713897705
 20
10.0
 30
0.0
 11
34.799999713897705
 21
15.0
 31
0.0
  0
LINE
  5
1AF
100
AcDbEntity
  8
0
  6
CONTINUOUS
 62
               2
100
AcDbLine
 10
46.299999237060547
 20
10.0
 30
0.0
 11
46.299999237060547
 21
15.0
 31
0.0
  0
LINE
  5
1B0
100
AcDbEntity
  8
0
  6
CONTINUOUS
 62
               2
100
AcDbLine
 10
11.799999237060547
 20
-15.0
 30
0.0
 11
11.799999237060547
 21
-10.0
 31
0.0
  0
LINE
  5
1B1
100
AcDbEntity
  8
0
  6
CONTINUOUS
 62
               2
100
AcDbLine
 10
18.799999237060547
 20
-15.0
 30
0.0
 11
18.799999237060547
 21
-10.0
 31
0.0
  0
LINE
  5
1B2
100
AcDbEntity
  8
0
  6
CONTINUOUS
 62
               2
100
AcDbLine
 10
51.299999237060547
 20
-6.9999999999999858
 30
0.0
 11
56.299999237060547
 21
-6.9999999999999858
 31
0.0
  0
LINE
  5
1B3
100
AcDbEntity
  8
0
  6
CONTINUOUS
 62
               2
100
AcDbLine
 10
51.299999237060547
 20
7.0000000000000142
 30
0.0
 11
56.299999237060547
 21
7.0000000000000142
 31
0.0
  0
LINE
  5
1B4
100
AcDbEntity
  8
0
  6
CONTINUOUS
 62
               2
100
AcDbLine
 10
-6.6955432891845703
 20
0.0
 30
0.0
 11
57.756816864013672
 21
0.0
 31
0.0
  0
ENDBLK
  5
1B5
100
AcDbEntity
  8
0
100
AcDbBlockEnd
  0
BLOCK
  5
1B6
100
AcDbEntity
  8
0
100
AcDbBlockBegin
  2
CS-NHBDPG-16-6
 70
               0
 10
0.0
 20
0.0
 30
0.0
  3
CS-NHBDPG-16-6
  1

  0
LINE
  5
1B7
100
AcDbEntity
  8
0
  6
CONTINUOUS
 62
               2
100
AcDbLine
 10
6.69554252624512
 20
11.0
 30
0.0
 11
-0.0000045776367159
 21
11.0
 31
0.0
  0
LINE
  5
1B8
100
AcDbEntity
  8
0
  6
CONTINUOUS
 62
               7
100
AcDbLine
 10
-14.799999999999997
 20
-15.599853515625
 30
0.0
 11
-14.799999999999997
 21
-25.0
 31
0.0
  0
LINE
  5
1B9
100
AcDbEntity
  8
0
  6
CONTINUOUS
 62
               7
100
AcDbLine
 10
0.0
 20
25.0
 30
0.0
 11
0.0
 21
-25.0
 31
0.0
  0
LINE
  5
1BA
100
AcDbEntity
  8
0
  6
CONTINUOUS
 62
               7
100
AcDbLine
 10
4.908951950073245
 20
9.0
 30
0.0
 11
2.2000000000000028
 21
9.0
 31
0.0
  0
LINE
  5
1BB
100
AcDbEntity
  8
0
  6
CONTINUOUS
 62
               7
100
AcDbLine
 10
4.908951950073245
 20
13.0
 30
0.0
 11
2.2000000000000028
 21
13.0
 31
0.0
  0
LINE
  5
1BC
100
AcDbEntity
  8
0
  6
CONTINUOUS
 62
               7
100
AcDbLine
 10
-5.7999999999999972
 20
25.000007629394531
 30
0.0
 11
-5.7999999999999972
 21
-24.999984741210937
 31
0.0
  0
ARC
  5
1BD
100
AcDbEntity
  8
0
  6
CONTINUOUS
 62
               7
100
AcDbCircle
 10
-32.300000238418576
 20
19.0
 30
0.0
 40
1.0
100
AcDbArc
 50
359.99999749552182
 51
89.999982013909332
  0
ARC
  5
1BE
100
AcDbEntity
  8
0
  6
CONTINUOUS
 62
               7
100
AcDbCircle
 10
-37.299999046325681
 20
19.0
 30
0.0
 40
1.0
100
AcDbArc
 50
89.999982013909332
 51
179.99996152334316
  0
ARC
  5
1BF
100
AcDbEntity
  8
0
  6
CONTINUOUS
 62
               7
100
AcDbCircle
 10
-43.799999046325681
 20
19.0
 30
0.0
 40
1.0
100
AcDbArc
 50
359.99999749552182
 51
89.999982013909332
  0
ARC
  5
1C0
100
AcDbEntity
  8
0
  6
CONTINUOUS
 62
               7
100
AcDbCircle
 10
-48.799999999999997
 20
19.0
 30
0.0
 40
1.0
100
AcDbArc
 50
89.999982013909332
 51
179.99996152334316
  0
CIRCLE
  5
1C1
100
AcDbEntity
  8
0
  6
CONTINUOUS
 62
               2
100
AcDbCircle
 10
-28.800000312924382
 20
-12.0
 30
0.0
 40
2.0
  0
CIRCLE
  5
1C2
100
AcDbEntity
  8
0
  6
CONTINUOUS
 62
               2
100
AcDbCircle
 10
-11.799999999999997
 20
-15.0
 30
0.0
 40
1.5
  0
CIRCLE
  5
1C3
100
AcDbEntity
  8
0
  6
CONTINUOUS
 62
               7
100
AcDbCircle
 10
-18.799999999999997
 20
-8.0
 30
0.0
 40
1.5
  0
LINE
  5
1C4
100
AcDbEntity
  8
0
  6
CONTINUOUS
 62
               7
100
AcDbLine
 10
-46.699993896484372
 20
20.0
 30
0.0
 11
-48.799999999999997
 21
20.0
 31
0.0
  0
LINE
  5
1C5
100
AcDbEntity
  8
0
  6
CONTINUOUS
 62
               7
100
AcDbLine
 10
-35.199993419647214
 20
20.0
 30
0.0
 11
-37.299999046325681
 21
20.0
 31
0.0
  0
LINE
  5
1C6
100
AcDbEntity
  8
0
  6
CONTINUOUS
 62
               7
100
AcDbLine
 10
-34.400005626678464
 20
18.5
 30
0.0
 11
-35.199993419647214
 21
18.5
 31
0.0
  0
LINE
  5
1C7
100
AcDbEntity
  8
0
  6
CONTINUOUS
 62
               7
100
AcDbLine
 10
-45.900006103515622
 20
18.5
 30
0.0
 11
-46.699993896484372
 21
18.5
 31
0.0
  0
LINE
  5
1C8
100
AcDbEntity
  8
0
  6
CONTINUOUS
 62
               7
100
AcDbLine
 10
-43.799999046325681
 20
20.0
 30
0.0
 11
-45.900006103515622
 21
20.0
 31
0.0
  0
LINE
  5
1C9
100
AcDbEntity
  8
0
  6
CONTINUOUS
 62
               7
100
AcDbLine
 10
-45.900006103515622
 20
20.0
 30
0.0
 11
-45.900006103515622
 21
18.5
 31
0.0
  0
LINE
  5
1CA
100
AcDbEntity
  8
0
  6
CONTINUOUS
 62
               7
100
AcDbLine
 10
-46.699993896484372
 20
20.0
 30
0.0
 11
-46.699993896484372
 21
18.5
 31
0.0
  0
LINE
  5
1CB
100
AcDbEntity
  8
0
  6
CONTINUOUS
 62
               7
100
AcDbLine
 10
-34.400005626678464
 20
20.0
 30
0.0
 11
-34.400005626678464
 21
18.5
 31
0.0
  0
LINE
  5
1CC
100
AcDbEntity
  8
0
  6
CONTINUOUS
 62
               7
100
AcDbLine
 10
-35.199993419647214
 20
20.0
 30
0.0
 11
-35.199993419647214
 21
18.5
 31
0.0
  0
LINE
  5
1CD
100
AcDbEntity
  8
0
  6
CONTINUOUS
 62
               7
100
AcDbLine
 10
-31.300000238418576
 20
19.0
 30
0.0
 11
-31.300000238418576
 21
17.0
 31
0.0
  0
LINE
  5
1CE
100
AcDbEntity
  8
0
  6
CONTINUOUS
 62
               7
100
AcDbLine
 10
-38.299999046325681
 20
19.0
 30
0.0
 11
-38.299999046325681
 21
17.0
 31
0.0
  0
LINE
  5
1CF
100
AcDbEntity
  8
0
  6
CONTINUOUS
 62
               7
100
AcDbLine
 10
-49.799999999999997
 20
19.0
 30
0.0
 11
-49.799999999999997
 21
17.0
 31
0.0
  0
LINE
  5
1D0
100
AcDbEntity
  8
0
  6
CONTINUOUS
 62
               7
100
AcDbLine
 10
-42.799999999999997
 20
19.0
 30
0.0
 11
-42.799999999999997
 21
17.0
 31
0.0
  0
LINE
  5
1D1
100
AcDbEntity
  8
0
  6
CONTINUOUS
 62
               7
100
AcDbLine
 10
-32.300000238418576
 20
20.0
 30
0.0
 11
-34.400005626678464
 21
20.0
 31
0.0
  0
LINE
  5
1D2
100
AcDbEntity
  8
0
  6
CONTINUOUS
 62
               2
100
AcDbLine
 10
-34.799999523162839
 20
21.930915072458845
 30
0.0
 11
-34.799999523162839
 21
14.473686218261719
 31
0.0
  0
LINE
  5
1D3
100
AcDbEntity
  8
0
  6
CONTINUOUS
 62
               2
100
AcDbLine
 10
-46.299999999999997
 20
21.930915072458845
 30
0.0
 11
-46.299999999999997
 21
14.473686218261719
 31
0.0
  0
LINE
  5
1D4
100
AcDbEntity
  8
0
  6
CONTINUOUS
 62
               2
100
AcDbLine
 10
-57.565055847167955
 20
0.0
 30
0.0
 11
6.6955471038818359
 21
0.0
 31
0.0
  0
LINE
  5
1D5
100
AcDbEntity
  8
0
  6
CONTINUOUS
 62
               2
100
AcDbLine
 10
-31.400000312924377
 20
-12.0
 30
0.0
 11
-26.200000312924388
 21
-12.0
 31
0.0
  0
LINE
  5
1D6
100
AcDbEntity
  8
0
  6
CONTINUOUS
 62
               2
100
AcDbLine
 10
-28.800000312924382
 20
-9.3999999999999986
 30
0.0
 11
-28.800000312924382
 21
-14.6
 31
0.0
  0
LINE
  5
1D7
100
AcDbEntity
  8
0
  6
CONTINUOUS
 62
               7
100
AcDbLine
 10
-14.799999999999997
 20
25.0
 30
0.0
 11
-14.799999999999997
 21
15.620452880859375
 31
0.0
  0
LINE
  5
1D8
100
AcDbEntity
  8
0
  6
CONTINUOUS
 62
               7
100
AcDbLine
 10
0.0
 20
25.0
 30
0.0
 11
-14.799999999999997
 21
25.0
 31
0.0
  0
LINE
  5
1D9
100
AcDbEntity
  8
0
  6
CONTINUOUS
 62
               2
100
AcDbLine
 10
-11.799999999999997
 20
-12.399999999999999
 30
0.0
 11
-11.799999999999997
 21
-17.600000000000001
 31
0.0
  0
LINE
  5
1DA
100
AcDbEntity
  8
0
  6
CONTINUOUS
 62
               2
100
AcDbLine
 10
-9.2000000000000028
 20
-15.0
 30
0.0
 11
-14.399999999999991
 21
-15.0
 31
0.0
  0
LINE
  5
1DB
100
AcDbEntity
  8
0
  6
CONTINUOUS
 62
               7
100
AcDbLine
 10
-14.799999999999997
 20
-15.599853515625
 30
0.0
 11
-53.799999999999997
 21
-15.599853515625
 31
0.0
  0
LINE
  5
1DC
100
AcDbEntity
  8
0
  6
CONTINUOUS
 62
               7
100
AcDbLine
 10
-5.7999999999999972
 20
23.958526611328125
 30
0.0
 11
-14.799999999999997
 21
23.958526611328125
 31
0.0
  0
LINE
  5
1DD
100
AcDbEntity
  8
0
  6
CONTINUOUS
 62
               7
100
AcDbLine
 10
-14.799999999999997
 20
15.620452880859375
 30
0.0
 11
-53.799999999999997
 21
15.620452880859375
 31
0.0
  0
LINE
  5
1DE
100
AcDbEntity
  8
0
  6
CONTINUOUS
 62
               2
100
AcDbLine
 10
-18.799999999999997
 20
-5.3999999999999986
 30
0.0
 11
-18.799999999999997
 21
-10.600000000000001
 31
0.0
  0
LINE
  5
1DF
100
AcDbEntity
  8
0
  6
CONTINUOUS
 62
               2
100
AcDbLine
 10
-16.200000000000003
 20
-8.0
 30
0.0
 11
-21.399999999999991
 21
-8.0
 31
0.0
  0
LINE
  5
1E0
100
AcDbEntity
  8
0
  6
CONTINUOUS
 62
               7
100
AcDbLine
 10
2.2000000000000028
 20
6.0
 30
0.0
 11
0.0
 21
6.0
 31
0.0
  0
LINE
  5
1E1
100
AcDbEntity
  8
0
  6
CONTINUOUS
 62
               7
100
AcDbLine
 10
2.2000000000000028
 20
24.0
 30
0.0
 11
0.0
 21
24.0
 31
0.0
  0
LINE
  5
1E2
100
AcDbEntity
  8
0
  6
CONTINUOUS
 62
               7
100
AcDbLine
 10
-14.799999999999997
 20
17.0
 30
0.0
 11
-53.799999999999997
 21
17.0
 31
0.0
  0
LINE
  5
1E3
100
AcDbEntity
  8
0
  6
CONTINUOUS
 62
               7
100
AcDbLine
 10
-53.799999999999997
 20
17.0
 30
0.0
 11
-53.799999999999997
 21
-17.0
 31
0.0
  0
LINE
  5
1E4
100
AcDbEntity
  8
0
  6
CONTINUOUS
 62
               7
100
AcDbLine
 10
-14.799999999999997
 20
-17.0
 30
0.0
 11
-53.799999999999997
 21
-17.0
 31
0.0
  0
LINE
  5
1E5
100
AcDbEntity
  8
0
  6
CONTINUOUS
 62
               7
100
AcDbLine
 10
2.2000000000000028
 20
25.0
 30
0.0
 11
2.2000000000000028
 21
5.0
 31
0.0
  0
LINE
  5
1E6
100
AcDbEntity
  8
0
  6
CONTINUOUS
 62
               7
100
AcDbLine
 10
2.2000000000000028
 20
25.0
 30
0.0
 11
0.0
 21
25.0
 31
0.0
  0
LINE
  5
1E7
100
AcDbEntity
  8
0
  6
CONTINUOUS
 62
               7
100
AcDbLine
 10
2.2000000000000028
 20
5.0
 30
0.0
 11
0.0
 21
5.0
 31
0.0
  0
LINE
  5
1E8
100
AcDbEntity
  8
0
  6
CONTINUOUS
 62
               7
100
AcDbLine
 10
0.0
 20
-25.0
 30
0.0
 11
-14.799999999999997
 21
-25.0
 31
0.0
  0
LINE
  5
1E9
100
AcDbEntity
  8
0
  6
CONTINUOUS
 62
               7
100
AcDbLine
 10
-5.7999999999999972
 20
-23.937286376953125
 30
0.0
 11
-14.799999999999997
 21
-23.937286376953125
 31
0.0
  0
LINE
  5
1EA
100
AcDbEntity
  8
0
  6
CONTINUOUS
 62
               7
100
AcDbLine
 10
4.908951950073245
 20
13.0
 30
0.0
 11
4.908951950073245
 21
9.0
 31
0.0
  0
LINE
  5
1EB
100
AcDbEntity
  8
0
  6
CONTINUOUS
 62
               7
100
AcDbLine
 10
5.19999809265137
 20
12.708953881955232
 30
0.0
 11
5.19999809265137
 21
9.2910461180447683
 31
0.0
  0
CIRCLE
  5
1EC
100
AcDbEntity
  8
0
  6
CONTINUOUS
 62
               7
100
AcDbCircle
 10
-28.800000312924382
 20
-12.0
 30
0.0
 40
1.621
  0
CIRCLE
  5
1ED
100
AcDbEntity
  8
0
  6
CONTINUOUS
 62
               7
100
AcDbCircle
 10
-11.799999999999997
 20
-15.0
 30
0.0
 40
1.2295
  0
LINE
  5
1EE
100
AcDbEntity
  8
0
  6
CONTINUOUS
 62
               7
100
AcDbLine
 10
5.19999809265137
 20
12.708953881955232
 30
0.0
 11
4.9089519500732592
 21
13.0
 31
0.0
  0
LINE
  5
1EF
100
AcDbEntity
  8
0
  6
CONTINUOUS
 62
               7
100
AcDbLine
 10
5.19999809265137
 20
9.2910461180447683
 30
0.0
 11
4.908951950073245
 21
9.0
 31
0.0
  0
LINE
  5
1F0
100
AcDbEntity
  8
0
  6
CONTINUOUS
 62
               2
100
AcDbLine
 10
6.69554252624512
 20
-11.0
 30
0.0
 11
-0.0000045776367159
 21
-11.0
 31
0.0
  0
LINE
  5
1F1
100
AcDbEntity
  8
0
  6
CONTINUOUS
 62
               7
100
AcDbLine
 10
2.2000000000000028
 20
-6.0
 30
0.0
 11
0.0
 21
-6.0
 31
0.0
  0
LINE
  5
1F2
100
AcDbEntity
  8
0
  6
CONTINUOUS
 62
               7
100
AcDbLine
 10
2.2000000000000028
 20
-24.0
 30
0.0
 11
0.0
 21
-24.0
 31
0.0
  0
LINE
  5
1F3
100
AcDbEntity
  8
0
  6
CONTINUOUS
 62
               7
100
AcDbLine
 10
2.2000000000000028
 20
-25.0
 30
0.0
 11
0.0
 21
-25.0
 31
0.0
  0
LINE
  5
1F4
100
AcDbEntity
  8
0
  6
CONTINUOUS
 62
               7
100
AcDbLine
 10
2.2000000000000028
 20
-5.0
 30
0.0
 11
0.0
 21
-5.0
 31
0.0
  0
LINE
  5
1F5
100
AcDbEntity
  8
0
  6
CONTINUOUS
 62
               7
100
AcDbLine
 10
5.19999809265137
 20
-9.2910461180447683
 30
0.0
 11
4.908951950073245
 21
-9.0
 31
0.0
  0
LINE
  5
1F6
100
AcDbEntity
  8
0
  6
CONTINUOUS
 62
               7
100
AcDbLine
 10
5.19999809265137
 20
-12.708953881955232
 30
0.0
 11
4.9089519500732592
 21
-13.0
 31
0.0
  0
LINE
  5
1F7
100
AcDbEntity
  8
0
  6
CONTINUOUS
 62
               7
100
AcDbLine
 10
5.19999809265137
 20
-12.708953881955232
 30
0.0
 11
5.19999809265137
 21
-9.2910461180447683
 31
0.0
  0
LINE
  5
1F8
100
AcDbEntity
  8
0
  6
CONTINUOUS
 62
               7
100
AcDbLine
 10
4.908951950073245
 20
-13.0
 30
0.0
 11
4.908951950073245
 21
-9.0
 31
0.0
  0
LINE
  5
1F9
100
AcDbEntity
  8
0
  6
CONTINUOUS
 62
               7
100
AcDbLine
 10
2.2000000000000028
 20
-25.0
 30
0.0
 11
2.2000000000000028
 21
-5.0
 31
0.0
  0
LINE
  5
1FA
100
AcDbEntity
  8
0
  6
CONTINUOUS
 62
               7
100
AcDbLine
 10
4.908951950073245
 20
-13.0
 30
0.0
 11
2.2000000000000028
 21
-13.0
 31
0.0
  0
LINE
  5
1FB
100
AcDbEntity
  8
0
  6
CONTINUOUS
 62
               7
100
AcDbLine
 10
4.908951950073245
 20
-9.0
 30
0.0
 11
2.2000000000000028
 21
-9.0
 31
0.0
  0
CIRCLE
  5
1FC
100
AcDbEntity
  8
0
  6
CONTINUOUS
 62
               2
100
AcDbCircle
 10
-28.800000312924382
 20
12.0
 30
0.0
 40
2.0
  0
LINE
  5
1FD
100
AcDbEntity
  8
0
  6
CONTINUOUS
 62
               2
100
AcDbLine
 10
-28.800000312924382
 20
9.3999999999999986
 30
0.0
 11
-28.800000312924382
 21
14.600000000000001
 31
0.0
  0
CIRCLE
  5
1FE
100
AcDbEntity
  8
0
  6
CONTINUOUS
 62
               7
100
AcDbCircle
 10
-28.800000312924382
 20
12.0
 30
0.0
 40
1.621
  0
LINE
  5
1FF
100
AcDbEntity
  8
0
  6
CONTINUOUS
 62
               2
100
AcDbLine
 10
-16.200000000000003
 20
8.0
 30
0.0
 11
-21.399999999999991
 21
8.0
 31
0.0
  0
LINE
  5
200
100
AcDbEntity
  8
0
  6
CONTINUOUS
 62
               2
100
AcDbLine
 10
-18.799999999999997
 20
5.3999999999999986
 30
0.0
 11
-18.799999999999997
 21
10.600000000000001
 31
0.0
  0
LINE
  5
201
100
AcDbEntity
  8
0
  6
CONTINUOUS
 62
               2
100
AcDbLine
 10
-31.400000312924377
 20
12.0
 30
0.0
 11
-26.200000312924388
 21
12.0
 31
0.0
  0
CIRCLE
  5
202
100
AcDbEntity
  8
0
  6
CONTINUOUS
 62
               7
100
AcDbCircle
 10
-18.799999999999997
 20
8.0
 30
0.0
 40
1.5
  0
CIRCLE
  5
203
100
AcDbEntity
  8
0
  6
CONTINUOUS
 62
               2
100
AcDbCircle
 10
-11.799999999999997
 20
15.0
 30
0.0
 40
1.5
  0
LINE
  5
204
100
AcDbEntity
  8
0
  6
CONTINUOUS
 62
               2
100
AcDbLine
 10
-9.2000000000000028
 20
15.0
 30
0.0
 11
-14.399999999999991
 21
15.0
 31
0.0
  0
CIRCLE
  5
205
100
AcDbEntity
  8
0
  6
CONTINUOUS
 62
               7
100
AcDbCircle
 10
-11.799999999999997
 20
15.0
 30
0.0
 40
1.2295
  0
LINE
  5
206
100
AcDbEntity
  8
0
  6
CONTINUOUS
 62
               2
100
AcDbLine
 10
-11.799999999999997
 20
12.399999999999999
 30
0.0
 11
-11.799999999999997
 21
17.600000000000001
 31
0.0
  0
LINE
  5
207
100
AcDbEntity
  8
0
  6
CONTINUOUS
 62
               2
100
AcDbLine
 10
-0.2999999999999972
 20
19.0
 30
0.0
 11
4.7000000000000028
 21
19.0
 31
0.0
  0
LINE
  5
208
100
AcDbEntity
  8
0
  6
CONTINUOUS
 62
               2
100
AcDbLine
 10
-0.2999999999999972
 20
-19.0
 30
0.0
 11
4.7000000000000028
 21
-19.0
 31
0.0
  0
LINE
  5
209
100
AcDbEntity
  8
0
  6
CONTINUOUS
 62
               2
100
AcDbLine
 10
-17.299999999999997
 20
21.0
 30
0.0
 11
-12.299999999999997
 21
21.0
 31
0.0
  0
LINE
  5
20A
100
AcDbEntity
  8
0
  6
CONTINUOUS
 62
               2
100
AcDbLine
 10
-17.299999999999997
 20
-20.999999999999993
 30
0.0
 11
-12.299999999999997
 21
-20.999999999999993
 31
0.0
  0
LINE
  5
20B
100
AcDbEntity
  8
0
  6
CONTINUOUS
 62
               2
100
AcDbLine
 10
-56.299999999999997
 20
13.0
 30
0.0
 11
-51.299999999999997
 21
13.0
 31
0.0
  0
LINE
  5
20C
100
AcDbEntity
  8
0
  6
CONTINUOUS
 62
               2
100
AcDbLine
 10
-56.299999999999997
 20
-12.999999999999993
 30
0.0
 11
-51.299999999999997
 21
-12.999999999999993
 31
0.0
  0
LINE
  5
20D
100
AcDbEntity
  8
0
  6
CONTINUOUS
 62
               2
100
AcDbLine
 10
-33.800000312924382
 20
-19.5
 30
0.0
 11
-33.800000312924382
 21
-14.5
 31
0.0
  0
ENDBLK
  5
20E
100
AcDbEntity
  8
0
100
AcDbBlockEnd
  0
BLOCK
  5
20F
100
AcDbEntity
  8
0
100
AcDbBlockBegin
  2
CS-NHBDPG-16-7
 70
               0
 10
0.0
 20
0.0
 30
0.0
  3
CS-NHBDPG-16-7
  1

  0
LINE
  5
210
100
AcDbEntity
  8
0
  6
CONTINUOUS
 62
             200
100
AcDbLine
 10
17.752309468822176
 20
-1.1999995223464452
 30
0.0
 11
19.253464203233264
 21
-3.7999995223464538
 31
0.0
  0
LINE
  5
211
100
AcDbEntity
  8
0
  6
CONTINUOUS
 62
             200
100
AcDbLine
 10
0.9499999999999886
 20
0.6001359972752312
 30
0.0
 11
0.9499999999999886
 21
0.0
 31
0.0
  0
LINE
  5
212
100
AcDbEntity
  8
0
  6
CONTINUOUS
 62
             200
100
AcDbLine
 10
3.0500000000000114
 20
0.6001359972752312
 30
0.0
 11
3.0500000000000114
 21
0.0
 31
0.0
  0
LINE
  5
213
100
AcDbEntity
  8
0
  6
CONTINUOUS
 62
               4
100
AcDbLine
 10
0.751428571428562
 20
0.4001359972752141
 30
0.0
 11
3.251428571428562
 21
0.4001359972752141
 31
0.0
  0
LINE
  5
214
100
AcDbEntity
  8
0
  6
CONTINUOUS
 62
               4
100
AcDbLine
 10
3.0514285714285734
 20
0.6001359972752312
 30
0.0
 11
3.251428571428562
 21
0.4001359972752141
 31
0.0
  0
LINE
  5
215
100
AcDbEntity
  8
0
  6
CONTINUOUS
 62
               4
100
AcDbLine
 10
0.751428571428562
 20
0.4001359972752141
 30
0.0
 11
0.9514285714285506
 21
0.6001359972752312
 31
0.0
  0
LINE
  5
216
100
AcDbEntity
  8
0
  6
CONTINUOUS
 62
               4
100
AcDbLine
 10
3.251428571428562
 20
0.4001359972752141
 30
0.0
 11
3.251428571428562
 21
0.0
 31
0.0
  0
LINE
  5
217
100
AcDbEntity
  8
0
  6
CONTINUOUS
 62
               4
100
AcDbLine
 10
0.751428571428562
 20
0.0
 30
0.0
 11
0.751428571428562
 21
0.4001359972752141
 31
0.0
  0
LINE
  5
218
100
AcDbEntity
  8
0
  6
CONTINUOUS
 62
             200
100
AcDbLine
 10
0.9499999999999886
 20
-2.5998640027247859
 30
0.0
 11
0.9499999999999886
 21
-4.0984354312962097
 31
0.0
  0
LINE
  5
219
100
AcDbEntity
  8
0
  6
CONTINUOUS
 62
             200
100
AcDbLine
 10
3.0500000000000114
 20
-2.5998640027247859
 30
0.0
 11
3.0500000000000114
 21
-4.1012925741533479
 31
0.0
  0
LINE
  5
21A
100
AcDbEntity
  8
0
  6
CONTINUOUS
 62
               4
100
AcDbLine
 10
0.9514285714285506
 20
0.6001359972752312
 30
0.0
 11
3.0514285714285734
 21
0.6001359972752312
 31
0.0
  0
LINE
  5
21B
100
AcDbEntity
  8
0
  6
CONTINUOUS
 62
               4
100
AcDbLine
 10
0.0
 20
-1.7998640027247745
 30
0.0
 11
0.0
 21
0.0
 31
0.0
  0
LINE
  5
21C
100
AcDbEntity
  8
0
  6
CONTINUOUS
 62
             200
100
AcDbLine
 10
2.0
 20
1.2864823084401849
 30
0.0
 11
2.0
 21
-5.0670362493540893
 31
0.0
  0
LINE
  5
21D
100
AcDbEntity
  8
0
  6
CONTINUOUS
 62
               4
100
AcDbLine
 10
4.0
 20
-1.8000000027247722
 30
0.0
 11
4.0
 21
-2.6000000027247836
 31
0.0
  0
LINE
  5
21E
100
AcDbEntity
  8
0
  6
CONTINUOUS
 62
               4
100
AcDbLine
 10
0.0
 20
-1.7998640027247745
 30
0.0
 11
0.0
 21
-2.6000000027247836
 31
0.0
  0
LINE
  5
21F
100
AcDbEntity
  8
0
  6
CONTINUOUS
 62
               4
100
AcDbLine
 10
0.751428571428562
 20
-2.5998640027247859
 30
0.0
 11
0.751428571428562
 21
-3.8998640027247831
 31
0.0
  0
LINE
  5
220
100
AcDbEntity
  8
0
  6
CONTINUOUS
 62
             200
100
AcDbLine
 10
0.751428571428562
 20
-3.8998640027247831
 30
0.0
 11
3.251428571428562
 21
-3.8998640027247831
 31
0.0
  0
LINE
  5
221
100
AcDbEntity
  8
0
  6
CONTINUOUS
 62
               4
100
AcDbLine
 10
1.251428571428562
 20
-4.3998640027247831
 30
0.0
 11
0.751428571428562
 21
-3.8998640027247831
 31
0.0
  0
LINE
  5
222
100
AcDbEntity
  8
0
  6
CONTINUOUS
 62
               4
100
AcDbLine
 10
1.251428571428562
 20
-4.3998640027247831
 30
0.0
 11
2.751428571428562
 21
-4.3998640027247831
 31
0.0
  0
LINE
  5
223
100
AcDbEntity
  8
0
  6
CONTINUOUS
 62
               4
100
AcDbLine
 10
3.251428571428562
 20
-3.8998640027247831
 30
0.0
 11
2.751428571428562
 21
-4.3998640027247831
 31
0.0
  0
LINE
  5
224
100
AcDbEntity
  8
0
  6
CONTINUOUS
 62
               4
100
AcDbLine
 10
3.251428571428562
 20
-2.5998640027247859
 30
0.0
 11
3.251428571428562
 21
-3.8998640027247831
 31
0.0
  0
LINE
  5
225
100
AcDbEntity
  8
0
  6
CONTINUOUS
 62
               4
100
AcDbLine
 10
4.3000000000000114
 20
-1.8000000027247722
 30
0.0
 11
4.3000000000000114
 21
-4.5999995223464509
 31
0.0
  0
LINE
  5
226
100
AcDbEntity
  8
0
  6
CONTINUOUS
 62
               4
100
AcDbLine
 10
15.5
 20
-4.5999995223464509
 30
0.0
 11
15.5
 21
0.0
 31
0.0
  0
LINE
  5
227
100
AcDbEntity
  8
0
  6
CONTINUOUS
 62
               4
100
AcDbLine
 10
4.2999999986375883
 20
-4.5999995223464509
 30
0.0
 11
15.499999995231633
 21
-4.5999995223464509
 31
0.0
  0
LINE
  5
228
100
AcDbEntity
  8
0
  6
CONTINUOUS
 62
               4
100
AcDbLine
 10
-0.000000004768367
 20
-1.8000000027247722
 30
0.0
 11
4.2999999986375883
 21
-1.8000000027247722
 31
0.0
  0
LINE
  5
229
100
AcDbEntity
  8
0
  6
CONTINUOUS
 62
               4
100
AcDbLine
 10
-0.000000004768367
 20
-2.6000000027247836
 30
0.0
 11
3.999999995231633
 21
-2.6000000027247836
 31
0.0
  0
LINE
  5
22A
100
AcDbEntity
  8
0
  6
CONTINUOUS
 62
               4
100
AcDbLine
 10
-0.000000004768367
 20
-1.1000000027247836
 30
0.0
 11
15.5
 21
-1.1000000027247836
 31
0.0
  0
LINE
  5
22B
100
AcDbEntity
  8
0
  6
CONTINUOUS
 62
               4
100
AcDbLine
 10
-0.000000004768367
 20
-0.5499999965940106
 30
0.0
 11
15.5
 21
-0.5499999965940106
 31
0.0
  0
LINE
  5
22C
100
AcDbEntity
  8
0
  6
CONTINUOUS
 62
               4
100
AcDbLine
 10
-0.000000004768367
 20
0.0
 30
0.0
 11
15.5
 21
0.0
 31
0.0
  0
LINE
  5
22D
100
AcDbEntity
  8
0
  6
CONTINUOUS
 62
               4
100
AcDbLine
 10
15.5
 20
-1.1999995223464452
 30
0.0
 11
17.752309468822148
 21
-1.1999995223464452
 31
0.0
  0
LINE
  5
22E
100
AcDbEntity
  8
0
  6
CONTINUOUS
 62
               4
100
AcDbLine
 10
15.5
 20
-3.7999995223464538
 30
0.0
 11
19.25346420323325
 21
-3.7999995223464538
 31
0.0
  0
ENDBLK
  5
22F
100
AcDbEntity
  8
0
100
AcDbBlockEnd
  0
BLOCK
  5
230
100
AcDbEntity
  8
0
100
AcDbBlockBegin
  2
CS-NHBDPG-16-8
 70
               0
 10
0.0
 20
0.0
 30
0.0
  3
CS-NHBDPG-16-8
  1

  0
LINE
  5
231
100
AcDbEntity
  8
0
  6
CONTINUOUS
 62
             200
100
AcDbLine
 10
1.0500000000000114
 20
-0.0000000019073383
 30
0.0
 11
1.0500000010901545
 21
0.6001359980926679
 31
0.0
  0
LINE
  5
232
100
AcDbEntity
  8
0
  6
CONTINUOUS
 62
             200
100
AcDbLine
 10
-1.0500000000000114
 20
0.0000000019073383
 30
0.0
 11
-1.0499999989098683
 21
0.6001360019073445
 31
0.0
  0
LINE
  5
233
100
AcDbEntity
  8
0
  6
CONTINUOUS
 62
             200
100
AcDbLine
 10
1.0499999925577299
 20
-4.0970068590501967
 30
0.0
 11
1.0499999952770622
 21
-2.6000000019073468
 31
0.0
  0
LINE
  5
234
100
AcDbEntity
  8
0
  6
CONTINUOUS
 62
             200
100
AcDbLine
 10
-1.0500000074422928
 20
-4.0970068552355201
 30
0.0
 11
-1.0500000047229605
 21
-2.5999999980926702
 31
0.0
  0
LINE
  5
235
100
AcDbEntity
  8
0
  6
CONTINUOUS
 62
               4
100
AcDbLine
 10
-1.2499999992731432
 20
0.4001360022706422
 30
0.0
 11
-1.0499999989098683
 21
0.6001360019073445
 31
0.0
  0
LINE
  5
236
100
AcDbEntity
  8
0
  6
CONTINUOUS
 62
               4
100
AcDbLine
 10
-1.25
 20
0.000000002270653
 30
0.0
 11
-1.2499999992731432
 21
0.4001360022706422
 31
0.0
  0
LINE
  5
237
100
AcDbEntity
  8
0
  6
CONTINUOUS
 62
               4
100
AcDbLine
 10
-2.0500000019981712
 20
-1.0999999962761535
 30
0.0
 11
-2.0500000046292826
 21
-2.5484354248475825
 31
0.0
  0
LINE
  5
238
100
AcDbEntity
  8
0
  6
CONTINUOUS
 62
               4
100
AcDbLine
 10
-2.0500000019981712
 20
-1.0999999962761535
 30
0.0
 11
-1.5014285724250556
 21
-0.5485714258440595
 31
0.0
  0
LINE
  5
239
100
AcDbEntity
  8
0
  6
CONTINUOUS
 62
               4
100
AcDbLine
 10
-1.2500000047229491
 20
-2.5999999977293555
 30
0.0
 11
-1.2500000070789667
 21
-3.8970068548722026
 31
0.0
  0
LINE
  5
23A
100
AcDbEntity
  8
0
  6
CONTINUOUS
 62
               4
100
AcDbLine
 10
-1.5000000009938788
 20
-0.547135413941902
 30
0.0
 11
-1.5
 21
0.0000000054495501
 31
0.0
  0
LINE
  5
23B
100
AcDbEntity
  8
0
  6
CONTINUOUS
 62
               4
100
AcDbLine
 10
1.0500000010901545
 20
0.6001359980926679
 30
0.0
 11
1.2500000007268568
 21
0.4001359977293362
 31
0.0
  0
LINE
  5
23C
100
AcDbEntity
  8
0
  6
CONTINUOUS
 62
               4
100
AcDbLine
 10
1.2500000007268568
 20
0.4001359977293362
 30
0.0
 11
1.25
 21
-0.000000002270653
 31
0.0
  0
LINE
  5
23D
100
AcDbEntity
  8
0
  6
CONTINUOUS
 62
               4
100
AcDbLine
 10
2.0499999980018515
 20
-1.1000000037238635
 30
0.0
 11
2.0499999953707402
 21
-2.5484354322952925
 31
0.0
  0
LINE
  5
23E
100
AcDbEntity
  8
0
  6
CONTINUOUS
 62
               4
100
AcDbLine
 10
1.2499999952773067
 20
-2.5998640022706638
 30
0.0
 11
1.2499999929210333
 21
-3.8970068594135086
 31
0.0
  0
LINE
  5
23F
100
AcDbEntity
  8
0
  6
CONTINUOUS
 62
               4
100
AcDbLine
 10
1.4999999990009201
 20
-0.5500000027247722
 30
0.0
 11
1.5
 21
0.0
 31
0.0
  0
LINE
  5
240
100
AcDbEntity
  8
0
  6
CONTINUOUS
 62
               4
100
AcDbLine
 10
1.4999999928701868
 20
-0.5499999965940106
 30
0.0
 11
2.0499999980018515
 21
-1.1000000037238635
 31
0.0
  0
LINE
  5
241
100
AcDbEntity
  8
0
  6
CONTINUOUS
 62
               4
100
AcDbLine
 10
-2.0500000047229605
 20
-2.5999999962761535
 30
0.0
 11
2.0493907186030924
 21
-2.6000000037227551
 31
0.0
  0
LINE
  5
242
100
AcDbEntity
  8
0
  6
CONTINUOUS
 62
               4
100
AcDbLine
 10
-2.0500000032697301
 20
-1.7999999962761422
 30
0.0
 11
2.0499999967302927
 21
-1.8000000037238522
 31
0.0
  0
LINE
  5
243
100
AcDbEntity
  8
0
  6
CONTINUOUS
 62
               4
100
AcDbLine
 10
-1.2500000070789667
 20
-3.8970068548722026
 30
0.0
 11
1.2499999929210333
 21
-3.8970068594135086
 31
0.0
  0
LINE
  5
244
100
AcDbEntity
  8
0
  6
CONTINUOUS
 62
               4
100
AcDbLine
 10
-1.501428571428562
 20
0.0000000027273757
 30
0.0
 11
1.5
 21
-0.0000000027247751
 31
0.0
  0
LINE
  5
245
100
AcDbEntity
  8
0
  6
CONTINUOUS
 62
               4
100
AcDbLine
 10
-1.2499999992731432
 20
0.4001360022706422
 30
0.0
 11
1.2500000007268568
 21
0.4001359977293362
 31
0.0
  0
LINE
  5
246
100
AcDbEntity
  8
0
  6
CONTINUOUS
 62
               4
100
AcDbLine
 10
-1.0499999989098683
 20
0.6001360019073445
 30
0.0
 11
1.0500000010901545
 21
0.6001359980926679
 31
0.0
  0
LINE
  5
247
100
AcDbEntity
  8
0
  6
CONTINUOUS
 62
               4
100
AcDbLine
 10
1.2499999929210333
 20
-3.8970068594135086
 30
0.0
 11
0.7471428491504355
 21
-4.3998640013572015
 31
0.0
  0
ARC
  5
248
100
AcDbEntity
  8
0
  6
CONTINUOUS
 62
               4
100
AcDbCircle
 10
-0.0000000046321134
 20
-2.5499989233983342
 30
0.0
 40
2.050000596223347
100
AcDbArc
 50
179.9563015362348
 51
359.99999989592123
  0
LINE
  5
249
100
AcDbEntity
  8
0
  6
CONTINUOUS
 62
             200
100
AcDbLine
 10
-0.0000000092043706
 20
-5.0670362466293142
 30
0.0
 11
0.0000000023369182
 21
1.2864823111649599
 31
0.0
  0
LINE
  5
24A
100
AcDbEntity
  8
0
  6
CONTINUOUS
 62
               4
100
AcDbLine
 10
-0.7471428651352596
 20
-4.3998639986428145
 30
0.0
 11
-1.2500000070789667
 21
-3.8970068548722026
 31
0.0
  0
ENDBLK
  5
24B
100
AcDbEntity
  8
0
100
AcDbBlockEnd
  0
BLOCK
  5
24C
100
AcDbEntity
  8
0
100
AcDbBlockBegin
  2
CS-NHBDPG-16-9
 70
               0
 10
0.0
 20
0.0
 30
0.0
  3
CS-NHBDPG-16-9
  1

  0
LINE
  5
24D
100
AcDbEntity
  8
0
  6
CONTINUOUS
 62
             200
100
AcDbLine
 10
-1.4104017530168562
 20
0.0
 30
0.0
 11
20.08861820135688
 21
0.0
 31
0.0
  0
LINE
  5
24E
100
AcDbEntity
  8
0
  6
CONTINUOUS
 62
             200
100
AcDbLine
 10
17.752309473590529
 20
1.3000000000000256
 30
0.0
 11
19.253464208001617
 21
-1.2999999999999972
 31
0.0
  0
LINE
  5
24F
100
AcDbEntity
  8
0
  6
CONTINUOUS
 62
               4
100
AcDbLine
 10
15.500000004768367
 20
-1.2999999999999972
 30
0.0
 11
19.253464208001617
 21
-1.2999999999999972
 31
0.0
  0
LINE
  5
250
100
AcDbEntity
  8
0
  6
CONTINUOUS
 62
               4
100
AcDbLine
 10
15.500000004768367
 20
1.3000000000000114
 30
0.0
 11
17.752309473590515
 21
1.3000000000000114
 31
0.0
  0
LINE
  5
251
100
AcDbEntity
  8
0
  6
CONTINUOUS
 62
             200
100
AcDbLine
 10
2.000000004768367
 20
2.9428571428571502
 30
0.0
 11
2.000000004768367
 21
-3.2999846734234666
 31
0.0
  0
LINE
  5
252
100
AcDbEntity
  8
0
  6
CONTINUOUS
 62
               4
100
AcDbLine
 10
3.9000000047683443
 20
-1.5
 30
0.0
 11
3.9000000047683443
 21
1.5
 31
0.0
  0
LINE
  5
253
100
AcDbEntity
  8
0
  6
CONTINUOUS
 62
               4
100
AcDbLine
 10
10.400000004768344
 20
-1.5
 30
0.0
 11
10.400000004768344
 21
1.5
 31
0.0
  0
LINE
  5
254
100
AcDbEntity
  8
0
  6
CONTINUOUS
 62
               4
100
AcDbLine
 10
8.000000004768367
 20
-0.5999999999999943
 30
0.0
 11
8.000000004768367
 21
0.9000000000000057
 31
0.0
  0
LINE
  5
255
100
AcDbEntity
  8
0
  6
CONTINUOUS
 62
               4
100
AcDbLine
 10
9.6000000047683898
 20
-0.5999999999999943
 30
0.0
 11
9.6000000047683898
 21
0.9000000000000057
 31
0.0
  0
LINE
  5
256
100
AcDbEntity
  8
0
  6
CONTINUOUS
 62
               4
100
AcDbLine
 10
0.0
 20
-2.0499999999999972
 30
0.0
 11
0.0
 21
2.0500000000000114
 31
0.0
  0
LINE
  5
257
100
AcDbEntity
  8
0
  6
CONTINUOUS
 62
               4
100
AcDbLine
 10
15.500000004768367
 20
-2.0499999999999972
 30
0.0
 11
15.500000004768367
 21
2.0500000000000114
 31
0.0
  0
LINE
  5
258
100
AcDbEntity
  8
0
  6
CONTINUOUS
 62
               4
100
AcDbLine
 10
0.0
 20
1.5
 30
0.0
 11
15.500000004768367
 21
1.5
 31
0.0
  0
LINE
  5
259
100
AcDbEntity
  8
0
  6
CONTINUOUS
 62
               4
100
AcDbLine
 10
0.0
 20
-1.5
 30
0.0
 11
15.500000004768367
 21
-1.5
 31
0.0
  0
CIRCLE
  5
25A
100
AcDbEntity
  8
0
  6
CONTINUOUS
 62
               4
100
AcDbCircle
 10
2.000000004768367
 20
0.0
 30
0.0
 40
1.3999999999999997
  0
CIRCLE
  5
25B
100
AcDbEntity
  8
0
  6
CONTINUOUS
 62
               4
100
AcDbCircle
 10
2.000000004768367
 20
0.0
 30
0.0
 40
1.25
  0
CIRCLE
  5
25C
100
AcDbEntity
  8
0
  6
CONTINUOUS
 62
             200
100
AcDbCircle
 10
2.000000004768367
 20
0.0
 30
0.0
 40
1.05
  0
LINE
  5
25D
100
AcDbEntity
  8
0
  6
CONTINUOUS
 62
               4
100
AcDbLine
 10
0.9571978986753607
 20
-0.6892486978790089
 30
0.0
 11
2.6892487026473759
 21
1.0428021060930348
 31
0.0
  0
LINE
  5
25E
100
AcDbEntity
  8
0
  6
CONTINUOUS
 62
               4
100
AcDbLine
 10
1.3107513189315796
 20
-1.0428020722525559
 30
0.0
 11
3.0428021124430984
 21
0.6892487212589913
 31
0.0
  0
LINE
  5
25F
100
AcDbEntity
  8
0
  6
CONTINUOUS
 62
               4
100
AcDbLine
 10
8.000000004768367
 20
0.9000000000000057
 30
0.0
 11
9.6000000047683898
 21
0.9000000000000057
 31
0.0
  0
LINE
  5
260
100
AcDbEntity
  8
0
  6
CONTINUOUS
 62
               4
100
AcDbLine
 10
8.000000004768367
 20
-0.5999999999999943
 30
0.0
 11
9.6000000047683898
 21
-0.5999999999999943
 31
0.0
  0
LINE
  5
261
100
AcDbEntity
  8
0
  6
CONTINUOUS
 62
               4
100
AcDbLine
 10
0.0
 20
2.0500000000000114
 30
0.0
 11
15.500000004768367
 21
2.0500000000000114
 31
0.0
  0
LINE
  5
262
100
AcDbEntity
  8
0
  6
CONTINUOUS
 62
               4
100
AcDbLine
 10
0.0
 20
-2.0499999999999972
 30
0.0
 11
15.500000004768367
 21
-2.0499999999999972
 31
0.0
  0
ENDBLK
  5
263
100
AcDbEntity
  8
0
100
AcDbBlockEnd
  0
BLOCK
  5
264
100
AcDbEntity
  8
0
100
AcDbBlockBegin
  2
CS-NHBDPG-16-10
 70
               0
 10
0.0
 20
0.0
 30
0.0
  3
CS-NHBDPG-16-10
  1

  0
LINE
  5
265
100
AcDbEntity
  8
0
  6
CONTINUOUS
 62
             200
100
AcDbLine
 10
11.199999999999989
 20
8.1445121127279947
 30
0.0
 11
13.800000000000011
 21
9.6456668471390827
 31
0.0
  0
LINE
  5
266
100
AcDbEntity
  8
0
  6
CONTINUOUS
 62
               4
100
AcDbLine
 10
10.400000005449556
 20
0.9479762348989311
 30
0.0
 11
12.050955663295326
 21
1.4979762296661931
 31
0.0
  0
LINE
  5
267
100
AcDbEntity
  8
0
  6
CONTINUOUS
 62
               4
100
AcDbLine
 10
12.050955663295326
 20
1.4979762296661931
 30
0.0
 11
12.050955663295326
 21
5.8979763159612446
 31
0.0
  0
LINE
  5
268
100
AcDbEntity
  8
0
  6
CONTINUOUS
 62
               4
100
AcDbLine
 10
12.949044336704674
 20
4.8979763118740749
 30
0.0
 11
12.949044336704674
 21
5.8979763118740749
 31
0.0
  0
LINE
  5
269
100
AcDbEntity
  8
0
  6
CONTINUOUS
 62
               4
100
AcDbLine
 10
12.949044336704674
 20
4.8979763159612446
 30
0.0
 11
15.0
 21
4.8979763159612446
 31
0.0
  0
LINE
  5
26A
100
AcDbEntity
  8
0
  6
CONTINUOUS
 62
               4
100
AcDbLine
 10
14.600000000000023
 20
4.8979763159612446
 30
0.0
 11
14.600000000000023
 21
5.8979763159612446
 31
0.0
  0
LINE
  5
26B
100
AcDbEntity
  8
0
  6
CONTINUOUS
 62
               4
100
AcDbLine
 10
10.400000000000034
 20
-0.0020236840387469
 30
0.0
 11
10.400000000000034
 21
5.8979763159612446
 31
0.0
  0
LINE
  5
26C
100
AcDbEntity
  8
0
  6
CONTINUOUS
 62
               4
100
AcDbLine
 10
10.400000000000034
 20
5.8979763159612446
 30
0.0
 11
14.600000000000023
 21
5.8979763159612446
 31
0.0
  0
LINE
  5
26D
100
AcDbEntity
  8
0
  6
CONTINUOUS
 62
               4
100
AcDbLine
 10
15.0
 20
3.8979763159612446
 30
0.0
 11
10.400000000000034
 21
3.8979763159612446
 31
0.0
  0
LINE
  5
26E
100
AcDbEntity
  8
0
  6
CONTINUOUS
 62
             200
100
AcDbLine
 10
0.9499999999999886
 20
0.5979763159612475
 30
0.0
 11
0.9499999999999886
 21
-0.0020236840387469
 31
0.0
  0
LINE
  5
26F
100
AcDbEntity
  8
0
  6
CONTINUOUS
 62
             200
100
AcDbLine
 10
3.0500000000000114
 20
0.5979763159612475
 30
0.0
 11
3.0500000000000114
 21
-0.0020236840387469
 31
0.0
  0
LINE
  5
270
100
AcDbEntity
  8
0
  6
CONTINUOUS
 62
               4
100
AcDbLine
 10
0.751428571428562
 20
0.3979763159612446
 30
0.0
 11
3.251428571428562
 21
0.3979763159612446
 31
0.0
  0
LINE
  5
271
100
AcDbEntity
  8
0
  6
CONTINUOUS
 62
               4
100
AcDbLine
 10
3.0514285714285734
 20
0.5979763159612475
 30
0.0
 11
3.251428571428562
 21
0.3979763159612446
 31
0.0
  0
LINE
  5
272
100
AcDbEntity
  8
0
  6
CONTINUOUS
 62
               4
100
AcDbLine
 10
0.751428571428562
 20
0.3979763159612446
 30
0.0
 11
0.9514285714286075
 21
0.5979763159612475
 31
0.0
  0
LINE
  5
273
100
AcDbEntity
  8
0
  6
CONTINUOUS
 62
               4
100
AcDbLine
 10
3.251428571428562
 20
0.3979763159612446
 30
0.0
 11
3.251428571428562
 21
-0.0020236840387469
 31
0.0
  0
LINE
  5
274
100
AcDbEntity
  8
0
  6
CONTINUOUS
 62
               4
100
AcDbLine
 10
0.751428571428562
 20
-0.0020236840387469
 30
0.0
 11
0.751428571428562
 21
0.3979763159612446
 31
0.0
  0
LINE
  5
275
100
AcDbEntity
  8
0
  6
CONTINUOUS
 62
             200
100
AcDbLine
 10
0.9499999999999886
 20
-2.6020236840387554
 30
0.0
 11
0.9499999999999886
 21
-4.1005951126101792
 31
0.0
  0
LINE
  5
276
100
AcDbEntity
  8
0
  6
CONTINUOUS
 62
             200
100
AcDbLine
 10
3.0500000000000114
 20
-2.6020236840387554
 30
0.0
 11
3.0500000000000114
 21
-4.1034522554673174
 31
0.0
  0
LINE
  5
277
100
AcDbEntity
  8
0
  6
CONTINUOUS
 62
               4
100
AcDbLine
 10
0.9514285714286075
 20
0.5979763159612475
 30
0.0
 11
3.0514285714285734
 21
0.5979763159612475
 31
0.0
  0
LINE
  5
278
100
AcDbEntity
  8
0
  6
CONTINUOUS
 62
               4
100
AcDbLine
 10
0.0
 20
-1.8020236840387582
 30
0.0
 11
0.0
 21
0.0
 31
0.0
  0
LINE
  5
279
100
AcDbEntity
  8
0
  6
CONTINUOUS
 62
             200
100
AcDbLine
 10
2.0
 20
1.2843226271262154
 30
0.0
 11
2.0
 21
-5.0691959306680587
 31
0.0
  0
LINE
  5
27A
100
AcDbEntity
  8
0
  6
CONTINUOUS
 62
               4
100
AcDbLine
 10
4.0
 20
-1.8020236840387582
 30
0.0
 11
4.0
 21
-2.6020236840387554
 31
0.0
  0
LINE
  5
27B
100
AcDbEntity
  8
0
  6
CONTINUOUS
 62
               4
100
AcDbLine
 10
0.0
 20
-1.8020236840387582
 30
0.0
 11
0.0
 21
-2.6020236840387554
 31
0.0
  0
LINE
  5
27C
100
AcDbEntity
  8
0
  6
CONTINUOUS
 62
               4
100
AcDbLine
 10
0.751428571428562
 20
-2.6020236840387554
 30
0.0
 11
0.751428571428562
 21
-3.9020236840387525
 31
0.0
  0
LINE
  5
27D
100
AcDbEntity
  8
0
  6
CONTINUOUS
 62
             200
100
AcDbLine
 10
0.751428571428562
 20
-3.9020236840387525
 30
0.0
 11
3.251428571428562
 21
-3.9020236840387525
 31
0.0
  0
LINE
  5
27E
100
AcDbEntity
  8
0
  6
CONTINUOUS
 62
               4
100
AcDbLine
 10
1.251428571428562
 20
-4.4020236840387525
 30
0.0
 11
0.751428571428562
 21
-3.9020236840387525
 31
0.0
  0
LINE
  5
27F
100
AcDbEntity
  8
0
  6
CONTINUOUS
 62
               4
100
AcDbLine
 10
1.251428571428562
 20
-4.4020236840387525
 30
0.0
 11
2.751428571428562
 21
-4.4020236840387525
 31
0.0
  0
LINE
  5
280
100
AcDbEntity
  8
0
  6
CONTINUOUS
 62
               4
100
AcDbLine
 10
3.251428571428562
 20
-3.9020236840387525
 30
0.0
 11
2.751428571428562
 21
-4.4020236840387525
 31
0.0
  0
LINE
  5
281
100
AcDbEntity
  8
0
  6
CONTINUOUS
 62
               4
100
AcDbLine
 10
3.251428571428562
 20
-2.6020236840387554
 30
0.0
 11
3.251428571428562
 21
-3.9020236840387525
 31
0.0
  0
LINE
  5
282
100
AcDbEntity
  8
0
  6
CONTINUOUS
 62
               4
100
AcDbLine
 10
4.3000000000000114
 20
-1.8000000000000114
 30
0.0
 11
4.3000000000000114
 21
-4.6000000000000085
 31
0.0
  0
LINE
  5
283
100
AcDbEntity
  8
0
  6
CONTINUOUS
 62
               4
100
AcDbLine
 10
15.0
 20
-4.6000000000000085
 30
0.0
 11
15.0
 21
4.8979763159612446
 31
0.0
  0
LINE
  5
284
100
AcDbEntity
  8
0
  6
CONTINUOUS
 62
               4
100
AcDbLine
 10
11.199999999999989
 20
5.8979763159612446
 30
0.0
 11
11.199999999999989
 21
8.1445121127279805
 31
0.0
  0
LINE
  5
285
100
AcDbEntity
  8
0
  6
CONTINUOUS
 62
               4
100
AcDbLine
 10
13.800000000000011
 20
5.8979763159612446
 30
0.0
 11
13.800000000000011
 21
9.6456668471390827
 31
0.0
  0
LINE
  5
286
100
AcDbEntity
  8
0
  6
CONTINUOUS
 62
               4
100
AcDbLine
 10
4.2999999986375883
 20
-4.6000000000000085
 30
0.0
 11
14.999999995231633
 21
-4.6000000000000085
 31
0.0
  0
LINE
  5
287
100
AcDbEntity
  8
0
  6
CONTINUOUS
 62
               4
100
AcDbLine
 10
-0.000000004768367
 20
0.0
 30
0.0
 11
14.999999995231633
 21
0.0
 31
0.0
  0
LINE
  5
288
100
AcDbEntity
  8
0
  6
CONTINUOUS
 62
               4
100
AcDbLine
 10
0.0
 20
-1.8000000000000114
 30
0.0
 11
4.3000000000000114
 21
-1.8000000000000114
 31
0.0
  0
LINE
  5
289
100
AcDbEntity
  8
0
  6
CONTINUOUS
 62
               4
100
AcDbLine
 10
-0.000000004768367
 20
-2.6000000000000085
 30
0.0
 11
3.999999995231633
 21
-2.6000000000000085
 31
0.0
  0
LINE
  5
28A
100
AcDbEntity
  8
0
  6
CONTINUOUS
 62
               4
100
AcDbLine
 10
-0.000000004768367
 20
-1.1000000082564156
 30
0.0
 11
14.999999995231633
 21
-1.1000000082564156
 31
0.0
  0
LINE
  5
28B
100
AcDbEntity
  8
0
  6
CONTINUOUS
 62
               4
100
AcDbLine
 10
-0.000000004768367
 20
-0.5500000000000114
 30
0.0
 11
15.0
 21
-0.5500000000000114
 31
0.0
  0
LINE
  5
28C
100
AcDbEntity
  8
0
  6
CONTINUOUS
 62
               4
100
AcDbLine
 10
10.399999988419665
 20
0.9479762301305641
 30
0.0
 11
14.999999995231633
 21
0.9479762301305641
 31
0.0
  0
LINE
  5
28D
100
AcDbEntity
  8
0
  6
CONTINUOUS
 62
               4
100
AcDbLine
 10
10.400000005449556
 20
1.4979762335365336
 30
0.0
 11
15.0
 21
1.4979762335365336
 31
0.0
  0
ENDBLK
  5
28E
100
AcDbEntity
  8
0
100
AcDbBlockEnd
  0
BLOCK
  5
28F
100
AcDbEntity
  8
0
100
AcDbBlockBegin
  2
CS-NHBDPG-16-11
 70
               0
 10
0.0
 20
0.0
 30
0.0
  3
CS-NHBDPG-16-11
  1

  0
LINE
  5
290
100
AcDbEntity
  8
0
  6
CONTINUOUS
 62
             200
100
AcDbLine
 10
-1.3000000000000149
 20
8.1445120264329063
 30
0.0
 11
1.2999999999999581
 21
9.6456667608440085
 31
0.0
  0
LINE
  5
291
100
AcDbEntity
  8
0
  6
CONTINUOUS
 62
               4
100
AcDbLine
 10
-2.0500000000000114
 20
5.8979762296661846
 30
0.0
 11
2.0499999999999545
 21
5.8979762296661846
 31
0.0
  0
LINE
  5
292
100
AcDbEntity
  8
0
  6
CONTINUOUS
 62
               4
100
AcDbLine
 10
-2.0500000000000114
 20
3.8979762296661846
 30
0.0
 11
2.0499999999999545
 21
3.8979762296661846
 31
0.0
  0
LINE
  5
293
100
AcDbEntity
  8
0
  6
CONTINUOUS
 62
               4
100
AcDbLine
 10
-1.0500000000000114
 20
0.5979763159612475
 30
0.0
 11
1.0499999999999545
 21
0.5979763159612475
 31
0.0
  0
LINE
  5
294
100
AcDbEntity
  8
0
  6
CONTINUOUS
 62
               4
100
AcDbLine
 10
-1.25
 20
0.3979763159612446
 30
0.0
 11
-1.0500000000000114
 21
0.5979763159612475
 31
0.0
  0
LINE
  5
295
100
AcDbEntity
  8
0
  6
CONTINUOUS
 62
               4
100
AcDbLine
 10
1.0499999999999545
 20
0.5979763159612475
 30
0.0
 11
1.25
 21
0.3979763159612446
 31
0.0
  0
LINE
  5
296
100
AcDbEntity
  8
0
  6
CONTINUOUS
 62
               4
100
AcDbLine
 10
-1.25
 20
0.3979763159612446
 30
0.0
 11
1.25
 21
0.3979763159612446
 31
0.0
  0
LINE
  5
297
100
AcDbEntity
  8
0
  6
CONTINUOUS
 62
               4
100
AcDbLine
 10
1.25
 20
0.3979763159612446
 30
0.0
 11
1.25
 21
0.0
 31
0.0
  0
LINE
  5
298
100
AcDbEntity
  8
0
  6
CONTINUOUS
 62
               4
100
AcDbLine
 10
-1.25
 20
0.0
 30
0.0
 11
-1.25
 21
0.3979763159612446
 31
0.0
  0
LINE
  5
299
100
AcDbEntity
  8
0
  6
CONTINUOUS
 62
               4
100
AcDbLine
 10
-2.0479763159612503
 20
-1.1020236840387554
 30
0.0
 11
-1.5
 21
-0.5511933247651939
 31
0.0
  0
LINE
  5
29A
100
AcDbEntity
  8
0
  6
CONTINUOUS
 62
               4
100
AcDbLine
 10
2.0499999999999545
 20
-1.1000000000000085
 30
0.0
 11
1.5
 21
-0.5500000000000114
 31
0.0
  0
LINE
  5
29B
100
AcDbEntity
  8
0
  6
CONTINUOUS
 62
               4
100
AcDbLine
 10
1.25
 20
-2.6000000000000085
 30
0.0
 11
1.25
 21
-3.8991665411816143
 31
0.0
  0
LINE
  5
29C
100
AcDbEntity
  8
0
  6
CONTINUOUS
 62
               4
100
AcDbLine
 10
-1.25
 20
-2.6000000000000085
 30
0.0
 11
-1.25
 21
-3.8991665411816143
 31
0.0
  0
LINE
  5
29D
100
AcDbEntity
  8
0
  6
CONTINUOUS
 62
               4
100
AcDbLine
 10
-1.25
 20
-3.8991665411816143
 30
0.0
 11
1.25
 21
-3.8991665411816143
 31
0.0
  0
LINE
  5
29E
100
AcDbEntity
  8
0
  6
CONTINUOUS
 62
               4
100
AcDbLine
 10
1.25
 20
-3.8991665411816143
 30
0.0
 11
0.747142857142876
 21
-4.4020236840387525
 31
0.0
  0
LINE
  5
29F
100
AcDbEntity
  8
0
  6
CONTINUOUS
 62
               4
100
AcDbLine
 10
-0.747142857142876
 20
-4.4020236840387525
 30
0.0
 11
-1.25
 21
-3.8991665411816143
 31
0.0
  0
LINE
  5
2A0
100
AcDbEntity
  8
0
  6
CONTINUOUS
 62
               4
100
AcDbLine
 10
2.0005951126101991
 20
-1.8000000000000114
 30
0.0
 11
2.0005951126101991
 21
-2.6020236840387554
 31
0.0
  0
LINE
  5
2A1
100
AcDbEntity
  8
0
  6
CONTINUOUS
 62
               4
100
AcDbLine
 10
-1.9994048873898009
 20
-1.8000000000000114
 30
0.0
 11
-1.9994048873898009
 21
-2.6020236840387554
 31
0.0
  0
LINE
  5
2A2
100
AcDbEntity
  8
0
  6
CONTINUOUS
 62
               4
100
AcDbLine
 10
-0.747142857142876
 20
-4.4020236840387525
 30
0.0
 11
0.747142857142876
 21
-4.4020236840387525
 31
0.0
  0
LINE
  5
2A3
100
AcDbEntity
  8
0
  6
CONTINUOUS
 62
               4
100
AcDbLine
 10
-2.0500000000000114
 20
-2.550595112610182
 30
0.0
 11
-2.0500000000000114
 21
-1.1020236840387554
 31
0.0
  0
LINE
  5
2A4
100
AcDbEntity
  8
0
  6
CONTINUOUS
 62
               4
100
AcDbLine
 10
2.0499999999999545
 20
-2.6411128569469895
 30
0.0
 11
2.0499999999999545
 21
-1.1000000082564156
 31
0.0
  0
ARC
  5
2A5
100
AcDbEntity
  8
0
  6
CONTINUOUS
 62
               4
100
AcDbCircle
 10
0.0
 20
-2.5500000000000114
 30
0.0
 40
2.0499999999999994
100
AcDbArc
 50
180.0
 51
0.0
  0
LINE
  5
2A6
100
AcDbEntity
  8
0
  6
CONTINUOUS
 62
               4
100
AcDbLine
 10
-2.0500000000000114
 20
1.4979762281690228
 30
0.0
 11
-2.0500000000000114
 21
5.8979762296661846
 31
0.0
  0
LINE
  5
2A7
100
AcDbEntity
  8
0
  6
CONTINUOUS
 62
               4
100
AcDbLine
 10
2.0499999999999545
 20
1.4979762320920855
 30
0.0
 11
2.0499999999999545
 21
5.8979762296661846
 31
0.0
  0
LINE
  5
2A8
100
AcDbEntity
  8
0
  6
CONTINUOUS
 62
               4
100
AcDbLine
 10
1.5
 20
0.9479762320920884
 30
0.0
 11
2.0500000014444595
 21
1.4979762335365336
 31
0.0
  0
LINE
  5
2A9
100
AcDbEntity
  8
0
  6
CONTINUOUS
 62
               4
100
AcDbLine
 10
-2.050000005367508
 20
1.4979762335365336
 30
0.0
 11
-1.5
 21
0.9479762281690256
 31
0.0
  0
LINE
  5
2AA
100
AcDbEntity
  8
0
  6
CONTINUOUS
 62
               4
100
AcDbLine
 10
-1.5
 20
-0.5511933238986302
 30
0.0
 11
-1.5
 21
0.9479762301305641
 31
0.0
  0
LINE
  5
2AB
100
AcDbEntity
  8
0
  6
CONTINUOUS
 62
               4
100
AcDbLine
 10
1.5
 20
-0.5500000048504319
 30
0.0
 11
1.5
 21
0.9479762301305641
 31
0.0
  0
LINE
  5
2AC
100
AcDbEntity
  8
0
  6
CONTINUOUS
 62
               4
100
AcDbLine
 10
-1.5000000019615527
 20
0.0
 30
0.0
 11
1.4999999980384473
 21
0.0
 31
0.0
  0
LINE
  5
2AD
100
AcDbEntity
  8
0
  6
CONTINUOUS
 62
               4
100
AcDbLine
 10
-2.0500000000000114
 20
-1.8000000000000114
 30
0.0
 11
2.0499999999999545
 21
-1.8000000000000114
 31
0.0
  0
LINE
  5
2AE
100
AcDbEntity
  8
0
  6
CONTINUOUS
 62
               4
100
AcDbLine
 10
-1.9994048873898009
 20
-2.6000000000000085
 30
0.0
 11
2.0005951126101991
 21
-2.6000000000000085
 31
0.0
  0
LINE
  5
2AF
100
AcDbEntity
  8
0
  6
CONTINUOUS
 62
               4
100
AcDbLine
 10
-1.3000000000000114
 20
5.8979762296661846
 30
0.0
 11
-1.3000000000000114
 21
8.1445120264329205
 31
0.0
  0
LINE
  5
2B0
100
AcDbEntity
  8
0
  6
CONTINUOUS
 62
               4
100
AcDbLine
 10
1.2999999999999545
 20
5.8979762296661846
 30
0.0
 11
1.2999999999999545
 21
9.6456667608440085
 31
0.0
  0
LINE
  5
2B1
100
AcDbEntity
  8
0
  6
CONTINUOUS
 62
             200
100
AcDbLine
 10
0.0
 20
-5.5464060491292599
 30
0.0
 11
0.0
 21
9.6693480170655448
 31
0.0
  0
LINE
  5
2B2
100
AcDbEntity
  8
0
  6
CONTINUOUS
 62
             200
100
AcDbLine
 10
-1.0249999999999773
 20
-4.1241665411816086
 30
0.0
 11
-1.0249999999999773
 21
-2.6000000000000085
 31
0.0
  0
LINE
  5
2B3
100
AcDbEntity
  8
0
  6
CONTINUOUS
 62
             200
100
AcDbLine
 10
1.0249999999999773
 20
-4.1241665411816086
 30
0.0
 11
1.0249999999999773
 21
-2.6000000000000085
 31
0.0
  0
LINE
  5
2B4
100
AcDbEntity
  8
0
  6
CONTINUOUS
 62
             200
100
AcDbLine
 10
1.0249999999999773
 20
-0.0000000014444481
 30
0.0
 11
1.0249999999999773
 21
0.5979763159612475
 31
0.0
  0
LINE
  5
2B5
100
AcDbEntity
  8
0
  6
CONTINUOUS
 62
             200
100
AcDbLine
 10
-1.0249999999999773
 20
-0.0000000014444481
 30
0.0
 11
-1.0249999999999773
 21
0.5979763159612475
 31
0.0
  0
ENDBLK
  5
2B6
100
AcDbEntity
  8
0
100
AcDbBlockEnd
  0
BLOCK
  5
2B7
100
AcDbEntity
  8
0
100
AcDbBlockBegin
  2
CS-NHBDPG-16-12
 70
               0
 10
0.0
 20
0.0
 30
0.0
  3
CS-NHBDPG-16-12
  1

  0
CIRCLE
  5
2B8
100
AcDbEntity
  8
0
  6
CONTINUOUS
 62
               4
100
AcDbCircle
 10
11.849999997275233
 20
0.0
 30
0.0
 40
0.29
  0
CIRCLE
  5
2B9
100
AcDbEntity
  8
0
  6
CONTINUOUS
 62
               4
100
AcDbCircle
 10
13.150000002724767
 20
0.0
 30
0.0
 40
0.29
  0
CIRCLE
  5
2BA
100
AcDbEntity
  8
0
  6
CONTINUOUS
 62
               4
100
AcDbCircle
 10
11.849999997275233
 20
0.0
 30
0.0
 40
0.5
  0
CIRCLE
  5
2BB
100
AcDbEntity
  8
0
  6
CONTINUOUS
 62
               4
100
AcDbCircle
 10
13.150000002724767
 20
0.0
 30
0.0
 40
0.5
  0
CIRCLE
  5
2BC
100
AcDbEntity
  8
0
  6
CONTINUOUS
 62
               4
100
AcDbCircle
 10
2.0
 20
0.0
 30
0.0
 40
1.25
  0
CIRCLE
  5
2BD
100
AcDbEntity
  8
0
  6
CONTINUOUS
 62
             200
100
AcDbCircle
 10
2.0
 20
0.0
 30
0.0
 40
1.05
  0
CIRCLE
  5
2BE
100
AcDbEntity
  8
0
  6
CONTINUOUS
 62
               4
100
AcDbCircle
 10
2.0
 20
0.0
 30
0.0
 40
1.3999999999999997
  0
LINE
  5
2BF
100
AcDbEntity
  8
0
  6
CONTINUOUS
 62
               4
100
AcDbLine
 10
0.0
 20
-1.5
 30
0.0
 11
11.030306154330106
 21
-1.5
 31
0.0
  0
LINE
  5
2C0
100
AcDbEntity
  8
0
  6
CONTINUOUS
 62
               4
100
AcDbLine
 10
0.0
 20
-2.0499999999999972
 30
0.0
 11
15.0
 21
-2.0499999999999972
 31
0.0
  0
LINE
  5
2C1
100
AcDbEntity
  8
0
  6
CONTINUOUS
 62
               4
100
AcDbLine
 10
0.0
 20
2.0499999999999972
 30
0.0
 11
15.0
 21
2.0499999999999972
 31
0.0
  0
LINE
  5
2C2
100
AcDbEntity
  8
0
  6
CONTINUOUS
 62
               4
100
AcDbLine
 10
8.0
 20
-0.7000000000000028
 30
0.0
 11
9.6000000000000227
 21
-0.7000000000000028
 31
0.0
  0
LINE
  5
2C3
100
AcDbEntity
  8
0
  6
CONTINUOUS
 62
               4
100
AcDbLine
 10
8.0
 20
0.9000000000000057
 30
0.0
 11
9.6000000000000227
 21
0.9000000000000057
 31
0.0
  0
LINE
  5
2C4
100
AcDbEntity
  8
0
  6
CONTINUOUS
 62
               4
100
AcDbLine
 10
9.6000000000000227
 20
-0.7000000068119476
 30
0.0
 11
9.6000000000000227
 21
0.9000000000000057
 31
0.0
  0
LINE
  5
2C5
100
AcDbEntity
  8
0
  6
CONTINUOUS
 62
               4
100
AcDbLine
 10
8.0
 20
-0.7000000068119476
 30
0.0
 11
8.0
 21
0.9000000000000057
 31
0.0
  0
LINE
  5
2C6
100
AcDbEntity
  8
0
  6
CONTINUOUS
 62
               4
100
AcDbLine
 10
10.400000000000034
 20
-1.5028571503502945
 30
0.0
 11
10.400000000000034
 21
1.500000006811959
 31
0.0
  0
LINE
  5
2C7
100
AcDbEntity
  8
0
  6
CONTINUOUS
 62
               4
100
AcDbLine
 10
3.9000000000000341
 20
-1.5028571503502945
 30
0.0
 11
3.9000000000000341
 21
1.500000006811959
 31
0.0
  0
LINE
  5
2C8
100
AcDbEntity
  8
0
  6
CONTINUOUS
 62
               4
100
AcDbLine
 10
1.3085714285714403
 20
-1.068571428571417
 30
0.0
 11
3.0519930369715098
 21
0.6748501798286242
 31
0.0
  0
LINE
  5
2C9
100
AcDbEntity
  8
0
  6
CONTINUOUS
 62
               4
100
AcDbLine
 10
0.9571428571428555
 20
-0.7142857142857082
 30
0.0
 11
2.6885714285714357
 21
1.019999999999996
 31
0.0
  0
LINE
  5
2CA
100
AcDbEntity
  8
0
  6
CONTINUOUS
 62
             200
100
AcDbLine
 10
2.0
 20
2.8342857142857127
 30
0.0
 11
2.0
 21
-3.3514132448520257
 31
0.0
  0
LINE
  5
2CB
100
AcDbEntity
  8
0
  6
CONTINUOUS
 62
               4
100
AcDbLine
 10
15.0
 20
2.0499999999999972
 30
0.0
 11
15.0
 21
-2.0499999999999972
 31
0.0
  0
LINE
  5
2CC
100
AcDbEntity
  8
0
  6
CONTINUOUS
 62
               4
100
AcDbLine
 10
0.0
 20
2.0499999999999972
 30
0.0
 11
0.0
 21
-2.0499999999999972
 31
0.0
  0
LINE
  5
2CD
100
AcDbEntity
  8
0
  6
CONTINUOUS
 62
               4
100
AcDbLine
 10
0.0
 20
1.5
 30
0.0
 11
11.030306154330106
 21
1.5
 31
0.0
  0
LINE
  5
2CE
100
AcDbEntity
  8
0
  6
CONTINUOUS
 62
             200
100
AcDbLine
 10
-1.3247205773654969
 20
0.0
 30
0.0
 11
16.237619114850247
 21
0.0
 31
0.0
  0
ARC
  5
2CF
100
AcDbEntity
  8
0
  6
CONTINUOUS
 62
               4
100
AcDbCircle
 10
12.5
 20
0.0
 30
0.0
 40
2.1000000000000001
100
AcDbArc
 50
102.70634183842952
 51
257.65306763258718
  0
ARC
  5
2D0
100
AcDbEntity
  8
0
  6
CONTINUOUS
 62
               4
100
AcDbCircle
 10
12.5
 20
0.0
 30
0.0
 40
2.1000000000000001
100
AcDbArc
 50
282.34693236741282
 51
77.293658161570477
  0
CIRCLE
  5
2D1
100
AcDbEntity
  8
0
  6
CONTINUOUS
 62
               4
100
AcDbCircle
 10
12.5
 20
0.0
 30
0.0
 40
1.3
  0
ENDBLK
  5
2D2
100
AcDbEntity
  8
0
100
AcDbBlockEnd
  0
ENDSEC
  0
SECTION
  2
ENTITIES
  0
INSERT
  5
2D3
100
AcDbEntity
  8
0
  6
ByBlock
100
AcDbBlockReference
  2
CS-NHBDPG-16-12
 10
70.0
 20
-80.0
 30
0.0
  0
INSERT
  5
2D4
100
AcDbEntity
  8
0
  6
ByBlock
100
AcDbBlockReference
  2
CS-NHBDPG-16-11
 10
20.0
 20
-110.0
 30
0.0
  0
INSERT
  5
2D5
100
AcDbEntity
  8
0
  6
ByBlock
100
AcDbBlockReference
  2
CS-NHBDPG-16-10
 10
70.0
 20
-110.0
 30
0.0
  0
INSERT
  5
2D6
100
AcDbEntity
  8
0
  6
ByBlock
100
AcDbBlockReference
  2
CS-NHBDPG-16-9
 10
-100.0
 20
-80.0
 30
0.0
  0
INSERT
  5
2D7
100
AcDbEntity
  8
0
  6
ByBlock
100
AcDbBlockReference
  2
CS-NHBDPG-16-8
 10
-150.0
 20
-110.0
 30
0.0
  0
INSERT
  5
2D8
100
AcDbEntity
  8
0
  6
ByBlock
100
AcDbBlockReference
  2
CS-NHBDPG-16-7
 10
-100.0
 20
-110.0
 30
0.0
  0
INSERT
  5
2D9
100
AcDbEntity
  8
0
  6
ByBlock
100
AcDbBlockReference
  2
CS-NHBDPG-16-6
 10
-110.0
 20
30.0
 30
0.0
  0
INSERT
  5
2DA
100
AcDbEntity
  8
0
  6
ByBlock
100
AcDbBlockReference
  2
CS-NHBDPG-16-5
 10
30.0
 20
-30.0
 30
0.0
  0
INSERT
  5
2DB
100
AcDbEntity
  8
0
  6
ByBlock
100
AcDbBlockReference
  2
CS-NHBDPG-16-4
 10
30.0
 20
100.0
 30
0.0
  0
INSERT
  5
2DC
100
AcDbEntity
  8
0
  6
ByBlock
100
AcDbBlockReference
  2
CS-NHBDPG-16-3
 10
140.0
 20
30.0
 30
0.0
 50
359.99999999999994
  0
INSERT
  5
2DD
100
AcDbEntity
  8
0
  6
ByBlock
100
AcDbBlockReference
  2
CS-NHBDPG-16-2
 10
-30.0
 20
30.0
 30
0.0
  0
INSERT
  5
2DE
100
AcDbEntity
  8
0
  6
ByBlock
100
AcDbBlockReference
  2
CS-NHBDPG-16-1
 10
30.0
 20
30.0
 30
0.0
  0
MTEXT
  5
2DF
100
AcDbEntity
  8
0
  6
CONTINUOUS
 62
               7
100
AcDbMText
 10
-16.60666195310813
 20
-77.707459252403439
 30
0.0
 40
4.5
 41
0.0
 71
               1
 72
               1
  1
\A1;ZE255
  0
MTEXT
  5
2E0
100
AcDbEntity
  8
0
  6
CONTINUOUS
 62
               7
100
AcDbMText
 10
-16.60666195310813
 20
-70.764396550855338
 30
0.0
 40
4.5
 41
0.0
 71
               1
 72
               1
  1
\A1;ZE235
  0
LINE
  5
2E1
100
AcDbEntity
  8
0
  6
CONTINUOUS
 62
               7
100
AcDbLine
 10
-20.198768460575707
 20
-66.975000000000023
 30
0.0
 11
-20.198768460575707
 21
-133.4267309136421
 31
0.0
  0
LINE
  5
2E2
100
AcDbEntity
  8
0
  6
CONTINUOUS
 62
               7
100
AcDbLine
 10
-194.25
 20
-66.975000000000023
 30
0.0
 11
194.80000001192093
 21
-66.975000000000023
 31
0.0
  0
MTEXT
  5
2E3
100
AcDbEntity
  8
0
  6
CONTINUOUS
 62
               7
100
AcDbMText
 10
-189.97646052993406
 20
-70.764396550855338
 30
0.0
 40
4.5
 41
0.0
 71
               1
 72
               1
  1
\W1.071;\A1;ZE135
  0
MTEXT
  5
2E4
100
AcDbEntity
  8
0
  6
CONTINUOUS
 62
               7
100
AcDbMText
 10
-189.97646052993406
 20
-77.707459252403439
 30
0.0
 40
4.5
 41
0.0
 71
               1
 72
               1
  1
\W1.071;\A1;ZE155
  0
MTEXT
  5
2E5
100
AcDbEntity
  8
0
  6
CONTINUOUS
 62
               7
100
AcDbMText
 10
-185.70588235433334
 20
107.60000610351562
 30
0.0
 40
4.5
 41
0.0
 71
               4
 72
               1
  1
\W1.059;\A1;MODEL:CS-NHBDPG-16
  0
MTEXT
  5
2E6
100
AcDbEntity
  8
0
  6
CONTINUOUS
 62
               7
100
AcDbMText
 10
-168.92431192886306
 20
125.10000610351562
 30
0.0
 40
4.5
 41
0.0
 71
               4
 72
               1
  1
\W1.101;\A1;AIR HAND
  0
MTEXT
  5
2E7
100
AcDbEntity
  8
0
  6
CONTINUOUS
 62
               7
100
AcDbMText
 10
115.5267259825148
 20
-126.0
 30
0.0
 40
6.3000001907348633
 41
0.0
 71
               4
 72
               1
  1
\W1.121;\A1;KOGANEI CORP.
  0
MTEXT
  5
2E8
100
AcDbEntity
  8
0
  6
CONTINUOUS
 62
               7
100
AcDbMText
 10
137.50454849595866
 20
125.10000610351562
 30
0.0
 40
4.5
 41
0.0
 71
               4
 72
               1
  1
\W1.273;\A1;Ver.1.0
  0
LINE
  5
2E9
100
AcDbEntity
  8
0
  6
CONTINUOUS
 62
               7
100
AcDbLine
 10
-109.25
 20
132.59999999999999
 30
0.0
 11
-109.25
 21
117.59999999999999
 31
0.0
  0
LINE
  5
2EA
100
AcDbEntity
  8
0
  6
CONTINUOUS
 62
               7
100
AcDbLine
 10
-194.25
 20
117.59999999999999
 30
0.0
 11
-109.25
 21
117.59999999999999
 31
0.0
  0
LINE
  5
2EB
100
AcDbEntity
  8
0
  6
CONTINUOUS
 62
               7
100
AcDbLine
 10
109.8
 20
117.59999999999999
 30
0.0
 11
194.80000000000001
 21
117.59999999999999
 31
0.0
  0
LINE
  5
2EC
100
AcDbEntity
  8
0
  6
CONTINUOUS
 62
               7
100
AcDbLine
 10
109.8
 20
132.59999999999999
 30
0.0
 11
109.8
 21
117.59999999999999
 31
0.0
  0
LINE
  5
2ED
100
AcDbEntity
  8
0
  6
CONTINUOUS
 62
               7
100
AcDbLine
 10
109.8
 20
-118.5
 30
0.0
 11
194.80000000000001
 21
-118.5
 31
0.0
  0
LINE
  5
2EE
100
AcDbEntity
  8
0
  6
CONTINUOUS
 62
               7
100
AcDbLine
 10
109.8
 20
-118.5
 30
0.0
 11
109.8
 21
-133.5
 31
0.0
  0
LINE
  5
2EF
100
AcDbEntity
  8
0
  6
CONTINUOUS
 62
               7
100
AcDbLine
 10
-194.25
 20
-133.5
 30
0.0
 11
194.80000000000001
 21
-133.5
 31
0.0
  0
LINE
  5
2F0
100
AcDbEntity
  8
0
  6
CONTINUOUS
 62
               7
100
AcDbLine
 10
-194.25
 20
132.59999999999999
 30
0.0
 11
-194.25
 21
-133.5
 31
0.0
  0
LINE
  5
2F1
100
AcDbEntity
  8
0
  6
CONTINUOUS
 62
               7
100
AcDbLine
 10
194.80000000000001
 20
132.59999999999999
 30
0.0
 11
194.80000000000001
 21
-133.5
 31
0.0
  0
LINE
  5
2F2
100
AcDbEntity
  8
0
  6
CONTINUOUS
 62
               7
100
AcDbLine
 10
-194.25
 20
132.59999999999999
 30
0.0
 11
194.80000000000001
 21
132.59999999999999
 31
0.0
  0
ENDSEC
  0
SECTION
  2
OBJECTS
  0
DICTIONARY
  5
19
100
AcDbDictionary
  3
ACAD_GROUP
350
1A
  3
ACAD_MLINESTYLE
350
1B
  0
DICTIONARY
  5
1A
102
{ACAD_REACTORS
330
19
102
}
100
AcDbDictionary
  0
DICTIONARY
  5
1B
102
{ACAD_REACTORS
330
19
102
}
100
AcDbDictionary
  3
STANDARD
350
1C
  0
MLINESTYLE
  5
1C
102
{ACAD_REACTORS
330
1B
102
}
100
AcDbMlineStyle
  2
Standard
 70
               0
  3

 62
               0
 51
90.0
 52
90.0
 71
               2
 49
0.5
 62
             256
  6
ByLayer
 49
-0.5
 62
             256
  6
ByLayer
  0
ENDSEC
  0
EOF
