  0
SECTION
  2
HEADER
  9
$ACADVER
  1
AC1012
  9
$DWGCODEPAGE
  3
dos932
  9
$INSBASE
 10
0.0
 20
0.0
 30
0.0
  9
$EXTMIN
 10
-194.25
 20
-133.5
 30
0.0
  9
$EXTMAX
 10
196.25000429153442
 20
132.59999999999999
 30
0.0
  9
$LIMMIN
 10
-194.25
 20
-133.5
  9
$LIMMAX
 10
196.25000429153442
 20
132.59999999999999
  9
$ORTHOMODE
 70
               0
  9
$REGENMODE
 70
               1
  9
$FILLMODE
 70
               1
  9
$QTEXTMODE
 70
               0
  9
$MIRRTEXT
 70
               1
  9
$DRAGMODE
 70
               2
  9
$LTSCALE
 40
1.0
  9
$OSMODE
 70
               0
  9
$ATTMODE
 70
               1
  9
$TEXTSIZE
 40
3.2000000476837158
  9
$TRACEWID
 40
0.05
  9
$TEXTSTYLE
  7
MX_NOTE_STANDARD
  9
$CLAYER
  8
0
  9
$CELTYPE
  6
CONTINUOUS
  9
$CECOLOR
 62
             256
  9
$CELTSCALE
 40
1.0
  9
$DELOBJ
 70
               1
  9
$DISPSILH
 70
               0
  9
$DIMSCALE
 40
1.0
  9
$DIMASZ
 40
2.5
  9
$DIMEXO
 40
1.5
  9
$DIMDLI
 40
3.75
  9
$DIMRND
 40
0.0
  9
$DIMDLE
 40
0.0
  9
$DIMEXE
 40
1.5
  9
$DIMTP
 40
0.0
  9
$DIMTM
 40
0.0
  9
$DIMTXT
 40
3.2000000476837158
  9
$DIMCEN
 40
2.5
  9
$DIMTSZ
 40
0.0
  9
$DIMTOL
 70
               0
  9
$DIMLIM
 70
               0
  9
$DIMTIH
 70
               0
  9
$DIMTOH
 70
               0
  9
$DIMSE1
 70
               0
  9
$DIMSE2
 70
               0
  9
$DIMTAD
 70
               1
  9
$DIMZIN
 70
               8
  9
$DIMBLK
  1

  9
$DIMASO
 70
               1
  9
$DIMSHO
 70
               1
  9
$DIMPOST
  1

  9
$DIMAPOST
  1

  9
$DIMALT
 70
               0
  9
$DIMALTD
 70
               4
  9
$DIMALTF
 40
0.0394
  9
$DIMLFAC
 40
1.0
  9
$DIMTOFL
 70
               1
  9
$DIMTVP
 40
0.0
  9
$DIMTIX
 70
               0
  9
$DIMSOXD
 70
               0
  9
$DIMSAH
 70
               0
  9
$DIMBLK1
  1

  9
$DIMBLK2
  1

  9
$DIMSTYLE
  2
MXDIMSTYLE
  9
$DIMCLRD
 70
               0
  9
$DIMCLRE
 70
               0
  9
$DIMCLRT
 70
               0
  9
$DIMTFAC
 40
1.0
  9
$DIMGAP
 40
1.0
  9
$DIMJUST
 70
               0
  9
$DIMSD1
 70
               0
  9
$DIMSD2
 70
               0
  9
$DIMTOLJ
 70
               1
  9
$DIMTZIN
 70
               0
  9
$DIMALTZ
 70
               0
  9
$DIMALTTZ
 70
               0
  9
$DIMFIT
 70
               3
  9
$DIMUPT
 70
               1
  9
$DIMUNIT
 70
               2
  9
$DIMDEC
 70
               4
  9
$DIMTDEC
 70
               4
  9
$DIMALTU
 70
               8
  9
$DIMALTTD
 70
               4
  9
$DIMTXSTY
  7
MX_NOTE_STANDARD
  9
$DIMAUNIT
 70
               0
  9
$LUNITS
 70
               2
  9
$LUPREC
 70
               4
  9
$SKETCHINC
 40
0.1
  9
$FILLETRAD
 40
0.0
  9
$AUNITS
 70
               0
  9
$AUPREC
 70
               0
  9
$MENU
  1
acad
  9
$ELEVATION
 40
0.0
  9
$PELEVATION
 40
0.0
  9
$THICKNESS
 40
0.0
  9
$LIMCHECK
 70
               0
  9
$BLIPMODE
 70
               1
  9
$CHAMFERA
 40
0.0
  9
$CHAMFERB
 40
0.0
  9
$CHAMFERC
 40
0.0
  9
$CHAMFERD
 40
0.0
  9
$SKPOLY
 70
               0
  9
$TDCREATE
 40
2452220.697430556
  9
$TDUPDATE
 40
2452220.697430556
  9
$TDINDWG
 40
0.0000000000
  9
$TDUSRTIMER
 40
0.0000000000
  9
$USRTIMER
 70
               1
  9
$ANGBASE
 50
0.0
  9
$ANGDIR
 70
               0
  9
$PDMODE
 70
               0
  9
$PDSIZE
 40
0.0
  9
$PLINEWID
 40
0.0
  9
$COORDS
 70
               1
  9
$SPLFRAME
 70
               0
  9
$SPLINETYPE
 70
               6
  9
$SPLINESEGS
 70
               8
  9
$ATTDIA
 70
               0
  9
$ATTREQ
 70
               1
  9
$HANDLING
 70
               1
  9
$HANDSEED
  5
31D
  9
$SURFTAB1
 70
               6
  9
$SURFTAB2
 70
               6
  9
$SURFTYPE
 70
               6
  9
$SURFU
 70
               6
  9
$SURFV
 70
               6
  9
$UCSNAME
  2

  9
$UCSORG
 10
0.0
 20
0.0
 30
0.0
  9
$UCSXDIR
 10
1.0
 20
0.0
 30
0.0
  9
$UCSYDIR
 10
0.0
 20
1.0
 30
0.0
  9
$PUCSNAME
  2

  9
$PUCSORG
 10
0.0
 20
0.0
 30
0.0
  9
$PUCSXDIR
 10
1.0
 20
0.0
 30
0.0
  9
$PUCSYDIR
 10
0.0
 20
1.0
 30
0.0
  9
$USERI1
 70
               0
  9
$USERI2
 70
               0
  9
$USERI3
 70
               0
  9
$USERI4
 70
               0
  9
$USERI5
 70
               0
  9
$USERR1
 40
0.0
  9
$USERR2
 40
0.0
  9
$USERR3
 40
0.0
  9
$USERR4
 40
0.0
  9
$USERR5
 40
0.0
  9
$WORLDVIEW
 70
               1
  9
$SHADEDGE
 70
               3
  9
$SHADEDIF
 70
              70
  9
$TILEMODE
 70
               1
  9
$MAXACTVP
 70
              16
  9
$PINSBASE
 10
0.0
 20
0.0
 30
0.0
  9
$PLIMCHECK
 70
               0
  9
$PEXTMIN
 10
1.0000000000000000E+20
 20
1.0000000000000000E+20
 30
1.0000000000000000E+20
  9
$PEXTMAX
 10
-1.0000000000000000E+20
 20
-1.0000000000000000E+20
 30
-1.0000000000000000E+20
  9
$PLIMMIN
 10
0.0
 20
0.0
  9
$PLIMMAX
 10
12.0
 20
9.0
  9
$UNITMODE
 70
               0
  9
$VISRETAIN
 70
               0
  9
$PLINEGEN
 70
               1
  9
$PSLTSCALE
 70
               0
  9
$TREEDEPTH
 70
            3020
  9
$PICKSTYLE
 70
               1
  9
$CMLSTYLE
  2
Standard
  9
$CMLJUST
 70
               0
  9
$CMLSCALE
 40
1.0
  9
$SAVEIMAGES
 70
               0
  0
ENDSEC
  0
SECTION
  2
CLASSES
  0
CLASS
  1
LWPOLYLINE
  2
AcDbPolyline
  3
"AutoCAD"
 90
        0
280
               0
281
               1
  0
CLASS
  1
IMAGE
  2
AcDbRasterImage
  3
ISM
 90
      127
280
               0
281
               1
  0
CLASS
  1
OLE2FRAME
  2
AcDbOle2Frame
  3
""
 90
        0
280
               0
281
               1
  0
CLASS
  1
HATCH
  2
AcDbHatch
  3
"ACAD_SEDONA"
 90
        0
280
               0
281
               1
  0
CLASS
  1
DICTIONARYVAR
  2
AcDbDictionaryVar
  3
"AutoCAD"
 90
        0
280
               0
281
               0
  0
CLASS
  1
RASTERVARIABLES
  2
AcDbRasterVariables
  3
ISM
 90
        0
280
               0
281
               0
  0
CLASS
  1
IMAGEDEF
  2
AcDbRasterImageDef
  3
ISM
 90
        0
280
               0
281
               0
  0
CLASS
  1
IMAGEDEF_REACTOR
  2
AcDbRasterImageDefReactor
  3
ISM
 90
        1
280
               0
281
               0
  0
CLASS
  1
IDBUFFER
  2
AcDbIdBuffer
  3
"Acad"
 90
        0
280
               0
281
               0
  0
CLASS
  1
SPATIAL_FILTER
  2
AcDbSpatialFilter
  3
"Acad"
 90
        0
280
               0
281
               0
  0
CLASS
  1
XRECORD
  2
AcDbXrecord
  3
"<Built In>"
 90
        0
280
               0
281
               0
  0
CLASS
  1
SORTENTSTABLE
  2
AcDbSortentsTable
  3
"AutoCAD"
 90
        0
280
               0
281
               0
  0
CLASS
  1
LAYER_INDEX
  2
AcDbLayerIndex
  3
"Acad"
 90
        0
280
               0
281
               0
  0
CLASS
  1
SPATIAL_INDEX
  2
AcDbSpatialIndex
  3
"Acad"
 90
        0
280
               0
281
               0
  0
CLASS
  1
OBJECT_PTR
  2
CAseDLPNTableRecord
  3
"ASE-LPNTableRecord"
 90
        1
280
               0
281
               0
  0
CLASS
  1
LAYOUT
  2
AcDbLayout
  3
"AutoCAD 2000"
 90
        1
280
               0
281
               0
  0
CLASS
  1
PLOTSETTINGS
  2
AcDbPlotSettings
  3
"AutoCAD 2000"
 90
        1
280
               0
281
               0
  0
CLASS
  1
ACDBDICTIONARYWDFLT
  2
AcDbDictionaryWithDefault
  3
"AutoCAD 2000"
 90
        1
280
               0
281
               0
  0
CLASS
  1
ACDBPLACEHOLDER
  2
AcDbPlaceHolder
  3
"AutoCAD 2000"
 90
        1
280
               0
281
               0
  0
CLASS
  1
VBA_PROJECT
  2
AcDbVbaProject
  3
"acadvba"
 90
        1
280
               0
281
               0
  0
CLASS
  1
WIPEOUT
  2
AcDbWipeout
  3
WipeOut|AutoCAD Express Tool|expresstools@autodesk.com
 90
      127
280
               0
281
               1
  0
CLASS
  1
WIPEOUTVARIABLES
  2
AcDbWipeoutVariables
  3
WipeOut|AutoCAD Express Tool|expresstools@autodesk.com
 90
        0
280
               0
281
               0
  0
CLASS
  1
RTEXT
  2
RText
  3
RText|AutoCAD Express Tool|expresstools@autodesk.com
 90
        0
280
               0
281
               1
  0
CLASS
  1
ARCALIGNEDTEXT
  2
AcDbArcAlignedText
  3
ATEXT|AutoCAD Express Tool|expresstools@autodesk.com
 90
        0
280
               0
281
               1
  0
ENDSEC
  0
SECTION
  2
TABLES
  0
TABLE
  2
VPORT
  5
7
100
AcDbSymbolTable
 70
               1
  0
VPORT
  5
15
100
AcDbSymbolTableRecord
100
AcDbViewportTableRecord
  2
*ACTIVE
 70
               0
 10
0.0
 20
0.0
 11
1.0
 21
1.0
 12
1.0000021457672119
 22
-0.4499999999999886
 13
0.0
 23
0.0
 14
1.0
 24
1.0
 15
0.0
 25
0.0
 16
0.0
 26
0.0
 36
1.0
 17
0.0
 27
0.0
 37
0.0
 40
268.76100000000002
 41
1.7320508075688772
 42
50.0
 43
0.0
 44
0.0
 50
0.0
 51
0.0
 71
               0
 72
             100
 73
               1
 74
               1
 75
               0
 76
               0
 77
               0
 78
               0
  0
ENDTAB
  0
TABLE
  2
LTYPE
  5
4
100
AcDbSymbolTable
 70
               5
  0
LTYPE
  5
11
100
AcDbSymbolTableRecord
100
AcDbLinetypeTableRecord
  2
BYBLOCK
 70
              64
  3

 72
              65
 73
               0
 40
0.0
  0
LTYPE
  5
12
100
AcDbSymbolTableRecord
100
AcDbLinetypeTableRecord
  2
BYLAYER
 70
              64
  3

 72
              65
 73
               0
 40
0.0
  0
LTYPE
  5
13
100
AcDbSymbolTableRecord
100
AcDbLinetypeTableRecord
  2
CONTINUOUS
 70
              64
  3
Solid line
 72
              65
 73
               0
 40
0.0
  0
LTYPE
  5
22
100
AcDbSymbolTableRecord
100
AcDbLinetypeTableRecord
  2
PHANTOM
 70
              64
  3
Phantom ______  __  __  ______  __  __  ______
 72
              65
 73
               6
 40
63.500000000000007
 49
31.75
 74
               0
 49
-6.3499999999999996
 74
               0
 49
6.3499999999999996
 74
               0
 49
-6.3499999999999996
 74
               0
 49
6.3499999999999996
 74
               0
 49
-6.3499999999999996
 74
               0
  0
LTYPE
  5
3B
100
AcDbSymbolTableRecord
100
AcDbLinetypeTableRecord
  2
CENTER
 70
              64
  3
Center ____ _ ____ _ ____ _ ____ _ ____ _ ____
 72
              65
 73
               4
 40
50.800000000000004
 49
31.75
 74
               0
 49
-6.3499999999999996
 74
               0
 49
6.3499999999999996
 74
               0
 49
-6.3499999999999996
 74
               0
  0
ENDTAB
  0
TABLE
  2
LAYER
  5
2
100
AcDbSymbolTable
 70
               2
  0
LAYER
  5
14
100
AcDbSymbolTableRecord
100
AcDbLayerTableRecord
  2
0
 70
               0
 62
               7
  6
CONTINUOUS
  0
LAYER
  5
1D
100
AcDbSymbolTableRecord
100
AcDbLayerTableRecord
  2
DEFPOINTS
 70
               0
 62
               7
  6
CONTINUOUS
  0
ENDTAB
  0
TABLE
  2
STYLE
  5
3
100
AcDbSymbolTable
 70
               1
  0
STYLE
  5
17
100
AcDbSymbolTableRecord
100
AcDbTextStyleTableRecord
  2
MX_NOTE_STANDARD
 70
               0
 40
3.2000000476837158
 41
1.0
 50
0.0
 71
               0
 42
3.2000000476837158
  3
txt.shx
  4
extfont.shx
  0
ENDTAB
  0
TABLE
  2
VIEW
  5
5
100
AcDbSymbolTable
 70
               0
  0
ENDTAB
  0
TABLE
  2
UCS
  5
6
100
AcDbSymbolTable
 70
               0
  0
ENDTAB
  0
TABLE
  2
APPID
  5
8
100
AcDbSymbolTable
 70
               1
  0
APPID
  5
16
100
AcDbSymbolTableRecord
100
AcDbRegAppTableRecord
  2
ACAD
 70
               0
  0
ENDTAB
  0
TABLE
  2
DIMSTYLE
  5
9
100
AcDbSymbolTable
 70
               1
  0
DIMSTYLE
105
18
100
AcDbSymbolTableRecord
100
AcDbDimStyleTableRecord
  2
MXDIMSTYLE
 70
               0
  3

  4

  5

  6

  7

 40
1.0
 41
2.5
 42
1.5
 43
3.75
 44
1.5
 45
0.0
 46
0.0
 47
0.0
 48
0.0
 71
               0
 72
               0
 73
               0
 74
               0
 75
               0
 76
               0
 77
               1
 78
               8
140
3.2000000476837158
141
2.5
142
0.0
143
0.0394
144
1.0
145
0.0
146
1.0
147
1.0
170
               0
171
               4
172
               1
173
               0
174
               0
175
               0
176
               0
177
               0
178
               0
270
               2
271
               4
272
               4
273
               8
274
               4
275
               0
280
               0
281
               0
282
               0
283
               1
284
               0
285
               0
286
               0
287
               3
288
               1
340
17
  0
ENDTAB
  0
TABLE
  2
BLOCK_RECORD
  5
1
100
AcDbSymbolTable
 70
               3
  0
BLOCK_RECORD
  5
A
100
AcDbSymbolTableRecord
100
AcDbBlockTableRecord
  2
*MODEL_SPACE
  0
BLOCK_RECORD
  5
B
100
AcDbSymbolTableRecord
100
AcDbBlockTableRecord
  2
*PAPER_SPACE
  0
BLOCK_RECORD
  5
1E
100
AcDbSymbolTableRecord
100
AcDbBlockTableRecord
  2
MS_1
  0
BLOCK_RECORD
  5
1F
100
AcDbSymbolTableRecord
100
AcDbBlockTableRecord
  2
MS_2
  0
BLOCK_RECORD
  5
20
100
AcDbSymbolTableRecord
100
AcDbBlockTableRecord
  2
MS_3
  0
ENDTAB
  0
ENDSEC
  0
SECTION
  2
BLOCKS
  0
BLOCK
  5
D
100
AcDbEntity
  8
0
100
AcDbBlockBegin
  2
*MODEL_SPACE
 70
               0
 10
0.0
 20
0.0
 30
0.0
  3
*MODEL_SPACE
  1

  0
ENDBLK
  5
E
100
AcDbEntity
  8
0
100
AcDbBlockEnd
  0
BLOCK
  5
F
100
AcDbEntity
 67
               1
  8
0
100
AcDbBlockBegin
  2
*PAPER_SPACE
 70
               0
 10
0.0
 20
0.0
 30
0.0
  3
*PAPER_SPACE
  1

  0
ENDBLK
  5
10
100
AcDbEntity
 67
               1
  8
0
100
AcDbBlockEnd
  0
BLOCK
  5
21
100
AcDbEntity
  8
0
100
AcDbBlockBegin
  2
MS_1
 70
               0
 10
0.0
 20
0.0
 30
0.0
  3
MS_1
  1

  0
ARC
  5
23
100
AcDbEntity
  8
0
  6
PHANTOM
 62
               2
100
AcDbCircle
 10
23.676666259770347
 20
-15.5
 30
0.0
 40
5.7834856872763059
100
AcDbArc
 50
159.76861568865331
 51
200.23138431134586
  0
ARC
  5
24
100
AcDbEntity
  8
0
  6
PHANTOM
 62
               2
100
AcDbCircle
 10
23.676666259770347
 20
-11.5
 30
0.0
 40
5.7834856872763059
100
AcDbArc
 50
159.76861568865331
 51
200.23138431134586
  0
ARC
  5
25
100
AcDbEntity
  8
0
  6
PHANTOM
 62
               2
100
AcDbCircle
 10
14.623359680171053
 20
-15.5
 30
0.0
 40
5.7740793512383108
100
AcDbArc
 50
339.73421197377343
 51
20.265788026225788
  0
ARC
  5
26
100
AcDbEntity
  8
0
  6
PHANTOM
 62
               2
100
AcDbCircle
 10
14.623359680171053
 20
-11.5
 30
0.0
 40
5.7740793512383108
100
AcDbArc
 50
339.73421197377343
 51
20.265788026225788
  0
CIRCLE
  5
27
100
AcDbEntity
  8
0
  6
PHANTOM
 62
               2
100
AcDbCircle
 10
40.0
 20
0.0
 30
0.0
 40
21.25
  0
ARC
  5
28
100
AcDbEntity
  8
0
  6
CONTINUOUS
 62
               4
100
AcDbCircle
 10
44.996788206694411
 20
-37.998245211336318
 30
0.0
 40
3.501756261584358
100
AcDbArc
 50
212.69931682532268
 51
270.05255140938749
  0
ARC
  5
29
100
AcDbEntity
  8
0
  6
CONTINUOUS
 62
               4
100
AcDbCircle
 10
44.997472756469435
 20
-38.001291467843579
 30
0.0
 40
3.5012923799297484
100
AcDbArc
 50
89.958643727811094
 51
144.13574070953098
  0
ARC
  5
2A
100
AcDbEntity
  8
0
  6
CONTINUOUS
 62
               4
100
AcDbCircle
 10
48.0
 20
-38.0
 30
0.0
 40
3.5000000000332614
100
AcDbArc
 50
269.99999999999937
 51
89.999999999999801
  0
ARC
  5
2B
100
AcDbEntity
  8
0
  6
CONTINUOUS
 62
               4
100
AcDbCircle
 10
10.994602462535008
 20
-37.997224159328219
 30
0.0
 40
3.4972283245449756
100
AcDbArc
 50
35.83017610999957
 51
89.911571046959324
  0
ARC
  5
2C
100
AcDbEntity
  8
0
  6
CONTINUOUS
 62
               4
100
AcDbCircle
 10
10.995517875391386
 20
-38.002467424627753
 30
0.0
 40
3.4975354473158733
100
AcDbArc
 50
270.0734251010411
 51
327.33847998575976
  0
ARC
  5
2D
100
AcDbEntity
  8
0
  6
CONTINUOUS
 62
               4
100
AcDbCircle
 10
8.0
 20
-38.0
 30
0.0
 40
3.5
100
AcDbArc
 50
89.999999999999801
 51
269.99999999999937
  0
ARC
  5
2E
100
AcDbEntity
  8
0
  6
CONTINUOUS
 62
               7
100
AcDbCircle
 10
39.600018309983426
 20
-58.500018309983425
 30
0.0
 40
0.9999816901842067
100
AcDbArc
 50
269.99895089601722
 51
0.0010491039821544
  0
ARC
  5
2F
100
AcDbEntity
  8
0
  6
CONTINUOUS
 62
               7
100
AcDbCircle
 10
41.70000610305928
 20
-31.500006103059274
 30
0.0
 40
0.4999938969779723
100
AcDbArc
 50
269.99930063238543
 51
0.0006993676135385
  0
ARC
  5
30
100
AcDbEntity
  8
0
  6
CONTINUOUS
 62
               7
100
AcDbCircle
 10
39.5000076299184
 20
-32.5000076299184
 30
0.0
 40
0.500007629976615
100
AcDbArc
 50
90.000874310902617
 51
179.99912568909679
  0
ARC
  5
31
100
AcDbEntity
  8
0
  6
CONTINUOUS
 62
               7
100
AcDbCircle
 10
14.300001525881235
 20
-31.499998474118765
 30
0.0
 40
0.5000015258835625
100
AcDbArc
 50
180.00017485257555
 51
269.99982514742345
  0
ARC
  5
32
100
AcDbEntity
  8
0
  6
CONTINUOUS
 62
               7
100
AcDbCircle
 10
16.500007629336324
 20
-32.499992370663676
 30
0.0
 40
0.4999923707218841
100
AcDbArc
 50
359.99912572911541
 51
90.000874270883614
  0
ARC
  5
33
100
AcDbEntity
  8
0
  6
CONTINUOUS
 62
               7
100
AcDbCircle
 10
16.400019836436257
 20
-58.499980163563741
 30
0.0
 40
1.0000198366329967
100
AcDbArc
 50
180.00113652153311
 51
269.99886347846586
  0
ARC
  5
34
100
AcDbEntity
  8
0
  6
CONTINUOUS
 62
               7
100
AcDbCircle
 10
48.653467815411069
 20
-13.003742668786808
 30
0.0
 40
1.0037486592205194
100
AcDbArc
 50
90.19794953709517
 51
178.64459933168868
  0
ARC
  5
35
100
AcDbEntity
  8
0
  6
CONTINUOUS
 62
               7
100
AcDbCircle
 10
7.3414449521797245
 20
-12.998729640632934
 30
0.0
 40
0.9987306859036578
100
AcDbArc
 50
1.0745562211586648
 51
90.082894910056652
  0
CIRCLE
  5
36
100
AcDbEntity
  8
0
  6
CONTINUOUS
 62
               7
100
AcDbCircle
 10
40.0
 20
0.0
 30
0.0
 40
5.7224998474121094
  0
CIRCLE
  5
37
100
AcDbEntity
  8
0
  6
CONTINUOUS
 62
               2
100
AcDbCircle
 10
40.0
 20
0.0
 30
0.0
 40
6.5784997940063477
  0
ARC
  5
38
100
AcDbEntity
  8
0
  6
CONTINUOUS
 62
               7
100
AcDbCircle
 10
31.51417009618126
 20
-7.0011957158899811
 30
0.0
 40
0.9988129893321813
100
AcDbArc
 50
269.76078644547243
 51
39.937957623175194
  0
CIRCLE
  5
39
100
AcDbEntity
  8
0
  6
CONTINUOUS
 62
               7
100
AcDbCircle
 10
40.0
 20
0.0
 30
0.0
 40
9.0
  0
CIRCLE
  5
3A
100
AcDbEntity
  8
0
  6
CONTINUOUS
 62
               7
100
AcDbCircle
 10
40.0
 20
0.0
 30
0.0
 40
10.0
  0
LINE
  5
3C
100
AcDbEntity
  8
0
  6
CENTER
 62
               2
100
AcDbLine
 10
33.439999999999998
 20
-13.5
 30
0.0
 11
7.9100000000000001
 21
-13.5
 31
0.0
  0
LINE
  5
3D
100
AcDbEntity
  8
0
  6
PHANTOM
 62
               2
100
AcDbLine
 10
32.5
 20
-17.5
 30
0.0
 11
32.5
 21
-9.5
 31
0.0
  0
LINE
  5
3E
100
AcDbEntity
  8
0
  6
PHANTOM
 62
               2
100
AcDbLine
 10
32.5
 20
-9.5
 30
0.0
 11
22.0
 21
-9.5
 31
0.0
  0
LINE
  5
3F
100
AcDbEntity
  8
0
  6
PHANTOM
 62
               2
100
AcDbLine
 10
32.5
 20
-17.5
 30
0.0
 11
22.0
 21
-17.5
 31
0.0
  0
LINE
  5
40
100
AcDbEntity
  8
0
  6
PHANTOM
 62
               2
100
AcDbLine
 10
22.0
 20
-17.5
 30
0.0
 11
22.0
 21
-9.5
 31
0.0
  0
LINE
  5
41
100
AcDbEntity
  8
0
  6
PHANTOM
 62
               2
100
AcDbLine
 10
17.899999999999999
 20
-11.0
 30
0.0
 11
10.4
 21
-11.0
 31
0.0
  0
LINE
  5
42
100
AcDbEntity
  8
0
  6
PHANTOM
 62
               2
100
AcDbLine
 10
10.4
 20
-11.26
 30
0.0
 11
8.9000000000000004
 21
-11.52
 31
0.0
  0
LINE
  5
43
100
AcDbEntity
  8
0
  6
PHANTOM
 62
               2
100
AcDbLine
 10
10.4
 20
-15.73
 30
0.0
 11
8.9000000000000004
 21
-15.470000000000001
 31
0.0
  0
LINE
  5
44
100
AcDbEntity
  8
0
  6
PHANTOM
 62
               2
100
AcDbLine
 10
8.9000000000000004
 20
-15.470000000000001
 30
0.0
 11
8.9000000000000004
 21
-11.52
 31
0.0
  0
LINE
  5
45
100
AcDbEntity
  8
0
  6
PHANTOM
 62
               2
100
AcDbLine
 10
22.0
 20
-17.5
 30
0.0
 11
17.899999999999999
 21
-17.5
 31
0.0
  0
LINE
  5
46
100
AcDbEntity
  8
0
  6
PHANTOM
 62
               2
100
AcDbLine
 10
22.0
 20
-9.5
 30
0.0
 11
17.899999999999999
 21
-9.5
 31
0.0
  0
LINE
  5
47
100
AcDbEntity
  8
0
  6
PHANTOM
 62
               2
100
AcDbLine
 10
21.399999999999999
 20
-17.5
 30
0.0
 11
21.399999999999999
 21
-9.5
 31
0.0
  0
LINE
  5
48
100
AcDbEntity
  8
0
  6
PHANTOM
 62
               2
100
AcDbLine
 10
20.399999999999999
 20
-17.5
 30
0.0
 11
20.399999999999999
 21
-9.5
 31
0.0
  0
LINE
  5
49
100
AcDbEntity
  8
0
  6
PHANTOM
 62
               2
100
AcDbLine
 10
20.039999999999999
 20
-13.5
 30
0.0
 11
18.25
 21
-13.5
 31
0.0
  0
LINE
  5
4A
100
AcDbEntity
  8
0
  6
PHANTOM
 62
               2
100
AcDbLine
 10
17.899999999999999
 20
-9.0
 30
0.0
 11
10.4
 21
-9.0
 31
0.0
  0
LINE
  5
4B
100
AcDbEntity
  8
0
  6
PHANTOM
 62
               2
100
AcDbLine
 10
17.899999999999999
 20
-18.0
 30
0.0
 11
10.4
 21
-18.0
 31
0.0
  0
LINE
  5
4C
100
AcDbEntity
  8
0
  6
PHANTOM
 62
               2
100
AcDbLine
 10
10.4
 20
-18.0
 30
0.0
 11
10.4
 21
-9.0
 31
0.0
  0
LINE
  5
4D
100
AcDbEntity
  8
0
  6
PHANTOM
 62
               2
100
AcDbLine
 10
17.899999999999999
 20
-18.0
 30
0.0
 11
17.899999999999999
 21
-9.0
 31
0.0
  0
LINE
  5
4E
100
AcDbEntity
  8
0
  6
CENTER
 62
             200
100
AcDbLine
 10
46.5
 20
-33.049999999999997
 30
0.0
 11
46.5
 21
-42.950000000000003
 31
0.0
  0
LINE
  5
4F
100
AcDbEntity
  8
0
  6
CENTER
 62
             200
100
AcDbLine
 10
9.5
 20
-33.049999999999997
 30
0.0
 11
9.5
 21
-42.950000000000003
 31
0.0
  0
LINE
  5
50
100
AcDbEntity
  8
0
  6
CONTINUOUS
 62
               4
100
AcDbLine
 10
48.0
 20
-41.5
 30
0.0
 11
45.0
 21
-41.5
 31
0.0
  0
LINE
  5
51
100
AcDbEntity
  8
0
  6
CONTINUOUS
 62
               4
100
AcDbLine
 10
48.0
 20
-34.5
 30
0.0
 11
45.0
 21
-34.5
 31
0.0
  0
LINE
  5
52
100
AcDbEntity
  8
0
  6
CENTER
 62
             200
100
AcDbLine
 10
41.0
 20
-38.0
 30
0.0
 11
53.700000000000003
 21
-38.0
 31
0.0
  0
LINE
  5
53
100
AcDbEntity
  8
0
  6
CONTINUOUS
 62
               4
100
AcDbLine
 10
8.0
 20
-41.5
 30
0.0
 11
11.0
 21
-41.5
 31
0.0
  0
LINE
  5
54
100
AcDbEntity
  8
0
  6
CONTINUOUS
 62
               4
100
AcDbLine
 10
8.0
 20
-34.5
 30
0.0
 11
11.0
 21
-34.5
 31
0.0
  0
LINE
  5
55
100
AcDbEntity
  8
0
  6
CENTER
 62
             200
100
AcDbLine
 10
14.99
 20
-38.0
 30
0.0
 11
2.29
 21
-38.0
 31
0.0
  0
LINE
  5
56
100
AcDbEntity
  8
0
  6
CONTINUOUS
 62
               7
100
AcDbLine
 10
46.990000000000002
 20
-22.0
 30
0.0
 11
9.0
 21
-22.0
 31
0.0
  0
LINE
  5
57
100
AcDbEntity
  8
0
  6
CONTINUOUS
 62
               4
100
AcDbLine
 10
9.0
 20
-22.0
 30
0.0
 11
1.0
 21
-22.0
 31
0.0
  0
LINE
  5
58
100
AcDbEntity
  8
0
  6
CONTINUOUS
 62
               4
100
AcDbLine
 10
47.0
 20
-24.300000000000001
 30
0.0
 11
55.0
 21
-24.300000000000001
 31
0.0
  0
LINE
  5
59
100
AcDbEntity
  8
0
  6
CONTINUOUS
 62
               7
100
AcDbLine
 10
9.0
 20
-24.300000000000001
 30
0.0
 11
47.0
 21
-24.300000000000001
 31
0.0
  0
LINE
  5
5A
100
AcDbEntity
  8
0
  6
CONTINUOUS
 62
               4
100
AcDbLine
 10
14.08
 20
-45.0
 30
0.0
 11
4.0
 21
-45.0
 31
0.0
  0
LINE
  5
5B
100
AcDbEntity
  8
0
  6
CONTINUOUS
 62
               4
100
AcDbLine
 10
52.0
 20
-45.0
 30
0.0
 11
55.0
 21
-42.0
 31
0.0
  0
LINE
  5
5C
100
AcDbEntity
  8
0
  6
CONTINUOUS
 62
               4
100
AcDbLine
 10
1.0
 20
-42.0
 30
0.0
 11
4.0
 21
-45.0
 31
0.0
  0
LINE
  5
5D
100
AcDbEntity
  8
0
  6
CONTINUOUS
 62
               4
100
AcDbLine
 10
52.0
 20
-45.0
 30
0.0
 11
41.909999999999997
 21
-45.0
 31
0.0
  0
LINE
  5
5E
100
AcDbEntity
  8
0
  6
CONTINUOUS
 62
               4
100
AcDbLine
 10
55.0
 20
-22.0
 30
0.0
 11
55.0
 21
-42.0
 31
0.0
  0
LINE
  5
5F
100
AcDbEntity
  8
0
  6
CONTINUOUS
 62
               4
100
AcDbLine
 10
1.0
 20
-22.0
 30
0.0
 11
1.0
 21
-42.0
 31
0.0
  0
LINE
  5
60
100
AcDbEntity
  8
0
  6
CONTINUOUS
 62
               7
100
AcDbLine
 10
42.200000000000003
 20
-31.300000000000001
 30
0.0
 11
42.200000000000003
 21
-31.5
 31
0.0
  0
LINE
  5
61
100
AcDbEntity
  8
0
  6
CONTINUOUS
 62
               7
100
AcDbLine
 10
13.800000000000001
 20
-31.300000000000001
 30
0.0
 11
13.800000000000001
 21
-31.5
 31
0.0
  0
LINE
  5
62
100
AcDbEntity
  8
0
  6
CONTINUOUS
 62
               4
100
AcDbLine
 10
1.0
 20
-24.300000000000001
 30
0.0
 11
9.0
 21
-24.300000000000001
 31
0.0
  0
LINE
  5
63
100
AcDbEntity
  8
0
  6
CENTER
 62
               2
100
AcDbLine
 10
28.0
 20
28.539999999999999
 30
0.0
 11
28.0
 21
-62.43
 31
0.0
  0
LINE
  5
64
100
AcDbEntity
  8
0
  6
CONTINUOUS
 62
               7
100
AcDbLine
 10
43.0
 20
-22.0
 30
0.0
 11
43.0
 21
-24.300000000000001
 31
0.0
  0
LINE
  5
65
100
AcDbEntity
  8
0
  6
CONTINUOUS
 62
               7
100
AcDbLine
 10
13.0
 20
-22.0
 30
0.0
 11
13.0
 21
-24.300000000000001
 31
0.0
  0
LINE
  5
66
100
AcDbEntity
  8
0
  6
CONTINUOUS
 62
               7
100
AcDbLine
 10
42.200000000000003
 20
-31.0
 30
0.0
 11
43.0
 21
-30.199999999999999
 31
0.0
  0
LINE
  5
67
100
AcDbEntity
  8
0
  6
CONTINUOUS
 62
               7
100
AcDbLine
 10
13.800000000000001
 20
-31.0
 30
0.0
 11
13.0
 21
-30.199999999999999
 31
0.0
  0
LINE
  5
68
100
AcDbEntity
  8
0
  6
CONTINUOUS
 62
               7
100
AcDbLine
 10
38.640000000000001
 20
-57.5
 30
0.0
 11
34.729999999999997
 21
-57.5
 31
0.0
  0
LINE
  5
69
100
AcDbEntity
  8
0
  6
CONTINUOUS
 62
               7
100
AcDbLine
 10
15.699999999999999
 20
-57.5
 30
0.0
 11
15.4
 21
-57.5
 31
0.0
  0
LINE
  5
6A
100
AcDbEntity
  8
0
  6
CONTINUOUS
 62
               7
100
AcDbLine
 10
21.260000000000002
 20
-57.5
 30
0.0
 11
17.350000000000001
 21
-57.5
 31
0.0
  0
LINE
  5
6B
100
AcDbEntity
  8
0
  6
CONTINUOUS
 62
               7
100
AcDbLine
 10
30.760000000000002
 20
-57.5
 30
0.0
 11
25.23
 21
-57.5
 31
0.0
  0
LINE
  5
6C
100
AcDbEntity
  8
0
  6
CONTINUOUS
 62
               7
100
AcDbLine
 10
16.109999999999999
 20
-37.0
 30
0.0
 11
14.18
 21
-37.0
 31
0.0
  0
LINE
  5
6D
100
AcDbEntity
  8
0
  6
CONTINUOUS
 62
               7
100
AcDbLine
 10
16.120000000000001
 20
-37.450000000000003
 30
0.0
 11
15.039999999999999
 21
-37.450000000000003
 31
0.0
  0
LINE
  5
6E
100
AcDbEntity
  8
0
  6
CONTINUOUS
 62
               7
100
AcDbLine
 10
35.640000000000001
 20
-37.0
 30
0.0
 11
31.0
 21
-37.0
 31
0.0
  0
LINE
  5
6F
100
AcDbEntity
  8
0
  6
CONTINUOUS
 62
               7
100
AcDbLine
 10
34.869999999999997
 20
-37.450000000000003
 30
0.0
 11
31.23
 21
-37.450000000000003
 31
0.0
  0
LINE
  5
70
100
AcDbEntity
  8
0
  6
CONTINUOUS
 62
               7
100
AcDbLine
 10
39.200000000000003
 20
-56.920000000000002
 30
0.0
 11
35.700000000000003
 21
-56.920000000000002
 31
0.0
  0
LINE
  5
71
100
AcDbEntity
  8
0
  6
CONTINUOUS
 62
               7
100
AcDbLine
 10
14.619999999999999
 20
-56.920000000000002
 30
0.0
 11
14.4
 21
-56.920000000000002
 31
0.0
  0
LINE
  5
72
100
AcDbEntity
  8
0
  6
CONTINUOUS
 62
               7
100
AcDbLine
 10
20.289999999999999
 20
-56.920000000000002
 30
0.0
 11
16.789999999999999
 21
-56.920000000000002
 31
0.0
  0
LINE
  5
73
100
AcDbEntity
  8
0
  6
CONTINUOUS
 62
               7
100
AcDbLine
 10
30.469999999999999
 20
-56.920000000000002
 30
0.0
 11
25.52
 21
-56.920000000000002
 31
0.0
  0
LINE
  5
74
100
AcDbEntity
  8
0
  6
CONTINUOUS
 62
               7
100
AcDbLine
 10
15.699999999999999
 20
-57.5
 30
0.0
 11
14.619999999999999
 21
-56.920000000000002
 31
0.0
  0
LINE
  5
75
100
AcDbEntity
  8
0
  6
CONTINUOUS
 62
               7
100
AcDbLine
 10
16.789999999999999
 20
-56.920000000000002
 30
0.0
 11
17.350000000000001
 21
-57.5
 31
0.0
  0
LINE
  5
76
100
AcDbEntity
  8
0
  6
CONTINUOUS
 62
               7
100
AcDbLine
 10
21.260000000000002
 20
-57.5
 30
0.0
 11
20.289999999999999
 21
-56.920000000000002
 31
0.0
  0
LINE
  5
77
100
AcDbEntity
  8
0
  6
CONTINUOUS
 62
               7
100
AcDbLine
 10
20.350000000000001
 20
-37.0
 30
0.0
 11
21.120000000000001
 21
-37.450000000000003
 31
0.0
  0
LINE
  5
78
100
AcDbEntity
  8
0
  6
CONTINUOUS
 62
               7
100
AcDbLine
 10
14.18
 20
-37.0
 30
0.0
 11
15.039999999999999
 21
-37.450000000000003
 31
0.0
  0
LINE
  5
79
100
AcDbEntity
  8
0
  6
CONTINUOUS
 62
               7
100
AcDbLine
 10
14.18
 20
-37.0
 30
0.0
 11
14.619999999999999
 21
-56.920000000000002
 31
0.0
  0
LINE
  5
7A
100
AcDbEntity
  8
0
  6
CONTINUOUS
 62
               7
100
AcDbLine
 10
15.699999999999999
 20
-57.5
 30
0.0
 11
15.039999999999999
 21
-37.450000000000003
 31
0.0
  0
LINE
  5
7B
100
AcDbEntity
  8
0
  6
CONTINUOUS
 62
               7
100
AcDbLine
 10
16.789999999999999
 20
-56.920000000000002
 30
0.0
 11
16.109999999999999
 21
-37.0
 31
0.0
  0
LINE
  5
7C
100
AcDbEntity
  8
0
  6
CONTINUOUS
 62
               7
100
AcDbLine
 10
20.350000000000001
 20
-37.0
 30
0.0
 11
20.289999999999999
 21
-56.920000000000002
 31
0.0
  0
LINE
  5
7D
100
AcDbEntity
  8
0
  6
CONTINUOUS
 62
               7
100
AcDbLine
 10
21.120000000000001
 20
-37.450000000000003
 30
0.0
 11
21.260000000000002
 21
-57.5
 31
0.0
  0
LINE
  5
7E
100
AcDbEntity
  8
0
  6
CONTINUOUS
 62
               7
100
AcDbLine
 10
25.0
 20
-37.0
 30
0.0
 11
24.77
 21
-37.450000000000003
 31
0.0
  0
LINE
  5
7F
100
AcDbEntity
  8
0
  6
CONTINUOUS
 62
               7
100
AcDbLine
 10
25.52
 20
-56.920000000000002
 30
0.0
 11
25.23
 21
-57.5
 31
0.0
  0
LINE
  5
80
100
AcDbEntity
  8
0
  6
CONTINUOUS
 62
               7
100
AcDbLine
 10
24.77
 20
-37.450000000000003
 30
0.0
 11
25.23
 21
-57.5
 31
0.0
  0
LINE
  5
81
100
AcDbEntity
  8
0
  6
CONTINUOUS
 62
               7
100
AcDbLine
 10
41.810000000000002
 20
-37.0
 30
0.0
 11
41.369999999999997
 21
-56.920000000000002
 31
0.0
  0
LINE
  5
82
100
AcDbEntity
  8
0
  6
CONTINUOUS
 62
               7
100
AcDbLine
 10
40.289999999999999
 20
-57.5
 30
0.0
 11
40.950000000000003
 21
-37.450000000000003
 31
0.0
  0
LINE
  5
83
100
AcDbEntity
  8
0
  6
CONTINUOUS
 62
               7
100
AcDbLine
 10
39.200000000000003
 20
-56.920000000000002
 30
0.0
 11
39.880000000000003
 21
-37.0
 31
0.0
  0
LINE
  5
84
100
AcDbEntity
  8
0
  6
CONTINUOUS
 62
               7
100
AcDbLine
 10
35.640000000000001
 20
-37.0
 30
0.0
 11
35.700000000000003
 21
-56.920000000000002
 31
0.0
  0
LINE
  5
85
100
AcDbEntity
  8
0
  6
CONTINUOUS
 62
               7
100
AcDbLine
 10
34.869999999999997
 20
-37.450000000000003
 30
0.0
 11
34.729999999999997
 21
-57.5
 31
0.0
  0
LINE
  5
86
100
AcDbEntity
  8
0
  6
CONTINUOUS
 62
               7
100
AcDbLine
 10
31.23
 20
-37.450000000000003
 30
0.0
 11
30.760000000000002
 21
-57.5
 31
0.0
  0
LINE
  5
87
100
AcDbEntity
  8
0
  6
CONTINUOUS
 62
               7
100
AcDbLine
 10
31.0
 20
-37.0
 30
0.0
 11
31.23
 21
-37.450000000000003
 31
0.0
  0
LINE
  5
88
100
AcDbEntity
  8
0
  6
CONTINUOUS
 62
               7
100
AcDbLine
 10
41.810000000000002
 20
-37.0
 30
0.0
 11
40.950000000000003
 21
-37.450000000000003
 31
0.0
  0
LINE
  5
89
100
AcDbEntity
  8
0
  6
CONTINUOUS
 62
               7
100
AcDbLine
 10
35.640000000000001
 20
-37.0
 30
0.0
 11
34.869999999999997
 21
-37.450000000000003
 31
0.0
  0
LINE
  5
8A
100
AcDbEntity
  8
0
  6
CONTINUOUS
 62
               7
100
AcDbLine
 10
40.289999999999999
 20
-57.5
 30
0.0
 11
41.369999999999997
 21
-56.920000000000002
 31
0.0
  0
LINE
  5
8B
100
AcDbEntity
  8
0
  6
CONTINUOUS
 62
               7
100
AcDbLine
 10
39.200000000000003
 20
-56.920000000000002
 30
0.0
 11
38.640000000000001
 21
-57.5
 31
0.0
  0
LINE
  5
8C
100
AcDbEntity
  8
0
  6
CONTINUOUS
 62
               7
100
AcDbLine
 10
34.729999999999997
 20
-57.5
 30
0.0
 11
35.700000000000003
 21
-56.920000000000002
 31
0.0
  0
LINE
  5
8D
100
AcDbEntity
  8
0
  6
CONTINUOUS
 62
               7
100
AcDbLine
 10
30.469999999999999
 20
-56.920000000000002
 30
0.0
 11
30.760000000000002
 21
-57.5
 31
0.0
  0
LINE
  5
8E
100
AcDbEntity
  8
0
  6
CONTINUOUS
 62
               7
100
AcDbLine
 10
24.77
 20
-37.450000000000003
 30
0.0
 11
21.120000000000001
 21
-37.450000000000003
 31
0.0
  0
LINE
  5
8F
100
AcDbEntity
  8
0
  6
CONTINUOUS
 62
               7
100
AcDbLine
 10
40.950000000000003
 20
-37.450000000000003
 30
0.0
 11
39.869999999999997
 21
-37.450000000000003
 31
0.0
  0
LINE
  5
90
100
AcDbEntity
  8
0
  6
CONTINUOUS
 62
               7
100
AcDbLine
 10
25.0
 20
-37.0
 30
0.0
 11
20.350000000000001
 21
-37.0
 31
0.0
  0
LINE
  5
91
100
AcDbEntity
  8
0
  6
CONTINUOUS
 62
               7
100
AcDbLine
 10
42.18
 20
-34.979999999999997
 30
0.0
 11
13.81
 21
-34.979999999999997
 31
0.0
  0
LINE
  5
92
100
AcDbEntity
  8
0
  6
CONTINUOUS
 62
               7
100
AcDbLine
 10
40.600000000000001
 20
-57.5
 30
0.0
 11
40.289999999999999
 21
-57.5
 31
0.0
  0
LINE
  5
93
100
AcDbEntity
  8
0
  6
CONTINUOUS
 62
               7
100
AcDbLine
 10
41.810000000000002
 20
-37.0
 30
0.0
 11
39.880000000000003
 21
-37.0
 31
0.0
  0
LINE
  5
94
100
AcDbEntity
  8
0
  6
CONTINUOUS
 62
               7
100
AcDbLine
 10
41.600000000000001
 20
-56.920000000000002
 30
0.0
 11
41.369999999999997
 21
-56.920000000000002
 31
0.0
  0
LINE
  5
95
100
AcDbEntity
  8
0
  6
CONTINUOUS
 62
               7
100
AcDbLine
 10
31.0
 20
-37.0
 30
0.0
 11
30.460000000000001
 21
-56.920000000000002
 31
0.0
  0
LINE
  5
96
100
AcDbEntity
  8
0
  6
CONTINUOUS
 62
               7
100
AcDbLine
 10
25.0
 20
-37.0
 30
0.0
 11
25.530000000000001
 21
-56.920000000000002
 31
0.0
  0
LINE
  5
97
100
AcDbEntity
  8
0
  6
CONTINUOUS
 62
               7
100
AcDbLine
 10
14.300000000000001
 20
-34.5
 30
0.0
 11
13.81
 21
-34.979999999999997
 31
0.0
  0
LINE
  5
98
100
AcDbEntity
  8
0
  6
CONTINUOUS
 62
               7
100
AcDbLine
 10
41.700000000000003
 20
-34.5
 30
0.0
 11
42.18
 21
-34.979999999999997
 31
0.0
  0
LINE
  5
99
100
AcDbEntity
  8
0
  6
CONTINUOUS
 62
               7
100
AcDbLine
 10
42.18
 20
-34.979999999999997
 30
0.0
 11
41.600000000000001
 21
-56.920000000000002
 31
0.0
  0
LINE
  5
9A
100
AcDbEntity
  8
0
  6
CONTINUOUS
 62
               7
100
AcDbLine
 10
13.81
 20
-34.979999999999997
 30
0.0
 11
14.4
 21
-56.920000000000002
 31
0.0
  0
LINE
  5
9B
100
AcDbEntity
  8
0
  6
CONTINUOUS
 62
               7
100
AcDbLine
 10
15.4
 20
-57.5
 30
0.0
 11
15.4
 21
-58.5
 31
0.0
  0
LINE
  5
9C
100
AcDbEntity
  8
0
  6
CONTINUOUS
 62
               7
100
AcDbLine
 10
40.600000000000001
 20
-57.5
 30
0.0
 11
40.600000000000001
 21
-58.5
 31
0.0
  0
LINE
  5
9D
100
AcDbEntity
  8
0
  6
CONTINUOUS
 62
               7
100
AcDbLine
 10
41.600000000000001
 20
-56.920000000000002
 30
0.0
 11
40.600000000000001
 21
-57.5
 31
0.0
  0
LINE
  5
9E
100
AcDbEntity
  8
0
  6
CONTINUOUS
 62
               7
100
AcDbLine
 10
15.4
 20
-57.5
 30
0.0
 11
14.4
 21
-56.920000000000002
 31
0.0
  0
LINE
  5
9F
100
AcDbEntity
  8
0
  6
CONTINUOUS
 62
               7
100
AcDbLine
 10
39.600000000000001
 20
-59.5
 30
0.0
 11
16.399999999999999
 21
-59.5
 31
0.0
  0
LINE
  5
A0
100
AcDbEntity
  8
0
  6
CONTINUOUS
 62
               7
100
AcDbLine
 10
41.700000000000003
 20
-34.5
 30
0.0
 11
14.300000000000001
 21
-34.5
 31
0.0
  0
LINE
  5
A1
100
AcDbEntity
  8
0
  6
CONTINUOUS
 62
               7
100
AcDbLine
 10
13.0
 20
-31.300000000000001
 30
0.0
 11
43.0
 21
-31.300000000000001
 31
0.0
  0
LINE
  5
A2
100
AcDbEntity
  8
0
  6
CONTINUOUS
 62
               7
100
AcDbLine
 10
42.200000000000003
 20
-22.0
 30
0.0
 11
42.200000000000003
 21
-24.300000000000001
 31
0.0
  0
LINE
  5
A3
100
AcDbEntity
  8
0
  6
CONTINUOUS
 62
               7
100
AcDbLine
 10
13.800000000000001
 20
-22.0
 30
0.0
 11
13.800000000000001
 21
-24.300000000000001
 31
0.0
  0
LINE
  5
A4
100
AcDbEntity
  8
0
  6
CONTINUOUS
 62
               7
100
AcDbLine
 10
37.43
 20
-32.0
 30
0.0
 11
37.43
 21
-34.5
 31
0.0
  0
LINE
  5
A5
100
AcDbEntity
  8
0
  6
CONTINUOUS
 62
               7
100
AcDbLine
 10
29.559999999999999
 20
-32.0
 30
0.0
 11
29.559999999999999
 21
-34.5
 31
0.0
  0
LINE
  5
A6
100
AcDbEntity
  8
0
  6
CONTINUOUS
 62
               7
100
AcDbLine
 10
26.43
 20
-32.0
 30
0.0
 11
26.43
 21
-34.5
 31
0.0
  0
LINE
  5
A7
100
AcDbEntity
  8
0
  6
CONTINUOUS
 62
               7
100
AcDbLine
 10
18.559999999999999
 20
-32.0
 30
0.0
 11
18.559999999999999
 21
-34.5
 31
0.0
  0
LINE
  5
A8
100
AcDbEntity
  8
0
  6
CONTINUOUS
 62
               7
100
AcDbLine
 10
41.700000000000003
 20
-32.0
 30
0.0
 11
28.0
 21
-32.0
 31
0.0
  0
LINE
  5
A9
100
AcDbEntity
  8
0
  6
CONTINUOUS
 62
               7
100
AcDbLine
 10
39.0
 20
-32.5
 30
0.0
 11
39.0
 21
-34.5
 31
0.0
  0
LINE
  5
AA
100
AcDbEntity
  8
0
  6
CONTINUOUS
 62
               7
100
AcDbLine
 10
14.300000000000001
 20
-32.0
 30
0.0
 11
28.0
 21
-32.0
 31
0.0
  0
LINE
  5
AB
100
AcDbEntity
  8
0
  6
CONTINUOUS
 62
               7
100
AcDbLine
 10
17.0
 20
-32.5
 30
0.0
 11
17.0
 21
-34.5
 31
0.0
  0
LINE
  5
AC
100
AcDbEntity
  8
0
  6
CONTINUOUS
 62
               7
100
AcDbLine
 10
25.5
 20
-30.300000000000001
 30
0.0
 11
28.0
 21
-30.300000000000001
 31
0.0
  0
LINE
  5
AD
100
AcDbEntity
  8
0
  6
CONTINUOUS
 62
               7
100
AcDbLine
 10
9.1600000000000001
 20
-26.300000000000001
 30
0.0
 11
10.43
 21
-26.300000000000001
 31
0.0
  0
LINE
  5
AE
100
AcDbEntity
  8
0
  6
CONTINUOUS
 62
               7
100
AcDbLine
 10
9.1600000000000001
 20
-26.300000000000001
 30
0.0
 11
9.1600000000000001
 21
-30.300000000000001
 31
0.0
  0
LINE
  5
AF
100
AcDbEntity
  8
0
  6
CONTINUOUS
 62
               7
100
AcDbLine
 10
9.9000000000000004
 20
-27.0
 30
0.0
 11
9.9000000000000004
 21
-31.0
 31
0.0
  0
LINE
  5
B0
100
AcDbEntity
  8
0
  6
CONTINUOUS
 62
               7
100
AcDbLine
 10
10.43
 20
-30.300000000000001
 30
0.0
 11
12.93
 21
-30.300000000000001
 31
0.0
  0
LINE
  5
B1
100
AcDbEntity
  8
0
  6
CONTINUOUS
 62
               7
100
AcDbLine
 10
16.41
 20
-30.300000000000001
 30
0.0
 11
20.739999999999998
 21
-30.300000000000001
 31
0.0
  0
LINE
  5
B2
100
AcDbEntity
  8
0
  6
CONTINUOUS
 62
               7
100
AcDbLine
 10
10.970000000000001
 20
-31.0
 30
0.0
 11
9.9000000000000004
 21
-31.0
 31
0.0
  0
LINE
  5
B3
100
AcDbEntity
  8
0
  6
CONTINUOUS
 62
               7
100
AcDbLine
 10
16.609999999999999
 20
-31.0
 30
0.0
 11
13.67
 21
-31.0
 31
0.0
  0
LINE
  5
B4
100
AcDbEntity
  8
0
  6
CONTINUOUS
 62
               7
100
AcDbLine
 10
25.300000000000001
 20
-31.0
 30
0.0
 11
21.280000000000001
 21
-31.0
 31
0.0
  0
LINE
  5
B5
100
AcDbEntity
  8
0
  6
CONTINUOUS
 62
               7
100
AcDbLine
 10
13.67
 20
-27.0
 30
0.0
 11
16.41
 21
-27.0
 31
0.0
  0
LINE
  5
B6
100
AcDbEntity
  8
0
  6
CONTINUOUS
 62
               7
100
AcDbLine
 10
12.93
 20
-26.300000000000001
 30
0.0
 11
16.41
 21
-26.300000000000001
 31
0.0
  0
LINE
  5
B7
100
AcDbEntity
  8
0
  6
CONTINUOUS
 62
               7
100
AcDbLine
 10
20.739999999999998
 20
-26.300000000000001
 30
0.0
 11
25.5
 21
-26.300000000000001
 31
0.0
  0
LINE
  5
B8
100
AcDbEntity
  8
0
  6
CONTINUOUS
 62
               7
100
AcDbLine
 10
21.280000000000001
 20
-27.0
 30
0.0
 11
25.300000000000001
 21
-27.0
 31
0.0
  0
LINE
  5
B9
100
AcDbEntity
  8
0
  6
CONTINUOUS
 62
               7
100
AcDbLine
 10
9.1600000000000001
 20
-30.300000000000001
 30
0.0
 11
9.9000000000000004
 21
-31.0
 31
0.0
  0
LINE
  5
BA
100
AcDbEntity
  8
0
  6
CONTINUOUS
 62
               7
100
AcDbLine
 10
9.1600000000000001
 20
-26.300000000000001
 30
0.0
 11
9.9000000000000004
 21
-27.0
 31
0.0
  0
LINE
  5
BB
100
AcDbEntity
  8
0
  6
CONTINUOUS
 62
               7
100
AcDbLine
 10
10.43
 20
-30.300000000000001
 30
0.0
 11
10.970000000000001
 21
-31.0
 31
0.0
  0
LINE
  5
BC
100
AcDbEntity
  8
0
  6
CONTINUOUS
 62
               7
100
AcDbLine
 10
10.43
 20
-26.300000000000001
 30
0.0
 11
10.43
 21
-30.300000000000001
 31
0.0
  0
LINE
  5
BD
100
AcDbEntity
  8
0
  6
CONTINUOUS
 62
               7
100
AcDbLine
 10
12.93
 20
-26.300000000000001
 30
0.0
 11
12.93
 21
-30.300000000000001
 31
0.0
  0
LINE
  5
BE
100
AcDbEntity
  8
0
  6
CONTINUOUS
 62
               7
100
AcDbLine
 10
13.67
 20
-31.0
 30
0.0
 11
13.67
 21
-27.0
 31
0.0
  0
LINE
  5
BF
100
AcDbEntity
  8
0
  6
CONTINUOUS
 62
               7
100
AcDbLine
 10
12.93
 20
-30.300000000000001
 30
0.0
 11
13.67
 21
-31.0
 31
0.0
  0
LINE
  5
C0
100
AcDbEntity
  8
0
  6
CONTINUOUS
 62
               7
100
AcDbLine
 10
12.93
 20
-26.300000000000001
 30
0.0
 11
13.67
 21
-27.0
 31
0.0
  0
LINE
  5
C1
100
AcDbEntity
  8
0
  6
CONTINUOUS
 62
               7
100
AcDbLine
 10
16.41
 20
-30.300000000000001
 30
0.0
 11
16.609999999999999
 21
-31.0
 31
0.0
  0
LINE
  5
C2
100
AcDbEntity
  8
0
  6
CONTINUOUS
 62
               7
100
AcDbLine
 10
16.41
 20
-26.300000000000001
 30
0.0
 11
16.41
 21
-30.300000000000001
 31
0.0
  0
LINE
  5
C3
100
AcDbEntity
  8
0
  6
CONTINUOUS
 62
               7
100
AcDbLine
 10
20.739999999999998
 20
-26.300000000000001
 30
0.0
 11
20.739999999999998
 21
-30.300000000000001
 31
0.0
  0
LINE
  5
C4
100
AcDbEntity
  8
0
  6
CONTINUOUS
 62
               7
100
AcDbLine
 10
21.280000000000001
 20
-27.0
 30
0.0
 11
21.280000000000001
 21
-31.0
 31
0.0
  0
LINE
  5
C5
100
AcDbEntity
  8
0
  6
CONTINUOUS
 62
               7
100
AcDbLine
 10
25.300000000000001
 20
-27.0
 30
0.0
 11
25.300000000000001
 21
-31.0
 31
0.0
  0
LINE
  5
C6
100
AcDbEntity
  8
0
  6
CONTINUOUS
 62
               7
100
AcDbLine
 10
20.739999999999998
 20
-30.300000000000001
 30
0.0
 11
21.280000000000001
 21
-31.0
 31
0.0
  0
LINE
  5
C7
100
AcDbEntity
  8
0
  6
CONTINUOUS
 62
               7
100
AcDbLine
 10
20.739999999999998
 20
-26.300000000000001
 30
0.0
 11
21.280000000000001
 21
-27.0
 31
0.0
  0
LINE
  5
C8
100
AcDbEntity
  8
0
  6
CONTINUOUS
 62
               7
100
AcDbLine
 10
25.5
 20
-30.300000000000001
 30
0.0
 11
25.300000000000001
 21
-31.0
 31
0.0
  0
LINE
  5
C9
100
AcDbEntity
  8
0
  6
CONTINUOUS
 62
               7
100
AcDbLine
 10
25.5
 20
-26.300000000000001
 30
0.0
 11
25.300000000000001
 21
-27.0
 31
0.0
  0
LINE
  5
CA
100
AcDbEntity
  8
0
  6
CONTINUOUS
 62
               7
100
AcDbLine
 10
25.5
 20
-26.300000000000001
 30
0.0
 11
25.5
 21
-30.300000000000001
 31
0.0
  0
LINE
  5
CB
100
AcDbEntity
  8
0
  6
CONTINUOUS
 62
               7
100
AcDbLine
 10
9.9000000000000004
 20
-27.0
 30
0.0
 11
10.43
 21
-27.0
 31
0.0
  0
LINE
  5
CC
100
AcDbEntity
  8
0
  6
CONTINUOUS
 62
               7
100
AcDbLine
 10
9.0
 20
-30.300000000000001
 30
0.0
 11
9.1600000000000001
 21
-30.300000000000001
 31
0.0
  0
LINE
  5
CD
100
AcDbEntity
  8
0
  6
CONTINUOUS
 62
               7
100
AcDbLine
 10
30.5
 20
-30.300000000000001
 30
0.0
 11
28.0
 21
-30.300000000000001
 31
0.0
  0
LINE
  5
CE
100
AcDbEntity
  8
0
  6
CONTINUOUS
 62
               7
100
AcDbLine
 10
46.829999999999998
 20
-26.300000000000001
 30
0.0
 11
45.560000000000002
 21
-26.300000000000001
 31
0.0
  0
LINE
  5
CF
100
AcDbEntity
  8
0
  6
CONTINUOUS
 62
               7
100
AcDbLine
 10
46.829999999999998
 20
-26.300000000000001
 30
0.0
 11
46.829999999999998
 21
-30.300000000000001
 31
0.0
  0
LINE
  5
D0
100
AcDbEntity
  8
0
  6
CONTINUOUS
 62
               7
100
AcDbLine
 10
46.100000000000001
 20
-27.0
 30
0.0
 11
46.100000000000001
 21
-31.0
 31
0.0
  0
LINE
  5
D1
100
AcDbEntity
  8
0
  6
CONTINUOUS
 62
               7
100
AcDbLine
 10
45.560000000000002
 20
-30.300000000000001
 30
0.0
 11
43.060000000000002
 21
-30.300000000000001
 31
0.0
  0
LINE
  5
D2
100
AcDbEntity
  8
0
  6
CONTINUOUS
 62
               7
100
AcDbLine
 10
39.579999999999998
 20
-30.300000000000001
 30
0.0
 11
35.25
 21
-30.300000000000001
 31
0.0
  0
LINE
  5
D3
100
AcDbEntity
  8
0
  6
CONTINUOUS
 62
               7
100
AcDbLine
 10
45.020000000000003
 20
-31.0
 30
0.0
 11
46.100000000000001
 21
-31.0
 31
0.0
  0
LINE
  5
D4
100
AcDbEntity
  8
0
  6
CONTINUOUS
 62
               7
100
AcDbLine
 10
39.380000000000003
 20
-31.0
 30
0.0
 11
42.32
 21
-31.0
 31
0.0
  0
LINE
  5
D5
100
AcDbEntity
  8
0
  6
CONTINUOUS
 62
               7
100
AcDbLine
 10
30.690000000000001
 20
-31.0
 30
0.0
 11
34.710000000000001
 21
-31.0
 31
0.0
  0
LINE
  5
D6
100
AcDbEntity
  8
0
  6
CONTINUOUS
 62
               7
100
AcDbLine
 10
42.32
 20
-27.0
 30
0.0
 11
39.579999999999998
 21
-27.0
 31
0.0
  0
LINE
  5
D7
100
AcDbEntity
  8
0
  6
CONTINUOUS
 62
               7
100
AcDbLine
 10
43.060000000000002
 20
-26.300000000000001
 30
0.0
 11
39.579999999999998
 21
-26.300000000000001
 31
0.0
  0
LINE
  5
D8
100
AcDbEntity
  8
0
  6
CONTINUOUS
 62
               7
100
AcDbLine
 10
35.25
 20
-26.300000000000001
 30
0.0
 11
30.5
 21
-26.300000000000001
 31
0.0
  0
LINE
  5
D9
100
AcDbEntity
  8
0
  6
CONTINUOUS
 62
               7
100
AcDbLine
 10
34.710000000000001
 20
-27.0
 30
0.0
 11
30.690000000000001
 21
-27.0
 31
0.0
  0
LINE
  5
DA
100
AcDbEntity
  8
0
  6
CONTINUOUS
 62
               7
100
AcDbLine
 10
46.829999999999998
 20
-30.300000000000001
 30
0.0
 11
46.100000000000001
 21
-31.0
 31
0.0
  0
LINE
  5
DB
100
AcDbEntity
  8
0
  6
CONTINUOUS
 62
               7
100
AcDbLine
 10
46.829999999999998
 20
-26.300000000000001
 30
0.0
 11
46.100000000000001
 21
-27.0
 31
0.0
  0
LINE
  5
DC
100
AcDbEntity
  8
0
  6
CONTINUOUS
 62
               7
100
AcDbLine
 10
45.560000000000002
 20
-30.300000000000001
 30
0.0
 11
45.020000000000003
 21
-31.0
 31
0.0
  0
LINE
  5
DD
100
AcDbEntity
  8
0
  6
CONTINUOUS
 62
               7
100
AcDbLine
 10
45.560000000000002
 20
-26.300000000000001
 30
0.0
 11
45.560000000000002
 21
-30.300000000000001
 31
0.0
  0
LINE
  5
DE
100
AcDbEntity
  8
0
  6
CONTINUOUS
 62
               7
100
AcDbLine
 10
43.060000000000002
 20
-26.300000000000001
 30
0.0
 11
43.060000000000002
 21
-30.300000000000001
 31
0.0
  0
LINE
  5
DF
100
AcDbEntity
  8
0
  6
CONTINUOUS
 62
               7
100
AcDbLine
 10
42.32
 20
-31.0
 30
0.0
 11
42.32
 21
-27.0
 31
0.0
  0
LINE
  5
E0
100
AcDbEntity
  8
0
  6
CONTINUOUS
 62
               7
100
AcDbLine
 10
43.060000000000002
 20
-30.300000000000001
 30
0.0
 11
42.32
 21
-31.0
 31
0.0
  0
LINE
  5
E1
100
AcDbEntity
  8
0
  6
CONTINUOUS
 62
               7
100
AcDbLine
 10
43.060000000000002
 20
-26.300000000000001
 30
0.0
 11
42.32
 21
-27.0
 31
0.0
  0
LINE
  5
E2
100
AcDbEntity
  8
0
  6
CONTINUOUS
 62
               7
100
AcDbLine
 10
39.579999999999998
 20
-30.300000000000001
 30
0.0
 11
39.380000000000003
 21
-31.0
 31
0.0
  0
LINE
  5
E3
100
AcDbEntity
  8
0
  6
CONTINUOUS
 62
               7
100
AcDbLine
 10
39.579999999999998
 20
-26.300000000000001
 30
0.0
 11
39.579999999999998
 21
-30.300000000000001
 31
0.0
  0
LINE
  5
E4
100
AcDbEntity
  8
0
  6
CONTINUOUS
 62
               7
100
AcDbLine
 10
35.25
 20
-26.300000000000001
 30
0.0
 11
35.25
 21
-30.300000000000001
 31
0.0
  0
LINE
  5
E5
100
AcDbEntity
  8
0
  6
CONTINUOUS
 62
               7
100
AcDbLine
 10
34.710000000000001
 20
-27.0
 30
0.0
 11
34.710000000000001
 21
-31.0
 31
0.0
  0
LINE
  5
E6
100
AcDbEntity
  8
0
  6
CONTINUOUS
 62
               7
100
AcDbLine
 10
30.690000000000001
 20
-27.0
 30
0.0
 11
30.690000000000001
 21
-31.0
 31
0.0
  0
LINE
  5
E7
100
AcDbEntity
  8
0
  6
CONTINUOUS
 62
               7
100
AcDbLine
 10
35.25
 20
-30.300000000000001
 30
0.0
 11
34.710000000000001
 21
-31.0
 31
0.0
  0
LINE
  5
E8
100
AcDbEntity
  8
0
  6
CONTINUOUS
 62
               7
100
AcDbLine
 10
35.25
 20
-26.300000000000001
 30
0.0
 11
34.710000000000001
 21
-27.0
 31
0.0
  0
LINE
  5
E9
100
AcDbEntity
  8
0
  6
CONTINUOUS
 62
               7
100
AcDbLine
 10
30.5
 20
-30.300000000000001
 30
0.0
 11
30.690000000000001
 21
-31.0
 31
0.0
  0
LINE
  5
EA
100
AcDbEntity
  8
0
  6
CONTINUOUS
 62
               7
100
AcDbLine
 10
30.5
 20
-26.300000000000001
 30
0.0
 11
30.690000000000001
 21
-27.0
 31
0.0
  0
LINE
  5
EB
100
AcDbEntity
  8
0
  6
CONTINUOUS
 62
               7
100
AcDbLine
 10
30.5
 20
-26.300000000000001
 30
0.0
 11
30.5
 21
-30.300000000000001
 31
0.0
  0
LINE
  5
EC
100
AcDbEntity
  8
0
  6
CONTINUOUS
 62
               7
100
AcDbLine
 10
46.100000000000001
 20
-27.0
 30
0.0
 11
45.560000000000002
 21
-27.0
 31
0.0
  0
LINE
  5
ED
100
AcDbEntity
  8
0
  6
CONTINUOUS
 62
               7
100
AcDbLine
 10
9.0
 20
-30.300000000000001
 30
0.0
 11
10.0
 21
-31.300000000000001
 31
0.0
  0
LINE
  5
EE
100
AcDbEntity
  8
0
  6
CONTINUOUS
 62
               7
100
AcDbLine
 10
47.0
 20
-30.300000000000001
 30
0.0
 11
46.0
 21
-31.300000000000001
 31
0.0
  0
LINE
  5
EF
100
AcDbEntity
  8
0
  6
CONTINUOUS
 62
               7
100
AcDbLine
 10
47.0
 20
-26.300000000000001
 30
0.0
 11
46.990000000000002
 21
-26.300000000000001
 31
0.0
  0
LINE
  5
F0
100
AcDbEntity
  8
0
  6
CONTINUOUS
 62
               7
100
AcDbLine
 10
47.0
 20
-30.300000000000001
 30
0.0
 11
46.829999999999998
 21
-30.300000000000001
 31
0.0
  0
LINE
  5
F1
100
AcDbEntity
  8
0
  6
CONTINUOUS
 62
               7
100
AcDbLine
 10
47.0
 20
-24.300000000000001
 30
0.0
 11
47.0
 21
-30.300000000000001
 31
0.0
  0
LINE
  5
F2
100
AcDbEntity
  8
0
  6
CONTINUOUS
 62
               7
100
AcDbLine
 10
9.0
 20
-24.300000000000001
 30
0.0
 11
9.0
 21
-30.300000000000001
 31
0.0
  0
LINE
  5
F3
100
AcDbEntity
  8
0
  6
CONTINUOUS
 62
               7
100
AcDbLine
 10
46.0
 20
-31.300000000000001
 30
0.0
 11
10.0
 21
-31.300000000000001
 31
0.0
  0
LINE
  5
F4
100
AcDbEntity
  8
0
  6
CENTER
 62
               2
100
AcDbLine
 10
63.539999999999999
 20
0.0
 30
0.0
 11
-3.25
 21
0.0
 31
0.0
  0
LINE
  5
F5
100
AcDbEntity
  8
0
  6
CONTINUOUS
 62
               7
100
AcDbLine
 10
15.18
 20
-9.0
 30
0.0
 11
15.18
 21
-11.0
 31
0.0
  0
LINE
  5
F6
100
AcDbEntity
  8
0
  6
CONTINUOUS
 62
               7
100
AcDbLine
 10
15.18
 20
-9.0
 30
0.0
 11
16.75
 21
-8.0
 31
0.0
  0
LINE
  5
F7
100
AcDbEntity
  8
0
  6
CONTINUOUS
 62
               7
100
AcDbLine
 10
9.0
 20
-22.0
 30
0.0
 11
8.4900000000000002
 21
-21.489999999999998
 31
0.0
  0
LINE
  5
F8
100
AcDbEntity
  8
0
  6
CONTINUOUS
 62
               7
100
AcDbLine
 10
47.5
 20
-21.5
 30
0.0
 11
46.990000000000002
 21
-22.0
 31
0.0
  0
LINE
  5
F9
100
AcDbEntity
  8
0
  6
CONTINUOUS
 62
               7
100
AcDbLine
 10
8.4900000000000002
 20
-21.489999999999998
 30
0.0
 11
8.3399999999999999
 21
-12.98
 31
0.0
  0
LINE
  5
FA
100
AcDbEntity
  8
0
  6
CONTINUOUS
 62
               7
100
AcDbLine
 10
47.5
 20
-21.5
 30
0.0
 11
47.649999999999999
 21
-12.98
 31
0.0
  0
LINE
  5
FB
100
AcDbEntity
  8
0
  6
CONTINUOUS
 62
               7
100
AcDbLine
 10
30.699999999999999
 20
-21.5
 30
0.0
 11
47.5
 21
-21.5
 31
0.0
  0
LINE
  5
FC
100
AcDbEntity
  8
0
  6
CONTINUOUS
 62
               7
100
AcDbLine
 10
30.699999999999999
 20
-19.5
 30
0.0
 11
25.300000000000001
 21
-19.5
 31
0.0
  0
LINE
  5
FD
100
AcDbEntity
  8
0
  6
CONTINUOUS
 62
               7
100
AcDbLine
 10
30.699999999999999
 20
-19.5
 30
0.0
 11
30.699999999999999
 21
-22.0
 31
0.0
  0
LINE
  5
FE
100
AcDbEntity
  8
0
  6
CONTINUOUS
 62
               7
100
AcDbLine
 10
25.300000000000001
 20
-19.5
 30
0.0
 11
25.300000000000001
 21
-22.0
 31
0.0
  0
LINE
  5
FF
100
AcDbEntity
  8
0
  6
CONTINUOUS
 62
               7
100
AcDbLine
 10
2.5
 20
12.5
 30
0.0
 11
2.5
 21
12.0
 31
0.0
  0
LINE
  5
100
100
AcDbEntity
  8
0
  6
CONTINUOUS
 62
               7
100
AcDbLine
 10
1.0
 20
-12.0
 30
0.0
 11
0.0
 21
-11.0
 31
0.0
  0
LINE
  5
101
100
AcDbEntity
  8
0
  6
CONTINUOUS
 62
               7
100
AcDbLine
 10
1.0
 20
12.0
 30
0.0
 11
0.0
 21
11.0
 31
0.0
  0
LINE
  5
102
100
AcDbEntity
  8
0
  6
CONTINUOUS
 62
               7
100
AcDbLine
 10
2.0
 20
7.0
 30
0.0
 11
5.0
 21
7.0
 31
0.0
  0
LINE
  5
103
100
AcDbEntity
  8
0
  6
CONTINUOUS
 62
               7
100
AcDbLine
 10
2.0
 20
-7.0
 30
0.0
 11
5.0
 21
-7.0
 31
0.0
  0
LINE
  5
104
100
AcDbEntity
  8
0
  6
CONTINUOUS
 62
               7
100
AcDbLine
 10
5.0
 20
7.0
 30
0.0
 11
5.0
 21
-7.0
 31
0.0
  0
LINE
  5
105
100
AcDbEntity
  8
0
  6
CONTINUOUS
 62
               7
100
AcDbLine
 10
2.0
 20
7.0
 30
0.0
 11
2.0
 21
-7.0
 31
0.0
  0
LINE
  5
106
100
AcDbEntity
  8
0
  6
CONTINUOUS
 62
               7
100
AcDbLine
 10
1.0
 20
12.0
 30
0.0
 11
1.0
 21
-12.0
 31
0.0
  0
LINE
  5
107
100
AcDbEntity
  8
0
  6
CONTINUOUS
 62
               7
100
AcDbLine
 10
0.0
 20
11.0
 30
0.0
 11
0.0
 21
-11.0
 31
0.0
  0
LINE
  5
108
100
AcDbEntity
  8
0
  6
CONTINUOUS
 62
               7
100
AcDbLine
 10
0.0
 20
11.0
 30
0.0
 11
56.0
 21
11.0
 31
0.0
  0
LINE
  5
109
100
AcDbEntity
  8
0
  6
CONTINUOUS
 62
               7
100
AcDbLine
 10
41.460000000000001
 20
-12.0
 30
0.0
 11
40.460000000000001
 21
-11.0
 31
0.0
  0
LINE
  5
10A
100
AcDbEntity
  8
0
  6
CONTINUOUS
 62
               7
100
AcDbLine
 10
15.18
 20
-11.0
 30
0.0
 11
14.18
 21
-12.0
 31
0.0
  0
LINE
  5
10B
100
AcDbEntity
  8
0
  6
CONTINUOUS
 62
               7
100
AcDbLine
 10
14.18
 20
-12.0
 30
0.0
 11
1.0
 21
-12.0
 31
0.0
  0
LINE
  5
10C
100
AcDbEntity
  8
0
  6
CONTINUOUS
 62
               7
100
AcDbLine
 10
35.640000000000001
 20
-9.0
 30
0.0
 11
15.18
 21
-9.0
 31
0.0
  0
LINE
  5
10D
100
AcDbEntity
  8
0
  6
CONTINUOUS
 62
               7
100
AcDbLine
 10
8.9000000000000004
 20
12.5
 30
0.0
 11
2.5
 21
12.5
 31
0.0
  0
LINE
  5
10E
100
AcDbEntity
  8
0
  6
CONTINUOUS
 62
               7
100
AcDbLine
 10
8.9000000000000004
 20
12.5
 30
0.0
 11
8.9000000000000004
 21
12.0
 31
0.0
  0
LINE
  5
10F
100
AcDbEntity
  8
0
  6
CONTINUOUS
 62
               7
100
AcDbLine
 10
40.460000000000001
 20
-9.9800000000000004
 30
0.0
 11
40.460000000000001
 21
-11.0
 31
0.0
  0
LINE
  5
110
100
AcDbEntity
  8
0
  6
CONTINUOUS
 62
               7
100
AcDbLine
 10
31.510000000000002
 20
-8.0
 30
0.0
 11
16.75
 21
-8.0
 31
0.0
  0
LINE
  5
111
100
AcDbEntity
  8
0
  6
CONTINUOUS
 62
               7
100
AcDbLine
 10
55.0
 20
12.0
 30
0.0
 11
55.0
 21
-12.0
 31
0.0
  0
LINE
  5
112
100
AcDbEntity
  8
0
  6
CONTINUOUS
 62
               7
100
AcDbLine
 10
55.0
 20
12.0
 30
0.0
 11
56.0
 21
11.0
 31
0.0
  0
LINE
  5
113
100
AcDbEntity
  8
0
  6
CONTINUOUS
 62
               7
100
AcDbLine
 10
39.640000000000001
 20
24.0
 30
0.0
 11
35.770000000000003
 21
24.0
 31
0.0
  0
LINE
  5
114
100
AcDbEntity
  8
0
  6
CONTINUOUS
 62
               7
100
AcDbLine
 10
39.049999999999997
 20
24.699999999999999
 30
0.0
 11
41.0
 21
24.699999999999999
 31
0.0
  0
LINE
  5
115
100
AcDbEntity
  8
0
  6
CONTINUOUS
 62
               7
100
AcDbLine
 10
41.729999999999997
 20
24.0
 30
0.0
 11
42.0
 21
24.0
 31
0.0
  0
LINE
  5
116
100
AcDbEntity
  8
0
  6
CONTINUOUS
 62
               7
100
AcDbLine
 10
41.729999999999997
 20
24.0
 30
0.0
 11
41.729999999999997
 21
18.0
 31
0.0
  0
LINE
  5
117
100
AcDbEntity
  8
0
  6
CONTINUOUS
 62
               7
100
AcDbLine
 10
41.039999999999999
 20
24.699999999999999
 30
0.0
 11
41.729999999999997
 21
24.0
 31
0.0
  0
LINE
  5
118
100
AcDbEntity
  8
0
  6
CONTINUOUS
 62
               7
100
AcDbLine
 10
41.0
 20
24.699999999999999
 30
0.0
 11
39.049999999999997
 21
24.699999999999999
 31
0.0
  0
LINE
  5
119
100
AcDbEntity
  8
0
  6
CONTINUOUS
 62
               7
100
AcDbLine
 10
41.039999999999999
 20
18.399999999999999
 30
0.0
 11
41.729999999999997
 21
18.0
 31
0.0
  0
LINE
  5
11A
100
AcDbEntity
  8
0
  6
CONTINUOUS
 62
               7
100
AcDbLine
 10
41.039999999999999
 20
24.699999999999999
 30
0.0
 11
41.039999999999999
 21
18.399999999999999
 31
0.0
  0
LINE
  5
11B
100
AcDbEntity
  8
0
  6
CONTINUOUS
 62
               7
100
AcDbLine
 10
41.729999999999997
 20
18.0
 30
0.0
 11
39.640000000000001
 21
18.0
 31
0.0
  0
LINE
  5
11C
100
AcDbEntity
  8
0
  6
CONTINUOUS
 62
               7
100
AcDbLine
 10
39.640000000000001
 20
18.399999999999999
 30
0.0
 11
41.039999999999999
 21
18.399999999999999
 31
0.0
  0
LINE
  5
11D
100
AcDbEntity
  8
0
  6
CONTINUOUS
 62
               7
100
AcDbLine
 10
39.640000000000001
 20
24.0
 30
0.0
 11
39.640000000000001
 21
18.0
 31
0.0
  0
LINE
  5
11E
100
AcDbEntity
  8
0
  6
CONTINUOUS
 62
               7
100
AcDbLine
 10
39.049999999999997
 20
24.699999999999999
 30
0.0
 11
39.640000000000001
 21
24.0
 31
0.0
  0
LINE
  5
11F
100
AcDbEntity
  8
0
  6
CONTINUOUS
 62
               7
100
AcDbLine
 10
14.949999999999999
 20
24.699999999999999
 30
0.0
 11
14.26
 21
24.0
 31
0.0
  0
LINE
  5
120
100
AcDbEntity
  8
0
  6
CONTINUOUS
 62
               7
100
AcDbLine
 10
35.380000000000003
 20
24.699999999999999
 30
0.0
 11
35.770000000000003
 21
24.0
 31
0.0
  0
LINE
  5
121
100
AcDbEntity
  8
0
  6
CONTINUOUS
 62
               7
100
AcDbLine
 10
25.260000000000002
 20
24.699999999999999
 30
0.0
 11
25.399999999999999
 21
24.0
 31
0.0
  0
LINE
  5
122
100
AcDbEntity
  8
0
  6
CONTINUOUS
 62
               7
100
AcDbLine
 10
30.59
 20
24.0
 30
0.0
 11
30.690000000000001
 21
24.699999999999999
 31
0.0
  0
LINE
  5
123
100
AcDbEntity
  8
0
  6
CONTINUOUS
 62
               7
100
AcDbLine
 10
30.73
 20
24.699999999999999
 30
0.0
 11
35.380000000000003
 21
24.699999999999999
 31
0.0
  0
LINE
  5
124
100
AcDbEntity
  8
0
  6
CONTINUOUS
 62
               7
100
AcDbLine
 10
20.609999999999999
 20
24.699999999999999
 30
0.0
 11
25.260000000000002
 21
24.699999999999999
 31
0.0
  0
LINE
  5
125
100
AcDbEntity
  8
0
  6
CONTINUOUS
 62
               7
100
AcDbLine
 10
20.219999999999999
 20
24.0
 30
0.0
 11
20.609999999999999
 21
24.699999999999999
 31
0.0
  0
LINE
  5
126
100
AcDbEntity
  8
0
  6
CONTINUOUS
 62
               7
100
AcDbLine
 10
16.940000000000001
 20
24.699999999999999
 30
0.0
 11
16.359999999999999
 21
24.0
 31
0.0
  0
LINE
  5
127
100
AcDbEntity
  8
0
  6
CONTINUOUS
 62
               7
100
AcDbLine
 10
15.0
 20
24.699999999999999
 30
0.0
 11
16.940000000000001
 21
24.699999999999999
 31
0.0
  0
LINE
  5
128
100
AcDbEntity
  8
0
  6
CONTINUOUS
 62
               7
100
AcDbLine
 10
14.949999999999999
 20
18.399999999999999
 30
0.0
 11
14.26
 21
18.0
 31
0.0
  0
LINE
  5
129
100
AcDbEntity
  8
0
  6
CONTINUOUS
 62
               7
100
AcDbLine
 10
14.26
 20
24.0
 30
0.0
 11
14.0
 21
24.0
 31
0.0
  0
LINE
  5
12A
100
AcDbEntity
  8
0
  6
CONTINUOUS
 62
               7
100
AcDbLine
 10
14.26
 20
24.0
 30
0.0
 11
14.26
 21
18.0
 31
0.0
  0
LINE
  5
12B
100
AcDbEntity
  8
0
  6
CONTINUOUS
 62
               7
100
AcDbLine
 10
14.949999999999999
 20
24.699999999999999
 30
0.0
 11
14.949999999999999
 21
18.399999999999999
 31
0.0
  0
LINE
  5
12C
100
AcDbEntity
  8
0
  6
CONTINUOUS
 62
               7
100
AcDbLine
 10
35.380000000000003
 20
18.399999999999999
 30
0.0
 11
30.73
 21
18.399999999999999
 31
0.0
  0
LINE
  5
12D
100
AcDbEntity
  8
0
  6
CONTINUOUS
 62
               7
100
AcDbLine
 10
35.380000000000003
 20
18.399999999999999
 30
0.0
 11
35.770000000000003
 21
18.0
 31
0.0
  0
LINE
  5
12E
100
AcDbEntity
  8
0
  6
CONTINUOUS
 62
               7
100
AcDbLine
 10
30.73
 20
18.399999999999999
 30
0.0
 11
30.59
 21
18.0
 31
0.0
  0
LINE
  5
12F
100
AcDbEntity
  8
0
  6
CONTINUOUS
 62
               7
100
AcDbLine
 10
25.260000000000002
 20
18.399999999999999
 30
0.0
 11
25.399999999999999
 21
18.0
 31
0.0
  0
LINE
  5
130
100
AcDbEntity
  8
0
  6
CONTINUOUS
 62
               7
100
AcDbLine
 10
20.609999999999999
 20
18.399999999999999
 30
0.0
 11
20.219999999999999
 21
18.0
 31
0.0
  0
LINE
  5
131
100
AcDbEntity
  8
0
  6
CONTINUOUS
 62
               7
100
AcDbLine
 10
20.219999999999999
 20
18.0
 30
0.0
 11
25.399999999999999
 21
18.0
 31
0.0
  0
LINE
  5
132
100
AcDbEntity
  8
0
  6
CONTINUOUS
 62
               7
100
AcDbLine
 10
16.350000000000001
 20
18.399999999999999
 30
0.0
 11
14.949999999999999
 21
18.399999999999999
 31
0.0
  0
LINE
  5
133
100
AcDbEntity
  8
0
  6
CONTINUOUS
 62
               7
100
AcDbLine
 10
20.219999999999999
 20
24.0
 30
0.0
 11
16.350000000000001
 21
24.0
 31
0.0
  0
LINE
  5
134
100
AcDbEntity
  8
0
  6
CONTINUOUS
 62
               7
100
AcDbLine
 10
25.260000000000002
 20
24.699999999999999
 30
0.0
 11
25.260000000000002
 21
18.399999999999999
 31
0.0
  0
LINE
  5
135
100
AcDbEntity
  8
0
  6
CONTINUOUS
 62
               7
100
AcDbLine
 10
25.399999999999999
 20
24.0
 30
0.0
 11
25.399999999999999
 21
18.0
 31
0.0
  0
LINE
  5
136
100
AcDbEntity
  8
0
  6
CONTINUOUS
 62
               7
100
AcDbLine
 10
30.59
 20
24.0
 30
0.0
 11
30.59
 21
18.0
 31
0.0
  0
LINE
  5
137
100
AcDbEntity
  8
0
  6
CONTINUOUS
 62
               7
100
AcDbLine
 10
30.73
 20
24.699999999999999
 30
0.0
 11
30.73
 21
18.399999999999999
 31
0.0
  0
LINE
  5
138
100
AcDbEntity
  8
0
  6
CONTINUOUS
 62
               7
100
AcDbLine
 10
35.770000000000003
 20
24.0
 30
0.0
 11
35.770000000000003
 21
18.0
 31
0.0
  0
LINE
  5
139
100
AcDbEntity
  8
0
  6
CONTINUOUS
 62
               7
100
AcDbLine
 10
35.380000000000003
 20
24.699999999999999
 30
0.0
 11
35.380000000000003
 21
18.399999999999999
 31
0.0
  0
LINE
  5
13A
100
AcDbEntity
  8
0
  6
CONTINUOUS
 62
               7
100
AcDbLine
 10
16.350000000000001
 20
24.0
 30
0.0
 11
16.350000000000001
 21
18.0
 31
0.0
  0
LINE
  5
13B
100
AcDbEntity
  8
0
  6
CONTINUOUS
 62
               7
100
AcDbLine
 10
20.219999999999999
 20
24.0
 30
0.0
 11
20.219999999999999
 21
18.0
 31
0.0
  0
LINE
  5
13C
100
AcDbEntity
  8
0
  6
CONTINUOUS
 62
               7
100
AcDbLine
 10
20.609999999999999
 20
24.699999999999999
 30
0.0
 11
20.609999999999999
 21
18.399999999999999
 31
0.0
  0
LINE
  5
13D
100
AcDbEntity
  8
0
  6
CONTINUOUS
 62
               7
100
AcDbLine
 10
25.260000000000002
 20
18.399999999999999
 30
0.0
 11
20.609999999999999
 21
18.399999999999999
 31
0.0
  0
LINE
  5
13E
100
AcDbEntity
  8
0
  6
CONTINUOUS
 62
               7
100
AcDbLine
 10
30.59
 20
18.0
 30
0.0
 11
35.770000000000003
 21
18.0
 31
0.0
  0
LINE
  5
13F
100
AcDbEntity
  8
0
  6
CONTINUOUS
 62
               7
100
AcDbLine
 10
30.59
 20
24.0
 30
0.0
 11
25.399999999999999
 21
24.0
 31
0.0
  0
LINE
  5
140
100
AcDbEntity
  8
0
  6
CONTINUOUS
 62
               7
100
AcDbLine
 10
14.26
 20
18.0
 30
0.0
 11
16.350000000000001
 21
18.0
 31
0.0
  0
LINE
  5
141
100
AcDbEntity
  8
0
  6
CONTINUOUS
 62
               7
100
AcDbLine
 10
15.0
 20
25.0
 30
0.0
 11
14.0
 21
24.0
 31
0.0
  0
LINE
  5
142
100
AcDbEntity
  8
0
  6
CONTINUOUS
 62
               7
100
AcDbLine
 10
42.0
 20
24.0
 30
0.0
 11
41.0
 21
25.0
 31
0.0
  0
LINE
  5
143
100
AcDbEntity
  8
0
  6
CONTINUOUS
 62
               7
100
AcDbLine
 10
15.0
 20
25.0
 30
0.0
 11
41.0
 21
25.0
 31
0.0
  0
LINE
  5
144
100
AcDbEntity
  8
0
  6
CONTINUOUS
 62
               7
100
AcDbLine
 10
14.0
 20
24.0
 30
0.0
 11
14.0
 21
12.0
 31
0.0
  0
LINE
  5
145
100
AcDbEntity
  8
0
  6
CONTINUOUS
 62
               7
100
AcDbLine
 10
42.0
 20
24.0
 30
0.0
 11
42.0
 21
12.0
 31
0.0
  0
LINE
  5
146
100
AcDbEntity
  8
0
  6
CONTINUOUS
 62
               7
100
AcDbLine
 10
14.0
 20
16.0
 30
0.0
 11
42.0
 21
16.0
 31
0.0
  0
LINE
  5
147
100
AcDbEntity
  8
0
  6
CONTINUOUS
 62
               7
100
AcDbLine
 10
54.0
 20
7.0
 30
0.0
 11
51.0
 21
7.0
 31
0.0
  0
LINE
  5
148
100
AcDbEntity
  8
0
  6
CONTINUOUS
 62
               7
100
AcDbLine
 10
54.0
 20
-7.0
 30
0.0
 11
51.0
 21
-7.0
 31
0.0
  0
LINE
  5
149
100
AcDbEntity
  8
0
  6
CONTINUOUS
 62
               7
100
AcDbLine
 10
51.0
 20
7.0
 30
0.0
 11
51.0
 21
-7.0
 31
0.0
  0
LINE
  5
14A
100
AcDbEntity
  8
0
  6
CONTINUOUS
 62
               7
100
AcDbLine
 10
54.0
 20
7.0
 30
0.0
 11
54.0
 21
-7.0
 31
0.0
  0
LINE
  5
14B
100
AcDbEntity
  8
0
  6
CONTINUOUS
 62
               7
100
AcDbLine
 10
55.0
 20
-12.0
 30
0.0
 11
56.0
 21
-11.0
 31
0.0
  0
LINE
  5
14C
100
AcDbEntity
  8
0
  6
CONTINUOUS
 62
               7
100
AcDbLine
 10
55.0
 20
12.0
 30
0.0
 11
1.0
 21
12.0
 31
0.0
  0
LINE
  5
14D
100
AcDbEntity
  8
0
  6
CONTINUOUS
 62
               7
100
AcDbLine
 10
55.0
 20
-12.0
 30
0.0
 11
41.460000000000001
 21
-12.0
 31
0.0
  0
LINE
  5
14E
100
AcDbEntity
  8
0
  6
CONTINUOUS
 62
               7
100
AcDbLine
 10
56.0
 20
11.0
 30
0.0
 11
56.0
 21
-11.0
 31
0.0
  0
LINE
  5
14F
100
AcDbEntity
  8
0
  6
CONTINUOUS
 62
               7
100
AcDbLine
 10
8.4900000000000002
 20
-21.5
 30
0.0
 11
25.300000000000001
 21
-21.5
 31
0.0
  0
LINE
  5
150
100
AcDbEntity
  8
0
  6
CONTINUOUS
 62
               4
100
AcDbLine
 10
55.0
 20
-22.0
 30
0.0
 11
46.990000000000002
 21
-22.0
 31
0.0
  0
LINE
  5
151
100
AcDbEntity
  8
0
  6
CONTINUOUS
 62
               7
100
AcDbLine
 10
46.990000000000002
 20
-22.0
 30
0.0
 11
9.0
 21
-22.0
 31
0.0
  0
LINE
  5
152
100
AcDbEntity
  8
0
  6
CONTINUOUS
 62
               7
100
AcDbLine
 10
56.0
 20
-10.99
 30
0.0
 11
0.0
 21
-11.0
 31
0.0
  0
LINE
  5
153
100
AcDbEntity
  8
0
  6
CENTER
 62
             200
100
AcDbLine
 10
24.0
 20
-11.0
 30
0.0
 11
21.0
 21
-11.0
 31
0.0
  0
LINE
  5
154
100
AcDbEntity
  8
0
  6
CENTER
 62
               2
100
AcDbLine
 10
40.0
 20
-23.550000000000001
 30
0.0
 11
40.0
 21
22.84
 31
0.0
  0
ENDBLK
  5
155
100
AcDbEntity
  8
0
100
AcDbBlockEnd
  0
BLOCK
  5
156
100
AcDbEntity
  8
0
100
AcDbBlockBegin
  2
MS_2
 70
               0
 10
0.0
 20
0.0
 30
0.0
  3
MS_2
  1

  0
ARC
  5
157
100
AcDbEntity
  8
0
  6
CONTINUOUS
 62
               7
100
AcDbCircle
 10
24.994999999999997
 20
-13.500001347293495
 30
0.0
 40
4.5015790809063709
100
AcDbArc
 50
242.69494719756457
 51
297.3050528024342
  0
ARC
  5
158
100
AcDbEntity
  8
0
  6
CONTINUOUS
 62
               7
100
AcDbCircle
 10
24.999997528831198
 20
-13.495000000000001
 30
0.0
 40
4.5015824739036514
100
AcDbArc
 50
332.69496949223702
 51
27.305030507762183
  0
ARC
  5
159
100
AcDbEntity
  8
0
  6
CONTINUOUS
 62
               7
100
AcDbCircle
 10
24.994999999999997
 20
-13.500006282098312
 30
0.0
 40
4.5015858602081495
100
AcDbArc
 50
62.694991742895425
 51
117.30500825710416
  0
ARC
  5
15A
100
AcDbEntity
  8
0
  6
CONTINUOUS
 62
               4
100
AcDbCircle
 10
-17.5
 20
-22.0
 30
0.0
 40
2.3000000000000007
100
AcDbArc
 50
179.9999999999996
 51
269.99999999999937
  0
ARC
  5
15B
100
AcDbEntity
  8
0
  6
CONTINUOUS
 62
               4
100
AcDbCircle
 10
36.199996948242188
 20
-25.800003051757816
 30
0.0
 40
1.5000030517609182
100
AcDbArc
 50
0.0001165683247844
 51
89.999883431675016
  0
ARC
  5
15C
100
AcDbEntity
  8
0
  6
CONTINUOUS
 62
               4
100
AcDbCircle
 10
36.200019836356851
 20
-25.799980163643149
 30
0.0
 40
3.7999801636949231
100
AcDbArc
 50
359.99970090908835
 51
90.000299090910673
  0
CIRCLE
  5
15D
100
AcDbEntity
  8
0
  6
CONTINUOUS
 62
               7
100
AcDbCircle
 10
0.0
 20
0.0
 30
0.0
 40
5.7224998474121094
  0
CIRCLE
  5
15E
100
AcDbEntity
  8
0
  6
CONTINUOUS
 62
               2
100
AcDbCircle
 10
0.0
 20
0.0
 30
0.0
 40
6.5784997940063477
  0
ARC
  5
15F
100
AcDbEntity
  8
0
  6
CONTINUOUS
 62
               7
100
AcDbCircle
 10
-36.49998474124974
 20
18.000015258750256
 30
0.0
 40
2.9999847412885474
100
AcDbArc
 50
359.99970857785354
 51
90.000291422145565
  0
ARC
  5
160
100
AcDbEntity
  8
0
  6
CONTINUOUS
 62
               7
100
AcDbCircle
 10
-36.500022888193293
 20
-17.999977111806704
 30
0.0
 40
3.0000228882806059
100
AcDbArc
 50
270.00043712895643
 51
359.99956287104203
  0
ARC
  5
161
100
AcDbEntity
  8
0
  6
CONTINUOUS
 62
               7
100
AcDbCircle
 10
-11.5999916076308
 20
-58.499991607630797
 30
0.0
 40
1.0000083924044154
100
AcDbArc
 50
180.00048084329961
 51
269.99951915669953
  0
ARC
  5
162
100
AcDbEntity
  8
0
  6
CONTINUOUS
 62
               7
100
AcDbCircle
 10
-13.699994659395307
 20
-31.499994659395306
 30
0.0
 40
0.500005340633215
100
AcDbArc
 50
180.00061198168095
 51
269.99938801831826
  0
ARC
  5
163
100
AcDbEntity
  8
0
  6
CONTINUOUS
 62
               7
100
AcDbCircle
 10
-11.499996185317286
 20
-32.499996185317286
 30
0.0
 40
0.4999961853318382
100
AcDbArc
 50
359.99956286622478
 51
90.000437133774213
  0
ARC
  5
164
100
AcDbEntity
  8
0
  6
CONTINUOUS
 62
               7
100
AcDbCircle
 10
13.699987029721377
 20
-31.499987029721378
 30
0.0
 40
0.500012970446845
100
AcDbArc
 50
270.00148624589332
 51
359.99851375410532
  0
ARC
  5
165
100
AcDbEntity
  8
0
  6
CONTINUOUS
 62
               7
100
AcDbCircle
 10
11.499996185433702
 20
-32.499996185433702
 30
0.0
 40
0.4999961854482526
100
AcDbArc
 50
89.999562879565815
 51
180.00043712043356
  0
ARC
  5
166
100
AcDbEntity
  8
0
  6
CONTINUOUS
 62
               7
100
AcDbCircle
 10
11.600006866210315
 20
-58.500006866210313
 30
0.0
 40
0.9999931338132575
100
AcDbArc
 50
269.99960659242589
 51
0.0003934075734282
  0
ARC
  5
167
100
AcDbEntity
  8
0
  6
CONTINUOUS
 62
               7
100
AcDbCircle
 10
16.0
 20
-11.0
 30
0.0
 40
1.0
100
AcDbArc
 50
89.999999999999801
 51
179.9999999999996
  0
ARC
  5
168
100
AcDbEntity
  8
0
  6
CONTINUOUS
 62
               7
100
AcDbCircle
 10
16.0
 20
11.0
 30
0.0
 40
1.0
100
AcDbArc
 50
179.9999999999996
 51
269.99999999999937
  0
ARC
  5
169
100
AcDbEntity
  8
0
  6
CONTINUOUS
 62
               7
100
AcDbCircle
 10
-16.000007629423635
 20
-11.000007629423635
 30
0.0
 40
1.0000076294527389
100
AcDbArc
 50
0.0004371304393457
 51
89.999562869560464
  0
ARC
  5
16A
100
AcDbEntity
  8
0
  6
CONTINUOUS
 62
               7
100
AcDbCircle
 10
-16.000007629423635
 20
11.000007629423635
 30
0.0
 40
1.0000076294527389
100
AcDbArc
 50
270.00043713043874
 51
359.99956286955984
  0
CIRCLE
  5
16B
100
AcDbEntity
  8
0
  6
CONTINUOUS
 62
               7
100
AcDbCircle
 10
0.0
 20
0.0
 30
0.0
 40
10.25
  0
LINE
  5
16C
100
AcDbEntity
  8
0
  6
CONTINUOUS
 62
               7
100
AcDbLine
 10
19.0
 20
-22.0
 30
0.0
 11
-18.989999999999998
 21
-22.0
 31
0.0
  0
LINE
  5
16D
100
AcDbEntity
  8
0
  6
CONTINUOUS
 62
               4
100
AcDbLine
 10
19.0
 20
-22.0
 30
0.0
 11
36.200000000000003
 21
-22.0
 31
0.0
  0
LINE
  5
16E
100
AcDbEntity
  8
0
  6
CENTER
 62
             200
100
AcDbLine
 10
33.530000000000001
 20
-38.0
 30
0.0
 11
44.0
 21
-38.0
 31
0.0
  0
LINE
  5
16F
100
AcDbEntity
  8
0
  6
CENTER
 62
               2
100
AcDbLine
 10
25.0
 20
-8.3699999999999992
 30
0.0
 11
25.0
 21
-18.66
 31
0.0
  0
LINE
  5
170
100
AcDbEntity
  8
0
  6
CENTER
 62
               2
100
AcDbLine
 10
30.460000000000001
 20
-13.5
 30
0.0
 11
18.489999999999998
 21
-13.5
 31
0.0
  0
LINE
  5
171
100
AcDbEntity
  8
0
  6
CONTINUOUS
 62
               7
100
AcDbLine
 10
21.0
 20
-9.5
 30
0.0
 11
21.0
 21
-17.5
 31
0.0
  0
LINE
  5
172
100
AcDbEntity
  8
0
  6
CONTINUOUS
 62
               7
100
AcDbLine
 10
29.0
 20
-17.5
 30
0.0
 11
21.0
 21
-17.5
 31
0.0
  0
LINE
  5
173
100
AcDbEntity
  8
0
  6
CONTINUOUS
 62
               7
100
AcDbLine
 10
29.0
 20
-9.5
 30
0.0
 11
29.0
 21
-17.5
 31
0.0
  0
LINE
  5
174
100
AcDbEntity
  8
0
  6
CONTINUOUS
 62
               7
100
AcDbLine
 10
29.0
 20
-9.5
 30
0.0
 11
21.0
 21
-9.5
 31
0.0
  0
LINE
  5
175
100
AcDbEntity
  8
0
  6
CONTINUOUS
 62
               7
100
AcDbLine
 10
21.0
 20
-17.25
 30
0.0
 11
19.579999999999998
 21
-17.25
 31
0.0
  0
LINE
  5
176
100
AcDbEntity
  8
0
  6
CONTINUOUS
 62
               7
100
AcDbLine
 10
21.0
 20
-9.75
 30
0.0
 11
19.710000000000001
 21
-9.75
 31
0.0
  0
LINE
  5
177
100
AcDbEntity
  8
0
  6
CONTINUOUS
 62
               7
100
AcDbLine
 10
-15.0
 20
-22.0
 30
0.0
 11
-15.0
 21
-24.300000000000001
 31
0.0
  0
LINE
  5
178
100
AcDbEntity
  8
0
  6
CONTINUOUS
 62
               2
100
AcDbLine
 10
-14.25
 20
-24.300000000000001
 30
0.0
 11
-14.25
 21
-22.0
 31
0.0
  0
LINE
  5
179
100
AcDbEntity
  8
0
  6
CONTINUOUS
 62
               2
100
AcDbLine
 10
14.25
 20
-24.300000000000001
 30
0.0
 11
14.25
 21
-22.0
 31
0.0
  0
LINE
  5
17A
100
AcDbEntity
  8
0
  6
CONTINUOUS
 62
               7
100
AcDbLine
 10
15.0
 20
-22.0
 30
0.0
 11
15.0
 21
-24.300000000000001
 31
0.0
  0
LINE
  5
17B
100
AcDbEntity
  8
0
  6
CONTINUOUS
 62
               4
100
AcDbLine
 10
-19.800000000000001
 20
-22.0
 30
0.0
 11
-18.989999999999998
 21
-22.0
 31
0.0
  0
LINE
  5
17C
100
AcDbEntity
  8
0
  6
CONTINUOUS
 62
               4
100
AcDbLine
 10
19.0
 20
-24.300000000000001
 30
0.0
 11
36.200000000000003
 21
-24.300000000000001
 31
0.0
  0
LINE
  5
17D
100
AcDbEntity
  8
0
  6
CONTINUOUS
 62
               4
100
AcDbLine
 10
40.0
 20
-45.0
 30
0.0
 11
40.0
 21
-25.800000000000001
 31
0.0
  0
LINE
  5
17E
100
AcDbEntity
  8
0
  6
CONTINUOUS
 62
               4
100
AcDbLine
 10
37.700000000000003
 20
-42.0
 30
0.0
 11
40.0
 21
-42.0
 31
0.0
  0
LINE
  5
17F
100
AcDbEntity
  8
0
  6
CONTINUOUS
 62
               4
100
AcDbLine
 10
37.700000000000003
 20
-45.0
 30
0.0
 11
37.700000000000003
 21
-25.800000000000001
 31
0.0
  0
LINE
  5
180
100
AcDbEntity
  8
0
  6
CONTINUOUS
 62
               4
100
AcDbLine
 10
37.700000000000003
 20
-45.0
 30
0.0
 11
40.0
 21
-45.0
 31
0.0
  0
LINE
  5
181
100
AcDbEntity
  8
0
  6
CONTINUOUS
 62
               7
100
AcDbLine
 10
20.969999999999999
 20
6.5999999999999996
 30
0.0
 11
20.969999999999999
 21
-6.5999999999999996
 31
0.0
  0
LINE
  5
182
100
AcDbEntity
  8
0
  6
CONTINUOUS
 62
               7
100
AcDbLine
 10
20.0
 20
6.5700000000000003
 30
0.0
 11
20.969999999999999
 21
6.5999999999999996
 31
0.0
  0
LINE
  5
183
100
AcDbEntity
  8
0
  6
CONTINUOUS
 62
               2
100
AcDbLine
 10
20.0
 20
5.7199999999999998
 30
0.0
 11
21.449999999999999
 21
5.7599999999999998
 31
0.0
  0
LINE
  5
184
100
AcDbEntity
  8
0
  6
CONTINUOUS
 62
               2
100
AcDbLine
 10
20.0
 20
-5.7199999999999998
 30
0.0
 11
21.449999999999999
 21
-5.7599999999999998
 31
0.0
  0
LINE
  5
185
100
AcDbEntity
  8
0
  6
CONTINUOUS
 62
               7
100
AcDbLine
 10
20.969999999999999
 20
-6.5999999999999996
 30
0.0
 11
20.0
 21
-6.5700000000000003
 31
0.0
  0
LINE
  5
186
100
AcDbEntity
  8
0
  6
CONTINUOUS
 62
               7
100
AcDbLine
 10
20.969999999999999
 20
6.5999999999999996
 30
0.0
 11
21.670000000000002
 21
5.3899999999999997
 31
0.0
  0
LINE
  5
187
100
AcDbEntity
  8
0
  6
CONTINUOUS
 62
               7
100
AcDbLine
 10
20.969999999999999
 20
-6.5999999999999996
 30
0.0
 11
21.670000000000002
 21
-5.3899999999999997
 31
0.0
  0
LINE
  5
188
100
AcDbEntity
  8
0
  6
CONTINUOUS
 62
               7
100
AcDbLine
 10
21.670000000000002
 20
5.3899999999999997
 30
0.0
 11
21.670000000000002
 21
-5.3899999999999997
 31
0.0
  0
LINE
  5
189
100
AcDbEntity
  8
0
  6
CONTINUOUS
 62
               7
100
AcDbLine
 10
-59.5
 20
21.25
 30
0.0
 11
-60.0
 21
20.75
 31
0.0
  0
LINE
  5
18A
100
AcDbEntity
  8
0
  6
CONTINUOUS
 62
               7
100
AcDbLine
 10
-59.5
 20
21.25
 30
0.0
 11
-57.0
 21
21.25
 31
0.0
  0
LINE
  5
18B
100
AcDbEntity
  8
0
  6
CONTINUOUS
 62
               7
100
AcDbLine
 10
-33.5
 20
-7.0
 30
0.0
 11
-26.0
 21
7.0
 31
0.0
  0
LINE
  5
18C
100
AcDbEntity
  8
0
  6
CONTINUOUS
 62
               7
100
AcDbLine
 10
-26.0
 20
-7.0
 30
0.0
 11
-33.5
 21
7.0
 31
0.0
  0
LINE
  5
18D
100
AcDbEntity
  8
0
  6
CONTINUOUS
 62
               7
100
AcDbLine
 10
-26.0
 20
7.0
 30
0.0
 11
-33.5
 21
7.0
 31
0.0
  0
LINE
  5
18E
100
AcDbEntity
  8
0
  6
CONTINUOUS
 62
               7
100
AcDbLine
 10
-26.0
 20
-7.0
 30
0.0
 11
-33.5
 21
-7.0
 31
0.0
  0
LINE
  5
18F
100
AcDbEntity
  8
0
  6
CONTINUOUS
 62
               7
100
AcDbLine
 10
-57.0
 20
21.25
 30
0.0
 11
-57.0
 21
-21.25
 31
0.0
  0
LINE
  5
190
100
AcDbEntity
  8
0
  6
CONTINUOUS
 62
               7
100
AcDbLine
 10
-33.5
 20
18.0
 30
0.0
 11
-33.5
 21
-18.0
 31
0.0
  0
LINE
  5
191
100
AcDbEntity
  8
0
  6
CONTINUOUS
 62
               7
100
AcDbLine
 10
-59.5
 20
21.25
 30
0.0
 11
-59.5
 21
-21.25
 31
0.0
  0
LINE
  5
192
100
AcDbEntity
  8
0
  6
CONTINUOUS
 62
               7
100
AcDbLine
 10
-59.5
 20
-21.25
 30
0.0
 11
-57.0
 21
-21.25
 31
0.0
  0
LINE
  5
193
100
AcDbEntity
  8
0
  6
CONTINUOUS
 62
               7
100
AcDbLine
 10
-60.0
 20
20.75
 30
0.0
 11
-60.0
 21
-20.75
 31
0.0
  0
LINE
  5
194
100
AcDbEntity
  8
0
  6
CONTINUOUS
 62
               7
100
AcDbLine
 10
-57.0
 20
21.0
 30
0.0
 11
-36.5
 21
21.0
 31
0.0
  0
LINE
  5
195
100
AcDbEntity
  8
0
  6
CONTINUOUS
 62
               2
100
AcDbLine
 10
-20.0
 20
-5.7199999999999998
 30
0.0
 11
-26.0
 21
-5.9100000000000001
 31
0.0
  0
LINE
  5
196
100
AcDbEntity
  8
0
  6
CONTINUOUS
 62
               7
100
AcDbLine
 10
-20.0
 20
6.5700000000000003
 30
0.0
 11
-26.0
 21
6.7599999999999998
 31
0.0
  0
LINE
  5
197
100
AcDbEntity
  8
0
  6
CONTINUOUS
 62
               7
100
AcDbLine
 10
-26.0
 20
7.0
 30
0.0
 11
-26.0
 21
-7.0
 31
0.0
  0
LINE
  5
198
100
AcDbEntity
  8
0
  6
CONTINUOUS
 62
               7
100
AcDbLine
 10
-20.0
 20
-6.5700000000000003
 30
0.0
 11
-26.0
 21
-6.7599999999999998
 31
0.0
  0
LINE
  5
199
100
AcDbEntity
  8
0
  6
CONTINUOUS
 62
               2
100
AcDbLine
 10
-20.0
 20
5.7199999999999998
 30
0.0
 11
-26.0
 21
5.9100000000000001
 31
0.0
  0
LINE
  5
19A
100
AcDbEntity
  8
0
  6
CONTINUOUS
 62
               7
100
AcDbLine
 10
-59.5
 20
-21.25
 30
0.0
 11
-60.0
 21
-20.75
 31
0.0
  0
LINE
  5
19B
100
AcDbEntity
  8
0
  6
CONTINUOUS
 62
               7
100
AcDbLine
 10
-57.0
 20
-21.0
 30
0.0
 11
-36.5
 21
-21.0
 31
0.0
  0
LINE
  5
19C
100
AcDbEntity
  8
0
  6
CONTINUOUS
 62
               7
100
AcDbLine
 10
-10.640000000000001
 20
-57.5
 30
0.0
 11
-6.7300000000000004
 21
-57.5
 31
0.0
  0
LINE
  5
19D
100
AcDbEntity
  8
0
  6
CONTINUOUS
 62
               7
100
AcDbLine
 10
12.289999999999999
 20
-57.5
 30
0.0
 11
12.6
 21
-57.5
 31
0.0
  0
LINE
  5
19E
100
AcDbEntity
  8
0
  6
CONTINUOUS
 62
               7
100
AcDbLine
 10
6.7300000000000004
 20
-57.5
 30
0.0
 11
10.640000000000001
 21
-57.5
 31
0.0
  0
LINE
  5
19F
100
AcDbEntity
  8
0
  6
CONTINUOUS
 62
               7
100
AcDbLine
 10
-2.7599999999999998
 20
-57.5
 30
0.0
 11
2.7599999999999998
 21
-57.5
 31
0.0
  0
LINE
  5
1A0
100
AcDbEntity
  8
0
  6
CONTINUOUS
 62
               7
100
AcDbLine
 10
11.880000000000001
 20
-37.0
 30
0.0
 11
13.81
 21
-37.0
 31
0.0
  0
LINE
  5
1A1
100
AcDbEntity
  8
0
  6
CONTINUOUS
 62
               7
100
AcDbLine
 10
11.869999999999999
 20
-37.450000000000003
 30
0.0
 11
12.949999999999999
 21
-37.450000000000003
 31
0.0
  0
LINE
  5
1A2
100
AcDbEntity
  8
0
  6
CONTINUOUS
 62
               7
100
AcDbLine
 10
-7.6399999999999997
 20
-37.0
 30
0.0
 11
-3.0
 21
-37.0
 31
0.0
  0
LINE
  5
1A3
100
AcDbEntity
  8
0
  6
CONTINUOUS
 62
               7
100
AcDbLine
 10
-6.8700000000000001
 20
-37.450000000000003
 30
0.0
 11
-3.23
 21
-37.450000000000003
 31
0.0
  0
LINE
  5
1A4
100
AcDbEntity
  8
0
  6
CONTINUOUS
 62
               7
100
AcDbLine
 10
-11.199999999999999
 20
-56.920000000000002
 30
0.0
 11
-7.7000000000000002
 21
-56.920000000000002
 31
0.0
  0
LINE
  5
1A5
100
AcDbEntity
  8
0
  6
CONTINUOUS
 62
               7
100
AcDbLine
 10
13.369999999999999
 20
-56.920000000000002
 30
0.0
 11
13.6
 21
-56.920000000000002
 31
0.0
  0
LINE
  5
1A6
100
AcDbEntity
  8
0
  6
CONTINUOUS
 62
               7
100
AcDbLine
 10
7.7000000000000002
 20
-56.920000000000002
 30
0.0
 11
11.199999999999999
 21
-56.920000000000002
 31
0.0
  0
LINE
  5
1A7
100
AcDbEntity
  8
0
  6
CONTINUOUS
 62
               7
100
AcDbLine
 10
-2.4700000000000002
 20
-56.920000000000002
 30
0.0
 11
2.4700000000000002
 21
-56.920000000000002
 31
0.0
  0
LINE
  5
1A8
100
AcDbEntity
  8
0
  6
CONTINUOUS
 62
               7
100
AcDbLine
 10
12.289999999999999
 20
-57.5
 30
0.0
 11
13.369999999999999
 21
-56.920000000000002
 31
0.0
  0
LINE
  5
1A9
100
AcDbEntity
  8
0
  6
CONTINUOUS
 62
               7
100
AcDbLine
 10
11.199999999999999
 20
-56.920000000000002
 30
0.0
 11
10.640000000000001
 21
-57.5
 31
0.0
  0
LINE
  5
1AA
100
AcDbEntity
  8
0
  6
CONTINUOUS
 62
               7
100
AcDbLine
 10
6.7300000000000004
 20
-57.5
 30
0.0
 11
7.7000000000000002
 21
-56.920000000000002
 31
0.0
  0
LINE
  5
1AB
100
AcDbEntity
  8
0
  6
CONTINUOUS
 62
               7
100
AcDbLine
 10
7.6399999999999997
 20
-37.0
 30
0.0
 11
6.8700000000000001
 21
-37.450000000000003
 31
0.0
  0
LINE
  5
1AC
100
AcDbEntity
  8
0
  6
CONTINUOUS
 62
               7
100
AcDbLine
 10
13.81
 20
-37.0
 30
0.0
 11
12.949999999999999
 21
-37.450000000000003
 31
0.0
  0
LINE
  5
1AD
100
AcDbEntity
  8
0
  6
CONTINUOUS
 62
               7
100
AcDbLine
 10
13.81
 20
-37.0
 30
0.0
 11
13.369999999999999
 21
-56.920000000000002
 31
0.0
  0
LINE
  5
1AE
100
AcDbEntity
  8
0
  6
CONTINUOUS
 62
               7
100
AcDbLine
 10
12.289999999999999
 20
-57.5
 30
0.0
 11
12.949999999999999
 21
-37.450000000000003
 31
0.0
  0
LINE
  5
1AF
100
AcDbEntity
  8
0
  6
CONTINUOUS
 62
               7
100
AcDbLine
 10
11.199999999999999
 20
-56.920000000000002
 30
0.0
 11
11.880000000000001
 21
-37.0
 31
0.0
  0
LINE
  5
1B0
100
AcDbEntity
  8
0
  6
CONTINUOUS
 62
               7
100
AcDbLine
 10
7.6399999999999997
 20
-37.0
 30
0.0
 11
7.7000000000000002
 21
-56.920000000000002
 31
0.0
  0
LINE
  5
1B1
100
AcDbEntity
  8
0
  6
CONTINUOUS
 62
               7
100
AcDbLine
 10
6.8700000000000001
 20
-37.450000000000003
 30
0.0
 11
6.7300000000000004
 21
-57.5
 31
0.0
  0
LINE
  5
1B2
100
AcDbEntity
  8
0
  6
CONTINUOUS
 62
               7
100
AcDbLine
 10
3.0
 20
-37.0
 30
0.0
 11
3.23
 21
-37.450000000000003
 31
0.0
  0
LINE
  5
1B3
100
AcDbEntity
  8
0
  6
CONTINUOUS
 62
               7
100
AcDbLine
 10
2.4700000000000002
 20
-56.920000000000002
 30
0.0
 11
2.7599999999999998
 21
-57.5
 31
0.0
  0
LINE
  5
1B4
100
AcDbEntity
  8
0
  6
CONTINUOUS
 62
               7
100
AcDbLine
 10
3.23
 20
-37.450000000000003
 30
0.0
 11
2.7599999999999998
 21
-57.5
 31
0.0
  0
LINE
  5
1B5
100
AcDbEntity
  8
0
  6
CONTINUOUS
 62
               7
100
AcDbLine
 10
-13.81
 20
-37.0
 30
0.0
 11
-13.369999999999999
 21
-56.920000000000002
 31
0.0
  0
LINE
  5
1B6
100
AcDbEntity
  8
0
  6
CONTINUOUS
 62
               7
100
AcDbLine
 10
-12.289999999999999
 20
-57.5
 30
0.0
 11
-12.949999999999999
 21
-37.450000000000003
 31
0.0
  0
LINE
  5
1B7
100
AcDbEntity
  8
0
  6
CONTINUOUS
 62
               7
100
AcDbLine
 10
-11.199999999999999
 20
-56.920000000000002
 30
0.0
 11
-11.880000000000001
 21
-37.0
 31
0.0
  0
LINE
  5
1B8
100
AcDbEntity
  8
0
  6
CONTINUOUS
 62
               7
100
AcDbLine
 10
-7.6399999999999997
 20
-37.0
 30
0.0
 11
-7.7000000000000002
 21
-56.920000000000002
 31
0.0
  0
LINE
  5
1B9
100
AcDbEntity
  8
0
  6
CONTINUOUS
 62
               7
100
AcDbLine
 10
-6.8700000000000001
 20
-37.450000000000003
 30
0.0
 11
-6.7300000000000004
 21
-57.5
 31
0.0
  0
LINE
  5
1BA
100
AcDbEntity
  8
0
  6
CONTINUOUS
 62
               7
100
AcDbLine
 10
-3.23
 20
-37.450000000000003
 30
0.0
 11
-2.7599999999999998
 21
-57.5
 31
0.0
  0
LINE
  5
1BB
100
AcDbEntity
  8
0
  6
CONTINUOUS
 62
               7
100
AcDbLine
 10
-3.0
 20
-37.0
 30
0.0
 11
-3.23
 21
-37.450000000000003
 31
0.0
  0
LINE
  5
1BC
100
AcDbEntity
  8
0
  6
CONTINUOUS
 62
               7
100
AcDbLine
 10
-13.81
 20
-37.0
 30
0.0
 11
-12.949999999999999
 21
-37.450000000000003
 31
0.0
  0
LINE
  5
1BD
100
AcDbEntity
  8
0
  6
CONTINUOUS
 62
               7
100
AcDbLine
 10
-7.6399999999999997
 20
-37.0
 30
0.0
 11
-6.8700000000000001
 21
-37.450000000000003
 31
0.0
  0
LINE
  5
1BE
100
AcDbEntity
  8
0
  6
CONTINUOUS
 62
               7
100
AcDbLine
 10
-12.289999999999999
 20
-57.5
 30
0.0
 11
-13.369999999999999
 21
-56.920000000000002
 31
0.0
  0
LINE
  5
1BF
100
AcDbEntity
  8
0
  6
CONTINUOUS
 62
               7
100
AcDbLine
 10
-11.199999999999999
 20
-56.920000000000002
 30
0.0
 11
-10.640000000000001
 21
-57.5
 31
0.0
  0
LINE
  5
1C0
100
AcDbEntity
  8
0
  6
CONTINUOUS
 62
               7
100
AcDbLine
 10
-6.7300000000000004
 20
-57.5
 30
0.0
 11
-7.7000000000000002
 21
-56.920000000000002
 31
0.0
  0
LINE
  5
1C1
100
AcDbEntity
  8
0
  6
CONTINUOUS
 62
               7
100
AcDbLine
 10
-2.4700000000000002
 20
-56.920000000000002
 30
0.0
 11
-2.7599999999999998
 21
-57.5
 31
0.0
  0
LINE
  5
1C2
100
AcDbEntity
  8
0
  6
CONTINUOUS
 62
               7
100
AcDbLine
 10
3.23
 20
-37.450000000000003
 30
0.0
 11
6.8700000000000001
 21
-37.450000000000003
 31
0.0
  0
LINE
  5
1C3
100
AcDbEntity
  8
0
  6
CONTINUOUS
 62
               7
100
AcDbLine
 10
-12.949999999999999
 20
-37.450000000000003
 30
0.0
 11
-11.869999999999999
 21
-37.450000000000003
 31
0.0
  0
LINE
  5
1C4
100
AcDbEntity
  8
0
  6
CONTINUOUS
 62
               7
100
AcDbLine
 10
3.0
 20
-37.0
 30
0.0
 11
7.6399999999999997
 21
-37.0
 31
0.0
  0
LINE
  5
1C5
100
AcDbEntity
  8
0
  6
CONTINUOUS
 62
               7
100
AcDbLine
 10
-14.18
 20
-34.979999999999997
 30
0.0
 11
14.18
 21
-34.979999999999997
 31
0.0
  0
LINE
  5
1C6
100
AcDbEntity
  8
0
  6
CONTINUOUS
 62
               7
100
AcDbLine
 10
-12.6
 20
-57.5
 30
0.0
 11
-12.289999999999999
 21
-57.5
 31
0.0
  0
LINE
  5
1C7
100
AcDbEntity
  8
0
  6
CONTINUOUS
 62
               7
100
AcDbLine
 10
-13.81
 20
-37.0
 30
0.0
 11
-11.880000000000001
 21
-37.0
 31
0.0
  0
LINE
  5
1C8
100
AcDbEntity
  8
0
  6
CONTINUOUS
 62
               7
100
AcDbLine
 10
-13.6
 20
-56.920000000000002
 30
0.0
 11
-13.369999999999999
 21
-56.920000000000002
 31
0.0
  0
LINE
  5
1C9
100
AcDbEntity
  8
0
  6
CONTINUOUS
 62
               7
100
AcDbLine
 10
-3.0
 20
-37.0
 30
0.0
 11
-2.46
 21
-56.920000000000002
 31
0.0
  0
LINE
  5
1CA
100
AcDbEntity
  8
0
  6
CONTINUOUS
 62
               7
100
AcDbLine
 10
3.0
 20
-37.0
 30
0.0
 11
2.46
 21
-56.920000000000002
 31
0.0
  0
LINE
  5
1CB
100
AcDbEntity
  8
0
  6
CONTINUOUS
 62
               7
100
AcDbLine
 10
13.699999999999999
 20
-34.5
 30
0.0
 11
14.18
 21
-34.979999999999997
 31
0.0
  0
LINE
  5
1CC
100
AcDbEntity
  8
0
  6
CONTINUOUS
 62
               7
100
AcDbLine
 10
-13.699999999999999
 20
-34.5
 30
0.0
 11
-14.18
 21
-34.979999999999997
 31
0.0
  0
LINE
  5
1CD
100
AcDbEntity
  8
0
  6
CONTINUOUS
 62
               7
100
AcDbLine
 10
-14.18
 20
-34.979999999999997
 30
0.0
 11
-13.6
 21
-56.920000000000002
 31
0.0
  0
LINE
  5
1CE
100
AcDbEntity
  8
0
  6
CONTINUOUS
 62
               7
100
AcDbLine
 10
14.18
 20
-34.979999999999997
 30
0.0
 11
13.6
 21
-56.920000000000002
 31
0.0
  0
LINE
  5
1CF
100
AcDbEntity
  8
0
  6
CONTINUOUS
 62
               7
100
AcDbLine
 10
12.6
 20
-57.5
 30
0.0
 11
12.6
 21
-58.5
 31
0.0
  0
LINE
  5
1D0
100
AcDbEntity
  8
0
  6
CONTINUOUS
 62
               7
100
AcDbLine
 10
-12.6
 20
-57.5
 30
0.0
 11
-12.6
 21
-58.5
 31
0.0
  0
LINE
  5
1D1
100
AcDbEntity
  8
0
  6
CONTINUOUS
 62
               7
100
AcDbLine
 10
-13.6
 20
-56.920000000000002
 30
0.0
 11
-12.6
 21
-57.5
 31
0.0
  0
LINE
  5
1D2
100
AcDbEntity
  8
0
  6
CONTINUOUS
 62
               7
100
AcDbLine
 10
12.6
 20
-57.5
 30
0.0
 11
13.6
 21
-56.920000000000002
 31
0.0
  0
LINE
  5
1D3
100
AcDbEntity
  8
0
  6
CONTINUOUS
 62
               7
100
AcDbLine
 10
-11.6
 20
-59.5
 30
0.0
 11
11.6
 21
-59.5
 31
0.0
  0
LINE
  5
1D4
100
AcDbEntity
  8
0
  6
CONTINUOUS
 62
               7
100
AcDbLine
 10
-13.699999999999999
 20
-34.5
 30
0.0
 11
13.699999999999999
 21
-34.5
 31
0.0
  0
LINE
  5
1D5
100
AcDbEntity
  8
0
  6
CONTINUOUS
 62
               7
100
AcDbLine
 10
-14.199999999999999
 20
-31.300000000000001
 30
0.0
 11
-14.199999999999999
 21
-31.5
 31
0.0
  0
LINE
  5
1D6
100
AcDbEntity
  8
0
  6
CONTINUOUS
 62
               7
100
AcDbLine
 10
14.199999999999999
 20
-31.300000000000001
 30
0.0
 11
14.199999999999999
 21
-31.5
 31
0.0
  0
LINE
  5
1D7
100
AcDbEntity
  8
0
  6
CONTINUOUS
 62
               7
100
AcDbLine
 10
-9.4299999999999997
 20
-32.0
 30
0.0
 11
-9.4299999999999997
 21
-34.5
 31
0.0
  0
LINE
  5
1D8
100
AcDbEntity
  8
0
  6
CONTINUOUS
 62
               7
100
AcDbLine
 10
-1.5600000000000001
 20
-32.0
 30
0.0
 11
-1.5600000000000001
 21
-34.5
 31
0.0
  0
LINE
  5
1D9
100
AcDbEntity
  8
0
  6
CONTINUOUS
 62
               7
100
AcDbLine
 10
1.5600000000000001
 20
-32.0
 30
0.0
 11
1.5600000000000001
 21
-34.5
 31
0.0
  0
LINE
  5
1DA
100
AcDbEntity
  8
0
  6
CONTINUOUS
 62
               7
100
AcDbLine
 10
9.4299999999999997
 20
-32.0
 30
0.0
 11
9.4299999999999997
 21
-34.5
 31
0.0
  0
LINE
  5
1DB
100
AcDbEntity
  8
0
  6
CONTINUOUS
 62
               7
100
AcDbLine
 10
-13.699999999999999
 20
-32.0
 30
0.0
 11
0.0
 21
-32.0
 31
0.0
  0
LINE
  5
1DC
100
AcDbEntity
  8
0
  6
CONTINUOUS
 62
               7
100
AcDbLine
 10
-11.0
 20
-32.5
 30
0.0
 11
-11.0
 21
-34.5
 31
0.0
  0
LINE
  5
1DD
100
AcDbEntity
  8
0
  6
CONTINUOUS
 62
               7
100
AcDbLine
 10
13.699999999999999
 20
-32.0
 30
0.0
 11
0.0
 21
-32.0
 31
0.0
  0
LINE
  5
1DE
100
AcDbEntity
  8
0
  6
CONTINUOUS
 62
               7
100
AcDbLine
 10
11.0
 20
-32.5
 30
0.0
 11
11.0
 21
-34.5
 31
0.0
  0
LINE
  5
1DF
100
AcDbEntity
  8
0
  6
CONTINUOUS
 62
               7
100
AcDbLine
 10
2.5
 20
-30.300000000000001
 30
0.0
 11
0.0
 21
-30.300000000000001
 31
0.0
  0
LINE
  5
1E0
100
AcDbEntity
  8
0
  6
CONTINUOUS
 62
               7
100
AcDbLine
 10
18.829999999999998
 20
-26.300000000000001
 30
0.0
 11
17.559999999999999
 21
-26.300000000000001
 31
0.0
  0
LINE
  5
1E1
100
AcDbEntity
  8
0
  6
CONTINUOUS
 62
               7
100
AcDbLine
 10
18.829999999999998
 20
-26.300000000000001
 30
0.0
 11
18.829999999999998
 21
-30.300000000000001
 31
0.0
  0
LINE
  5
1E2
100
AcDbEntity
  8
0
  6
CONTINUOUS
 62
               7
100
AcDbLine
 10
18.100000000000001
 20
-27.0
 30
0.0
 11
18.100000000000001
 21
-31.0
 31
0.0
  0
LINE
  5
1E3
100
AcDbEntity
  8
0
  6
CONTINUOUS
 62
               7
100
AcDbLine
 10
17.559999999999999
 20
-30.300000000000001
 30
0.0
 11
15.06
 21
-30.300000000000001
 31
0.0
  0
LINE
  5
1E4
100
AcDbEntity
  8
0
  6
CONTINUOUS
 62
               7
100
AcDbLine
 10
11.58
 20
-30.300000000000001
 30
0.0
 11
7.25
 21
-30.300000000000001
 31
0.0
  0
LINE
  5
1E5
100
AcDbEntity
  8
0
  6
CONTINUOUS
 62
               7
100
AcDbLine
 10
17.02
 20
-31.0
 30
0.0
 11
18.100000000000001
 21
-31.0
 31
0.0
  0
LINE
  5
1E6
100
AcDbEntity
  8
0
  6
CONTINUOUS
 62
               7
100
AcDbLine
 10
11.380000000000001
 20
-31.0
 30
0.0
 11
14.32
 21
-31.0
 31
0.0
  0
LINE
  5
1E7
100
AcDbEntity
  8
0
  6
CONTINUOUS
 62
               7
100
AcDbLine
 10
2.6899999999999999
 20
-31.0
 30
0.0
 11
6.71
 21
-31.0
 31
0.0
  0
LINE
  5
1E8
100
AcDbEntity
  8
0
  6
CONTINUOUS
 62
               7
100
AcDbLine
 10
14.32
 20
-27.0
 30
0.0
 11
11.58
 21
-27.0
 31
0.0
  0
LINE
  5
1E9
100
AcDbEntity
  8
0
  6
CONTINUOUS
 62
               7
100
AcDbLine
 10
15.06
 20
-26.300000000000001
 30
0.0
 11
11.58
 21
-26.300000000000001
 31
0.0
  0
LINE
  5
1EA
100
AcDbEntity
  8
0
  6
CONTINUOUS
 62
               7
100
AcDbLine
 10
7.25
 20
-26.300000000000001
 30
0.0
 11
2.5
 21
-26.300000000000001
 31
0.0
  0
LINE
  5
1EB
100
AcDbEntity
  8
0
  6
CONTINUOUS
 62
               7
100
AcDbLine
 10
6.71
 20
-27.0
 30
0.0
 11
2.6899999999999999
 21
-27.0
 31
0.0
  0
LINE
  5
1EC
100
AcDbEntity
  8
0
  6
CONTINUOUS
 62
               7
100
AcDbLine
 10
18.829999999999998
 20
-30.300000000000001
 30
0.0
 11
18.100000000000001
 21
-31.0
 31
0.0
  0
LINE
  5
1ED
100
AcDbEntity
  8
0
  6
CONTINUOUS
 62
               7
100
AcDbLine
 10
18.829999999999998
 20
-26.300000000000001
 30
0.0
 11
18.100000000000001
 21
-27.0
 31
0.0
  0
LINE
  5
1EE
100
AcDbEntity
  8
0
  6
CONTINUOUS
 62
               7
100
AcDbLine
 10
17.559999999999999
 20
-30.300000000000001
 30
0.0
 11
17.02
 21
-31.0
 31
0.0
  0
LINE
  5
1EF
100
AcDbEntity
  8
0
  6
CONTINUOUS
 62
               7
100
AcDbLine
 10
17.559999999999999
 20
-26.300000000000001
 30
0.0
 11
17.559999999999999
 21
-30.300000000000001
 31
0.0
  0
LINE
  5
1F0
100
AcDbEntity
  8
0
  6
CONTINUOUS
 62
               7
100
AcDbLine
 10
15.06
 20
-26.300000000000001
 30
0.0
 11
15.06
 21
-30.300000000000001
 31
0.0
  0
LINE
  5
1F1
100
AcDbEntity
  8
0
  6
CONTINUOUS
 62
               7
100
AcDbLine
 10
14.32
 20
-31.0
 30
0.0
 11
14.32
 21
-27.0
 31
0.0
  0
LINE
  5
1F2
100
AcDbEntity
  8
0
  6
CONTINUOUS
 62
               7
100
AcDbLine
 10
15.06
 20
-30.300000000000001
 30
0.0
 11
14.32
 21
-31.0
 31
0.0
  0
LINE
  5
1F3
100
AcDbEntity
  8
0
  6
CONTINUOUS
 62
               7
100
AcDbLine
 10
15.06
 20
-26.300000000000001
 30
0.0
 11
14.32
 21
-27.0
 31
0.0
  0
LINE
  5
1F4
100
AcDbEntity
  8
0
  6
CONTINUOUS
 62
               7
100
AcDbLine
 10
11.58
 20
-30.300000000000001
 30
0.0
 11
11.380000000000001
 21
-31.0
 31
0.0
  0
LINE
  5
1F5
100
AcDbEntity
  8
0
  6
CONTINUOUS
 62
               7
100
AcDbLine
 10
11.58
 20
-26.300000000000001
 30
0.0
 11
11.58
 21
-30.300000000000001
 31
0.0
  0
LINE
  5
1F6
100
AcDbEntity
  8
0
  6
CONTINUOUS
 62
               7
100
AcDbLine
 10
7.25
 20
-26.300000000000001
 30
0.0
 11
7.25
 21
-30.300000000000001
 31
0.0
  0
LINE
  5
1F7
100
AcDbEntity
  8
0
  6
CONTINUOUS
 62
               7
100
AcDbLine
 10
6.71
 20
-27.0
 30
0.0
 11
6.71
 21
-31.0
 31
0.0
  0
LINE
  5
1F8
100
AcDbEntity
  8
0
  6
CONTINUOUS
 62
               7
100
AcDbLine
 10
2.6899999999999999
 20
-27.0
 30
0.0
 11
2.6899999999999999
 21
-31.0
 31
0.0
  0
LINE
  5
1F9
100
AcDbEntity
  8
0
  6
CONTINUOUS
 62
               7
100
AcDbLine
 10
7.25
 20
-30.300000000000001
 30
0.0
 11
6.71
 21
-31.0
 31
0.0
  0
LINE
  5
1FA
100
AcDbEntity
  8
0
  6
CONTINUOUS
 62
               7
100
AcDbLine
 10
7.25
 20
-26.300000000000001
 30
0.0
 11
6.71
 21
-27.0
 31
0.0
  0
LINE
  5
1FB
100
AcDbEntity
  8
0
  6
CONTINUOUS
 62
               7
100
AcDbLine
 10
2.5
 20
-30.300000000000001
 30
0.0
 11
2.6899999999999999
 21
-31.0
 31
0.0
  0
LINE
  5
1FC
100
AcDbEntity
  8
0
  6
CONTINUOUS
 62
               7
100
AcDbLine
 10
2.5
 20
-26.300000000000001
 30
0.0
 11
2.6899999999999999
 21
-27.0
 31
0.0
  0
LINE
  5
1FD
100
AcDbEntity
  8
0
  6
CONTINUOUS
 62
               7
100
AcDbLine
 10
2.5
 20
-26.300000000000001
 30
0.0
 11
2.5
 21
-30.300000000000001
 31
0.0
  0
LINE
  5
1FE
100
AcDbEntity
  8
0
  6
CONTINUOUS
 62
               7
100
AcDbLine
 10
18.100000000000001
 20
-27.0
 30
0.0
 11
17.559999999999999
 21
-27.0
 31
0.0
  0
LINE
  5
1FF
100
AcDbEntity
  8
0
  6
CONTINUOUS
 62
               7
100
AcDbLine
 10
19.0
 20
-26.300000000000001
 30
0.0
 11
18.989999999999998
 21
-26.300000000000001
 31
0.0
  0
LINE
  5
200
100
AcDbEntity
  8
0
  6
CONTINUOUS
 62
               7
100
AcDbLine
 10
19.0
 20
-30.300000000000001
 30
0.0
 11
18.829999999999998
 21
-30.300000000000001
 31
0.0
  0
LINE
  5
201
100
AcDbEntity
  8
0
  6
CONTINUOUS
 62
               7
100
AcDbLine
 10
-2.5
 20
-30.300000000000001
 30
0.0
 11
0.0
 21
-30.300000000000001
 31
0.0
  0
LINE
  5
202
100
AcDbEntity
  8
0
  6
CONTINUOUS
 62
               7
100
AcDbLine
 10
-18.829999999999998
 20
-26.300000000000001
 30
0.0
 11
-17.559999999999999
 21
-26.300000000000001
 31
0.0
  0
LINE
  5
203
100
AcDbEntity
  8
0
  6
CONTINUOUS
 62
               7
100
AcDbLine
 10
-18.829999999999998
 20
-26.300000000000001
 30
0.0
 11
-18.829999999999998
 21
-30.300000000000001
 31
0.0
  0
LINE
  5
204
100
AcDbEntity
  8
0
  6
CONTINUOUS
 62
               7
100
AcDbLine
 10
-18.100000000000001
 20
-27.0
 30
0.0
 11
-18.100000000000001
 21
-31.0
 31
0.0
  0
LINE
  5
205
100
AcDbEntity
  8
0
  6
CONTINUOUS
 62
               7
100
AcDbLine
 10
-17.559999999999999
 20
-30.300000000000001
 30
0.0
 11
-15.06
 21
-30.300000000000001
 31
0.0
  0
LINE
  5
206
100
AcDbEntity
  8
0
  6
CONTINUOUS
 62
               7
100
AcDbLine
 10
-11.58
 20
-30.300000000000001
 30
0.0
 11
-7.25
 21
-30.300000000000001
 31
0.0
  0
LINE
  5
207
100
AcDbEntity
  8
0
  6
CONTINUOUS
 62
               7
100
AcDbLine
 10
-17.02
 20
-31.0
 30
0.0
 11
-18.100000000000001
 21
-31.0
 31
0.0
  0
LINE
  5
208
100
AcDbEntity
  8
0
  6
CONTINUOUS
 62
               7
100
AcDbLine
 10
-11.380000000000001
 20
-31.0
 30
0.0
 11
-14.32
 21
-31.0
 31
0.0
  0
LINE
  5
209
100
AcDbEntity
  8
0
  6
CONTINUOUS
 62
               7
100
AcDbLine
 10
-2.6899999999999999
 20
-31.0
 30
0.0
 11
-6.71
 21
-31.0
 31
0.0
  0
LINE
  5
20A
100
AcDbEntity
  8
0
  6
CONTINUOUS
 62
               7
100
AcDbLine
 10
-14.32
 20
-27.0
 30
0.0
 11
-11.58
 21
-27.0
 31
0.0
  0
LINE
  5
20B
100
AcDbEntity
  8
0
  6
CONTINUOUS
 62
               7
100
AcDbLine
 10
-15.06
 20
-26.300000000000001
 30
0.0
 11
-11.58
 21
-26.300000000000001
 31
0.0
  0
LINE
  5
20C
100
AcDbEntity
  8
0
  6
CONTINUOUS
 62
               7
100
AcDbLine
 10
-7.25
 20
-26.300000000000001
 30
0.0
 11
-2.5
 21
-26.300000000000001
 31
0.0
  0
LINE
  5
20D
100
AcDbEntity
  8
0
  6
CONTINUOUS
 62
               7
100
AcDbLine
 10
-6.71
 20
-27.0
 30
0.0
 11
-2.6899999999999999
 21
-27.0
 31
0.0
  0
LINE
  5
20E
100
AcDbEntity
  8
0
  6
CONTINUOUS
 62
               7
100
AcDbLine
 10
-18.829999999999998
 20
-30.300000000000001
 30
0.0
 11
-18.100000000000001
 21
-31.0
 31
0.0
  0
LINE
  5
20F
100
AcDbEntity
  8
0
  6
CONTINUOUS
 62
               7
100
AcDbLine
 10
-18.829999999999998
 20
-26.300000000000001
 30
0.0
 11
-18.100000000000001
 21
-27.0
 31
0.0
  0
LINE
  5
210
100
AcDbEntity
  8
0
  6
CONTINUOUS
 62
               7
100
AcDbLine
 10
-17.559999999999999
 20
-30.300000000000001
 30
0.0
 11
-17.02
 21
-31.0
 31
0.0
  0
LINE
  5
211
100
AcDbEntity
  8
0
  6
CONTINUOUS
 62
               7
100
AcDbLine
 10
-17.559999999999999
 20
-26.300000000000001
 30
0.0
 11
-17.559999999999999
 21
-30.300000000000001
 31
0.0
  0
LINE
  5
212
100
AcDbEntity
  8
0
  6
CONTINUOUS
 62
               7
100
AcDbLine
 10
-15.06
 20
-26.300000000000001
 30
0.0
 11
-15.06
 21
-30.300000000000001
 31
0.0
  0
LINE
  5
213
100
AcDbEntity
  8
0
  6
CONTINUOUS
 62
               7
100
AcDbLine
 10
-14.32
 20
-31.0
 30
0.0
 11
-14.32
 21
-27.0
 31
0.0
  0
LINE
  5
214
100
AcDbEntity
  8
0
  6
CONTINUOUS
 62
               7
100
AcDbLine
 10
-15.06
 20
-30.300000000000001
 30
0.0
 11
-14.32
 21
-31.0
 31
0.0
  0
LINE
  5
215
100
AcDbEntity
  8
0
  6
CONTINUOUS
 62
               7
100
AcDbLine
 10
-15.06
 20
-26.300000000000001
 30
0.0
 11
-14.32
 21
-27.0
 31
0.0
  0
LINE
  5
216
100
AcDbEntity
  8
0
  6
CONTINUOUS
 62
               7
100
AcDbLine
 10
-11.58
 20
-30.300000000000001
 30
0.0
 11
-11.380000000000001
 21
-31.0
 31
0.0
  0
LINE
  5
217
100
AcDbEntity
  8
0
  6
CONTINUOUS
 62
               7
100
AcDbLine
 10
-11.58
 20
-26.300000000000001
 30
0.0
 11
-11.58
 21
-30.300000000000001
 31
0.0
  0
LINE
  5
218
100
AcDbEntity
  8
0
  6
CONTINUOUS
 62
               7
100
AcDbLine
 10
-7.25
 20
-26.300000000000001
 30
0.0
 11
-7.25
 21
-30.300000000000001
 31
0.0
  0
LINE
  5
219
100
AcDbEntity
  8
0
  6
CONTINUOUS
 62
               7
100
AcDbLine
 10
-6.71
 20
-27.0
 30
0.0
 11
-6.71
 21
-31.0
 31
0.0
  0
LINE
  5
21A
100
AcDbEntity
  8
0
  6
CONTINUOUS
 62
               7
100
AcDbLine
 10
-2.6899999999999999
 20
-27.0
 30
0.0
 11
-2.6899999999999999
 21
-31.0
 31
0.0
  0
LINE
  5
21B
100
AcDbEntity
  8
0
  6
CONTINUOUS
 62
               7
100
AcDbLine
 10
-7.25
 20
-30.300000000000001
 30
0.0
 11
-6.71
 21
-31.0
 31
0.0
  0
LINE
  5
21C
100
AcDbEntity
  8
0
  6
CONTINUOUS
 62
               7
100
AcDbLine
 10
-7.25
 20
-26.300000000000001
 30
0.0
 11
-6.71
 21
-27.0
 31
0.0
  0
LINE
  5
21D
100
AcDbEntity
  8
0
  6
CONTINUOUS
 62
               7
100
AcDbLine
 10
-2.5
 20
-30.300000000000001
 30
0.0
 11
-2.6899999999999999
 21
-31.0
 31
0.0
  0
LINE
  5
21E
100
AcDbEntity
  8
0
  6
CONTINUOUS
 62
               7
100
AcDbLine
 10
-2.5
 20
-26.300000000000001
 30
0.0
 11
-2.6899999999999999
 21
-27.0
 31
0.0
  0
LINE
  5
21F
100
AcDbEntity
  8
0
  6
CONTINUOUS
 62
               7
100
AcDbLine
 10
-2.5
 20
-26.300000000000001
 30
0.0
 11
-2.5
 21
-30.300000000000001
 31
0.0
  0
LINE
  5
220
100
AcDbEntity
  8
0
  6
CONTINUOUS
 62
               7
100
AcDbLine
 10
-18.100000000000001
 20
-27.0
 30
0.0
 11
-17.559999999999999
 21
-27.0
 31
0.0
  0
LINE
  5
221
100
AcDbEntity
  8
0
  6
CONTINUOUS
 62
               7
100
AcDbLine
 10
19.0
 20
-30.300000000000001
 30
0.0
 11
18.0
 21
-31.300000000000001
 31
0.0
  0
LINE
  5
222
100
AcDbEntity
  8
0
  6
CONTINUOUS
 62
               7
100
AcDbLine
 10
-19.0
 20
-30.300000000000001
 30
0.0
 11
-18.0
 21
-31.300000000000001
 31
0.0
  0
LINE
  5
223
100
AcDbEntity
  8
0
  6
CONTINUOUS
 62
               7
100
AcDbLine
 10
-19.0
 20
-26.300000000000001
 30
0.0
 11
-18.989999999999998
 21
-26.300000000000001
 31
0.0
  0
LINE
  5
224
100
AcDbEntity
  8
0
  6
CONTINUOUS
 62
               7
100
AcDbLine
 10
-19.0
 20
-30.300000000000001
 30
0.0
 11
-18.829999999999998
 21
-30.300000000000001
 31
0.0
  0
LINE
  5
225
100
AcDbEntity
  8
0
  6
CONTINUOUS
 62
               7
100
AcDbLine
 10
-19.0
 20
-24.300000000000001
 30
0.0
 11
-19.0
 21
-30.300000000000001
 31
0.0
  0
LINE
  5
226
100
AcDbEntity
  8
0
  6
CONTINUOUS
 62
               7
100
AcDbLine
 10
19.0
 20
-24.300000000000001
 30
0.0
 11
19.0
 21
-30.300000000000001
 31
0.0
  0
LINE
  5
227
100
AcDbEntity
  8
0
  6
CONTINUOUS
 62
               7
100
AcDbLine
 10
-18.0
 20
-31.300000000000001
 30
0.0
 11
18.0
 21
-31.300000000000001
 31
0.0
  0
LINE
  5
228
100
AcDbEntity
  8
0
  6
CONTINUOUS
 62
               7
100
AcDbLine
 10
19.0
 20
-22.0
 30
0.0
 11
19.5
 21
-21.489999999999998
 31
0.0
  0
LINE
  5
229
100
AcDbEntity
  8
0
  6
CONTINUOUS
 62
               7
100
AcDbLine
 10
-19.5
 20
-21.5
 30
0.0
 11
-18.989999999999998
 21
-22.0
 31
0.0
  0
LINE
  5
22A
100
AcDbEntity
  8
0
  6
CONTINUOUS
 62
               7
100
AcDbLine
 10
19.5
 20
-21.489999999999998
 30
0.0
 11
19.719999999999999
 21
-9.2699999999999996
 31
0.0
  0
LINE
  5
22B
100
AcDbEntity
  8
0
  6
CONTINUOUS
 62
               7
100
AcDbLine
 10
-19.5
 20
-21.5
 30
0.0
 11
-19.719999999999999
 21
-9.2699999999999996
 31
0.0
  0
LINE
  5
22C
100
AcDbEntity
  8
0
  6
CONTINUOUS
 62
               7
100
AcDbLine
 10
-2.7000000000000002
 20
-21.5
 30
0.0
 11
-19.5
 21
-21.5
 31
0.0
  0
LINE
  5
22D
100
AcDbEntity
  8
0
  6
CONTINUOUS
 62
               7
100
AcDbLine
 10
-2.7000000000000002
 20
-19.5
 30
0.0
 11
2.7000000000000002
 21
-19.5
 31
0.0
  0
LINE
  5
22E
100
AcDbEntity
  8
0
  6
CONTINUOUS
 62
               7
100
AcDbLine
 10
-2.7000000000000002
 20
-19.5
 30
0.0
 11
-2.7000000000000002
 21
-22.0
 31
0.0
  0
LINE
  5
22F
100
AcDbEntity
  8
0
  6
CONTINUOUS
 62
               7
100
AcDbLine
 10
2.7000000000000002
 20
-19.5
 30
0.0
 11
2.7000000000000002
 21
-22.0
 31
0.0
  0
LINE
  5
230
100
AcDbEntity
  8
0
  6
CONTINUOUS
 62
               7
100
AcDbLine
 10
19.5
 20
-21.5
 30
0.0
 11
2.7000000000000002
 21
-21.5
 31
0.0
  0
LINE
  5
231
100
AcDbEntity
  8
0
  6
CONTINUOUS
 62
               7
100
AcDbLine
 10
-19.0
 20
-24.300000000000001
 30
0.0
 11
19.0
 21
-24.300000000000001
 31
0.0
  0
LINE
  5
232
100
AcDbEntity
  8
0
  6
CONTINUOUS
 62
               7
100
AcDbLine
 10
-11.640000000000001
 20
24.0
 30
0.0
 11
-7.7699999999999996
 21
24.0
 31
0.0
  0
LINE
  5
233
100
AcDbEntity
  8
0
  6
CONTINUOUS
 62
               7
100
AcDbLine
 10
-11.050000000000001
 20
24.699999999999999
 30
0.0
 11
-13.0
 21
24.699999999999999
 31
0.0
  0
LINE
  5
234
100
AcDbEntity
  8
0
  6
CONTINUOUS
 62
               7
100
AcDbLine
 10
-13.73
 20
24.0
 30
0.0
 11
-14.0
 21
24.0
 31
0.0
  0
LINE
  5
235
100
AcDbEntity
  8
0
  6
CONTINUOUS
 62
               7
100
AcDbLine
 10
-13.73
 20
24.0
 30
0.0
 11
-13.73
 21
18.0
 31
0.0
  0
LINE
  5
236
100
AcDbEntity
  8
0
  6
CONTINUOUS
 62
               7
100
AcDbLine
 10
-13.039999999999999
 20
24.699999999999999
 30
0.0
 11
-13.73
 21
24.0
 31
0.0
  0
LINE
  5
237
100
AcDbEntity
  8
0
  6
CONTINUOUS
 62
               7
100
AcDbLine
 10
-13.039999999999999
 20
18.399999999999999
 30
0.0
 11
-13.73
 21
18.0
 31
0.0
  0
LINE
  5
238
100
AcDbEntity
  8
0
  6
CONTINUOUS
 62
               7
100
AcDbLine
 10
-13.039999999999999
 20
24.699999999999999
 30
0.0
 11
-13.039999999999999
 21
18.399999999999999
 31
0.0
  0
LINE
  5
239
100
AcDbEntity
  8
0
  6
CONTINUOUS
 62
               7
100
AcDbLine
 10
-13.73
 20
18.0
 30
0.0
 11
-11.640000000000001
 21
18.0
 31
0.0
  0
LINE
  5
23A
100
AcDbEntity
  8
0
  6
CONTINUOUS
 62
               7
100
AcDbLine
 10
-11.640000000000001
 20
18.399999999999999
 30
0.0
 11
-13.039999999999999
 21
18.399999999999999
 31
0.0
  0
LINE
  5
23B
100
AcDbEntity
  8
0
  6
CONTINUOUS
 62
               7
100
AcDbLine
 10
-11.640000000000001
 20
24.0
 30
0.0
 11
-11.640000000000001
 21
18.0
 31
0.0
  0
LINE
  5
23C
100
AcDbEntity
  8
0
  6
CONTINUOUS
 62
               7
100
AcDbLine
 10
-11.050000000000001
 20
24.699999999999999
 30
0.0
 11
-11.640000000000001
 21
24.0
 31
0.0
  0
LINE
  5
23D
100
AcDbEntity
  8
0
  6
CONTINUOUS
 62
               7
100
AcDbLine
 10
13.039999999999999
 20
24.699999999999999
 30
0.0
 11
13.73
 21
24.0
 31
0.0
  0
LINE
  5
23E
100
AcDbEntity
  8
0
  6
CONTINUOUS
 62
               7
100
AcDbLine
 10
-7.3799999999999999
 20
24.699999999999999
 30
0.0
 11
-7.7699999999999996
 21
24.0
 31
0.0
  0
LINE
  5
23F
100
AcDbEntity
  8
0
  6
CONTINUOUS
 62
               7
100
AcDbLine
 10
2.73
 20
24.699999999999999
 30
0.0
 11
2.5899999999999999
 21
24.0
 31
0.0
  0
LINE
  5
240
100
AcDbEntity
  8
0
  6
CONTINUOUS
 62
               7
100
AcDbLine
 10
-2.5899999999999999
 20
24.0
 30
0.0
 11
-2.6899999999999999
 21
24.699999999999999
 31
0.0
  0
LINE
  5
241
100
AcDbEntity
  8
0
  6
CONTINUOUS
 62
               7
100
AcDbLine
 10
-2.73
 20
24.699999999999999
 30
0.0
 11
-7.3799999999999999
 21
24.699999999999999
 31
0.0
  0
LINE
  5
242
100
AcDbEntity
  8
0
  6
CONTINUOUS
 62
               7
100
AcDbLine
 10
7.3799999999999999
 20
24.699999999999999
 30
0.0
 11
2.73
 21
24.699999999999999
 31
0.0
  0
LINE
  5
243
100
AcDbEntity
  8
0
  6
CONTINUOUS
 62
               7
100
AcDbLine
 10
7.7699999999999996
 20
24.0
 30
0.0
 11
7.3799999999999999
 21
24.699999999999999
 31
0.0
  0
LINE
  5
244
100
AcDbEntity
  8
0
  6
CONTINUOUS
 62
               7
100
AcDbLine
 10
11.050000000000001
 20
24.699999999999999
 30
0.0
 11
11.640000000000001
 21
24.0
 31
0.0
  0
LINE
  5
245
100
AcDbEntity
  8
0
  6
CONTINUOUS
 62
               7
100
AcDbLine
 10
13.0
 20
24.699999999999999
 30
0.0
 11
11.050000000000001
 21
24.699999999999999
 31
0.0
  0
LINE
  5
246
100
AcDbEntity
  8
0
  6
CONTINUOUS
 62
               7
100
AcDbLine
 10
13.039999999999999
 20
18.399999999999999
 30
0.0
 11
13.73
 21
18.0
 31
0.0
  0
LINE
  5
247
100
AcDbEntity
  8
0
  6
CONTINUOUS
 62
               7
100
AcDbLine
 10
13.73
 20
24.0
 30
0.0
 11
14.0
 21
24.0
 31
0.0
  0
LINE
  5
248
100
AcDbEntity
  8
0
  6
CONTINUOUS
 62
               7
100
AcDbLine
 10
13.73
 20
24.0
 30
0.0
 11
13.73
 21
18.0
 31
0.0
  0
LINE
  5
249
100
AcDbEntity
  8
0
  6
CONTINUOUS
 62
               7
100
AcDbLine
 10
13.039999999999999
 20
24.699999999999999
 30
0.0
 11
13.039999999999999
 21
18.399999999999999
 31
0.0
  0
LINE
  5
24A
100
AcDbEntity
  8
0
  6
CONTINUOUS
 62
               7
100
AcDbLine
 10
-7.3799999999999999
 20
18.399999999999999
 30
0.0
 11
-2.73
 21
18.399999999999999
 31
0.0
  0
LINE
  5
24B
100
AcDbEntity
  8
0
  6
CONTINUOUS
 62
               7
100
AcDbLine
 10
-7.3799999999999999
 20
18.399999999999999
 30
0.0
 11
-7.7699999999999996
 21
18.0
 31
0.0
  0
LINE
  5
24C
100
AcDbEntity
  8
0
  6
CONTINUOUS
 62
               7
100
AcDbLine
 10
-2.73
 20
18.399999999999999
 30
0.0
 11
-2.5899999999999999
 21
18.0
 31
0.0
  0
LINE
  5
24D
100
AcDbEntity
  8
0
  6
CONTINUOUS
 62
               7
100
AcDbLine
 10
2.73
 20
18.399999999999999
 30
0.0
 11
2.5899999999999999
 21
18.0
 31
0.0
  0
LINE
  5
24E
100
AcDbEntity
  8
0
  6
CONTINUOUS
 62
               7
100
AcDbLine
 10
7.3799999999999999
 20
18.399999999999999
 30
0.0
 11
7.7699999999999996
 21
18.0
 31
0.0
  0
LINE
  5
24F
100
AcDbEntity
  8
0
  6
CONTINUOUS
 62
               7
100
AcDbLine
 10
7.7699999999999996
 20
18.0
 30
0.0
 11
2.5899999999999999
 21
18.0
 31
0.0
  0
LINE
  5
250
100
AcDbEntity
  8
0
  6
CONTINUOUS
 62
               7
100
AcDbLine
 10
11.640000000000001
 20
18.399999999999999
 30
0.0
 11
13.039999999999999
 21
18.399999999999999
 31
0.0
  0
LINE
  5
251
100
AcDbEntity
  8
0
  6
CONTINUOUS
 62
               7
100
AcDbLine
 10
7.7699999999999996
 20
24.0
 30
0.0
 11
11.640000000000001
 21
24.0
 31
0.0
  0
LINE
  5
252
100
AcDbEntity
  8
0
  6
CONTINUOUS
 62
               7
100
AcDbLine
 10
2.73
 20
24.699999999999999
 30
0.0
 11
2.73
 21
18.399999999999999
 31
0.0
  0
LINE
  5
253
100
AcDbEntity
  8
0
  6
CONTINUOUS
 62
               7
100
AcDbLine
 10
2.5899999999999999
 20
24.0
 30
0.0
 11
2.5899999999999999
 21
18.0
 31
0.0
  0
LINE
  5
254
100
AcDbEntity
  8
0
  6
CONTINUOUS
 62
               7
100
AcDbLine
 10
-2.5899999999999999
 20
24.0
 30
0.0
 11
-2.5899999999999999
 21
18.0
 31
0.0
  0
LINE
  5
255
100
AcDbEntity
  8
0
  6
CONTINUOUS
 62
               7
100
AcDbLine
 10
-2.73
 20
24.699999999999999
 30
0.0
 11
-2.73
 21
18.399999999999999
 31
0.0
  0
LINE
  5
256
100
AcDbEntity
  8
0
  6
CONTINUOUS
 62
               7
100
AcDbLine
 10
-7.7699999999999996
 20
24.0
 30
0.0
 11
-7.7699999999999996
 21
18.0
 31
0.0
  0
LINE
  5
257
100
AcDbEntity
  8
0
  6
CONTINUOUS
 62
               7
100
AcDbLine
 10
-7.3799999999999999
 20
24.699999999999999
 30
0.0
 11
-7.3799999999999999
 21
18.399999999999999
 31
0.0
  0
LINE
  5
258
100
AcDbEntity
  8
0
  6
CONTINUOUS
 62
               7
100
AcDbLine
 10
11.640000000000001
 20
24.0
 30
0.0
 11
11.640000000000001
 21
18.0
 31
0.0
  0
LINE
  5
259
100
AcDbEntity
  8
0
  6
CONTINUOUS
 62
               7
100
AcDbLine
 10
7.7699999999999996
 20
24.0
 30
0.0
 11
7.7699999999999996
 21
18.0
 31
0.0
  0
LINE
  5
25A
100
AcDbEntity
  8
0
  6
CONTINUOUS
 62
               7
100
AcDbLine
 10
7.3799999999999999
 20
24.699999999999999
 30
0.0
 11
7.3799999999999999
 21
18.399999999999999
 31
0.0
  0
LINE
  5
25B
100
AcDbEntity
  8
0
  6
CONTINUOUS
 62
               7
100
AcDbLine
 10
2.73
 20
18.399999999999999
 30
0.0
 11
7.3799999999999999
 21
18.399999999999999
 31
0.0
  0
LINE
  5
25C
100
AcDbEntity
  8
0
  6
CONTINUOUS
 62
               7
100
AcDbLine
 10
-2.5899999999999999
 20
18.0
 30
0.0
 11
-7.7699999999999996
 21
18.0
 31
0.0
  0
LINE
  5
25D
100
AcDbEntity
  8
0
  6
CONTINUOUS
 62
               7
100
AcDbLine
 10
-2.5899999999999999
 20
24.0
 30
0.0
 11
2.5899999999999999
 21
24.0
 31
0.0
  0
LINE
  5
25E
100
AcDbEntity
  8
0
  6
CONTINUOUS
 62
               7
100
AcDbLine
 10
13.73
 20
18.0
 30
0.0
 11
11.640000000000001
 21
18.0
 31
0.0
  0
LINE
  5
25F
100
AcDbEntity
  8
0
  6
CONTINUOUS
 62
               7
100
AcDbLine
 10
13.0
 20
25.0
 30
0.0
 11
14.0
 21
24.0
 31
0.0
  0
LINE
  5
260
100
AcDbEntity
  8
0
  6
CONTINUOUS
 62
               7
100
AcDbLine
 10
-14.0
 20
24.0
 30
0.0
 11
-13.0
 21
25.0
 31
0.0
  0
LINE
  5
261
100
AcDbEntity
  8
0
  6
CONTINUOUS
 62
               7
100
AcDbLine
 10
13.0
 20
25.0
 30
0.0
 11
-13.0
 21
25.0
 31
0.0
  0
LINE
  5
262
100
AcDbEntity
  8
0
  6
CONTINUOUS
 62
               7
100
AcDbLine
 10
14.0
 20
16.0
 30
0.0
 11
-14.0
 21
16.0
 31
0.0
  0
LINE
  5
263
100
AcDbEntity
  8
0
  6
CENTER
 62
               2
100
AcDbLine
 10
0.0
 20
29.449999999999999
 30
0.0
 11
0.0
 21
-62.530000000000001
 31
0.0
  0
LINE
  5
264
100
AcDbEntity
  8
0
  6
CONTINUOUS
 62
               7
100
AcDbLine
 10
19.0
 20
10.0
 30
0.0
 11
19.0
 21
-10.0
 31
0.0
  0
LINE
  5
265
100
AcDbEntity
  8
0
  6
CONTINUOUS
 62
               7
100
AcDbLine
 10
-19.0
 20
10.0
 30
0.0
 11
-19.0
 21
-10.0
 31
0.0
  0
LINE
  5
266
100
AcDbEntity
  8
0
  6
CONTINUOUS
 62
               7
100
AcDbLine
 10
-16.0
 20
-10.0
 30
0.0
 11
-19.0
 21
-10.0
 31
0.0
  0
LINE
  5
267
100
AcDbEntity
  8
0
  6
CONTINUOUS
 62
               7
100
AcDbLine
 10
-16.0
 20
10.0
 30
0.0
 11
-19.0
 21
10.0
 31
0.0
  0
LINE
  5
268
100
AcDbEntity
  8
0
  6
CONTINUOUS
 62
               7
100
AcDbLine
 10
19.0
 20
-10.0
 30
0.0
 11
20.0
 21
-9.0
 31
0.0
  0
LINE
  5
269
100
AcDbEntity
  8
0
  6
CONTINUOUS
 62
               7
100
AcDbLine
 10
19.0
 20
10.0
 30
0.0
 11
20.0
 21
9.0
 31
0.0
  0
LINE
  5
26A
100
AcDbEntity
  8
0
  6
CONTINUOUS
 62
               7
100
AcDbLine
 10
-20.0
 20
-9.0
 30
0.0
 11
-19.0
 21
-10.0
 31
0.0
  0
LINE
  5
26B
100
AcDbEntity
  8
0
  6
CONTINUOUS
 62
               7
100
AcDbLine
 10
-19.0
 20
10.0
 30
0.0
 11
-20.0
 21
9.0
 31
0.0
  0
LINE
  5
26C
100
AcDbEntity
  8
0
  6
CONTINUOUS
 62
               7
100
AcDbLine
 10
19.0
 20
10.0
 30
0.0
 11
16.0
 21
10.0
 31
0.0
  0
LINE
  5
26D
100
AcDbEntity
  8
0
  6
CONTINUOUS
 62
               7
100
AcDbLine
 10
19.0
 20
-10.0
 30
0.0
 11
16.0
 21
-10.0
 31
0.0
  0
LINE
  5
26E
100
AcDbEntity
  8
0
  6
CONTINUOUS
 62
               7
100
AcDbLine
 10
-20.0
 20
9.0
 30
0.0
 11
-20.0
 21
-9.0
 31
0.0
  0
LINE
  5
26F
100
AcDbEntity
  8
0
  6
CONTINUOUS
 62
               7
100
AcDbLine
 10
20.0
 20
9.0
 30
0.0
 11
20.0
 21
-9.0
 31
0.0
  0
LINE
  5
270
100
AcDbEntity
  8
0
  6
CONTINUOUS
 62
               7
100
AcDbLine
 10
14.0
 20
-12.0
 30
0.0
 11
14.0
 21
24.0
 31
0.0
  0
LINE
  5
271
100
AcDbEntity
  8
0
  6
CONTINUOUS
 62
               7
100
AcDbLine
 10
-15.0
 20
-11.0
 30
0.0
 11
15.0
 21
-11.0
 31
0.0
  0
LINE
  5
272
100
AcDbEntity
  8
0
  6
CONTINUOUS
 62
               7
100
AcDbLine
 10
-14.0
 20
24.0
 30
0.0
 11
-14.0
 21
-12.0
 31
0.0
  0
LINE
  5
273
100
AcDbEntity
  8
0
  6
CONTINUOUS
 62
               7
100
AcDbLine
 10
-15.0
 20
11.0
 30
0.0
 11
15.0
 21
11.0
 31
0.0
  0
LINE
  5
274
100
AcDbEntity
  8
0
  6
CONTINUOUS
 62
               7
100
AcDbLine
 10
15.0
 20
11.0
 30
0.0
 11
14.0
 21
12.0
 31
0.0
  0
LINE
  5
275
100
AcDbEntity
  8
0
  6
CONTINUOUS
 62
               7
100
AcDbLine
 10
14.0
 20
-12.0
 30
0.0
 11
15.0
 21
-11.0
 31
0.0
  0
LINE
  5
276
100
AcDbEntity
  8
0
  6
CONTINUOUS
 62
               7
100
AcDbLine
 10
-15.0
 20
-11.0
 30
0.0
 11
-14.0
 21
-12.0
 31
0.0
  0
LINE
  5
277
100
AcDbEntity
  8
0
  6
CONTINUOUS
 62
               7
100
AcDbLine
 10
-14.0
 20
12.0
 30
0.0
 11
-15.0
 21
11.0
 31
0.0
  0
LINE
  5
278
100
AcDbEntity
  8
0
  6
CONTINUOUS
 62
               7
100
AcDbLine
 10
14.0
 20
12.0
 30
0.0
 11
-14.0
 21
12.0
 31
0.0
  0
LINE
  5
279
100
AcDbEntity
  8
0
  6
CONTINUOUS
 62
               7
100
AcDbLine
 10
14.0
 20
-12.0
 30
0.0
 11
-14.0
 21
-12.0
 31
0.0
  0
LINE
  5
27A
100
AcDbEntity
  8
0
  6
CONTINUOUS
 62
               7
100
AcDbLine
 10
15.0
 20
11.0
 30
0.0
 11
15.0
 21
-11.0
 31
0.0
  0
LINE
  5
27B
100
AcDbEntity
  8
0
  6
CONTINUOUS
 62
               7
100
AcDbLine
 10
-15.0
 20
11.0
 30
0.0
 11
-15.0
 21
-11.0
 31
0.0
  0
LINE
  5
27C
100
AcDbEntity
  8
0
  6
CENTER
 62
               2
100
AcDbLine
 10
23.079999999999998
 20
0.0
 30
0.0
 11
-63.539999999999999
 21
0.0
 31
0.0
  0
ENDBLK
  5
27D
100
AcDbEntity
  8
0
100
AcDbBlockEnd
  0
BLOCK
  5
27E
100
AcDbEntity
  8
0
100
AcDbBlockBegin
  2
MS_3
 70
               0
 10
0.0
 20
0.0
 30
0.0
  3
MS_3
  1

  0
ARC
  5
27F
100
AcDbEntity
  8
0
  6
CONTINUOUS
 62
               7
100
AcDbCircle
 10
12.757276882273777
 20
24.995000000000001
 30
0.0
 40
7.6387879280330822
100
AcDbArc
 50
342.43729095387931
 51
17.562709046119863
  0
ARC
  5
280
100
AcDbEntity
  8
0
  6
CONTINUOUS
 62
               7
100
AcDbCircle
 10
18.353809107139615
 20
28.459162690887709
 30
0.0
 40
2.0461910641754177
100
AcDbArc
 50
325.49363555207168
 51
0.0234456500475237
  0
ARC
  5
281
100
AcDbEntity
  8
0
  6
CONTINUOUS
 62
               7
100
AcDbCircle
 10
19.950276109543498
 20
28.445816067534683
 30
0.0
 40
2.0503251716020578
100
AcDbArc
 50
179.60363070177365
 51
213.97603004059522
  0
ARC
  5
282
100
AcDbEntity
  8
0
  6
CONTINUOUS
 62
               7
100
AcDbCircle
 10
18.356637282566226
 20
21.53171501872745
 30
0.0
 40
2.0433634371514957
100
AcDbArc
 50
359.95191097940744
 51
34.531007818471629
  0
ARC
  5
283
100
AcDbEntity
  8
0
  6
CONTINUOUS
 62
               7
100
AcDbCircle
 10
19.947453724853005
 20
21.545035514052969
 30
0.0
 40
2.0475089308956114
100
AcDbArc
 50
145.99959421099513
 51
180.42074504663447
  0
ARC
  5
284
100
AcDbEntity
  8
0
  6
CONTINUOUS
 62
               7
100
AcDbCircle
 10
25.542741426519498
 20
24.995000000000001
 30
0.0
 40
7.6483398534632094
100
AcDbArc
 50
162.4599372069693
 51
197.5400627930299
  0
ARC
  5
285
100
AcDbEntity
  8
0
  6
CONTINUOUS
 62
               7
100
AcDbCircle
 10
22.000000000155222
 20
-36.500000000155218
 30
0.0
 40
3.0000000001552207
100
AcDbArc
 50
90.000000002964313
 51
179.99999999703516
  0
ARC
  5
286
100
AcDbEntity
  8
0
  6
CONTINUOUS
 62
               7
100
AcDbCircle
 10
58.000007629384832
 20
-36.499992370615168
 30
0.0
 40
2.999992370624871
100
AcDbArc
 50
359.99985428911162
 51
90.000145710887395
  0
ARC
  5
287
100
AcDbEntity
  8
0
  6
CONTINUOUS
 62
               7
100
AcDbCircle
 10
27.996473859306754
 20
0.0009320397951704
 30
0.0
 40
18.499743195212353
100
AcDbArc
 50
234.18125966552333
 51
276.21733959452609
  0
ARC
  5
288
100
AcDbEntity
  8
0
  6
CONTINUOUS
 62
               7
100
AcDbCircle
 10
27.990471626110747
 20
0.002801099471295
 30
0.0
 40
19.496109471966093
100
AcDbArc
 50
230.31151782616962
 51
276.95129663369198
  0
ARC
  5
289
100
AcDbEntity
  8
0
  6
CONTINUOUS
 62
               7
100
AcDbCircle
 10
27.996473859306754
 20
-0.0009320397951704
 30
0.0
 40
18.499743195212353
100
AcDbArc
 50
83.782660405473109
 51
125.81874033447588
  0
ARC
  5
28A
100
AcDbEntity
  8
0
  6
CONTINUOUS
 62
               7
100
AcDbCircle
 10
27.990471626110747
 20
-0.002801099471295
 30
0.0
 40
19.496109471966093
100
AcDbArc
 50
83.048703366307194
 51
129.68848217382958
  0
CIRCLE
  5
28B
100
AcDbEntity
  8
0
  6
CONTINUOUS
 62
               7
100
AcDbCircle
 10
28.0
 20
0.0
 30
0.0
 40
4.25
  0
CIRCLE
  5
28C
100
AcDbEntity
  8
0
  6
CONTINUOUS
 62
               7
100
AcDbCircle
 10
28.0
 20
0.0
 30
0.0
 40
10.0
  0
CIRCLE
  5
28D
100
AcDbEntity
  8
0
  6
CONTINUOUS
 62
               7
100
AcDbCircle
 10
28.0
 20
0.0
 30
0.0
 40
12.0
  0
CIRCLE
  5
28E
100
AcDbEntity
  8
0
  6
CONTINUOUS
 62
               7
100
AcDbCircle
 10
28.0
 20
0.0
 30
0.0
 40
13.000000953674316
  0
ARC
  5
28F
100
AcDbEntity
  8
0
  6
CONTINUOUS
 62
               7
100
AcDbCircle
 10
28.009030239013306
 20
-0.0217543014127717
 30
0.0
 40
13.292602476511851
100
AcDbArc
 50
11.815278379572201
 51
33.371260327836453
  0
ARC
  5
290
100
AcDbEntity
  8
0
  6
CONTINUOUS
 62
               7
100
AcDbCircle
 10
28.009030239013306
 20
0.0217543014127717
 30
0.0
 40
13.292602476511851
100
AcDbArc
 50
326.62873967216274
 51
348.18472162042701
  0
ARC
  5
291
100
AcDbEntity
  8
0
  6
CONTINUOUS
 62
               7
100
AcDbCircle
 10
27.978245698587234
 20
-0.0090302390133061
 30
0.0
 40
13.292602476511849
100
AcDbArc
 50
281.81527837957157
 51
303.37126032783584
  0
ARC
  5
292
100
AcDbEntity
  8
0
  6
CONTINUOUS
 62
               7
100
AcDbCircle
 10
28.013225331859203
 20
-0.0054951449037972
 30
0.0
 40
13.296363895118178
100
AcDbArc
 50
236.6318251307564
 51
258.18163616183375
  0
ARC
  5
293
100
AcDbEntity
  8
0
  6
CONTINUOUS
 62
               7
100
AcDbCircle
 10
27.989500426543685
 20
0.0253040990628346
 30
0.0
 40
13.301679359732733
100
AcDbArc
 50
191.82272103781349
 51
213.36381766959423
  0
ARC
  5
294
100
AcDbEntity
  8
0
  6
CONTINUOUS
 62
               7
100
AcDbCircle
 10
27.989500426543685
 20
-0.0253040990628346
 30
0.0
 40
13.301679359732733
100
AcDbArc
 50
146.63618233040495
 51
168.17727896218571
  0
ARC
  5
295
100
AcDbEntity
  8
0
  6
CONTINUOUS
 62
               7
100
AcDbCircle
 10
28.013225331859203
 20
0.0054951449037972
 30
0.0
 40
13.296363895118178
100
AcDbArc
 50
101.81836383816542
 51
123.36817486924279
  0
ARC
  5
296
100
AcDbEntity
  8
0
  6
CONTINUOUS
 62
               7
100
AcDbCircle
 10
27.978245698587234
 20
0.0090302390133061
 30
0.0
 40
13.292602476511849
100
AcDbArc
 50
56.62873967216337
 51
78.184721620427624
  0
ARC
  5
297
100
AcDbEntity
  8
0
  6
CONTINUOUS
 62
               7
100
AcDbCircle
 10
29.000015258672647
 20
-15.999984741327353
 30
0.0
 40
0.9999847414437681
100
AcDbArc
 50
359.99912572911541
 51
90.000874270883614
  0
ARC
  5
298
100
AcDbEntity
  8
0
  6
CONTINUOUS
 62
               7
100
AcDbCircle
 10
50.999992370867403
 20
-15.999992370867403
 30
0.0
 40
0.9999923708965053
100
AcDbArc
 50
89.999562879565815
 51
180.00043712043356
  0
ARC
  5
299
100
AcDbEntity
  8
0
  6
CONTINUOUS
 62
               7
100
AcDbCircle
 10
51.000022888212698
 20
16.000022888212698
 30
0.0
 40
1.0000228884746267
100
AcDbArc
 50
180.00131136797268
 51
269.9986886320263
  0
ARC
  5
29A
100
AcDbEntity
  8
0
  6
CONTINUOUS
 62
               7
100
AcDbCircle
 10
28.999984741094522
 20
16.000015258905478
 30
0.0
 40
1.0000152590218931
100
AcDbArc
 50
270.00087425754293
 51
359.99912574245559
  0
CIRCLE
  5
29B
100
AcDbEntity
  8
0
  6
CONTINUOUS
 62
               7
100
AcDbCircle
 10
28.0
 20
0.0
 30
0.0
 40
14.0
  0
LINE
  5
29C
100
AcDbEntity
  8
0
  6
CENTER
 62
               2
100
AcDbLine
 10
33.729999999999997
 20
25.0
 30
0.0
 11
7.3300000000000001
 21
25.0
 31
0.0
  0
LINE
  5
29D
100
AcDbEntity
  8
0
  6
CONTINUOUS
 62
               7
100
AcDbLine
 10
24.25
 20
21.0
 30
0.0
 11
24.25
 21
19.129999999999999
 31
0.0
  0
LINE
  5
29E
100
AcDbEntity
  8
0
  6
CONTINUOUS
 62
               7
100
AcDbLine
 10
31.75
 20
21.0
 30
0.0
 11
31.75
 21
20.0
 31
0.0
  0
LINE
  5
29F
100
AcDbEntity
  8
0
  6
CONTINUOUS
 62
               7
100
AcDbLine
 10
32.5
 20
29.0
 30
0.0
 11
32.5
 21
21.0
 31
0.0
  0
LINE
  5
2A0
100
AcDbEntity
  8
0
  6
CONTINUOUS
 62
               7
100
AcDbLine
 10
32.5
 20
21.0
 30
0.0
 11
22.0
 21
21.0
 31
0.0
  0
LINE
  5
2A1
100
AcDbEntity
  8
0
  6
CONTINUOUS
 62
               7
100
AcDbLine
 10
32.5
 20
29.0
 30
0.0
 11
22.0
 21
29.0
 31
0.0
  0
LINE
  5
2A2
100
AcDbEntity
  8
0
  6
CONTINUOUS
 62
               7
100
AcDbLine
 10
22.0
 20
29.0
 30
0.0
 11
22.0
 21
21.0
 31
0.0
  0
LINE
  5
2A3
100
AcDbEntity
  8
0
  6
CONTINUOUS
 62
               7
100
AcDbLine
 10
10.4
 20
22.760000000000002
 30
0.0
 11
8.9000000000000004
 21
23.02
 31
0.0
  0
LINE
  5
2A4
100
AcDbEntity
  8
0
  6
CONTINUOUS
 62
               7
100
AcDbLine
 10
8.9000000000000004
 20
26.969999999999999
 30
0.0
 11
8.9000000000000004
 21
23.02
 31
0.0
  0
LINE
  5
2A5
100
AcDbEntity
  8
0
  6
CONTINUOUS
 62
               7
100
AcDbLine
 10
10.4
 20
27.23
 30
0.0
 11
8.9000000000000004
 21
26.969999999999999
 31
0.0
  0
LINE
  5
2A6
100
AcDbEntity
  8
0
  6
CONTINUOUS
 62
               7
100
AcDbLine
 10
22.0
 20
29.0
 30
0.0
 11
20.399999999999999
 21
29.0
 31
0.0
  0
LINE
  5
2A7
100
AcDbEntity
  8
0
  6
CONTINUOUS
 62
               7
100
AcDbLine
 10
22.0
 20
21.0
 30
0.0
 11
20.399999999999999
 21
21.0
 31
0.0
  0
LINE
  5
2A8
100
AcDbEntity
  8
0
  6
CONTINUOUS
 62
               7
100
AcDbLine
 10
21.399999999999999
 20
29.0
 30
0.0
 11
21.399999999999999
 21
21.0
 31
0.0
  0
LINE
  5
2A9
100
AcDbEntity
  8
0
  6
CONTINUOUS
 62
               7
100
AcDbLine
 10
20.039999999999999
 20
29.609999999999999
 30
0.0
 11
18.25
 21
29.609999999999999
 31
0.0
  0
LINE
  5
2AA
100
AcDbEntity
  8
0
  6
CONTINUOUS
 62
               7
100
AcDbLine
 10
20.039999999999999
 20
29.609999999999999
 30
0.0
 11
20.399999999999999
 21
29.0
 31
0.0
  0
LINE
  5
2AB
100
AcDbEntity
  8
0
  6
CONTINUOUS
 62
               7
100
AcDbLine
 10
18.25
 20
29.609999999999999
 30
0.0
 11
17.899999999999999
 21
29.0
 31
0.0
  0
LINE
  5
2AC
100
AcDbEntity
  8
0
  6
CONTINUOUS
 62
               7
100
AcDbLine
 10
20.039999999999999
 20
20.379999999999999
 30
0.0
 11
20.399999999999999
 21
21.0
 31
0.0
  0
LINE
  5
2AD
100
AcDbEntity
  8
0
  6
CONTINUOUS
 62
               7
100
AcDbLine
 10
20.039999999999999
 20
27.300000000000001
 30
0.0
 11
18.25
 21
27.300000000000001
 31
0.0
  0
LINE
  5
2AE
100
AcDbEntity
  8
0
  6
CONTINUOUS
 62
               7
100
AcDbLine
 10
20.039999999999999
 20
22.690000000000001
 30
0.0
 11
18.25
 21
22.690000000000001
 31
0.0
  0
LINE
  5
2AF
100
AcDbEntity
  8
0
  6
CONTINUOUS
 62
               7
100
AcDbLine
 10
20.039999999999999
 20
20.379999999999999
 30
0.0
 11
18.25
 21
20.379999999999999
 31
0.0
  0
LINE
  5
2B0
100
AcDbEntity
  8
0
  6
CONTINUOUS
 62
               7
100
AcDbLine
 10
18.25
 20
20.379999999999999
 30
0.0
 11
17.899999999999999
 21
21.0
 31
0.0
  0
LINE
  5
2B1
100
AcDbEntity
  8
0
  6
CONTINUOUS
 62
               7
100
AcDbLine
 10
20.399999999999999
 20
29.0
 30
0.0
 11
20.399999999999999
 21
21.0
 31
0.0
  0
LINE
  5
2B2
100
AcDbEntity
  8
0
  6
CONTINUOUS
 62
               7
100
AcDbLine
 10
17.899999999999999
 20
20.5
 30
0.0
 11
10.4
 21
20.5
 31
0.0
  0
LINE
  5
2B3
100
AcDbEntity
  8
0
  6
CONTINUOUS
 62
               7
100
AcDbLine
 10
17.899999999999999
 20
29.5
 30
0.0
 11
10.4
 21
29.5
 31
0.0
  0
LINE
  5
2B4
100
AcDbEntity
  8
0
  6
CONTINUOUS
 62
               7
100
AcDbLine
 10
10.4
 20
29.5
 30
0.0
 11
10.4
 21
20.5
 31
0.0
  0
LINE
  5
2B5
100
AcDbEntity
  8
0
  6
CONTINUOUS
 62
               7
100
AcDbLine
 10
17.899999999999999
 20
29.5
 30
0.0
 11
17.899999999999999
 21
20.5
 31
0.0
  0
LINE
  5
2B6
100
AcDbEntity
  8
0
  6
CONTINUOUS
 62
               7
100
AcDbLine
 10
33.390000000000001
 20
20.969999999999999
 30
0.0
 11
46.600000000000001
 21
20.969999999999999
 31
0.0
  0
LINE
  5
2B7
100
AcDbEntity
  8
0
  6
CONTINUOUS
 62
               7
100
AcDbLine
 10
46.600000000000001
 20
20.969999999999999
 30
0.0
 11
46.57
 21
20.0
 31
0.0
  0
LINE
  5
2B8
100
AcDbEntity
  8
0
  6
CONTINUOUS
 62
               2
100
AcDbLine
 10
45.759999999999998
 20
21.449999999999999
 30
0.0
 11
45.719999999999999
 21
20.0
 31
0.0
  0
LINE
  5
2B9
100
AcDbEntity
  8
0
  6
CONTINUOUS
 62
               2
100
AcDbLine
 10
34.270000000000003
 20
20.0
 30
0.0
 11
34.229999999999997
 21
21.449999999999999
 31
0.0
  0
LINE
  5
2BA
100
AcDbEntity
  8
0
  6
CONTINUOUS
 62
               7
100
AcDbLine
 10
33.390000000000001
 20
20.969999999999999
 30
0.0
 11
33.420000000000002
 21
20.0
 31
0.0
  0
LINE
  5
2BB
100
AcDbEntity
  8
0
  6
CONTINUOUS
 62
               7
100
AcDbLine
 10
45.390000000000001
 20
21.670000000000002
 30
0.0
 11
46.600000000000001
 21
20.969999999999999
 31
0.0
  0
LINE
  5
2BC
100
AcDbEntity
  8
0
  6
CONTINUOUS
 62
               7
100
AcDbLine
 10
33.390000000000001
 20
20.969999999999999
 30
0.0
 11
34.600000000000001
 21
21.670000000000002
 31
0.0
  0
LINE
  5
2BD
100
AcDbEntity
  8
0
  6
CONTINUOUS
 62
               7
100
AcDbLine
 10
34.600000000000001
 20
21.670000000000002
 30
0.0
 11
45.390000000000001
 21
21.670000000000002
 31
0.0
  0
LINE
  5
2BE
100
AcDbEntity
  8
0
  6
CONTINUOUS
 62
               7
100
AcDbLine
 10
18.75
 20
-59.5
 30
0.0
 11
19.25
 21
-60.0
 31
0.0
  0
LINE
  5
2BF
100
AcDbEntity
  8
0
  6
CONTINUOUS
 62
               7
100
AcDbLine
 10
18.75
 20
-59.5
 30
0.0
 11
18.75
 21
-57.0
 31
0.0
  0
LINE
  5
2C0
100
AcDbEntity
  8
0
  6
CONTINUOUS
 62
               7
100
AcDbLine
 10
47.0
 20
-33.5
 30
0.0
 11
33.0
 21
-26.0
 31
0.0
  0
LINE
  5
2C1
100
AcDbEntity
  8
0
  6
CONTINUOUS
 62
               7
100
AcDbLine
 10
47.0
 20
-26.0
 30
0.0
 11
33.0
 21
-33.5
 31
0.0
  0
LINE
  5
2C2
100
AcDbEntity
  8
0
  6
CONTINUOUS
 62
               7
100
AcDbLine
 10
33.0
 20
-26.0
 30
0.0
 11
33.0
 21
-33.5
 31
0.0
  0
LINE
  5
2C3
100
AcDbEntity
  8
0
  6
CONTINUOUS
 62
               7
100
AcDbLine
 10
47.0
 20
-26.0
 30
0.0
 11
47.0
 21
-33.5
 31
0.0
  0
LINE
  5
2C4
100
AcDbEntity
  8
0
  6
CONTINUOUS
 62
               7
100
AcDbLine
 10
18.75
 20
-57.0
 30
0.0
 11
61.25
 21
-57.0
 31
0.0
  0
LINE
  5
2C5
100
AcDbEntity
  8
0
  6
CONTINUOUS
 62
               7
100
AcDbLine
 10
22.0
 20
-33.5
 30
0.0
 11
58.0
 21
-33.5
 31
0.0
  0
LINE
  5
2C6
100
AcDbEntity
  8
0
  6
CONTINUOUS
 62
               7
100
AcDbLine
 10
18.75
 20
-59.5
 30
0.0
 11
61.25
 21
-59.5
 31
0.0
  0
LINE
  5
2C7
100
AcDbEntity
  8
0
  6
CONTINUOUS
 62
               7
100
AcDbLine
 10
61.25
 20
-59.5
 30
0.0
 11
61.25
 21
-57.0
 31
0.0
  0
LINE
  5
2C8
100
AcDbEntity
  8
0
  6
CONTINUOUS
 62
               7
100
AcDbLine
 10
19.25
 20
-60.0
 30
0.0
 11
60.75
 21
-60.0
 31
0.0
  0
LINE
  5
2C9
100
AcDbEntity
  8
0
  6
CONTINUOUS
 62
               7
100
AcDbLine
 10
19.0
 20
-57.0
 30
0.0
 11
19.0
 21
-36.5
 31
0.0
  0
LINE
  5
2CA
100
AcDbEntity
  8
0
  6
CONTINUOUS
 62
               2
100
AcDbLine
 10
45.719999999999999
 20
-20.0
 30
0.0
 11
45.909999999999997
 21
-26.0
 31
0.0
  0
LINE
  5
2CB
100
AcDbEntity
  8
0
  6
CONTINUOUS
 62
               7
100
AcDbLine
 10
33.420000000000002
 20
-20.0
 30
0.0
 11
33.229999999999997
 21
-26.0
 31
0.0
  0
LINE
  5
2CC
100
AcDbEntity
  8
0
  6
CONTINUOUS
 62
               7
100
AcDbLine
 10
33.0
 20
-26.0
 30
0.0
 11
47.0
 21
-26.0
 31
0.0
  0
LINE
  5
2CD
100
AcDbEntity
  8
0
  6
CONTINUOUS
 62
               7
100
AcDbLine
 10
46.57
 20
-20.0
 30
0.0
 11
46.759999999999998
 21
-26.0
 31
0.0
  0
LINE
  5
2CE
100
AcDbEntity
  8
0
  6
CONTINUOUS
 62
               2
100
AcDbLine
 10
34.270000000000003
 20
-20.0
 30
0.0
 11
34.090000000000003
 21
-26.0
 31
0.0
  0
LINE
  5
2CF
100
AcDbEntity
  8
0
  6
CONTINUOUS
 62
               7
100
AcDbLine
 10
61.25
 20
-59.5
 30
0.0
 11
60.75
 21
-60.0
 31
0.0
  0
LINE
  5
2D0
100
AcDbEntity
  8
0
  6
CONTINUOUS
 62
               7
100
AcDbLine
 10
61.0
 20
-57.0
 30
0.0
 11
61.0
 21
-36.5
 31
0.0
  0
LINE
  5
2D1
100
AcDbEntity
  8
0
  6
CENTER
 62
             200
100
AcDbLine
 10
46.5
 20
42.270000000000003
 30
0.0
 11
46.5
 21
33.600000000000001
 31
0.0
  0
LINE
  5
2D2
100
AcDbEntity
  8
0
  6
CENTER
 62
             200
100
AcDbLine
 10
9.5
 20
42.270000000000003
 30
0.0
 11
9.5
 21
34.600000000000001
 31
0.0
  0
LINE
  5
2D3
100
AcDbEntity
  8
0
  6
CONTINUOUS
 62
               4
100
AcDbLine
 10
50.990000000000002
 20
15.0
 30
0.0
 11
55.0
 21
37.700000000000003
 31
0.0
  0
LINE
  5
2D4
100
AcDbEntity
  8
0
  6
CONTINUOUS
 62
               4
100
AcDbLine
 10
1.0
 20
37.700000000000003
 30
0.0
 11
5.0
 21
15.0
 31
0.0
  0
LINE
  5
2D5
100
AcDbEntity
  8
0
  6
CONTINUOUS
 62
               4
100
AcDbLine
 10
55.0
 20
40.0
 30
0.0
 11
55.0
 21
37.700000000000003
 31
0.0
  0
LINE
  5
2D6
100
AcDbEntity
  8
0
  6
CONTINUOUS
 62
               4
100
AcDbLine
 10
1.0
 20
40.0
 30
0.0
 11
1.0
 21
37.700000000000003
 31
0.0
  0
LINE
  5
2D7
100
AcDbEntity
  8
0
  6
CONTINUOUS
 62
               4
100
AcDbLine
 10
1.0
 20
40.0
 30
0.0
 11
55.0
 21
40.0
 31
0.0
  0
LINE
  5
2D8
100
AcDbEntity
  8
0
  6
CENTER
 62
               2
100
AcDbLine
 10
40.0
 20
-11.779999999999999
 30
0.0
 11
40.0
 21
-62.68
 31
0.0
  0
LINE
  5
2D9
100
AcDbEntity
  8
0
  6
CONTINUOUS
 62
               7
100
AcDbLine
 10
2.5
 20
-2.5
 30
0.0
 11
9.3599999999999994
 21
0.0
 31
0.0
  0
LINE
  5
2DA
100
AcDbEntity
  8
0
  6
CONTINUOUS
 62
               7
100
AcDbLine
 10
2.5
 20
2.5
 30
0.0
 11
9.3599999999999994
 21
0.0
 31
0.0
  0
LINE
  5
2DB
100
AcDbEntity
  8
0
  6
CONTINUOUS
 62
               7
100
AcDbLine
 10
2.5
 20
2.5
 30
0.0
 11
2.5
 21
-2.5
 31
0.0
  0
LINE
  5
2DC
100
AcDbEntity
  8
0
  6
CONTINUOUS
 62
               7
100
AcDbLine
 10
41.770000000000003
 20
-2.5
 30
0.0
 11
41.020000000000003
 21
-2.7000000000000002
 31
0.0
  0
LINE
  5
2DD
100
AcDbEntity
  8
0
  6
CONTINUOUS
 62
               7
100
AcDbLine
 10
41.020000000000003
 20
2.7000000000000002
 30
0.0
 11
41.770000000000003
 21
2.5
 31
0.0
  0
LINE
  5
2DE
100
AcDbEntity
  8
0
  6
CONTINUOUS
 62
               7
100
AcDbLine
 10
35.969999999999999
 20
-11.5
 30
0.0
 11
35.289999999999999
 21
-11.109999999999999
 31
0.0
  0
LINE
  5
2DF
100
AcDbEntity
  8
0
  6
CONTINUOUS
 62
               7
100
AcDbLine
 10
39.109999999999999
 20
-7.29
 30
0.0
 11
39.5
 21
-7.9699999999999998
 31
0.0
  0
LINE
  5
2E0
100
AcDbEntity
  8
0
  6
CONTINUOUS
 62
               7
100
AcDbLine
 10
25.5
 20
-13.77
 30
0.0
 11
25.289999999999999
 21
-13.02
 31
0.0
  0
LINE
  5
2E1
100
AcDbEntity
  8
0
  6
CONTINUOUS
 62
               7
100
AcDbLine
 10
30.699999999999999
 20
-13.02
 30
0.0
 11
30.5
 21
-13.77
 31
0.0
  0
LINE
  5
2E2
100
AcDbEntity
  8
0
  6
CONTINUOUS
 62
               7
100
AcDbLine
 10
16.489999999999998
 20
-7.9699999999999998
 30
0.0
 11
16.879999999999999
 21
-7.29
 31
0.0
  0
LINE
  5
2E3
100
AcDbEntity
  8
0
  6
CONTINUOUS
 62
               7
100
AcDbLine
 10
20.699999999999999
 20
-11.109999999999999
 30
0.0
 11
20.02
 21
-11.5
 31
0.0
  0
LINE
  5
2E4
100
AcDbEntity
  8
0
  6
CONTINUOUS
 62
               7
100
AcDbLine
 10
14.220000000000001
 20
2.5
 30
0.0
 11
14.970000000000001
 21
2.7000000000000002
 31
0.0
  0
LINE
  5
2E5
100
AcDbEntity
  8
0
  6
CONTINUOUS
 62
               7
100
AcDbLine
 10
14.970000000000001
 20
-2.7000000000000002
 30
0.0
 11
14.220000000000001
 21
-2.5
 31
0.0
  0
LINE
  5
2E6
100
AcDbEntity
  8
0
  6
CONTINUOUS
 62
               7
100
AcDbLine
 10
20.02
 20
11.5
 30
0.0
 11
20.699999999999999
 21
11.109999999999999
 31
0.0
  0
LINE
  5
2E7
100
AcDbEntity
  8
0
  6
CONTINUOUS
 62
               7
100
AcDbLine
 10
16.879999999999999
 20
7.29
 30
0.0
 11
16.489999999999998
 21
7.9699999999999998
 31
0.0
  0
LINE
  5
2E8
100
AcDbEntity
  8
0
  6
CONTINUOUS
 62
               7
100
AcDbLine
 10
30.5
 20
13.77
 30
0.0
 11
30.699999999999999
 21
13.02
 31
0.0
  0
LINE
  5
2E9
100
AcDbEntity
  8
0
  6
CONTINUOUS
 62
               7
100
AcDbLine
 10
25.289999999999999
 20
13.02
 30
0.0
 11
25.5
 21
13.77
 31
0.0
  0
LINE
  5
2EA
100
AcDbEntity
  8
0
  6
CONTINUOUS
 62
               7
100
AcDbLine
 10
39.5
 20
7.9699999999999998
 30
0.0
 11
39.109999999999999
 21
7.29
 31
0.0
  0
LINE
  5
2EB
100
AcDbEntity
  8
0
  6
CONTINUOUS
 62
               7
100
AcDbLine
 10
35.289999999999999
 20
11.109999999999999
 30
0.0
 11
35.969999999999999
 21
11.5
 31
0.0
  0
LINE
  5
2EC
100
AcDbEntity
  8
0
  6
CONTINUOUS
 62
               7
100
AcDbLine
 10
0.0
 20
-14.0
 30
0.0
 11
56.0
 21
-14.0
 31
0.0
  0
LINE
  5
2ED
100
AcDbEntity
  8
0
  6
CONTINUOUS
 62
               7
100
AcDbLine
 10
0.0
 20
14.0
 30
0.0
 11
56.0
 21
14.0
 31
0.0
  0
LINE
  5
2EE
100
AcDbEntity
  8
0
  6
CONTINUOUS
 62
               7
100
AcDbLine
 10
55.0
 20
-15.0
 30
0.0
 11
55.0
 21
15.0
 31
0.0
  0
LINE
  5
2EF
100
AcDbEntity
  8
0
  6
CONTINUOUS
 62
               7
100
AcDbLine
 10
1.0
 20
15.0
 30
0.0
 11
1.0
 21
-15.0
 31
0.0
  0
LINE
  5
2F0
100
AcDbEntity
  8
0
  6
CONTINUOUS
 62
               7
100
AcDbLine
 10
30.0
 20
-19.0
 30
0.0
 11
50.0
 21
-19.0
 31
0.0
  0
LINE
  5
2F1
100
AcDbEntity
  8
0
  6
CONTINUOUS
 62
               7
100
AcDbLine
 10
30.0
 20
19.0
 30
0.0
 11
50.0
 21
19.0
 31
0.0
  0
LINE
  5
2F2
100
AcDbEntity
  8
0
  6
CONTINUOUS
 62
               7
100
AcDbLine
 10
50.0
 20
-16.0
 30
0.0
 11
50.0
 21
-19.0
 31
0.0
  0
LINE
  5
2F3
100
AcDbEntity
  8
0
  6
CONTINUOUS
 62
               7
100
AcDbLine
 10
30.0
 20
-16.0
 30
0.0
 11
30.0
 21
-19.0
 31
0.0
  0
LINE
  5
2F4
100
AcDbEntity
  8
0
  6
CONTINUOUS
 62
               7
100
AcDbLine
 10
49.0
 20
-20.0
 30
0.0
 11
50.0
 21
-19.0
 31
0.0
  0
LINE
  5
2F5
100
AcDbEntity
  8
0
  6
CONTINUOUS
 62
               7
100
AcDbLine
 10
30.0
 20
-19.0
 30
0.0
 11
31.0
 21
-20.0
 31
0.0
  0
LINE
  5
2F6
100
AcDbEntity
  8
0
  6
CONTINUOUS
 62
               7
100
AcDbLine
 10
49.0
 20
20.0
 30
0.0
 11
50.0
 21
19.0
 31
0.0
  0
LINE
  5
2F7
100
AcDbEntity
  8
0
  6
CONTINUOUS
 62
               7
100
AcDbLine
 10
30.0
 20
19.0
 30
0.0
 11
31.0
 21
20.0
 31
0.0
  0
LINE
  5
2F8
100
AcDbEntity
  8
0
  6
CONTINUOUS
 62
               7
100
AcDbLine
 10
50.0
 20
19.0
 30
0.0
 11
50.0
 21
16.0
 31
0.0
  0
LINE
  5
2F9
100
AcDbEntity
  8
0
  6
CONTINUOUS
 62
               7
100
AcDbLine
 10
30.0
 20
19.0
 30
0.0
 11
30.0
 21
16.0
 31
0.0
  0
LINE
  5
2FA
100
AcDbEntity
  8
0
  6
CONTINUOUS
 62
               7
100
AcDbLine
 10
31.0
 20
20.0
 30
0.0
 11
49.0
 21
20.0
 31
0.0
  0
LINE
  5
2FB
100
AcDbEntity
  8
0
  6
CONTINUOUS
 62
               7
100
AcDbLine
 10
31.0
 20
-20.0
 30
0.0
 11
49.0
 21
-20.0
 31
0.0
  0
LINE
  5
2FC
100
AcDbEntity
  8
0
  6
CENTER
 62
               2
100
AcDbLine
 10
40.0
 20
23.16
 30
0.0
 11
40.0
 21
11.539999999999999
 31
0.0
  0
LINE
  5
2FD
100
AcDbEntity
  8
0
  6
CONTINUOUS
 62
               7
100
AcDbLine
 10
55.0
 20
15.0
 30
0.0
 11
56.0
 21
14.0
 31
0.0
  0
LINE
  5
2FE
100
AcDbEntity
  8
0
  6
CONTINUOUS
 62
               7
100
AcDbLine
 10
55.0
 20
-15.0
 30
0.0
 11
56.0
 21
-14.0
 31
0.0
  0
LINE
  5
2FF
100
AcDbEntity
  8
0
  6
CONTINUOUS
 62
               7
100
AcDbLine
 10
0.0
 20
-14.0
 30
0.0
 11
1.0
 21
-15.0
 31
0.0
  0
LINE
  5
300
100
AcDbEntity
  8
0
  6
CONTINUOUS
 62
               7
100
AcDbLine
 10
0.0
 20
14.0
 30
0.0
 11
1.0
 21
15.0
 31
0.0
  0
LINE
  5
301
100
AcDbEntity
  8
0
  6
CONTINUOUS
 62
               7
100
AcDbLine
 10
1.0
 20
15.0
 30
0.0
 11
55.0
 21
15.0
 31
0.0
  0
LINE
  5
302
100
AcDbEntity
  8
0
  6
CONTINUOUS
 62
               7
100
AcDbLine
 10
1.0
 20
-15.0
 30
0.0
 11
55.0
 21
-15.0
 31
0.0
  0
LINE
  5
303
100
AcDbEntity
  8
0
  6
CONTINUOUS
 62
               7
100
AcDbLine
 10
56.0
 20
14.0
 30
0.0
 11
56.0
 21
-14.0
 31
0.0
  0
LINE
  5
304
100
AcDbEntity
  8
0
  6
CONTINUOUS
 62
               7
100
AcDbLine
 10
0.0
 20
14.0
 30
0.0
 11
0.0
 21
-14.0
 31
0.0
  0
LINE
  5
305
100
AcDbEntity
  8
0
  6
CENTER
 62
               2
100
AcDbLine
 10
-6.0
 20
0.0
 30
0.0
 11
63.0
 21
0.0
 31
0.0
  0
LINE
  5
306
100
AcDbEntity
  8
0
  6
CENTER
 62
               2
100
AcDbLine
 10
28.0
 20
42.270000000000003
 30
0.0
 11
28.0
 21
-24.109999999999999
 31
0.0
  0
ENDBLK
  5
307
100
AcDbEntity
  8
0
100
AcDbBlockEnd
  0
ENDSEC
  0
SECTION
  2
ENTITIES
  0
MTEXT
  5
308
100
AcDbEntity
  8
0
  6
CONTINUOUS
 62
               2
100
AcDbMText
 10
-17.217231273651123
 20
-61.352374076843262
 30
0.0
 40
3.1999998092651367
 41
0.0
 71
               7
 72
               1
  1
\A1;OUT
  7
MX_NOTE_STANDARD
  0
MTEXT
  5
309
100
AcDbEntity
  8
0
  6
CONTINUOUS
 62
               2
100
AcDbMText
 10
-118.11064091491698
 20
-61.352328300476074
 30
0.0
 40
3.1999998092651367
 41
0.0
 71
               7
 72
               1
  1
\W1.200;\A1;IN
  7
MX_NOTE_STANDARD
  0
INSERT
  5
30A
100
AcDbEntity
  8
0
100
AcDbBlockReference
  2
MS_3
 10
-87.919876098632813
 20
68.858062744140625
 30
0.0
  0
INSERT
  5
30B
100
AcDbEntity
  8
0
100
AcDbBlockReference
  2
MS_2
 10
78.66717529296875
 20
-62.152297973632812
 30
0.0
  0
INSERT
  5
30C
100
AcDbEntity
  8
0
100
AcDbBlockReference
  2
MS_1
 10
-87.919891357421875
 20
-62.15228271484375
 30
0.0
  0
MTEXT
  5
30D
100
AcDbEntity
  8
0
  6
CONTINUOUS
 62
               7
100
AcDbMText
 10
-176.24999888737997
 20
125.10000610351562
 30
0.0
 40
4.1999998092651367
 41
0.0
 71
               4
 72
               1
  1
\A1;CS-REGULATOR
  7
MX_NOTE_STANDARD
  0
MTEXT
  5
30E
100
AcDbEntity
  8
0
  6
CONTINUOUS
 62
               7
100
AcDbMText
 10
-185.59494375661833
 20
107.60000610351562
 30
0.0
 40
4.1999998092651367
 41
0.0
 71
               4
 72
               1
  1
\W1.079;\A1;MODEL:CS-R300-02
  7
MX_NOTE_STANDARD
  0
MTEXT
  5
30F
100
AcDbEntity
  8
0
  6
CONTINUOUS
 62
               7
100
AcDbMText
 10
115.5267259825148
 20
-126.0
 30
0.0
 40
6.3000001907348633
 41
0.0
 71
               4
 72
               1
  1
\W1.121;\A1;KOGANEI CORP.
  7
MX_NOTE_STANDARD
  0
MTEXT
  5
310
100
AcDbEntity
  8
0
  6
CONTINUOUS
 62
               7
100
AcDbMText
 10
137.50455163152421
 20
125.10000610351562
 30
0.0
 40
4.5
 41
0.0
 71
               4
 72
               1
  1
\W1.273;\A1;Ver.1.0
  7
MX_NOTE_STANDARD
  0
LINE
  5
311
100
AcDbEntity
  8
0
  6
CONTINUOUS
 62
               7
100
AcDbLine
 10
-194.25
 20
-133.5
 30
0.0
 11
194.80000000000001
 21
-133.5
 31
0.0
  0
LINE
  5
312
100
AcDbEntity
  8
0
  6
CONTINUOUS
 62
               7
100
AcDbLine
 10
-109.25
 20
132.59999999999999
 30
0.0
 11
-109.25
 21
117.59999999999999
 31
0.0
  0
LINE
  5
313
100
AcDbEntity
  8
0
  6
CONTINUOUS
 62
               7
100
AcDbLine
 10
-194.25
 20
117.59999999999999
 30
0.0
 11
-109.25
 21
117.59999999999999
 31
0.0
  0
LINE
  5
314
100
AcDbEntity
  8
0
  6
CONTINUOUS
 62
               7
100
AcDbLine
 10
109.8
 20
117.59999999999999
 30
0.0
 11
194.80000000000001
 21
117.59999999999999
 31
0.0
  0
LINE
  5
315
100
AcDbEntity
  8
0
  6
CONTINUOUS
 62
               7
100
AcDbLine
 10
109.8
 20
132.59999999999999
 30
0.0
 11
109.8
 21
117.59999999999999
 31
0.0
  0
LINE
  5
316
100
AcDbEntity
  8
0
  6
CONTINUOUS
 62
               7
100
AcDbLine
 10
109.8
 20
-118.5
 30
0.0
 11
194.80000000000001
 21
-118.5
 31
0.0
  0
LINE
  5
317
100
AcDbEntity
  8
0
  6
CONTINUOUS
 62
               7
100
AcDbLine
 10
109.8
 20
-118.5
 30
0.0
 11
109.8
 21
-133.5
 31
0.0
  0
LINE
  5
318
100
AcDbEntity
  8
0
  6
CONTINUOUS
 62
               7
100
AcDbLine
 10
-194.25
 20
132.59999999999999
 30
0.0
 11
-194.25
 21
-133.5
 31
0.0
  0
LINE
  5
319
100
AcDbEntity
  8
0
  6
CONTINUOUS
 62
               7
100
AcDbLine
 10
194.80000000000001
 20
132.59999999999999
 30
0.0
 11
194.80000000000001
 21
-133.5
 31
0.0
  0
LINE
  5
31A
100
AcDbEntity
  8
0
  6
CONTINUOUS
 62
               7
100
AcDbLine
 10
-194.25
 20
132.59999999999999
 30
0.0
 11
194.80000000000001
 21
132.59999999999999
 31
0.0
  0
ENDSEC
  0
SECTION
  2
OBJECTS
  0
DICTIONARY
  5
19
100
AcDbDictionary
  3
ACAD_GROUP
350
1A
  3
ACAD_MLINESTYLE
350
1B
  0
DICTIONARY
  5
1A
102
{ACAD_REACTORS
330
19
102
}
100
AcDbDictionary
  0
DICTIONARY
  5
1B
102
{ACAD_REACTORS
330
19
102
}
100
AcDbDictionary
  3
STANDARD
350
1C
  0
MLINESTYLE
  5
1C
102
{ACAD_REACTORS
330
1B
102
}
100
AcDbMlineStyle
  2
Standard
 70
               0
  3

 62
               0
 51
90.0
 52
90.0
 71
               2
 49
0.5
 62
             256
  6
ByLayer
 49
-0.5
 62
             256
  6
ByLayer
  0
ENDSEC
  0
EOF
