  0
SECTION
  2
HEADER
  9
$ACADVER
  1
AC1012
  9
$DWGCODEPAGE
  3
dos932
  9
$INSBASE
 10
0.0
 20
0.0
 30
0.0
  9
$EXTMIN
 10
-194.25
 20
-133.5
 30
0.0
  9
$EXTMAX
 10
196.25000429153442
 20
132.60000610351562
 30
0.0
  9
$LIMMIN
 10
-194.25
 20
-133.5
  9
$LIMMAX
 10
196.25000429153442
 20
132.60000610351562
  9
$ORTHOMODE
 70
               0
  9
$REGENMODE
 70
               1
  9
$FILLMODE
 70
               1
  9
$QTEXTMODE
 70
               0
  9
$MIRRTEXT
 70
               1
  9
$DRAGMODE
 70
               2
  9
$LTSCALE
 40
1.0
  9
$OSMODE
 70
               0
  9
$ATTMODE
 70
               1
  9
$TEXTSIZE
 40
3.2000000476837158
  9
$TRACEWID
 40
0.05
  9
$TEXTSTYLE
  7
MX_NOTE_STANDARD
  9
$CLAYER
  8
0
  9
$CELTYPE
  6
CONTINUOUS
  9
$CECOLOR
 62
             256
  9
$CELTSCALE
 40
1.0
  9
$DELOBJ
 70
               1
  9
$DISPSILH
 70
               0
  9
$DIMSCALE
 40
1.0
  9
$DIMASZ
 40
2.5
  9
$DIMEXO
 40
1.5
  9
$DIMDLI
 40
3.75
  9
$DIMRND
 40
0.0
  9
$DIMDLE
 40
0.0
  9
$DIMEXE
 40
1.5
  9
$DIMTP
 40
0.0
  9
$DIMTM
 40
0.0
  9
$DIMTXT
 40
3.2000000476837158
  9
$DIMCEN
 40
2.5
  9
$DIMTSZ
 40
0.0
  9
$DIMTOL
 70
               0
  9
$DIMLIM
 70
               0
  9
$DIMTIH
 70
               0
  9
$DIMTOH
 70
               0
  9
$DIMSE1
 70
               0
  9
$DIMSE2
 70
               0
  9
$DIMTAD
 70
               1
  9
$DIMZIN
 70
               8
  9
$DIMBLK
  1

  9
$DIMASO
 70
               1
  9
$DIMSHO
 70
               1
  9
$DIMPOST
  1

  9
$DIMAPOST
  1

  9
$DIMALT
 70
               0
  9
$DIMALTD
 70
               4
  9
$DIMALTF
 40
0.0394
  9
$DIMLFAC
 40
1.0
  9
$DIMTOFL
 70
               1
  9
$DIMTVP
 40
0.0
  9
$DIMTIX
 70
               0
  9
$DIMSOXD
 70
               0
  9
$DIMSAH
 70
               0
  9
$DIMBLK1
  1

  9
$DIMBLK2
  1

  9
$DIMSTYLE
  2
MXDIMSTYLE
  9
$DIMCLRD
 70
               0
  9
$DIMCLRE
 70
               0
  9
$DIMCLRT
 70
               0
  9
$DIMTFAC
 40
1.0
  9
$DIMGAP
 40
1.0
  9
$DIMJUST
 70
               0
  9
$DIMSD1
 70
               0
  9
$DIMSD2
 70
               0
  9
$DIMTOLJ
 70
               1
  9
$DIMTZIN
 70
               0
  9
$DIMALTZ
 70
               0
  9
$DIMALTTZ
 70
               0
  9
$DIMFIT
 70
               3
  9
$DIMUPT
 70
               1
  9
$DIMUNIT
 70
               2
  9
$DIMDEC
 70
               4
  9
$DIMTDEC
 70
               4
  9
$DIMALTU
 70
               8
  9
$DIMALTTD
 70
               4
  9
$DIMTXSTY
  7
MX_NOTE_STANDARD
  9
$DIMAUNIT
 70
               0
  9
$LUNITS
 70
               2
  9
$LUPREC
 70
               4
  9
$SKETCHINC
 40
0.1
  9
$FILLETRAD
 40
0.0
  9
$AUNITS
 70
               0
  9
$AUPREC
 70
               0
  9
$MENU
  1
acad
  9
$ELEVATION
 40
0.0
  9
$PELEVATION
 40
0.0
  9
$THICKNESS
 40
0.0
  9
$LIMCHECK
 70
               0
  9
$BLIPMODE
 70
               1
  9
$CHAMFERA
 40
0.0
  9
$CHAMFERB
 40
0.0
  9
$CHAMFERC
 40
0.0
  9
$CHAMFERD
 40
0.0
  9
$SKPOLY
 70
               0
  9
$TDCREATE
 40
2452220.697546296
  9
$TDUPDATE
 40
2452220.697546296
  9
$TDINDWG
 40
0.0000000000
  9
$TDUSRTIMER
 40
0.0000000000
  9
$USRTIMER
 70
               1
  9
$ANGBASE
 50
0.0
  9
$ANGDIR
 70
               0
  9
$PDMODE
 70
               0
  9
$PDSIZE
 40
0.0
  9
$PLINEWID
 40
0.0
  9
$COORDS
 70
               1
  9
$SPLFRAME
 70
               0
  9
$SPLINETYPE
 70
               6
  9
$SPLINESEGS
 70
               8
  9
$ATTDIA
 70
               0
  9
$ATTREQ
 70
               1
  9
$HANDLING
 70
               1
  9
$HANDSEED
  5
251
  9
$SURFTAB1
 70
               6
  9
$SURFTAB2
 70
               6
  9
$SURFTYPE
 70
               6
  9
$SURFU
 70
               6
  9
$SURFV
 70
               6
  9
$UCSNAME
  2

  9
$UCSORG
 10
0.0
 20
0.0
 30
0.0
  9
$UCSXDIR
 10
1.0
 20
0.0
 30
0.0
  9
$UCSYDIR
 10
0.0
 20
1.0
 30
0.0
  9
$PUCSNAME
  2

  9
$PUCSORG
 10
0.0
 20
0.0
 30
0.0
  9
$PUCSXDIR
 10
1.0
 20
0.0
 30
0.0
  9
$PUCSYDIR
 10
0.0
 20
1.0
 30
0.0
  9
$USERI1
 70
               0
  9
$USERI2
 70
               0
  9
$USERI3
 70
               0
  9
$USERI4
 70
               0
  9
$USERI5
 70
               0
  9
$USERR1
 40
0.0
  9
$USERR2
 40
0.0
  9
$USERR3
 40
0.0
  9
$USERR4
 40
0.0
  9
$USERR5
 40
0.0
  9
$WORLDVIEW
 70
               1
  9
$SHADEDGE
 70
               3
  9
$SHADEDIF
 70
              70
  9
$TILEMODE
 70
               1
  9
$MAXACTVP
 70
              16
  9
$PINSBASE
 10
0.0
 20
0.0
 30
0.0
  9
$PLIMCHECK
 70
               0
  9
$PEXTMIN
 10
1.0000000000000000E+20
 20
1.0000000000000000E+20
 30
1.0000000000000000E+20
  9
$PEXTMAX
 10
-1.0000000000000000E+20
 20
-1.0000000000000000E+20
 30
-1.0000000000000000E+20
  9
$PLIMMIN
 10
0.0
 20
0.0
  9
$PLIMMAX
 10
12.0
 20
9.0
  9
$UNITMODE
 70
               0
  9
$VISRETAIN
 70
               0
  9
$PLINEGEN
 70
               1
  9
$PSLTSCALE
 70
               0
  9
$TREEDEPTH
 70
            3020
  9
$PICKSTYLE
 70
               1
  9
$CMLSTYLE
  2
Standard
  9
$CMLJUST
 70
               0
  9
$CMLSCALE
 40
1.0
  9
$SAVEIMAGES
 70
               0
  0
ENDSEC
  0
SECTION
  2
CLASSES
  0
CLASS
  1
LWPOLYLINE
  2
AcDbPolyline
  3
"AutoCAD"
 90
        0
280
               0
281
               1
  0
CLASS
  1
IMAGE
  2
AcDbRasterImage
  3
ISM
 90
      127
280
               0
281
               1
  0
CLASS
  1
OLE2FRAME
  2
AcDbOle2Frame
  3
""
 90
        0
280
               0
281
               1
  0
CLASS
  1
HATCH
  2
AcDbHatch
  3
"ACAD_SEDONA"
 90
        0
280
               0
281
               1
  0
CLASS
  1
DICTIONARYVAR
  2
AcDbDictionaryVar
  3
"AutoCAD"
 90
        0
280
               0
281
               0
  0
CLASS
  1
RASTERVARIABLES
  2
AcDbRasterVariables
  3
ISM
 90
        0
280
               0
281
               0
  0
CLASS
  1
IMAGEDEF
  2
AcDbRasterImageDef
  3
ISM
 90
        0
280
               0
281
               0
  0
CLASS
  1
IMAGEDEF_REACTOR
  2
AcDbRasterImageDefReactor
  3
ISM
 90
        1
280
               0
281
               0
  0
CLASS
  1
IDBUFFER
  2
AcDbIdBuffer
  3
"Acad"
 90
        0
280
               0
281
               0
  0
CLASS
  1
SPATIAL_FILTER
  2
AcDbSpatialFilter
  3
"Acad"
 90
        0
280
               0
281
               0
  0
CLASS
  1
XRECORD
  2
AcDbXrecord
  3
"<Built In>"
 90
        0
280
               0
281
               0
  0
CLASS
  1
SORTENTSTABLE
  2
AcDbSortentsTable
  3
"AutoCAD"
 90
        0
280
               0
281
               0
  0
CLASS
  1
LAYER_INDEX
  2
AcDbLayerIndex
  3
"Acad"
 90
        0
280
               0
281
               0
  0
CLASS
  1
SPATIAL_INDEX
  2
AcDbSpatialIndex
  3
"Acad"
 90
        0
280
               0
281
               0
  0
CLASS
  1
OBJECT_PTR
  2
CAseDLPNTableRecord
  3
"ASE-LPNTableRecord"
 90
        1
280
               0
281
               0
  0
CLASS
  1
LAYOUT
  2
AcDbLayout
  3
"AutoCAD 2000"
 90
        1
280
               0
281
               0
  0
CLASS
  1
PLOTSETTINGS
  2
AcDbPlotSettings
  3
"AutoCAD 2000"
 90
        1
280
               0
281
               0
  0
CLASS
  1
ACDBDICTIONARYWDFLT
  2
AcDbDictionaryWithDefault
  3
"AutoCAD 2000"
 90
        1
280
               0
281
               0
  0
CLASS
  1
ACDBPLACEHOLDER
  2
AcDbPlaceHolder
  3
"AutoCAD 2000"
 90
        1
280
               0
281
               0
  0
CLASS
  1
VBA_PROJECT
  2
AcDbVbaProject
  3
"acadvba"
 90
        1
280
               0
281
               0
  0
CLASS
  1
WIPEOUT
  2
AcDbWipeout
  3
WipeOut|AutoCAD Express Tool|expresstools@autodesk.com
 90
      127
280
               0
281
               1
  0
CLASS
  1
WIPEOUTVARIABLES
  2
AcDbWipeoutVariables
  3
WipeOut|AutoCAD Express Tool|expresstools@autodesk.com
 90
        0
280
               0
281
               0
  0
CLASS
  1
RTEXT
  2
RText
  3
RText|AutoCAD Express Tool|expresstools@autodesk.com
 90
        0
280
               0
281
               1
  0
CLASS
  1
ARCALIGNEDTEXT
  2
AcDbArcAlignedText
  3
ATEXT|AutoCAD Express Tool|expresstools@autodesk.com
 90
        0
280
               0
281
               1
  0
ENDSEC
  0
SECTION
  2
TABLES
  0
TABLE
  2
VPORT
  5
7
100
AcDbSymbolTable
 70
               1
  0
VPORT
  5
15
100
AcDbSymbolTableRecord
100
AcDbViewportTableRecord
  2
*ACTIVE
 70
               0
 10
0.0
 20
0.0
 11
1.0
 21
1.0
 12
1.0000021457672119
 22
-0.4499969482421875
 13
0.0
 23
0.0
 14
1.0
 24
1.0
 15
0.0
 25
0.0
 16
0.0
 26
0.0
 36
1.0
 17
0.0
 27
0.0
 37
0.0
 40
268.76100616455079
 41
1.7320508075688772
 42
50.0
 43
0.0
 44
0.0
 50
0.0
 51
0.0
 71
               0
 72
             100
 73
               1
 74
               1
 75
               0
 76
               0
 77
               0
 78
               0
  0
ENDTAB
  0
TABLE
  2
LTYPE
  5
4
100
AcDbSymbolTable
 70
               6
  0
LTYPE
  5
11
100
AcDbSymbolTableRecord
100
AcDbLinetypeTableRecord
  2
BYBLOCK
 70
              64
  3

 72
              65
 73
               0
 40
0.0
  0
LTYPE
  5
12
100
AcDbSymbolTableRecord
100
AcDbLinetypeTableRecord
  2
BYLAYER
 70
              64
  3

 72
              65
 73
               0
 40
0.0
  0
LTYPE
  5
13
100
AcDbSymbolTableRecord
100
AcDbLinetypeTableRecord
  2
CONTINUOUS
 70
              64
  3
Solid line
 72
              65
 73
               0
 40
0.0
  0
LTYPE
  5
29
100
AcDbSymbolTableRecord
100
AcDbLinetypeTableRecord
  2
PHANTOM
 70
              64
  3
Phantom ______  __  __  ______  __  __  ______
 72
              65
 73
               6
 40
63.500000000000007
 49
31.75
 74
               0
 49
-6.3499999999999996
 74
               0
 49
6.3499999999999996
 74
               0
 49
-6.3499999999999996
 74
               0
 49
6.3499999999999996
 74
               0
 49
-6.3499999999999996
 74
               0
  0
LTYPE
  5
4E
100
AcDbSymbolTableRecord
100
AcDbLinetypeTableRecord
  2
CENTER
 70
              64
  3
Center ____ _ ____ _ ____ _ ____ _ ____ _ ____
 72
              65
 73
               4
 40
50.800000000000004
 49
31.75
 74
               0
 49
-6.3499999999999996
 74
               0
 49
6.3499999999999996
 74
               0
 49
-6.3499999999999996
 74
               0
  0
LTYPE
  5
1A8
100
AcDbSymbolTableRecord
100
AcDbLinetypeTableRecord
  2
DASHED
 70
              64
  3
Dashed __ __ __ __ __ __ __ __ __ __ __ __ __ _
 72
              65
 73
               2
 40
19.049999999999997
 49
12.699999999999999
 74
               0
 49
-6.3499999999999996
 74
               0
  0
ENDTAB
  0
TABLE
  2
LAYER
  5
2
100
AcDbSymbolTable
 70
               2
  0
LAYER
  5
14
100
AcDbSymbolTableRecord
100
AcDbLayerTableRecord
  2
0
 70
               0
 62
               7
  6
CONTINUOUS
  0
LAYER
  5
1D
100
AcDbSymbolTableRecord
100
AcDbLayerTableRecord
  2
DEFPOINTS
 70
               0
 62
               7
  6
CONTINUOUS
  0
ENDTAB
  0
TABLE
  2
STYLE
  5
3
100
AcDbSymbolTable
 70
               1
  0
STYLE
  5
17
100
AcDbSymbolTableRecord
100
AcDbTextStyleTableRecord
  2
MX_NOTE_STANDARD
 70
               0
 40
3.2000000476837158
 41
1.0
 50
0.0
 71
               0
 42
3.2000000476837158
  3
txt.shx
  4
extfont.shx
  0
ENDTAB
  0
TABLE
  2
VIEW
  5
5
100
AcDbSymbolTable
 70
               0
  0
ENDTAB
  0
TABLE
  2
UCS
  5
6
100
AcDbSymbolTable
 70
               0
  0
ENDTAB
  0
TABLE
  2
APPID
  5
8
100
AcDbSymbolTable
 70
               1
  0
APPID
  5
16
100
AcDbSymbolTableRecord
100
AcDbRegAppTableRecord
  2
ACAD
 70
               0
  0
ENDTAB
  0
TABLE
  2
DIMSTYLE
  5
9
100
AcDbSymbolTable
 70
               1
  0
DIMSTYLE
105
18
100
AcDbSymbolTableRecord
100
AcDbDimStyleTableRecord
  2
MXDIMSTYLE
 70
               0
  3

  4

  5

  6

  7

 40
1.0
 41
2.5
 42
1.5
 43
3.75
 44
1.5
 45
0.0
 46
0.0
 47
0.0
 48
0.0
 71
               0
 72
               0
 73
               0
 74
               0
 75
               0
 76
               0
 77
               1
 78
               8
140
3.2000000476837158
141
2.5
142
0.0
143
0.0394
144
1.0
145
0.0
146
1.0
147
1.0
170
               0
171
               4
172
               1
173
               0
174
               0
175
               0
176
               0
177
               0
178
               0
270
               2
271
               4
272
               4
273
               8
274
               4
275
               0
280
               0
281
               0
282
               0
283
               1
284
               0
285
               0
286
               0
287
               3
288
               1
340
17
  0
ENDTAB
  0
TABLE
  2
BLOCK_RECORD
  5
1
100
AcDbSymbolTable
 70
              10
  0
BLOCK_RECORD
  5
A
100
AcDbSymbolTableRecord
100
AcDbBlockTableRecord
  2
*MODEL_SPACE
  0
BLOCK_RECORD
  5
B
100
AcDbSymbolTableRecord
100
AcDbBlockTableRecord
  2
*PAPER_SPACE
  0
BLOCK_RECORD
  5
1E
100
AcDbSymbolTableRecord
100
AcDbBlockTableRecord
  2
MS_1
  0
BLOCK_RECORD
  5
1F
100
AcDbSymbolTableRecord
100
AcDbBlockTableRecord
  2
MS_2
  0
BLOCK_RECORD
  5
20
100
AcDbSymbolTableRecord
100
AcDbBlockTableRecord
  2
MS_3
  0
BLOCK_RECORD
  5
21
100
AcDbSymbolTableRecord
100
AcDbBlockTableRecord
  2
MS_4
  0
BLOCK_RECORD
  5
22
100
AcDbSymbolTableRecord
100
AcDbBlockTableRecord
  2
MS_5
  0
BLOCK_RECORD
  5
23
100
AcDbSymbolTableRecord
100
AcDbBlockTableRecord
  2
MS_6
  0
BLOCK_RECORD
  5
24
100
AcDbSymbolTableRecord
100
AcDbBlockTableRecord
  2
MS_7
  0
BLOCK_RECORD
  5
25
100
AcDbSymbolTableRecord
100
AcDbBlockTableRecord
  2
MS_8
  0
BLOCK_RECORD
  5
26
100
AcDbSymbolTableRecord
100
AcDbBlockTableRecord
  2
MS_9
  0
BLOCK_RECORD
  5
27
100
AcDbSymbolTableRecord
100
AcDbBlockTableRecord
  2
MS_10
  0
ENDTAB
  0
ENDSEC
  0
SECTION
  2
BLOCKS
  0
BLOCK
  5
D
100
AcDbEntity
  8
0
100
AcDbBlockBegin
  2
*MODEL_SPACE
 70
               0
 10
0.0
 20
0.0
 30
0.0
  3
*MODEL_SPACE
  1

  0
ENDBLK
  5
E
100
AcDbEntity
  8
0
100
AcDbBlockEnd
  0
BLOCK
  5
F
100
AcDbEntity
 67
               1
  8
0
100
AcDbBlockBegin
  2
*PAPER_SPACE
 70
               0
 10
0.0
 20
0.0
 30
0.0
  3
*PAPER_SPACE
  1

  0
ENDBLK
  5
10
100
AcDbEntity
 67
               1
  8
0
100
AcDbBlockEnd
  0
BLOCK
  5
28
100
AcDbEntity
  8
0
100
AcDbBlockBegin
  2
MS_1
 70
               0
 10
0.0
 20
0.0
 30
0.0
  3
MS_1
  1

  0
LINE
  5
2A
100
AcDbEntity
  8
0
  6
PHANTOM
 62
               3
100
AcDbLine
 10
26.592224582132388
 20
13.836768904369393
 30
0.0
 11
26.592224582132388
 21
53.29975413546272
 31
0.0
  0
LINE
  5
2B
100
AcDbEntity
  8
0
  6
PHANTOM
 62
               3
100
AcDbLine
 10
57.478258903332602
 20
-42.43111328287803
 30
0.0
 11
57.478258903332602
 21
63.654167864163426
 31
0.0
  0
LINE
  5
2C
100
AcDbEntity
  8
0
  6
PHANTOM
 62
               3
100
AcDbLine
 10
-13.156556268336985
 20
-42.43111328287803
 30
0.0
 11
-13.156556268336985
 21
44.990553278287578
 31
0.0
  0
LINE
  5
2D
100
AcDbEntity
  8
0
  6
PHANTOM
 62
               3
100
AcDbLine
 10
26.592224585766786
 20
13.836768904369393
 30
0.0
 11
47.613440680260652
 21
13.836768904369393
 31
0.0
  0
LINE
  5
2E
100
AcDbEntity
  8
0
  6
PHANTOM
 62
               3
100
AcDbLine
 10
47.613440702138632
 20
-16.452591366913836
 30
0.0
 11
47.613440702138632
 21
13.836768917891462
 31
0.0
  0
LINE
  5
2F
100
AcDbEntity
  8
0
  6
PHANTOM
 62
               3
100
AcDbLine
 10
26.592224585766786
 20
-16.452591344560531
 30
0.0
 11
47.613440680260652
 21
-16.452591344560531
 31
0.0
  0
LINE
  5
30
100
AcDbEntity
  8
0
  6
PHANTOM
 62
               3
100
AcDbLine
 10
26.592224582132388
 20
-42.43111328287803
 30
0.0
 11
26.592224582132388
 21
-16.452591344560531
 31
0.0
  0
ARC
  5
31
100
AcDbEntity
  8
0
  6
CONTINUOUS
 62
               7
100
AcDbCircle
 10
44.992857994230462
 20
27.499968729012792
 30
0.0
 40
3.9996515494414897
100
AcDbArc
 50
118.94506005844707
 51
61.054939941552675
  0
ARC
  5
32
100
AcDbEntity
  8
0
  6
CONTINUOUS
 62
               7
100
AcDbCircle
 10
44.992857994230462
 20
-27.500021044817572
 30
0.0
 40
3.9996057687884816
100
AcDbArc
 50
298.94542276672013
 51
241.05457723327851
  0
CIRCLE
  5
33
100
AcDbEntity
  8
0
  6
CONTINUOUS
 62
               7
100
AcDbCircle
 10
70.000001277242404
 20
-0.0000261579245517
 30
0.0
 40
4.0000003405979756
  0
CIRCLE
  5
34
100
AcDbEntity
  8
0
  6
CONTINUOUS
 62
               7
100
AcDbCircle
 10
40.000000425747487
 20
-0.0000261579245517
 30
0.0
 40
4.0000003405979756
  0
CIRCLE
  5
35
100
AcDbEntity
  8
0
  6
CONTINUOUS
 62
               7
100
AcDbCircle
 10
-24.999968068939751
 20
-22.000039611544608
 30
0.0
 40
1.5949998854739307
  0
CIRCLE
  5
36
100
AcDbEntity
  8
0
  6
CONTINUOUS
 62
               7
100
AcDbCircle
 10
-24.999968068939751
 20
21.999943699154571
 30
0.0
 40
1.5949998854739307
  0
CIRCLE
  5
37
100
AcDbEntity
  8
0
  6
CONTINUOUS
 62
               2
100
AcDbCircle
 10
-24.999968068939751
 20
-22.000039611544608
 30
0.0
 40
1.9999994891030362
  0
CIRCLE
  5
38
100
AcDbEntity
  8
0
  6
CONTINUOUS
 62
               2
100
AcDbCircle
 10
-24.999968068939751
 20
21.999943699154571
 30
0.0
 40
1.9999994891030362
  0
CIRCLE
  5
39
100
AcDbEntity
  8
0
  6
CONTINUOUS
 62
               7
100
AcDbCircle
 10
40.000000425747487
 20
-0.0000261579245517
 30
0.0
 40
2.2499997658388917
  0
CIRCLE
  5
3A
100
AcDbEntity
  8
0
  6
CONTINUOUS
 62
               7
100
AcDbCircle
 10
45.000000851494946
 20
-27.500026626246779
 30
0.0
 40
2.2499997658388917
  0
CIRCLE
  5
3B
100
AcDbEntity
  8
0
  6
CONTINUOUS
 62
               7
100
AcDbCircle
 10
70.000001277242404
 20
-0.0000261579245517
 30
0.0
 40
2.2499997658388917
  0
CIRCLE
  5
3C
100
AcDbEntity
  8
0
  6
CONTINUOUS
 62
               7
100
AcDbCircle
 10
45.000000851494946
 20
27.499974310397661
 30
0.0
 40
2.2499997658388917
  0
LINE
  5
3D
100
AcDbEntity
  8
0
  6
CONTINUOUS
 62
               7
100
AcDbLine
 10
0.0
 20
31.000000527926872
 30
0.0
 11
10.000000170298989
 21
31.000000527926872
 31
0.0
  0
LINE
  5
3E
100
AcDbEntity
  8
0
  6
CONTINUOUS
 62
               7
100
AcDbLine
 10
0.0
 20
-31.000000527926872
 30
0.0
 11
10.000000170298989
 21
-31.000000527926872
 31
0.0
  0
LINE
  5
3F
100
AcDbEntity
  8
0
  6
CONTINUOUS
 62
               7
100
AcDbLine
 10
0.0
 20
31.000000527926872
 30
0.0
 11
0.0
 21
-31.000000527926872
 31
0.0
  0
LINE
  5
40
100
AcDbEntity
  8
0
  6
CONTINUOUS
 62
               7
100
AcDbLine
 10
10.000000170298989
 20
-30.500000519411927
 30
0.0
 11
10.500000178813934
 21
-31.000000527926872
 31
0.0
  0
LINE
  5
41
100
AcDbEntity
  8
0
  6
CONTINUOUS
 62
               7
100
AcDbLine
 10
10.500000178813934
 20
31.000000527926872
 30
0.0
 11
10.000000170298989
 21
30.500000519411913
 31
0.0
  0
LINE
  5
42
100
AcDbEntity
  8
0
  6
CONTINUOUS
 62
               7
100
AcDbLine
 10
-30.000000851494946
 20
30.500000519411913
 30
0.0
 11
-20.000000681195928
 21
30.500000519411913
 31
0.0
  0
LINE
  5
43
100
AcDbEntity
  8
0
  6
CONTINUOUS
 62
               7
100
AcDbLine
 10
-30.000000851494946
 20
-30.500000519411927
 30
0.0
 11
-20.000000681195928
 21
-30.500000519411927
 31
0.0
  0
LINE
  5
44
100
AcDbEntity
  8
0
  6
CONTINUOUS
 62
               7
100
AcDbLine
 10
-18.000000647136147
 20
16.857143144218298
 30
0.0
 11
-20.000000681195928
 21
13.042857364975674
 31
0.0
  0
LINE
  5
45
100
AcDbEntity
  8
0
  6
CONTINUOUS
 62
               7
100
AcDbLine
 10
-20.000000681195928
 20
14.942857397332475
 30
0.0
 11
-18.000000647136147
 21
11.128571618089865
 31
0.0
  0
LINE
  5
46
100
AcDbEntity
  8
0
  6
CONTINUOUS
 62
               7
100
AcDbLine
 10
-18.000000647136147
 20
-16.871428858747294
 30
0.0
 11
-20.000000681195928
 21
-13.057143079504684
 31
0.0
  0
LINE
  5
47
100
AcDbEntity
  8
0
  6
CONTINUOUS
 62
               7
100
AcDbLine
 10
-18.000000647136147
 20
-11.14285733261886
 30
0.0
 11
-20.000000681195928
 21
-14.957143111861498
 31
0.0
  0
LINE
  5
48
100
AcDbEntity
  8
0
  6
CONTINUOUS
 62
               7
100
AcDbLine
 10
-18.000000647136147
 20
-11.14285733261886
 30
0.0
 11
-18.000000647136147
 21
-16.871428858747294
 31
0.0
  0
LINE
  5
49
100
AcDbEntity
  8
0
  6
CONTINUOUS
 62
               7
100
AcDbLine
 10
-18.000000647136147
 20
16.857143144218298
 30
0.0
 11
-18.000000647136147
 21
11.128571618089865
 31
0.0
  0
LINE
  5
4A
100
AcDbEntity
  8
0
  6
CONTINUOUS
 62
               7
100
AcDbLine
 10
-20.000000681195928
 20
-16.871428858747294
 30
0.0
 11
-18.000000647136147
 21
-16.871428858747294
 31
0.0
  0
LINE
  5
4B
100
AcDbEntity
  8
0
  6
CONTINUOUS
 62
               7
100
AcDbLine
 10
-20.000000681195928
 20
-11.14285733261886
 30
0.0
 11
-18.000000647136147
 21
-11.14285733261886
 31
0.0
  0
LINE
  5
4C
100
AcDbEntity
  8
0
  6
CONTINUOUS
 62
               7
100
AcDbLine
 10
-20.000000681195928
 20
11.128571618089865
 30
0.0
 11
-18.000000647136147
 21
11.128571618089865
 31
0.0
  0
LINE
  5
4D
100
AcDbEntity
  8
0
  6
CONTINUOUS
 62
               7
100
AcDbLine
 10
-20.000000681195928
 20
16.857143144218298
 30
0.0
 11
-18.000000647136147
 21
16.857143144218298
 31
0.0
  0
LINE
  5
4F
100
AcDbEntity
  8
0
  6
CENTER
 62
               2
100
AcDbLine
 10
-25.000000766345437
 20
-18.642857460343109
 30
0.0
 11
-25.000000766345437
 21
-25.600000435965413
 31
0.0
  0
LINE
  5
50
100
AcDbEntity
  8
0
  6
CENTER
 62
               2
100
AcDbLine
 10
-25.000000766345437
 20
25.557143292378413
 30
0.0
 11
-25.000000766345437
 21
18.257143168060153
 31
0.0
  0
LINE
  5
51
100
AcDbEntity
  8
0
  6
CENTER
 62
               2
100
AcDbLine
 10
-36.785715252769222
 20
14.000000238418579
 30
0.0
 11
5.4000000919614592
 21
14.000000238418579
 31
0.0
  0
LINE
  5
52
100
AcDbEntity
  8
0
  6
CONTINUOUS
 62
               7
100
AcDbLine
 10
-20.000000681195928
 20
-9.0000001532690845
 30
0.0
 11
0.0
 21
-9.0000001532690845
 31
0.0
  0
LINE
  5
53
100
AcDbEntity
  8
0
  6
CONTINUOUS
 62
               7
100
AcDbLine
 10
-20.000000681195928
 20
-19.000000323568074
 30
0.0
 11
0.0
 21
-19.000000323568074
 31
0.0
  0
LINE
  5
54
100
AcDbEntity
  8
0
  6
CONTINUOUS
 62
               7
100
AcDbLine
 10
-20.000000681195928
 20
19.000000323568074
 30
0.0
 11
0.0
 21
19.000000323568074
 31
0.0
  0
LINE
  5
55
100
AcDbEntity
  8
0
  6
CONTINUOUS
 62
               7
100
AcDbLine
 10
-20.000000681195928
 20
9.0000001532690845
 30
0.0
 11
0.0
 21
9.0000001532690845
 31
0.0
  0
LINE
  5
56
100
AcDbEntity
  8
0
  6
CENTER
 62
               2
100
AcDbLine
 10
-28.571429398595086
 20
22.000000374657759
 30
0.0
 11
-21.842857855436733
 21
22.000000374657759
 31
0.0
  0
LINE
  5
57
100
AcDbEntity
  8
0
  6
CENTER
 62
               2
100
AcDbLine
 10
-28.228572249899088
 20
-22.000000374657773
 30
0.0
 11
-22.200000718661698
 21
-22.000000374657773
 31
0.0
  0
LINE
  5
58
100
AcDbEntity
  8
0
  6
CONTINUOUS
 62
               7
100
AcDbLine
 10
-30.000000851494946
 20
30.500000519411913
 30
0.0
 11
-30.000000851494946
 21
-30.500000519411927
 31
0.0
  0
LINE
  5
59
100
AcDbEntity
  8
0
  6
CONTINUOUS
 62
               7
100
AcDbLine
 10
-20.000000681195928
 20
30.500000519411913
 30
0.0
 11
-20.000000681195928
 21
-30.500000519411927
 31
0.0
  0
LINE
  5
5A
100
AcDbEntity
  8
0
  6
CONTINUOUS
 62
               7
100
AcDbLine
 10
10.000000170298989
 20
31.000000527926872
 30
0.0
 11
10.000000170298989
 21
-31.000000527926872
 31
0.0
  0
LINE
  5
5B
100
AcDbEntity
  8
0
  6
CONTINUOUS
 62
               7
100
AcDbLine
 10
73.028572757390123
 20
2.6000000442777349
 30
0.0
 11
78.000001668930082
 21
2.6000000442777349
 31
0.0
  0
LINE
  5
5C
100
AcDbEntity
  8
0
  6
CONTINUOUS
 62
               7
100
AcDbLine
 10
43.028571905895177
 20
2.6000000442777349
 30
0.0
 11
66.957144082565719
 21
2.6000000442777349
 31
0.0
  0
LINE
  5
5D
100
AcDbEntity
  8
0
  6
CONTINUOUS
 62
               7
100
AcDbLine
 10
48.61428662733158
 20
25.800000439371388
 30
0.0
 11
78.000001668930082
 21
25.800000439371388
 31
0.0
  0
LINE
  5
5E
100
AcDbEntity
  8
0
  6
CONTINUOUS
 62
               7
100
AcDbLine
 10
10.000000170298989
 20
5.8000000987734239
 30
0.0
 11
78.000001668930082
 21
5.8000000987734239
 31
0.0
  0
LINE
  5
5F
100
AcDbEntity
  8
0
  6
CONTINUOUS
 62
               7
100
AcDbLine
 10
10.000000170298989
 20
2.6000000442777349
 30
0.0
 11
36.957143231070773
 21
2.6000000442777349
 31
0.0
  0
LINE
  5
60
100
AcDbEntity
  8
0
  6
CONTINUOUS
 62
               7
100
AcDbLine
 10
10.000000170298989
 20
22.600000384875699
 30
0.0
 11
78.000001668930082
 21
22.600000384875699
 31
0.0
  0
LINE
  5
61
100
AcDbEntity
  8
0
  6
CONTINUOUS
 62
               7
100
AcDbLine
 10
10.000000170298989
 20
25.800000439371388
 30
0.0
 11
41.371429361129316
 21
25.800000439371388
 31
0.0
  0
LINE
  5
62
100
AcDbEntity
  8
0
  6
CENTER
 62
               2
100
AcDbLine
 10
-37.633223663749135
 20
0.0
 30
0.0
 11
84.897529445006214
 21
0.0
 31
0.0
  0
LINE
  5
63
100
AcDbEntity
  8
0
  6
CONTINUOUS
 62
               7
100
AcDbLine
 10
78.000001668930082
 20
-30.285714801476942
 30
0.0
 11
77.285715942480152
 21
-31.000000527926872
 31
0.0
  0
LINE
  5
64
100
AcDbEntity
  8
0
  6
CONTINUOUS
 62
               7
100
AcDbLine
 10
77.285715942480152
 20
31.000000527926872
 30
0.0
 11
78.000001668930082
 21
30.285714801476942
 31
0.0
  0
LINE
  5
65
100
AcDbEntity
  8
0
  6
CONTINUOUS
 62
               7
100
AcDbLine
 10
10.500000178813934
 20
-31.000000527926872
 30
0.0
 11
77.285715942480152
 21
-31.000000527926872
 31
0.0
  0
LINE
  5
66
100
AcDbEntity
  8
0
  6
CONTINUOUS
 62
               7
100
AcDbLine
 10
10.500000178813934
 20
31.000000527926872
 30
0.0
 11
77.285715942480152
 21
31.000000527926872
 31
0.0
  0
LINE
  5
67
100
AcDbEntity
  8
0
  6
CENTER
 62
               2
100
AcDbLine
 10
45.000000851494946
 20
-21.528571795200833
 30
0.0
 11
45.000000851494946
 21
-33.728572002965578
 31
0.0
  0
LINE
  5
68
100
AcDbEntity
  8
0
  6
CENTER
 62
               2
100
AcDbLine
 10
38.500000740800573
 20
27.500000468322213
 30
0.0
 11
51.200000957080334
 21
27.500000468322213
 31
0.0
  0
LINE
  5
69
100
AcDbEntity
  8
0
  6
CENTER
 62
               2
100
AcDbLine
 10
39.200000752721536
 20
-27.500000468322213
 30
0.0
 11
50.800000950268355
 21
-27.500000468322213
 31
0.0
  0
LINE
  5
6A
100
AcDbEntity
  8
0
  6
CENTER
 62
               2
100
AcDbLine
 10
45.000000851494946
 20
33.000000561986653
 30
0.0
 11
45.000000851494946
 21
21.100000359330863
 31
0.0
  0
LINE
  5
6B
100
AcDbEntity
  8
0
  6
CONTINUOUS
 62
               2
100
AcDbLine
 10
70.000001277242404
 20
6.2000001055853744
 30
0.0
 11
70.000001277242404
 21
-6.0000001021793992
 31
0.0
  0
LINE
  5
6C
100
AcDbEntity
  8
0
  6
CONTINUOUS
 62
               2
100
AcDbLine
 10
40.000000425747487
 20
5.8000000987734239
 30
0.0
 11
40.000000425747487
 21
-6.2000001055853744
 31
0.0
  0
LINE
  5
6D
100
AcDbEntity
  8
0
  6
CONTINUOUS
 62
               7
100
AcDbLine
 10
78.000001668930082
 20
-30.285714801476942
 30
0.0
 11
78.000001668930082
 21
30.285714801476942
 31
0.0
  0
LINE
  5
6E
100
AcDbEntity
  8
0
  6
CENTER
 62
               2
100
AcDbLine
 10
-36.785715252769222
 20
-14.000000238418579
 30
0.0
 11
5.4000000919614592
 21
-14.000000238418579
 31
0.0
  0
ENDBLK
  5
6F
100
AcDbEntity
  8
0
100
AcDbBlockEnd
  0
BLOCK
  5
70
100
AcDbEntity
  8
0
100
AcDbBlockBegin
  2
MS_2
 70
               0
 10
0.0
 20
0.0
 30
0.0
  3
MS_2
  1

  0
CIRCLE
  5
71
100
AcDbEntity
  8
0
  6
CONTINUOUS
 62
               7
100
AcDbCircle
 10
12.500004572527814
 20
14.000000238418579
 30
0.0
 40
4.4999995316777834
  0
CIRCLE
  5
72
100
AcDbEntity
  8
0
  6
CONTINUOUS
 62
               7
100
AcDbCircle
 10
12.500004572527814
 20
-14.000008957726763
 30
0.0
 40
4.4999995316777834
  0
CIRCLE
  5
73
100
AcDbEntity
  8
0
  6
CONTINUOUS
 62
               7
100
AcDbCircle
 10
12.500004572527814
 20
-14.000008957726763
 30
0.0
 40
5.0000000851494937
  0
CIRCLE
  5
74
100
AcDbEntity
  8
0
  6
CONTINUOUS
 62
               7
100
AcDbCircle
 10
12.500004572527814
 20
14.000000238418579
 30
0.0
 40
5.0000000851494937
  0
CIRCLE
  5
75
100
AcDbEntity
  8
0
  6
CONTINUOUS
 62
               7
100
AcDbCircle
 10
12.500004572527814
 20
-27.500026626246779
 30
0.0
 40
1.6199997769083259
  0
CIRCLE
  5
76
100
AcDbEntity
  8
0
  6
CONTINUOUS
 62
               7
100
AcDbCircle
 10
12.500004572527814
 20
27.499974310397661
 30
0.0
 40
1.6199997769083259
  0
CIRCLE
  5
77
100
AcDbEntity
  8
0
  6
CONTINUOUS
 62
               2
100
AcDbCircle
 10
12.500004572527814
 20
-27.500026626246779
 30
0.0
 40
1.9999994891030362
  0
CIRCLE
  5
78
100
AcDbEntity
  8
0
  6
CONTINUOUS
 62
               2
100
AcDbCircle
 10
12.500004572527814
 20
27.499974310397661
 30
0.0
 40
1.9999994891030362
  0
CIRCLE
  5
79
100
AcDbEntity
  8
0
  6
CONTINUOUS
 62
               7
100
AcDbCircle
 10
12.500004572527814
 20
-14.000008957726763
 30
0.0
 40
5.4999992762293015
  0
CIRCLE
  5
7A
100
AcDbEntity
  8
0
  6
CONTINUOUS
 62
               7
100
AcDbCircle
 10
12.500004572527814
 20
14.000000238418579
 30
0.0
 40
5.4999992762293015
  0
LINE
  5
7B
100
AcDbEntity
  8
0
  6
CONTINUOUS
 62
               7
100
AcDbLine
 10
0.7142857264499298
 20
31.000000527926872
 30
0.0
 11
24.285714699297557
 21
31.000000527926872
 31
0.0
  0
LINE
  5
7C
100
AcDbEntity
  8
0
  6
CONTINUOUS
 62
               7
100
AcDbLine
 10
25.000000425747487
 20
-30.285714801476942
 30
0.0
 11
24.285714699297557
 21
-31.000000527926872
 31
0.0
  0
LINE
  5
7D
100
AcDbEntity
  8
0
  6
CONTINUOUS
 62
               7
100
AcDbLine
 10
0.0
 20
-30.285714801476942
 30
0.0
 11
0.7142857264499298
 21
-31.000000527926872
 31
0.0
  0
LINE
  5
7E
100
AcDbEntity
  8
0
  6
CONTINUOUS
 62
               7
100
AcDbLine
 10
24.285714699297557
 20
31.000000527926872
 30
0.0
 11
25.000000425747487
 21
30.285714801476942
 31
0.0
  0
LINE
  5
7F
100
AcDbEntity
  8
0
  6
CONTINUOUS
 62
               7
100
AcDbLine
 10
0.7142857264499298
 20
31.000000527926872
 30
0.0
 11
0.0
 21
30.285714801476942
 31
0.0
  0
LINE
  5
80
100
AcDbEntity
  8
0
  6
CONTINUOUS
 62
               7
100
AcDbLine
 10
0.5000000085149736
 20
30.500000519411913
 30
0.0
 11
24.500000417232457
 21
30.500000519411913
 31
0.0
  0
LINE
  5
81
100
AcDbEntity
  8
0
  6
CONTINUOUS
 62
               7
100
AcDbLine
 10
0.7142857264499298
 20
-31.000000527926872
 30
0.0
 11
24.285714699297557
 21
-31.000000527926872
 31
0.0
  0
LINE
  5
82
100
AcDbEntity
  8
0
  6
CONTINUOUS
 62
               7
100
AcDbLine
 10
0.5000000085149736
 20
-30.500000519411927
 30
0.0
 11
24.500000417232457
 21
-30.500000519411927
 31
0.0
  0
LINE
  5
83
100
AcDbEntity
  8
0
  6
CONTINUOUS
 62
               7
100
AcDbLine
 10
12.500000212873715
 20
-16.900000287805284
 30
0.0
 11
15.000000255448469
 21
-15.442857405847434
 31
0.0
  0
LINE
  5
84
100
AcDbEntity
  8
0
  6
CONTINUOUS
 62
               7
100
AcDbLine
 10
10.000000170298961
 20
-12.557143070989738
 30
0.0
 11
12.500000212873715
 21
-11.114285903560869
 31
0.0
  0
LINE
  5
85
100
AcDbEntity
  8
0
  6
CONTINUOUS
 62
               7
100
AcDbLine
 10
10.000000170298961
 20
-15.442857405847434
 30
0.0
 11
12.500000212873715
 21
-16.900000287805284
 31
0.0
  0
LINE
  5
86
100
AcDbEntity
  8
0
  6
CONTINUOUS
 62
               7
100
AcDbLine
 10
12.500000212873715
 20
-11.114285903560869
 30
0.0
 11
15.000000255448469
 21
-12.557143070989738
 31
0.0
  0
LINE
  5
87
100
AcDbEntity
  8
0
  6
CONTINUOUS
 62
               7
100
AcDbLine
 10
15.000000255448469
 20
-12.557143070989738
 30
0.0
 11
15.000000255448469
 21
-15.442857405847434
 31
0.0
  0
LINE
  5
88
100
AcDbEntity
  8
0
  6
CONTINUOUS
 62
               7
100
AcDbLine
 10
10.000000170298961
 20
-12.557143070989738
 30
0.0
 11
10.000000170298961
 21
-15.442857405847434
 31
0.0
  0
LINE
  5
89
100
AcDbEntity
  8
0
  6
CONTINUOUS
 62
               7
100
AcDbLine
 10
12.500000212873715
 20
11.100000189031874
 30
0.0
 11
15.000000255448469
 21
12.557143070989724
 31
0.0
  0
LINE
  5
8A
100
AcDbEntity
  8
0
  6
CONTINUOUS
 62
               7
100
AcDbLine
 10
10.000000170298961
 20
15.442857405847448
 30
0.0
 11
12.500000212873715
 21
16.885714573276289
 31
0.0
  0
LINE
  5
8B
100
AcDbEntity
  8
0
  6
CONTINUOUS
 62
               7
100
AcDbLine
 10
10.000000170298961
 20
12.557143070989724
 30
0.0
 11
12.500000212873715
 21
11.100000189031874
 31
0.0
  0
LINE
  5
8C
100
AcDbEntity
  8
0
  6
CONTINUOUS
 62
               7
100
AcDbLine
 10
12.500000212873715
 20
16.885714573276289
 30
0.0
 11
15.000000255448469
 21
15.442857405847448
 31
0.0
  0
LINE
  5
8D
100
AcDbEntity
  8
0
  6
CONTINUOUS
 62
               7
100
AcDbLine
 10
15.000000255448469
 20
15.442857405847448
 30
0.0
 11
15.000000255448469
 21
12.557143070989724
 31
0.0
  0
LINE
  5
8E
100
AcDbEntity
  8
0
  6
CONTINUOUS
 62
               7
100
AcDbLine
 10
10.000000170298961
 20
15.442857405847448
 30
0.0
 11
10.000000170298961
 21
12.557143070989724
 31
0.0
  0
LINE
  5
8F
100
AcDbEntity
  8
0
  6
CENTER
 62
               2
100
AcDbLine
 10
9.3000001583780545
 20
-27.500000468322213
 30
0.0
 11
15.385714547731425
 21
-27.500000468322213
 31
0.0
  0
LINE
  5
90
100
AcDbEntity
  8
0
  6
CENTER
 62
               2
100
AcDbLine
 10
9.3000001583780545
 20
27.500000468322213
 30
0.0
 11
15.900000270775365
 21
27.500000468322213
 31
0.0
  0
LINE
  5
91
100
AcDbEntity
  8
0
  6
CONTINUOUS
 62
               7
100
AcDbLine
 10
0.0
 20
30.285714801476942
 30
0.0
 11
0.0
 21
-30.285714801476942
 31
0.0
  0
LINE
  5
92
100
AcDbEntity
  8
0
  6
CONTINUOUS
 62
               7
100
AcDbLine
 10
25.000000425747487
 20
30.285714801476942
 30
0.0
 11
25.000000425747487
 21
-30.285714801476942
 31
0.0
  0
LINE
  5
93
100
AcDbEntity
  8
0
  6
CONTINUOUS
 62
               7
100
AcDbLine
 10
0.5000000085149736
 20
30.500000519411913
 30
0.0
 11
0.5000000085149736
 21
-30.500000519411927
 31
0.0
  0
LINE
  5
94
100
AcDbEntity
  8
0
  6
CONTINUOUS
 62
               7
100
AcDbLine
 10
24.500000417232457
 20
30.500000519411913
 30
0.0
 11
24.500000417232457
 21
-30.500000519411927
 31
0.0
  0
LINE
  5
95
100
AcDbEntity
  8
0
  6
CENTER
 62
               2
100
AcDbLine
 10
12.500000212873715
 20
35.800000609670391
 30
0.0
 11
12.500000212873715
 21
-37.400000636918193
 31
0.0
  0
LINE
  5
96
100
AcDbEntity
  8
0
  6
CENTER
 62
               2
100
AcDbLine
 10
5.8428572423603669
 20
14.000000238418579
 30
0.0
 11
19.157143183387063
 21
14.000000238418579
 31
0.0
  0
LINE
  5
97
100
AcDbEntity
  8
0
  6
CENTER
 62
               2
100
AcDbLine
 10
5.6285715244254106
 20
-14.000000238418579
 30
0.0
 11
19.157143183387063
 21
-14.000000238418579
 31
0.0
  0
LINE
  5
98
100
AcDbEntity
  8
0
  6
CENTER
 62
               2
100
AcDbLine
 10
-3.9000000664166237
 20
0.0
 30
0.0
 11
28.100000478540153
 21
0.0
 31
0.0
  0
ENDBLK
  5
99
100
AcDbEntity
  8
0
100
AcDbBlockEnd
  0
BLOCK
  5
9A
100
AcDbEntity
  8
0
100
AcDbBlockBegin
  2
MS_3
 70
               0
 10
0.0
 20
0.0
 30
0.0
  3
MS_3
  1

  0
LINE
  5
9B
100
AcDbEntity
  8
0
  6
CENTER
 62
               2
100
AcDbLine
 10
-28.214286194772171
 20
0.0
 30
0.0
 11
3.9571429245326044
 21
0.0
 31
0.0
  0
LINE
  5
9C
100
AcDbEntity
  8
0
  6
CENTER
 62
               2
100
AcDbLine
 10
-26.785714741872312
 20
-14.000000238418579
 30
0.0
 11
2.5428571861617399
 21
-14.000000238418579
 31
0.0
  0
LINE
  5
9D
100
AcDbEntity
  8
0
  6
CENTER
 62
               2
100
AcDbLine
 10
-29.285714784447038
 20
4.2000000715255794
 30
0.0
 11
3.9571429245326044
 21
4.2000000715255794
 31
0.0
  0
LINE
  5
9E
100
AcDbEntity
  8
0
  6
CENTER
 62
               2
100
AcDbLine
 10
-28.214286194772171
 20
24.200000412123543
 30
0.0
 11
3.9571429245326044
 21
24.200000412123543
 31
0.0
  0
ARC
  5
9F
100
AcDbEntity
  8
0
  6
CONTINUOUS
 62
               7
100
AcDbCircle
 10
-22.400000381469738
 20
4.2000000715255794
 30
0.0
 40
2.1000000358281321
100
AcDbArc
 50
269.99999999999937
 51
89.999999999999801
  0
ARC
  5
A0
100
AcDbEntity
  8
0
  6
CONTINUOUS
 62
               7
100
AcDbCircle
 10
-22.400000381469738
 20
24.200000412123543
 30
0.0
 40
2.1000000358281321
100
AcDbArc
 50
269.99999999999937
 51
89.999999999999801
  0
ARC
  5
A1
100
AcDbEntity
  8
0
  6
CONTINUOUS
 62
               7
100
AcDbCircle
 10
-2.6000000442777491
 20
24.200000412123543
 30
0.0
 40
2.1000000358214348
100
AcDbArc
 50
89.999999999999801
 51
269.99999999999937
  0
ARC
  5
A2
100
AcDbEntity
  8
0
  6
CONTINUOUS
 62
               7
100
AcDbCircle
 10
-12.500000212873744
 20
28.383545405243936
 30
0.0
 40
2.1000349892696653
100
AcDbArc
 50
180.33057525738624
 51
359.66942474261253
  0
ARC
  5
A3
100
AcDbEntity
  8
0
  6
CONTINUOUS
 62
               7
100
AcDbCircle
 10
-2.6000000442777491
 20
4.2000000715255794
 30
0.0
 40
2.1000000358214348
100
AcDbArc
 50
89.999999999999801
 51
269.99999999999937
  0
CIRCLE
  5
A4
100
AcDbEntity
  8
0
  6
CONTINUOUS
 62
               7
100
AcDbCircle
 10
-12.500005444458651
 20
-21.000043954168802
 30
0.0
 40
1.0500002086162603
  0
CIRCLE
  5
A5
100
AcDbEntity
  8
0
  6
CONTINUOUS
 62
               7
100
AcDbCircle
 10
-12.500005444458651
 20
-7.0000393560961243
 30
0.0
 40
1.0500002086162603
  0
CIRCLE
  5
A6
100
AcDbEntity
  8
0
  6
CONTINUOUS
 62
               7
100
AcDbCircle
 10
-12.500005444458651
 20
6.9999652419765539
 30
0.0
 40
1.0500002086162603
  0
CIRCLE
  5
A7
100
AcDbEntity
  8
0
  6
CONTINUOUS
 62
               7
100
AcDbCircle
 10
-12.500005444458651
 20
20.999969840049232
 30
0.0
 40
1.0500002086162603
  0
CIRCLE
  5
A8
100
AcDbEntity
  8
0
  6
CONTINUOUS
 62
               7
100
AcDbCircle
 10
-12.500005444458651
 20
-14.00003075599723
 30
0.0
 40
10.000000170298987
  0
CIRCLE
  5
A9
100
AcDbEntity
  8
0
  6
CONTINUOUS
 62
               7
100
AcDbCircle
 10
-12.500005444458651
 20
13.999978440148126
 30
0.0
 40
10.000000170298987
  0
CIRCLE
  5
AA
100
AcDbEntity
  8
0
  6
CONTINUOUS
 62
               7
100
AcDbCircle
 10
-12.500005444458651
 20
-14.00003075599723
 30
0.0
 40
10.500000723770698
  0
CIRCLE
  5
AB
100
AcDbEntity
  8
0
  6
CONTINUOUS
 62
               7
100
AcDbCircle
 10
-12.500005444458651
 20
13.999978440148126
 30
0.0
 40
10.500000723770698
  0
LINE
  5
AC
100
AcDbEntity
  8
0
  6
CONTINUOUS
 62
               7
100
AcDbLine
 10
-24.500000417232542
 20
5.8000000987734239
 30
0.0
 11
-24.000000408717597
 21
6.3000001072883549
 31
0.0
  0
LINE
  5
AD
100
AcDbEntity
  8
0
  6
CONTINUOUS
 62
               7
100
AcDbLine
 10
-24.000000408717597
 20
6.3000001072883549
 30
0.0
 11
-22.400000381469738
 21
6.3000001072883549
 31
0.0
  0
LINE
  5
AE
100
AcDbEntity
  8
0
  6
CONTINUOUS
 62
               7
100
AcDbLine
 10
-24.000000408717597
 20
2.1000000357627897
 30
0.0
 11
-22.400000381469738
 21
2.1000000357627897
 31
0.0
  0
LINE
  5
AF
100
AcDbEntity
  8
0
  6
CONTINUOUS
 62
               7
100
AcDbLine
 10
-24.500000417232542
 20
2.6000000442777349
 30
0.0
 11
-24.000000408717597
 21
2.1000000357627897
 31
0.0
  0
LINE
  5
B0
100
AcDbEntity
  8
0
  6
CONTINUOUS
 62
               7
100
AcDbLine
 10
-25.000000425747487
 20
5.8000000987734239
 30
0.0
 11
-24.500000417232542
 21
5.8000000987734239
 31
0.0
  0
LINE
  5
B1
100
AcDbEntity
  8
0
  6
CONTINUOUS
 62
               7
100
AcDbLine
 10
-25.000000425747487
 20
2.6000000442777349
 30
0.0
 11
-24.500000417232542
 21
2.6000000442777349
 31
0.0
  0
LINE
  5
B2
100
AcDbEntity
  8
0
  6
CONTINUOUS
 62
               7
100
AcDbLine
 10
-24.000000408717597
 20
2.1000000357627897
 30
0.0
 11
-22.428571810527757
 21
2.1000000357627897
 31
0.0
  0
LINE
  5
B3
100
AcDbEntity
  8
0
  6
CONTINUOUS
 62
               7
100
AcDbLine
 10
-24.500000417232542
 20
25.800000439371388
 30
0.0
 11
-24.000000408717597
 21
26.300000447886333
 31
0.0
  0
LINE
  5
B4
100
AcDbEntity
  8
0
  6
CONTINUOUS
 62
               7
100
AcDbLine
 10
-24.000000408717597
 20
26.300000447886333
 30
0.0
 11
-22.400000381469738
 21
26.300000447886333
 31
0.0
  0
LINE
  5
B5
100
AcDbEntity
  8
0
  6
CONTINUOUS
 62
               7
100
AcDbLine
 10
-24.000000408717597
 20
22.100000376360768
 30
0.0
 11
-22.400000381469738
 21
22.100000376360768
 31
0.0
  0
LINE
  5
B6
100
AcDbEntity
  8
0
  6
CONTINUOUS
 62
               7
100
AcDbLine
 10
-24.500000417232542
 20
22.600000384875699
 30
0.0
 11
-24.000000408717597
 21
22.100000376360768
 31
0.0
  0
LINE
  5
B7
100
AcDbEntity
  8
0
  6
CONTINUOUS
 62
               7
100
AcDbLine
 10
-25.000000425747487
 20
25.800000439371388
 30
0.0
 11
-24.500000417232542
 21
25.800000439371388
 31
0.0
  0
LINE
  5
B8
100
AcDbEntity
  8
0
  6
CONTINUOUS
 62
               7
100
AcDbLine
 10
-25.000000425747487
 20
22.600000384875699
 30
0.0
 11
-24.500000417232542
 21
22.600000384875699
 31
0.0
  0
LINE
  5
B9
100
AcDbEntity
  8
0
  6
CONTINUOUS
 62
               7
100
AcDbLine
 10
-24.000000408717597
 20
22.100000376360768
 30
0.0
 11
-22.428571810527757
 21
22.100000376360768
 31
0.0
  0
LINE
  5
BA
100
AcDbEntity
  8
0
  6
CONTINUOUS
 62
               7
100
AcDbLine
 10
-25.000000425747487
 20
22.600000384875699
 30
0.0
 11
-25.000000425747487
 21
5.8000000987734239
 31
0.0
  0
LINE
  5
BB
100
AcDbEntity
  8
0
  6
CONTINUOUS
 62
               7
100
AcDbLine
 10
0.0
 20
25.800000439371388
 30
0.0
 11
-0.5000000085149452
 21
25.800000439371388
 31
0.0
  0
LINE
  5
BC
100
AcDbEntity
  8
0
  6
CONTINUOUS
 62
               7
100
AcDbLine
 10
-1.0000000170299472
 20
26.300000447886333
 30
0.0
 11
-2.6000000442777491
 21
26.300000447886333
 31
0.0
  0
LINE
  5
BD
100
AcDbEntity
  8
0
  6
CONTINUOUS
 62
               7
100
AcDbLine
 10
-0.5000000085149452
 20
25.800000439371388
 30
0.0
 11
-1.0000000170299472
 21
26.300000447886333
 31
0.0
  0
LINE
  5
BE
100
AcDbEntity
  8
0
  6
CONTINUOUS
 62
               7
100
AcDbLine
 10
-0.5000000085149452
 20
22.600000384875699
 30
0.0
 11
-1.0000000170299472
 21
22.100000376360768
 31
0.0
  0
LINE
  5
BF
100
AcDbEntity
  8
0
  6
CONTINUOUS
 62
               7
100
AcDbLine
 10
0.0
 20
22.600000384875699
 30
0.0
 11
-0.5000000085149452
 21
22.600000384875699
 31
0.0
  0
LINE
  5
C0
100
AcDbEntity
  8
0
  6
CONTINUOUS
 62
               7
100
AcDbLine
 10
-1.0000000170299472
 20
22.100000376360768
 30
0.0
 11
-2.6000000442777491
 21
22.100000376360768
 31
0.0
  0
LINE
  5
C1
100
AcDbEntity
  8
0
  6
CONTINUOUS
 62
               7
100
AcDbLine
 10
-10.900000185625913
 20
31.000000527926872
 30
0.0
 11
-10.900000185625913
 21
30.471429090353922
 31
0.0
  0
LINE
  5
C2
100
AcDbEntity
  8
0
  6
CONTINUOUS
 62
               7
100
AcDbLine
 10
-14.100000240121574
 20
31.000000527926872
 30
0.0
 11
-14.100000240121574
 21
30.471429090353922
 31
0.0
  0
LINE
  5
C3
100
AcDbEntity
  8
0
  6
CONTINUOUS
 62
               7
100
AcDbLine
 10
-14.600000248636547
 20
29.971429081838977
 30
0.0
 11
-14.100000240121574
 21
30.471429090353922
 31
0.0
  0
LINE
  5
C4
100
AcDbEntity
  8
0
  6
CONTINUOUS
 62
               7
100
AcDbLine
 10
-14.600000248636547
 20
29.971429081838977
 30
0.0
 11
-14.600000248636547
 21
28.371429054591133
 31
0.0
  0
LINE
  5
C5
100
AcDbEntity
  8
0
  6
CONTINUOUS
 62
               7
100
AcDbLine
 10
-10.900000185625913
 20
30.471429090353922
 30
0.0
 11
-10.400000177110968
 21
29.971429081838977
 31
0.0
  0
LINE
  5
C6
100
AcDbEntity
  8
0
  6
CONTINUOUS
 62
               7
100
AcDbLine
 10
-10.400000177110968
 20
29.971429081838977
 30
0.0
 11
-10.400000177110968
 21
28.371429054591133
 31
0.0
  0
LINE
  5
C7
100
AcDbEntity
  8
0
  6
CONTINUOUS
 62
               7
100
AcDbLine
 10
0.0
 20
2.6000000442777349
 30
0.0
 11
-0.5000000085149452
 21
2.6000000442777349
 31
0.0
  0
LINE
  5
C8
100
AcDbEntity
  8
0
  6
CONTINUOUS
 62
               7
100
AcDbLine
 10
0.0
 20
5.8000000987734239
 30
0.0
 11
-0.5000000085149452
 21
5.8000000987734239
 31
0.0
  0
LINE
  5
C9
100
AcDbEntity
  8
0
  6
CONTINUOUS
 62
               7
100
AcDbLine
 10
-1.0000000170299472
 20
6.3000001072883549
 30
0.0
 11
-2.6000000442777491
 21
6.3000001072883549
 31
0.0
  0
LINE
  5
CA
100
AcDbEntity
  8
0
  6
CONTINUOUS
 62
               7
100
AcDbLine
 10
-0.5000000085149452
 20
5.8000000987734239
 30
0.0
 11
-1.0000000170299472
 21
6.3000001072883549
 31
0.0
  0
LINE
  5
CB
100
AcDbEntity
  8
0
  6
CONTINUOUS
 62
               7
100
AcDbLine
 10
-0.5000000085149452
 20
2.6000000442777349
 30
0.0
 11
-1.0000000170299472
 21
2.1000000357627897
 31
0.0
  0
LINE
  5
CC
100
AcDbEntity
  8
0
  6
CONTINUOUS
 62
               7
100
AcDbLine
 10
-1.0000000170299472
 20
2.1000000357627897
 30
0.0
 11
-2.6000000442777491
 21
2.1000000357627897
 31
0.0
  0
LINE
  5
CD
100
AcDbEntity
  8
0
  6
CONTINUOUS
 62
               7
100
AcDbLine
 10
0.0
 20
-30.285714801476942
 30
0.0
 11
-0.7142857264499298
 21
-31.000000527926872
 31
0.0
  0
LINE
  5
CE
100
AcDbEntity
  8
0
  6
CONTINUOUS
 62
               7
100
AcDbLine
 10
-25.000000425747487
 20
-30.285714801476942
 30
0.0
 11
-24.285714699297557
 21
-31.000000527926872
 31
0.0
  0
LINE
  5
CF
100
AcDbEntity
  8
0
  6
CONTINUOUS
 62
               7
100
AcDbLine
 10
-0.7142857264499298
 20
31.000000527926872
 30
0.0
 11
0.0
 21
30.285714801476942
 31
0.0
  0
LINE
  5
D0
100
AcDbEntity
  8
0
  6
CONTINUOUS
 62
               7
100
AcDbLine
 10
-24.285714699297557
 20
31.000000527926872
 30
0.0
 11
-25.000000425747487
 21
30.285714801476942
 31
0.0
  0
LINE
  5
D1
100
AcDbEntity
  8
0
  6
CONTINUOUS
 62
               7
100
AcDbLine
 10
-24.285714699297557
 20
-31.000000527926872
 30
0.0
 11
-0.7142857264499298
 21
-31.000000527926872
 31
0.0
  0
LINE
  5
D2
100
AcDbEntity
  8
0
  6
CONTINUOUS
 62
               7
100
AcDbLine
 10
-24.285714699297557
 20
31.000000527926872
 30
0.0
 11
-0.7142857264499298
 21
31.000000527926872
 31
0.0
  0
LINE
  5
D3
100
AcDbEntity
  8
0
  6
CONTINUOUS
 62
               7
100
AcDbLine
 10
0.0
 20
30.285714801476942
 30
0.0
 11
0.0
 21
-30.285714801476942
 31
0.0
  0
LINE
  5
D4
100
AcDbEntity
  8
0
  6
CONTINUOUS
 62
               7
100
AcDbLine
 10
-25.000000425747487
 20
2.6000000442777349
 30
0.0
 11
-25.000000425747487
 21
-30.285714801476942
 31
0.0
  0
LINE
  5
D5
100
AcDbEntity
  8
0
  6
CENTER
 62
               2
100
AcDbLine
 10
-26.785714741872312
 20
14.000000238418579
 30
0.0
 11
2.2857143246397413
 21
14.000000238418579
 31
0.0
  0
LINE
  5
D6
100
AcDbEntity
  8
0
  6
CONTINUOUS
 62
               7
100
AcDbLine
 10
-25.000000425747487
 20
30.285714801476942
 30
0.0
 11
-25.000000425747487
 21
25.800000439371388
 31
0.0
  0
LINE
  5
D7
100
AcDbEntity
  8
0
  6
CENTER
 62
               2
100
AcDbLine
 10
-12.500000212873744
 20
35.300000601155418
 30
0.0
 11
-12.500000212873744
 21
-36.928572057461267
 31
0.0
  0
LINE
  5
D8
100
AcDbEntity
  8
0
  6
CENTER
 62
               2
100
AcDbLine
 10
-14.500000246933553
 20
-21.000000357627883
 30
0.0
 11
-10.500000178813934
 21
-21.000000357627883
 31
0.0
  0
LINE
  5
D9
100
AcDbEntity
  8
0
  6
CENTER
 62
               2
100
AcDbLine
 10
-14.500000246933553
 20
-7.0000001192093038
 30
0.0
 11
-10.500000178813934
 21
-7.0000001192093038
 31
0.0
  0
LINE
  5
DA
100
AcDbEntity
  8
0
  6
CENTER
 62
               2
100
AcDbLine
 10
-14.500000246933553
 20
7.0000001192092753
 30
0.0
 11
-10.500000178813934
 21
7.0000001192092753
 31
0.0
  0
LINE
  5
DB
100
AcDbEntity
  8
0
  6
CENTER
 62
               2
100
AcDbLine
 10
-14.500000246933553
 20
21.000000357627883
 30
0.0
 11
-10.500000178813934
 21
21.000000357627883
 31
0.0
  0
ENDBLK
  5
DC
100
AcDbEntity
  8
0
100
AcDbBlockEnd
  0
BLOCK
  5
DD
100
AcDbEntity
  8
0
100
AcDbBlockBegin
  2
MS_4
 70
               0
 10
0.0
 20
0.0
 30
0.0
  3
MS_4
  1

  0
LINE
  5
DE
100
AcDbEntity
  8
0
  6
PHANTOM
 62
               3
100
AcDbLine
 10
-13.156556268336985
 20
-3.7831098669671803
 30
0.0
 11
-13.156556268336985
 21
36.783174802212898
 31
0.0
  0
LINE
  5
DF
100
AcDbEntity
  8
0
  6
PHANTOM
 62
               3
100
AcDbLine
 10
26.592224582132388
 20
-3.7831098669671803
 30
0.0
 11
26.592224582132388
 21
36.783174802212898
 31
0.0
  0
LINE
  5
E0
100
AcDbEntity
  8
0
  6
PHANTOM
 62
               3
100
AcDbLine
 10
57.478258903332602
 20
-3.7831098669671803
 30
0.0
 11
57.478258903332602
 21
36.783174802212898
 31
0.0
  0
CIRCLE
  5
E1
100
AcDbEntity
  8
0
  6
CONTINUOUS
 62
               7
100
AcDbCircle
 10
5.0000000851495088
 20
12.500000212873744
 30
0.0
 40
1.0
  0
CIRCLE
  5
E2
100
AcDbEntity
  8
0
  6
CONTINUOUS
 62
               7
100
AcDbCircle
 10
5.0000218834199472
 20
12.500000212873744
 30
0.0
 40
2.2294998548626874
  0
CIRCLE
  5
E3
100
AcDbEntity
  8
0
  6
CONTINUOUS
 62
               2
100
AcDbCircle
 10
5.0000218834199472
 20
12.500000212873744
 30
0.0
 40
2.5000000425747468
  0
CIRCLE
  5
E4
100
AcDbEntity
  8
0
  6
CONTINUOUS
 62
               7
100
AcDbCircle
 10
65.999975306646746
 20
12.500000212873744
 30
0.0
 40
1.0
  0
CIRCLE
  5
E5
100
AcDbEntity
  8
0
  6
CONTINUOUS
 62
               7
100
AcDbCircle
 10
15.000000596046448
 20
12.500000212873744
 30
0.0
 40
1.0
  0
CIRCLE
  5
E6
100
AcDbEntity
  8
0
  6
CONTINUOUS
 62
               7
100
AcDbCircle
 10
65.999975306646746
 20
12.500000212873744
 30
0.0
 40
2.0949990765537376
  0
CIRCLE
  5
E7
100
AcDbEntity
  8
0
  6
CONTINUOUS
 62
               7
100
AcDbCircle
 10
15.000000596046448
 20
12.500000212873744
 30
0.0
 40
2.0949990765537376
  0
CIRCLE
  5
E8
100
AcDbEntity
  8
0
  6
CONTINUOUS
 62
               2
100
AcDbCircle
 10
65.999975306646746
 20
12.500000212873744
 30
0.0
 40
2.5000000425747468
  0
CIRCLE
  5
E9
100
AcDbEntity
  8
0
  6
CONTINUOUS
 62
               2
100
AcDbCircle
 10
15.000000596046448
 20
12.500000212873744
 30
0.0
 40
2.5000000425747468
  0
LINE
  5
EA
100
AcDbEntity
  8
0
  6
CONTINUOUS
 62
               7
100
AcDbLine
 10
46.928572312909751
 20
0.0
 30
0.0
 11
46.928572312909751
 21
5.500000093664454
 31
0.0
  0
LINE
  5
EB
100
AcDbEntity
  8
0
  6
CONTINUOUS
 62
               7
100
AcDbLine
 10
43.057143675551117
 20
0.0
 30
0.0
 11
43.057143675551117
 21
5.500000093664454
 31
0.0
  0
LINE
  5
EC
100
AcDbEntity
  8
0
  6
CONTINUOUS
 62
               7
100
AcDbLine
 10
43.057143675551117
 20
5.500000093664454
 30
0.0
 11
46.928572312909751
 21
5.500000093664454
 31
0.0
  0
LINE
  5
ED
100
AcDbEntity
  8
0
  6
CONTINUOUS
 62
               7
100
AcDbLine
 10
46.928572312909751
 20
25.000000425747487
 30
0.0
 11
46.928572312909751
 21
19.500000332083061
 31
0.0
  0
LINE
  5
EE
100
AcDbEntity
  8
0
  6
CONTINUOUS
 62
               7
100
AcDbLine
 10
43.057143675551117
 20
25.000000425747487
 30
0.0
 11
43.057143675551117
 21
19.500000332083061
 31
0.0
  0
LINE
  5
EF
100
AcDbEntity
  8
0
  6
CENTER
 62
               2
100
AcDbLine
 10
5.0000000851495088
 20
16.000000272478388
 30
0.0
 11
5.0000000851495088
 21
9.0000001532691272
 31
0.0
  0
LINE
  5
F0
100
AcDbEntity
  8
0
  6
CONTINUOUS
 62
               7
100
AcDbLine
 10
0.0
 20
0.0
 30
0.0
 11
10.000000170298989
 21
0.0
 31
0.0
  0
LINE
  5
F1
100
AcDbEntity
  8
0
  6
CONTINUOUS
 62
               7
100
AcDbLine
 10
0.0
 20
25.000000425747487
 30
0.0
 11
10.000000170298989
 21
25.000000425747487
 31
0.0
  0
LINE
  5
F2
100
AcDbEntity
  8
0
  6
CONTINUOUS
 62
               7
100
AcDbLine
 10
0.0
 20
25.000000425747487
 30
0.0
 11
0.0
 21
0.0
 31
0.0
  0
LINE
  5
F3
100
AcDbEntity
  8
0
  6
CONTINUOUS
 62
               7
100
AcDbLine
 10
43.057143675551117
 20
19.500000332083061
 30
0.0
 11
46.928572312909751
 21
19.500000332083061
 31
0.0
  0
LINE
  5
F4
100
AcDbEntity
  8
0
  6
CONTINUOUS
 62
               7
100
AcDbLine
 10
-30.000000851494946
 20
24.500000417232542
 30
0.0
 11
-30.000000851494946
 21
0.5000000085149452
 31
0.0
  0
LINE
  5
F5
100
AcDbEntity
  8
0
  6
CONTINUOUS
 62
               7
100
AcDbLine
 10
10.000000170298989
 20
0.7142857264499298
 30
0.0
 11
10.714285896748919
 21
0.0
 31
0.0
  0
LINE
  5
F6
100
AcDbEntity
  8
0
  6
CONTINUOUS
 62
               7
100
AcDbLine
 10
10.714285896748919
 20
25.000000425747487
 30
0.0
 11
10.000000170298989
 21
24.285714699297557
 31
0.0
  0
LINE
  5
F7
100
AcDbEntity
  8
0
  6
CONTINUOUS
 62
               7
100
AcDbLine
 10
-18.000000647136147
 20
8.4000001430511588
 30
0.0
 11
-18.000000647136147
 21
7.5000001277242632
 31
0.0
  0
LINE
  5
F8
100
AcDbEntity
  8
0
  6
CONTINUOUS
 62
               7
100
AcDbLine
 10
-18.000000647136147
 20
17.500000298023252
 30
0.0
 11
-18.000000647136147
 21
16.600000282696328
 31
0.0
  0
LINE
  5
F9
100
AcDbEntity
  8
0
  6
CONTINUOUS
 62
               7
100
AcDbLine
 10
-21.000000698225818
 20
16.600000282696328
 30
0.0
 11
-18.000000647136147
 21
16.600000282696328
 31
0.0
  0
LINE
  5
FA
100
AcDbEntity
  8
0
  6
CONTINUOUS
 62
               7
100
AcDbLine
 10
-21.000000698225818
 20
8.4000001430511588
 30
0.0
 11
-18.000000647136147
 21
8.4000001430511588
 31
0.0
  0
LINE
  5
FB
100
AcDbEntity
  8
0
  6
CONTINUOUS
 62
               7
100
AcDbLine
 10
-21.000000698225818
 20
16.600000282696328
 30
0.0
 11
-21.000000698225818
 21
8.4000001430511588
 31
0.0
  0
LINE
  5
FC
100
AcDbEntity
  8
0
  6
CONTINUOUS
 62
               7
100
AcDbLine
 10
-18.000000647136147
 20
17.500000298023252
 30
0.0
 11
0.0
 21
17.500000298023252
 31
0.0
  0
LINE
  5
FD
100
AcDbEntity
  8
0
  6
CONTINUOUS
 62
               7
100
AcDbLine
 10
-18.000000647136147
 20
7.5000001277242632
 30
0.0
 11
0.0
 21
7.5000001277242632
 31
0.0
  0
LINE
  5
FE
100
AcDbEntity
  8
0
  6
CONTINUOUS
 62
               7
100
AcDbLine
 10
-30.000000851494946
 20
24.500000417232542
 30
0.0
 11
-20.000000681195928
 21
24.500000417232542
 31
0.0
  0
LINE
  5
FF
100
AcDbEntity
  8
0
  6
CONTINUOUS
 62
               7
100
AcDbLine
 10
-30.000000851494946
 20
0.5000000085149452
 30
0.0
 11
-20.000000681195928
 21
0.5000000085149452
 31
0.0
  0
LINE
  5
100
100
AcDbEntity
  8
0
  6
CONTINUOUS
 62
               7
100
AcDbLine
 10
-20.000000681195928
 20
24.500000417232542
 30
0.0
 11
-20.000000681195928
 21
16.600000282696328
 31
0.0
  0
LINE
  5
101
100
AcDbEntity
  8
0
  6
CONTINUOUS
 62
               7
100
AcDbLine
 10
-30.000000851494946
 20
24.500000417232542
 30
0.0
 11
-30.000000851494946
 21
0.5000000085149452
 31
0.0
  0
LINE
  5
102
100
AcDbEntity
  8
0
  6
CONTINUOUS
 62
               7
100
AcDbLine
 10
-20.000000681195928
 20
8.4000001430511588
 30
0.0
 11
-20.000000681195928
 21
0.5000000085149452
 31
0.0
  0
LINE
  5
103
100
AcDbEntity
  8
0
  6
CONTINUOUS
 62
               7
100
AcDbLine
 10
10.000000170298989
 20
25.000000425747487
 30
0.0
 11
10.000000170298989
 21
0.0
 31
0.0
  0
LINE
  5
104
100
AcDbEntity
  8
0
  6
CONTINUOUS
 62
               7
100
AcDbLine
 10
78.000001668930082
 20
0.7142857264499298
 30
0.0
 11
77.285715942480152
 21
0.0
 31
0.0
  0
LINE
  5
105
100
AcDbEntity
  8
0
  6
CONTINUOUS
 62
               7
100
AcDbLine
 10
77.285715942480152
 20
25.000000425747487
 30
0.0
 11
78.000001668930082
 21
24.285714699297557
 31
0.0
  0
LINE
  5
106
100
AcDbEntity
  8
0
  6
CENTER
 62
               2
100
AcDbLine
 10
66.000001464571312
 20
16.500000280993362
 30
0.0
 11
66.000001464571312
 21
8.4142858575801824
 31
0.0
  0
LINE
  5
107
100
AcDbEntity
  8
0
  6
CENTER
 62
               2
100
AcDbLine
 10
15.000000596046448
 20
16.885714573276289
 30
0.0
 11
15.000000596046448
 21
8.2285715687031598
 31
0.0
  0
LINE
  5
108
100
AcDbEntity
  8
0
  6
CONTINUOUS
 62
               7
100
AcDbLine
 10
10.714285896748919
 20
0.0
 30
0.0
 11
77.285715942480152
 21
0.0
 31
0.0
  0
LINE
  5
109
100
AcDbEntity
  8
0
  6
CONTINUOUS
 62
               7
100
AcDbLine
 10
10.714285896748919
 20
25.000000425747487
 30
0.0
 11
77.285715942480152
 21
25.000000425747487
 31
0.0
  0
LINE
  5
10A
100
AcDbEntity
  8
0
  6
CENTER
 62
               2
100
AcDbLine
 10
-33.400000909396596
 20
12.500000212873744
 30
0.0
 11
83.769163980546409
 21
12.500000212873744
 31
0.0
  0
LINE
  5
10B
100
AcDbEntity
  8
0
  6
CONTINUOUS
 62
               7
100
AcDbLine
 10
78.000001668930082
 20
24.285714699297557
 30
0.0
 11
78.000001668930082
 21
0.7142857264499298
 31
0.0
  0
ENDBLK
  5
10C
100
AcDbEntity
  8
0
100
AcDbBlockEnd
  0
BLOCK
  5
10D
100
AcDbEntity
  8
0
100
AcDbBlockBegin
  2
MS_5
 70
               0
 10
0.0
 20
0.0
 30
0.0
  3
MS_5
  1

  0
LINE
  5
10E
100
AcDbEntity
  8
0
  6
CONTINUOUS
 62
               4
100
AcDbLine
 10
0.7435949707031284
 20
0.5004754638671898
 30
0.0
 11
3.2435949707031284
 21
0.5004754638671898
 31
0.0
  0
LINE
  5
10F
100
AcDbEntity
  8
0
  6
CONTINUOUS
 62
               4
100
AcDbLine
 10
3.2435949707031284
 20
0.5004754638671898
 30
0.0
 11
3.2435949707031284
 21
0.0004754638671898
 31
0.0
  0
LINE
  5
110
100
AcDbEntity
  8
0
  6
CONTINUOUS
 62
             200
100
AcDbLine
 10
3.0135949707031244
 20
0.5004754638671898
 30
0.0
 11
3.0135949707031244
 21
0.0004754638671898
 31
0.0
  0
LINE
  5
111
100
AcDbEntity
  8
0
  6
CONTINUOUS
 62
             200
100
AcDbLine
 10
0.9635949707031273
 20
0.5004754638671898
 30
0.0
 11
0.9635949707031273
 21
0.0004754638671898
 31
0.0
  0
LINE
  5
112
100
AcDbEntity
  8
0
  6
CONTINUOUS
 62
               4
100
AcDbLine
 10
0.7435949707031284
 20
0.5004754638671898
 30
0.0
 11
0.7435949707031284
 21
0.0004754638671898
 31
0.0
  0
LINE
  5
113
100
AcDbEntity
  8
0
  6
CENTER
 62
             200
100
AcDbLine
 10
1.9935949707031284
 20
0.8004754638671727
 30
0.0
 11
1.9935949707031284
 21
-3.8495245361328045
 31
0.0
  0
ENDBLK
  5
114
100
AcDbEntity
  8
0
100
AcDbBlockEnd
  0
BLOCK
  5
115
100
AcDbEntity
  8
0
100
AcDbBlockBegin
  2
MS_6
 70
               0
 10
0.0
 20
0.0
 30
0.0
  3
MS_6
  1

  0
ARC
  5
116
100
AcDbEntity
  8
0
  6
CONTINUOUS
 62
               4
100
AcDbCircle
 10
0.0002031569405005
 20
-2.5499977111803673
 30
0.0
 40
2.0500022888209148
100
AcDbArc
 50
270.0000639705159
 51
359.99993602948268
  0
ARC
  5
117
100
AcDbEntity
  8
0
  6
CONTINUOUS
 62
               4
100
AcDbCircle
 10
0.0002077345797886
 20
-2.5499977111803673
 30
0.0
 40
2.0500022888209148
100
AcDbArc
 50
180.00006397051609
 51
269.99993602948291
  0
LINE
  5
118
100
AcDbEntity
  8
0
  6
CONTINUOUS
 62
               4
100
AcDbLine
 10
-1.2497945542398554
 20
0.5
 30
0.0
 11
1.2502054457601446
 21
0.5
 31
0.0
  0
LINE
  5
119
100
AcDbEntity
  8
0
  6
CONTINUOUS
 62
               4
100
AcDbLine
 10
1.2502054457601446
 20
0.5
 30
0.0
 11
1.2502054457601446
 21
0.0
 31
0.0
  0
LINE
  5
11A
100
AcDbEntity
  8
0
  6
CONTINUOUS
 62
             200
100
AcDbLine
 10
1.0202054457601406
 20
0.5
 30
0.0
 11
1.0202054457601406
 21
0.0
 31
0.0
  0
LINE
  5
11B
100
AcDbEntity
  8
0
  6
CONTINUOUS
 62
             200
100
AcDbLine
 10
-1.0197945542398514
 20
0.5
 30
0.0
 11
-1.0197945542398514
 21
0.0
 31
0.0
  0
LINE
  5
11C
100
AcDbEntity
  8
0
  6
CONTINUOUS
 62
               4
100
AcDbLine
 10
-1.2497945542398554
 20
0.5
 30
0.0
 11
-1.2497945542398554
 21
0.0
 31
0.0
  0
LINE
  5
11D
100
AcDbEntity
  8
0
  6
CONTINUOUS
 62
               4
100
AcDbLine
 10
-1.2497945542398554
 20
-3.7700000000000102
 30
0.0
 11
1.2502054457601446
 21
-3.7700000000000102
 31
0.0
  0
LINE
  5
11E
100
AcDbEntity
  8
0
  6
CONTINUOUS
 62
               4
100
AcDbLine
 10
1.2502054457601446
 20
-2.5900000000000034
 30
0.0
 11
1.2502054457601446
 21
-3.7700000000000102
 31
0.0
  0
LINE
  5
11F
100
AcDbEntity
  8
0
  6
CONTINUOUS
 62
             200
100
AcDbLine
 10
1.0202054457601406
 20
-2.5900000000000034
 30
0.0
 11
1.0202054457601406
 21
-4.0
 31
0.0
  0
LINE
  5
120
100
AcDbEntity
  8
0
  6
CONTINUOUS
 62
             200
100
AcDbLine
 10
-1.0197945542398514
 20
-2.5900000000000034
 30
0.0
 11
-1.0197945542398514
 21
-4.0
 31
0.0
  0
LINE
  5
121
100
AcDbEntity
  8
0
  6
CONTINUOUS
 62
               4
100
AcDbLine
 10
-1.2497945542398554
 20
-2.5900000000000034
 30
0.0
 11
-1.2497945542398554
 21
-3.7700000000000102
 31
0.0
  0
LINE
  5
122
100
AcDbEntity
  8
0
  6
CONTINUOUS
 62
               4
100
AcDbLine
 10
-1.0197945542398514
 20
-4.0
 30
0.0
 11
-1.2497945542398554
 21
-3.7700000000000102
 31
0.0
  0
LINE
  5
123
100
AcDbEntity
  8
0
  6
CONTINUOUS
 62
               4
100
AcDbLine
 10
1.0202054457601406
 20
-4.0
 30
0.0
 11
1.2502054457601446
 21
-3.7700000000000102
 31
0.0
  0
LINE
  5
124
100
AcDbEntity
  8
0
  6
CONTINUOUS
 62
               4
100
AcDbLine
 10
-1.0197945542398514
 20
-4.0
 30
0.0
 11
1.0202054457601406
 21
-4.0
 31
0.0
  0
LINE
  5
125
100
AcDbEntity
  8
0
  6
CONTINUOUS
 62
               4
100
AcDbLine
 10
-2.0497945542398526
 20
-2.5900000000000034
 30
0.0
 11
2.0502054457601417
 21
-2.5900000000000034
 31
0.0
  0
LINE
  5
126
100
AcDbEntity
  8
0
  6
CONTINUOUS
 62
               4
100
AcDbLine
 10
-2.0497945542398526
 20
-1.7999999999999829
 30
0.0
 11
2.0502054457601417
 21
-1.7999999999999829
 31
0.0
  0
LINE
  5
127
100
AcDbEntity
  8
0
  6
CONTINUOUS
 62
               4
100
AcDbLine
 10
2.0502054457601417
 20
-1.0
 30
0.0
 11
2.0502054457601417
 21
-2.5499999999999829
 31
0.0
  0
LINE
  5
128
100
AcDbEntity
  8
0
  6
CONTINUOUS
 62
               4
100
AcDbLine
 10
2.0502054457601417
 20
-1.0
 30
0.0
 11
1.5002054457601446
 21
-0.4500000000000171
 31
0.0
  0
LINE
  5
129
100
AcDbEntity
  8
0
  6
CONTINUOUS
 62
               4
100
AcDbLine
 10
1.5002054457601446
 20
0.0
 30
0.0
 11
1.5002054457601446
 21
-0.4500000000000171
 31
0.0
  0
LINE
  5
12A
100
AcDbEntity
  8
0
  6
CONTINUOUS
 62
               4
100
AcDbLine
 10
-1.4997945542398554
 20
0.0
 30
0.0
 11
1.5002054457601446
 21
0.0
 31
0.0
  0
LINE
  5
12B
100
AcDbEntity
  8
0
  6
CONTINUOUS
 62
               4
100
AcDbLine
 10
-1.4997945542398554
 20
0.0
 30
0.0
 11
-1.4997945542398554
 21
-0.4500000000000171
 31
0.0
  0
LINE
  5
12C
100
AcDbEntity
  8
0
  6
CONTINUOUS
 62
               4
100
AcDbLine
 10
-2.0497945542398526
 20
-1.0
 30
0.0
 11
-1.4997945542398554
 21
-0.4500000000000171
 31
0.0
  0
LINE
  5
12D
100
AcDbEntity
  8
0
  6
CONTINUOUS
 62
               4
100
AcDbLine
 10
-2.0497945542398526
 20
-1.0
 30
0.0
 11
-2.0497945542398526
 21
-2.5499999999999829
 31
0.0
  0
LINE
  5
12E
100
AcDbEntity
  8
0
  6
CENTER
 62
             200
100
AcDbLine
 10
0.0002054457601446
 20
2.0499999999999829
 30
0.0
 11
0.0002054457601446
 21
-4.9199999999999875
 31
0.0
  0
ENDBLK
  5
12F
100
AcDbEntity
  8
0
100
AcDbBlockEnd
  0
BLOCK
  5
130
100
AcDbEntity
  8
0
100
AcDbBlockBegin
  2
MS_7
 70
               0
 10
0.0
 20
0.0
 30
0.0
  3
MS_7
  1

  0
CIRCLE
  5
131
100
AcDbEntity
  8
0
  6
CONTINUOUS
 62
               4
100
AcDbCircle
 10
2.0000152587890625
 20
-0.00628662109375
 30
0.0
 40
1.25
  0
CIRCLE
  5
132
100
AcDbEntity
  8
0
  6
CONTINUOUS
 62
             200
100
AcDbCircle
 10
2.0000152587890625
 20
-0.00628662109375
 30
0.0
 40
1.0
  0
LINE
  5
133
100
AcDbEntity
  8
0
  6
CONTINUOUS
 62
               4
100
AcDbLine
 10
22.0
 20
1.5999999999999943
 30
0.0
 11
22.0
 21
-1.5999999999999943
 31
0.0
  0
LINE
  5
134
100
AcDbEntity
  8
0
  6
CONTINUOUS
 62
               4
100
AcDbLine
 10
0.0
 20
1.5999999999999943
 30
0.0
 11
0.0
 21
-1.5999999999999943
 31
0.0
  0
LINE
  5
135
100
AcDbEntity
  8
0
  6
CONTINUOUS
 62
               4
100
AcDbLine
 10
1.269999999999996
 20
-1.0
 30
0.0
 11
3.0100000000000051
 21
0.7299999999999898
 31
0.0
  0
LINE
  5
136
100
AcDbEntity
  8
0
  6
CONTINUOUS
 62
               4
100
AcDbLine
 10
0.9899999999999949
 20
-0.7199999999999989
 30
0.0
 11
2.730000000000004
 21
1.0099999999999909
 31
0.0
  0
LINE
  5
137
100
AcDbEntity
  8
0
  6
CONTINUOUS
 62
               4
100
AcDbLine
 10
22.0
 20
-1.2999999999999829
 30
0.0
 11
25.090000000000003
 21
-1.2999999999999829
 31
0.0
  0
LINE
  5
138
100
AcDbEntity
  8
0
  6
CONTINUOUS
 62
               4
100
AcDbLine
 10
22.0
 20
1.2999999999999829
 30
0.0
 11
23.579999999999998
 21
1.2999999999999829
 31
0.0
  0
LINE
  5
139
100
AcDbEntity
  8
0
  6
CONTINUOUS
 62
             200
100
AcDbLine
 10
23.079999999999998
 20
2.1599999999999966
 30
0.0
 11
25.579999999999998
 21
-2.1599999999999966
 31
0.0
  0
LINE
  5
13A
100
AcDbEntity
  8
0
  6
CENTER
 62
             200
100
AcDbLine
 10
2.0
 20
2.8300000000000125
 30
0.0
 11
2.0
 21
-2.75
 31
0.0
  0
LINE
  5
13B
100
AcDbEntity
  8
0
  6
CONTINUOUS
 62
               4
100
AcDbLine
 10
0.0
 20
1.5
 30
0.0
 11
22.0
 21
1.5
 31
0.0
  0
LINE
  5
13C
100
AcDbEntity
  8
0
  6
CONTINUOUS
 62
               4
100
AcDbLine
 10
0.0
 20
-1.5
 30
0.0
 11
22.0
 21
-1.5
 31
0.0
  0
LINE
  5
13D
100
AcDbEntity
  8
0
  6
CENTER
 62
             200
100
AcDbLine
 10
-2.7999999999999972
 20
0.0
 30
0.0
 11
27.399999999999999
 21
0.0
 31
0.0
  0
ENDBLK
  5
13E
100
AcDbEntity
  8
0
100
AcDbBlockEnd
  0
BLOCK
  5
13F
100
AcDbEntity
  8
0
100
AcDbBlockBegin
  2
MS_8
 70
               0
 10
0.0
 20
0.0
 30
0.0
  3
MS_8
  1

  0
LINE
  5
140
100
AcDbEntity
  8
0
  6
CONTINUOUS
 62
               4
100
AcDbLine
 10
20.699847412109392
 20
12.150167846679693
 30
0.0
 11
20.699847412109392
 21
15.400167846679693
 31
0.0
  0
LINE
  5
141
100
AcDbEntity
  8
0
  6
CONTINUOUS
 62
               4
100
AcDbLine
 10
18.099847412109369
 20
10.650167846679693
 30
0.0
 11
18.099847412109369
 21
15.400167846679693
 31
0.0
  0
LINE
  5
142
100
AcDbEntity
  8
0
  6
CONTINUOUS
 62
               4
100
AcDbLine
 10
18.099847412109369
 20
6.9001678466796932
 30
0.0
 11
18.099847412109369
 21
9.1501678466796932
 31
0.0
  0
LINE
  5
143
100
AcDbEntity
  8
0
  6
CONTINUOUS
 62
               4
100
AcDbLine
 10
20.699847412109392
 20
6.9001678466796932
 30
0.0
 11
20.699847412109392
 21
10.650167846679693
 31
0.0
  0
LINE
  5
144
100
AcDbEntity
  8
0
  6
CONTINUOUS
 62
               4
100
AcDbLine
 10
0.749847412109375
 20
0.5001678466796875
 30
0.0
 11
3.249847412109375
 21
0.5001678466796875
 31
0.0
  0
LINE
  5
145
100
AcDbEntity
  8
0
  6
CONTINUOUS
 62
               4
100
AcDbLine
 10
3.249847412109375
 20
0.5001678466796875
 30
0.0
 11
3.249847412109375
 21
0.0001678466796875
 31
0.0
  0
LINE
  5
146
100
AcDbEntity
  8
0
  6
CONTINUOUS
 62
             200
100
AcDbLine
 10
3.0198474121093852
 20
0.5001678466796875
 30
0.0
 11
3.0198474121093852
 21
0.0001678466796875
 31
0.0
  0
LINE
  5
147
100
AcDbEntity
  8
0
  6
CONTINUOUS
 62
             200
100
AcDbLine
 10
0.9698474121093739
 20
0.5001678466796875
 30
0.0
 11
0.9698474121093739
 21
0.0001678466796875
 31
0.0
  0
LINE
  5
148
100
AcDbEntity
  8
0
  6
CONTINUOUS
 62
               4
100
AcDbLine
 10
0.749847412109375
 20
0.5001678466796875
 30
0.0
 11
0.749847412109375
 21
0.0001678466796875
 31
0.0
  0
LINE
  5
149
100
AcDbEntity
  8
0
  6
CONTINUOUS
 62
             200
100
AcDbLine
 10
17.239847412109356
 20
8.6501678466796932
 30
0.0
 11
21.569847412109368
 21
11.150167846679693
 31
0.0
  0
LINE
  5
14A
100
AcDbEntity
  8
0
  6
CONTINUOUS
 62
             200
100
AcDbLine
 10
17.239847412109356
 20
10.150167846679693
 30
0.0
 11
21.569847412109368
 21
12.650167846679693
 31
0.0
  0
LINE
  5
14B
100
AcDbEntity
  8
0
  6
CONTINUOUS
 62
             200
100
AcDbLine
 10
17.239847412109356
 20
17.630167846679683
 30
0.0
 11
21.569847412109368
 21
20.130167846679683
 31
0.0
  0
LINE
  5
14C
100
AcDbEntity
  8
0
  6
CENTER
 62
             200
100
AcDbLine
 10
19.399847412109381
 20
5.5801678466797
 30
0.0
 11
19.399847412109381
 21
15.400167846679693
 31
0.0
  0
LINE
  5
14D
100
AcDbEntity
  8
0
  6
CONTINUOUS
 62
             200
100
AcDbLine
 10
17.239847412109356
 20
19.130167846679683
 30
0.0
 11
21.569847412109368
 21
21.630167846679683
 31
0.0
  0
LINE
  5
14E
100
AcDbEntity
  8
0
  6
CONTINUOUS
 62
               4
100
AcDbLine
 10
20.099847412109369
 20
22.400167846679693
 30
0.0
 11
20.099847412109369
 21
25.400167846679693
 31
0.0
  0
LINE
  5
14F
100
AcDbEntity
  8
0
  6
CONTINUOUS
 62
               4
100
AcDbLine
 10
19.599847412109369
 20
22.400167846679693
 30
0.0
 11
19.599847412109369
 21
25.400167846679693
 31
0.0
  0
LINE
  5
150
100
AcDbEntity
  8
0
  6
CONTINUOUS
 62
               4
100
AcDbLine
 10
19.199847412109392
 20
22.400167846679693
 30
0.0
 11
19.199847412109392
 21
25.400167846679693
 31
0.0
  0
LINE
  5
151
100
AcDbEntity
  8
0
  6
CONTINUOUS
 62
               4
100
AcDbLine
 10
18.699847412109392
 20
22.400167846679693
 30
0.0
 11
18.699847412109392
 21
25.400167846679693
 31
0.0
  0
LINE
  5
152
100
AcDbEntity
  8
0
  6
CONTINUOUS
 62
               4
100
AcDbLine
 10
18.499847412109375
 20
19.860167846679673
 30
0.0
 11
18.499847412109375
 21
22.400167846679693
 31
0.0
  0
LINE
  5
153
100
AcDbEntity
  8
0
  6
CONTINUOUS
 62
               4
100
AcDbLine
 10
18.499847412109375
 20
15.400167846679693
 30
0.0
 11
18.499847412109375
 21
18.360167846679673
 31
0.0
  0
LINE
  5
154
100
AcDbEntity
  8
0
  6
CONTINUOUS
 62
               4
100
AcDbLine
 10
20.299847412109358
 20
20.900167846679693
 30
0.0
 11
20.299847412109358
 21
22.400167846679693
 31
0.0
  0
LINE
  5
155
100
AcDbEntity
  8
0
  6
CONTINUOUS
 62
               4
100
AcDbLine
 10
19.399847412109381
 20
20.380167846679683
 30
0.0
 11
19.399847412109381
 21
22.400167846679693
 31
0.0
  0
LINE
  5
156
100
AcDbEntity
  8
0
  6
CONTINUOUS
 62
               4
100
AcDbLine
 10
19.399847412109381
 20
15.400167846679693
 30
0.0
 11
19.399847412109381
 21
18.880167846679683
 31
0.0
  0
LINE
  5
157
100
AcDbEntity
  8
0
  6
CONTINUOUS
 62
               4
100
AcDbLine
 10
20.299847412109358
 20
15.400167846679693
 30
0.0
 11
20.299847412109358
 21
19.400167846679693
 31
0.0
  0
LINE
  5
158
100
AcDbEntity
  8
0
  6
CONTINUOUS
 62
               4
100
AcDbLine
 10
18.499847412109375
 20
22.400167846679693
 30
0.0
 11
20.299847412109358
 21
22.400167846679693
 31
0.0
  0
LINE
  5
159
100
AcDbEntity
  8
0
  6
CONTINUOUS
 62
               4
100
AcDbLine
 10
19.599847412109369
 20
25.400167846679693
 30
0.0
 11
20.099847412109369
 21
25.400167846679693
 31
0.0
  0
LINE
  5
15A
100
AcDbEntity
  8
0
  6
CONTINUOUS
 62
               4
100
AcDbLine
 10
18.699847412109392
 20
25.400167846679693
 30
0.0
 11
19.199847412109392
 21
25.400167846679693
 31
0.0
  0
LINE
  5
15B
100
AcDbEntity
  8
0
  6
CENTER
 62
             200
100
AcDbLine
 10
19.849847412109369
 20
13.720167846679686
 30
0.0
 11
19.849847412109369
 21
25.650167846679693
 31
0.0
  0
LINE
  5
15C
100
AcDbEntity
  8
0
  6
CENTER
 62
             200
100
AcDbLine
 10
18.949847412109392
 20
13.670167846679675
 30
0.0
 11
18.949847412109392
 21
25.600167846679682
 31
0.0
  0
LINE
  5
15D
100
AcDbEntity
  8
0
  6
CONTINUOUS
 62
               4
100
AcDbLine
 10
18.099847412109369
 20
15.400167846679693
 30
0.0
 11
20.699847412109392
 21
15.400167846679693
 31
0.0
  0
LINE
  5
15E
100
AcDbEntity
  8
0
  6
CONTINUOUS
 62
               4
100
AcDbLine
 10
16.099847412109369
 20
5.4001678466796932
 30
0.0
 11
21.999847412109375
 21
5.4001678466796932
 31
0.0
  0
LINE
  5
15F
100
AcDbEntity
  8
0
  6
CONTINUOUS
 62
               4
100
AcDbLine
 10
16.099847412109369
 20
0.4001678466796932
 30
0.0
 11
21.999847412109375
 21
0.4001678466796932
 31
0.0
  0
LINE
  5
160
100
AcDbEntity
  8
0
  6
CONTINUOUS
 62
               4
100
AcDbLine
 10
16.099847412109369
 20
1.1501678466796932
 30
0.0
 11
21.999847412109375
 21
1.1501678466796932
 31
0.0
  0
LINE
  5
161
100
AcDbEntity
  8
0
  6
CONTINUOUS
 62
               4
100
AcDbLine
 10
16.099847412109369
 20
6.9001678466796932
 30
0.0
 11
21.999847412109375
 21
6.9001678466796932
 31
0.0
  0
LINE
  5
162
100
AcDbEntity
  8
0
  6
CONTINUOUS
 62
               4
100
AcDbLine
 10
16.099847412109369
 20
6.9001678466796932
 30
0.0
 11
16.099847412109369
 21
0.0001678466796875
 31
0.0
  0
LINE
  5
163
100
AcDbEntity
  8
0
  6
CENTER
 62
             200
100
AcDbLine
 10
1.999847412109375
 20
0.7301678466796773
 30
0.0
 11
1.999847412109375
 21
-4.2698321533203227
 31
0.0
  0
LINE
  5
164
100
AcDbEntity
  8
0
  6
CONTINUOUS
 62
               4
100
AcDbLine
 10
21.999847412109375
 20
6.9001678466796932
 30
0.0
 11
21.999847412109375
 21
0.0001678466796875
 31
0.0
  0
LINE
  5
165
100
AcDbEntity
  8
0
  6
CONTINUOUS
 62
             200
100
AcDbLine
 10
3.0251104736327932
 20
0.4996923828124977
 30
0.0
 11
3.0251104736327932
 21
-0.0003076171875023
 31
0.0
  0
LINE
  5
166
100
AcDbEntity
  8
0
  6
CONTINUOUS
 62
             200
100
AcDbLine
 10
0.9751104736328102
 20
0.4996923828124977
 30
0.0
 11
0.9751104736328102
 21
-0.0003076171875023
 31
0.0
  0
ENDBLK
  5
167
100
AcDbEntity
  8
0
100
AcDbBlockEnd
  0
BLOCK
  5
168
100
AcDbEntity
  8
0
100
AcDbBlockBegin
  2
MS_9
 70
               0
 10
0.0
 20
0.0
 30
0.0
  3
MS_9
  1

  0
ARC
  5
169
100
AcDbEntity
  8
0
  6
CONTINUOUS
 62
               4
100
AcDbCircle
 10
0.0048227699945471
 20
-2.5450434244138762
 30
0.0
 40
2.0451983479696025
100
AcDbArc
 50
270.98595845240197
 51
359.86285238631956
  0
ARC
  5
16A
100
AcDbEntity
  8
0
  6
CONTINUOUS
 62
               4
100
AcDbCircle
 10
0.0000175476087065
 20
-2.5499366760241173
 30
0.0
 40
2.0500022888209148
100
AcDbArc
 50
180.00006397051609
 51
269.99993602948291
  0
LINE
  5
16B
100
AcDbEntity
  8
0
  6
CONTINUOUS
 62
               4
100
AcDbLine
 10
1.3000152587890597
 20
10.650061035156256
 30
0.0
 11
1.3000152587890597
 21
6.9000610351562557
 31
0.0
  0
LINE
  5
16C
100
AcDbEntity
  8
0
  6
CONTINUOUS
 62
               4
100
AcDbLine
 10
-1.2999847412109347
 20
9.1500610351562557
 30
0.0
 11
-1.2999847412109347
 21
6.9000610351562557
 31
0.0
  0
LINE
  5
16D
100
AcDbEntity
  8
0
  6
CONTINUOUS
 62
               4
100
AcDbLine
 10
-1.2499847412109375
 20
0.50006103515625
 30
0.0
 11
1.2500152587890625
 21
0.50006103515625
 31
0.0
  0
LINE
  5
16E
100
AcDbEntity
  8
0
  6
CONTINUOUS
 62
               4
100
AcDbLine
 10
1.2500152587890625
 20
0.50006103515625
 30
0.0
 11
1.2500152587890625
 21
0.00006103515625
 31
0.0
  0
LINE
  5
16F
100
AcDbEntity
  8
0
  6
CONTINUOUS
 62
             200
100
AcDbLine
 10
1.0200152587890727
 20
0.50006103515625
 30
0.0
 11
1.0200152587890727
 21
0.00006103515625
 31
0.0
  0
LINE
  5
170
100
AcDbEntity
  8
0
  6
CONTINUOUS
 62
             200
100
AcDbLine
 10
-1.0199847412109477
 20
0.50006103515625
 30
0.0
 11
-1.0199847412109477
 21
0.00006103515625
 31
0.0
  0
LINE
  5
171
100
AcDbEntity
  8
0
  6
CONTINUOUS
 62
               4
100
AcDbLine
 10
-1.2499847412109375
 20
0.50006103515625
 30
0.0
 11
-1.2499847412109375
 21
0.00006103515625
 31
0.0
  0
LINE
  5
172
100
AcDbEntity
  8
0
  6
CONTINUOUS
 62
               4
100
AcDbLine
 10
-1.2499847412109375
 20
-3.7699389648437602
 30
0.0
 11
1.2500152587890625
 21
-3.7699389648437602
 31
0.0
  0
LINE
  5
173
100
AcDbEntity
  8
0
  6
CONTINUOUS
 62
               4
100
AcDbLine
 10
1.2500152587890625
 20
-2.5999389648437443
 30
0.0
 11
1.2500152587890625
 21
-3.7699389648437602
 31
0.0
  0
LINE
  5
174
100
AcDbEntity
  8
0
  6
CONTINUOUS
 62
             200
100
AcDbLine
 10
1.0200152587890727
 20
-2.5999389648437443
 30
0.0
 11
1.0200152587890727
 21
-3.99993896484375
 31
0.0
  0
LINE
  5
175
100
AcDbEntity
  8
0
  6
CONTINUOUS
 62
             200
100
AcDbLine
 10
-1.0199847412109477
 20
-2.5999389648437443
 30
0.0
 11
-1.0199847412109477
 21
-3.99993896484375
 31
0.0
  0
LINE
  5
176
100
AcDbEntity
  8
0
  6
CONTINUOUS
 62
               4
100
AcDbLine
 10
-1.2499847412109375
 20
-2.5999389648437443
 30
0.0
 11
-1.2499847412109375
 21
-3.7699389648437602
 31
0.0
  0
LINE
  5
177
100
AcDbEntity
  8
0
  6
CONTINUOUS
 62
               4
100
AcDbLine
 10
-1.0199847412109477
 20
-3.99993896484375
 30
0.0
 11
-1.2499847412109375
 21
-3.7699389648437602
 31
0.0
  0
LINE
  5
178
100
AcDbEntity
  8
0
  6
CONTINUOUS
 62
               4
100
AcDbLine
 10
1.0200152587890727
 20
-3.99993896484375
 30
0.0
 11
1.2500152587890625
 21
-3.7699389648437602
 31
0.0
  0
LINE
  5
179
100
AcDbEntity
  8
0
  6
CONTINUOUS
 62
               4
100
AcDbLine
 10
-1.0199847412109477
 20
-3.99993896484375
 30
0.0
 11
1.0200152587890727
 21
-3.99993896484375
 31
0.0
  0
LINE
  5
17A
100
AcDbEntity
  8
0
  6
CONTINUOUS
 62
             200
100
AcDbLine
 10
-2.1599847412109341
 20
8.6500610351562557
 30
0.0
 11
2.1600152587890591
 21
11.150061035156256
 31
0.0
  0
LINE
  5
17B
100
AcDbEntity
  8
0
  6
CONTINUOUS
 62
               4
100
AcDbLine
 10
-2.2499847412109375
 20
6.9000610351562557
 30
0.0
 11
2.2500152587890625
 21
6.9000610351562557
 31
0.0
  0
LINE
  5
17C
100
AcDbEntity
  8
0
  6
CONTINUOUS
 62
               4
100
AcDbLine
 10
-2.0499847412109347
 20
-2.5999389648437443
 30
0.0
 11
2.0500152587890597
 21
-2.5999389648437443
 31
0.0
  0
LINE
  5
17D
100
AcDbEntity
  8
0
  6
CONTINUOUS
 62
               4
100
AcDbLine
 10
-2.0499847412109347
 20
-1.7999389648437329
 30
0.0
 11
2.0500152587890597
 21
-1.7999389648437329
 31
0.0
  0
LINE
  5
17E
100
AcDbEntity
  8
0
  6
CONTINUOUS
 62
               4
100
AcDbLine
 10
-1.4999847412109375
 20
0.00006103515625
 30
0.0
 11
1.5000152587890625
 21
0.00006103515625
 31
0.0
  0
LINE
  5
17F
100
AcDbEntity
  8
0
  6
CENTER
 62
             200
100
AcDbLine
 10
0.0000152587890625
 20
12.560061035156252
 30
0.0
 11
0.0000152587890625
 21
-6.0599389648437523
 31
0.0
  0
LINE
  5
180
100
AcDbEntity
  8
0
  6
CONTINUOUS
 62
               4
100
AcDbLine
 10
2.2500152587890625
 20
6.9000610351562557
 30
0.0
 11
2.2500152587890625
 21
1.1500610351562557
 31
0.0
  0
LINE
  5
181
100
AcDbEntity
  8
0
  6
CONTINUOUS
 62
               4
100
AcDbLine
 10
1.5000152587890625
 20
0.4000610351562557
 30
0.0
 11
2.2500152587890625
 21
1.1500610351562557
 31
0.0
  0
LINE
  5
182
100
AcDbEntity
  8
0
  6
CONTINUOUS
 62
               4
100
AcDbLine
 10
1.5000152587890625
 20
-0.4499389648437671
 30
0.0
 11
1.5000152587890625
 21
0.4000610351562557
 31
0.0
  0
LINE
  5
183
100
AcDbEntity
  8
0
  6
CONTINUOUS
 62
               4
100
AcDbLine
 10
2.0500152587890597
 20
-0.99993896484375
 30
0.0
 11
1.5000152587890625
 21
-0.4499389648437671
 31
0.0
  0
LINE
  5
184
100
AcDbEntity
  8
0
  6
CONTINUOUS
 62
               4
100
AcDbLine
 10
2.0500152587890597
 20
-0.99993896484375
 30
0.0
 11
2.0500152587890597
 21
-2.5499389648437329
 31
0.0
  0
LINE
  5
185
100
AcDbEntity
  8
0
  6
CONTINUOUS
 62
               4
100
AcDbLine
 10
-2.0499847412109347
 20
-0.99993896484375
 30
0.0
 11
-2.0499847412109347
 21
-2.5499389648437329
 31
0.0
  0
LINE
  5
186
100
AcDbEntity
  8
0
  6
CONTINUOUS
 62
               4
100
AcDbLine
 10
-2.0499847412109347
 20
-0.99993896484375
 30
0.0
 11
-1.4999847412109375
 21
-0.4499389648437671
 31
0.0
  0
LINE
  5
187
100
AcDbEntity
  8
0
  6
CONTINUOUS
 62
               4
100
AcDbLine
 10
-1.4999847412109375
 20
-0.4499389648437671
 30
0.0
 11
-1.4999847412109375
 21
0.4000610351562557
 31
0.0
  0
LINE
  5
188
100
AcDbEntity
  8
0
  6
CONTINUOUS
 62
               4
100
AcDbLine
 10
-1.4999847412109375
 20
0.4000610351562557
 30
0.0
 11
-2.2499847412109375
 21
1.1500610351562557
 31
0.0
  0
LINE
  5
189
100
AcDbEntity
  8
0
  6
CONTINUOUS
 62
               4
100
AcDbLine
 10
-2.2499847412109375
 20
6.9000610351562557
 30
0.0
 11
-2.2499847412109375
 21
1.1500610351562557
 31
0.0
  0
LINE
  5
18A
100
AcDbEntity
  8
0
  6
CONTINUOUS
 62
               4
100
AcDbLine
 10
-2.2499847412109375
 20
5.4000610351562557
 30
0.0
 11
2.2500152587890625
 21
5.4000610351562557
 31
0.0
  0
ENDBLK
  5
18B
100
AcDbEntity
  8
0
100
AcDbBlockEnd
  0
BLOCK
  5
18C
100
AcDbEntity
  8
0
100
AcDbBlockBegin
  2
MS_10
 70
               0
 10
0.0
 20
0.0
 30
0.0
  3
MS_10
  1

  0
CIRCLE
  5
18D
100
AcDbEntity
  8
0
  6
CONTINUOUS
 62
               4
100
AcDbCircle
 10
2.0000633955767171
 20
-0.00628662109375
 30
0.0
 40
1.25
  0
CIRCLE
  5
18E
100
AcDbEntity
  8
0
  6
CONTINUOUS
 62
             200
100
AcDbCircle
 10
2.0000633955767171
 20
-0.00628662109375
 30
0.0
 40
1.0
  0
CIRCLE
  5
18F
100
AcDbEntity
  8
0
  6
CONTINUOUS
 62
               4
100
AcDbCircle
 10
19.117342448311092
 20
0.3181533813476563
 30
0.0
 40
0.25
  0
CIRCLE
  5
190
100
AcDbEntity
  8
0
  6
CONTINUOUS
 62
               4
100
AcDbCircle
 10
19.729219889717342
 20
-0.34100341796875
 30
0.0
 40
0.25
  0
CIRCLE
  5
191
100
AcDbEntity
  8
0
  6
CONTINUOUS
 62
               4
100
AcDbCircle
 10
19.117342448311092
 20
0.3181533813476563
 30
0.0
 40
0.449999988079071
  0
CIRCLE
  5
192
100
AcDbEntity
  8
0
  6
CONTINUOUS
 62
               4
100
AcDbCircle
 10
19.729219889717342
 20
-0.34100341796875
 30
0.0
 40
0.449999988079071
  0
CIRCLE
  5
193
100
AcDbEntity
  8
0
  6
CONTINUOUS
 62
               4
100
AcDbCircle
 10
19.407412028389217
 20
0.0
 30
0.0
 40
1.2999992370605469
  0
ARC
  5
194
100
AcDbEntity
  8
0
  6
CONTINUOUS
 62
               4
100
AcDbCircle
 10
19.500063395576717
 20
0.0
 30
0.0
 40
3.3043758866085451
100
AcDbArc
 50
137.08479304050996
 51
222.91520695948924
  0
LINE
  5
195
100
AcDbEntity
  8
0
  6
CONTINUOUS
 62
               4
100
AcDbLine
 10
1.2700633955767273
 20
-1.0
 30
0.0
 11
3.0100633955767364
 21
0.7299999999999898
 31
0.0
  0
LINE
  5
196
100
AcDbEntity
  8
0
  6
CONTINUOUS
 62
               4
100
AcDbLine
 10
0.9900633955766978
 20
-0.7199999999999989
 30
0.0
 11
2.7300633955767069
 21
1.0099999999999909
 31
0.0
  0
LINE
  5
197
100
AcDbEntity
  8
0
  6
CONTINUOUS
 62
               4
100
AcDbLine
 10
22.000063395576717
 20
2.25
 30
0.0
 11
22.000063395576717
 21
-2.25
 31
0.0
  0
LINE
  5
198
100
AcDbEntity
  8
0
  6
CONTINUOUS
 62
               4
100
AcDbLine
 10
17.08006339557673
 20
-2.25
 30
0.0
 11
22.000063395576717
 21
-2.25
 31
0.0
  0
LINE
  5
199
100
AcDbEntity
  8
0
  6
CONTINUOUS
 62
               4
100
AcDbLine
 10
17.08006339557673
 20
2.25
 30
0.0
 11
22.000063395576717
 21
2.25
 31
0.0
  0
LINE
  5
19A
100
AcDbEntity
  8
0
  6
CENTER
 62
             200
100
AcDbLine
 10
2.0000633955767171
 20
2.8300000000000125
 30
0.0
 11
2.0000633955767171
 21
-2.75
 31
0.0
  0
LINE
  5
19B
100
AcDbEntity
  8
0
  6
CONTINUOUS
 62
               4
100
AcDbLine
 10
0.0000633955767171
 20
1.5999999999999943
 30
0.0
 11
0.0000633955767171
 21
-1.5999999999999943
 31
0.0
  0
LINE
  5
19C
100
AcDbEntity
  8
0
  6
CONTINUOUS
 62
               4
100
AcDbLine
 10
0.0000633955767171
 20
1.5
 30
0.0
 11
16.560063395576719
 21
1.5
 31
0.0
  0
LINE
  5
19D
100
AcDbEntity
  8
0
  6
CONTINUOUS
 62
               4
100
AcDbLine
 10
0.0000633955767171
 20
-1.5
 30
0.0
 11
16.560063395576719
 21
-1.5
 31
0.0
  0
LINE
  5
19E
100
AcDbEntity
  8
0
  6
CENTER
 62
             200
100
AcDbLine
 10
-1.3199366044232761
 20
0.0
 30
0.0
 11
23.58006339557673
 21
0.0
 31
0.0
  0
ENDBLK
  5
19F
100
AcDbEntity
  8
0
100
AcDbBlockEnd
  0
ENDSEC
  0
SECTION
  2
ENTITIES
  0
LINE
  5
1A0
100
AcDbEntity
  8
0
  6
CENTER
 62
             200
100
AcDbLine
 10
64.423639608174156
 20
-119.33994044445461
 30
0.0
 11
76.353639608174149
 21
-119.33994044445461
 31
0.0
  0
LINE
  5
1A1
100
AcDbEntity
  8
0
  6
CENTER
 62
             200
100
AcDbLine
 10
64.473639608174153
 20
-120.23994044445462
 30
0.0
 11
76.393639608174155
 21
-120.23994044445462
 31
0.0
  0
LINE
  5
1A2
100
AcDbEntity
  8
0
  6
CONTINUOUS
 62
             200
100
AcDbLine
 10
69.873639608174159
 20
-117.61994044445461
 30
0.0
 11
72.373639608174159
 21
-121.94994044445463
 31
0.0
  0
LINE
  5
1A3
100
AcDbEntity
  8
0
  6
CENTER
 62
             200
100
AcDbLine
 10
56.323639608174162
 20
-119.7899404444546
 30
0.0
 11
66.143639608174155
 21
-119.7899404444546
 31
0.0
  0
LINE
  5
1A4
100
AcDbEntity
  8
0
  6
CONTINUOUS
 62
             200
100
AcDbLine
 10
68.373639608174159
 20
-117.61994044445461
 30
0.0
 11
70.873639608174159
 21
-121.94994044445463
 31
0.0
  0
LINE
  5
1A5
100
AcDbEntity
  8
0
  6
CONTINUOUS
 62
             200
100
AcDbLine
 10
60.893639608174155
 20
-117.61994044445461
 30
0.0
 11
63.393639608174155
 21
-121.94994044445463
 31
0.0
  0
LINE
  5
1A6
100
AcDbEntity
  8
0
  6
CONTINUOUS
 62
             200
100
AcDbLine
 10
59.393639608174155
 20
-117.61994044445461
 30
0.0
 11
61.893639608174155
 21
-121.94994044445463
 31
0.0
  0
LINE
  5
1A7
100
AcDbEntity
  8
0
  6
CONTINUOUS
 62
               7
100
AcDbLine
 10
-95.75
 20
132.60000610351562
 30
0.0
 11
-95.75
 21
117.60000610351562
 31
0.0
  0
LINE
  5
1A9
100
AcDbEntity
  8
0
  6
DASHED
 62
             200
100
AcDbLine
 10
148.45020157695913
 20
-87.48967530791441
 30
0.0
 11
164.55020157538453
 21
-87.489450138019293
 31
0.0
  0
LINE
  5
1AA
100
AcDbEntity
  8
0
  6
DASHED
 62
             200
100
AcDbLine
 10
153.15026591075519
 20
-92.089609574638004
 30
0.0
 11
170.45026590906326
 21
-92.089367621893558
 31
0.0
  0
LINE
  5
1AB
100
AcDbEntity
  8
0
  6
DASHED
 62
             200
100
AcDbLine
 10
148.45023793979934
 20
-90.08967530766013
 30
0.0
 11
148.45020157695913
 21
-87.48967530791441
 31
0.0
  0
LINE
  5
1AC
100
AcDbEntity
  8
0
  6
DASHED
 62
             200
100
AcDbLine
 10
153.1502432539086
 20
-90.469609574796436
 30
0.0
 11
153.15026591075519
 21
-92.089609574638004
 31
0.0
  0
LINE
  5
1AD
100
AcDbEntity
  8
0
  6
DASHED
 62
             200
100
AcDbLine
 10
148.45022675123312
 20
-89.289675307738349
 30
0.0
 11
152.72022675081547
 21
-89.289615588766168
 31
0.0
  0
LINE
  5
1AE
100
AcDbEntity
  8
0
  6
DASHED
 62
             200
100
AcDbLine
 10
148.45023793979934
 20
-90.08967530766013
 30
0.0
 11
152.45023793940811
 21
-90.089619364829048
 31
0.0
  0
LINE
  5
1AF
100
AcDbEntity
  8
0
  6
DASHED
 62
             200
100
AcDbLine
 10
152.45022675084192
 20
-89.289619364907267
 30
0.0
 11
152.45023793940811
 21
-90.089619364829048
 31
0.0
  0
LINE
  5
1B0
100
AcDbEntity
  8
0
  6
DASHED
 62
             200
100
AcDbLine
 10
152.65025472223789
 20
-91.289616567570121
 30
0.0
 11
153.15025472218898
 21
-91.289609574716224
 31
0.0
  0
LINE
  5
1B1
100
AcDbEntity
  8
0
  6
DASHED
 62
             200
100
AcDbLine
 10
152.65022675082233
 20
-89.289616567765719
 30
0.0
 11
152.65025472223789
 21
-91.289616567570121
 31
0.0
  0
LINE
  5
1B2
100
AcDbEntity
  8
0
  6
DASHED
 62
             200
100
AcDbLine
 10
152.72024325395066
 20
-90.469615588650768
 30
0.0
 11
153.1502432539086
 21
-90.469609574796436
 31
0.0
  0
LINE
  5
1B3
100
AcDbEntity
  8
0
  6
DASHED
 62
             200
100
AcDbLine
 10
152.72022675081547
 20
-89.289615588766168
 30
0.0
 11
152.72024325395066
 21
-90.469615588650768
 31
0.0
  0
LINE
  5
1B4
100
AcDbEntity
  8
0
  6
DASHED
 62
             200
100
AcDbLine
 10
148.4502155626669
 20
-88.489675307816611
 30
0.0
 11
170.45021556051529
 21
-88.489367622245652
 31
0.0
  0
LINE
  5
1B5
100
AcDbEntity
  8
0
  6
DASHED
 62
             200
100
AcDbLine
 10
148.45020787052761
 20
-87.939675307870417
 30
0.0
 11
170.45020786837603
 21
-87.939367622299457
 31
0.0
  0
LINE
  5
1B6
100
AcDbEntity
  8
0
  6
DASHED
 62
             200
100
AcDbLine
 10
149.43025751969435
 20
-91.48966160152959
 30
0.0
 11
151.48025751949385
 21
-91.489632930828662
 31
0.0
  0
LINE
  5
1B7
100
AcDbEntity
  8
0
  6
DASHED
 62
             200
100
AcDbLine
 10
151.48025751949385
 20
-91.489632930828662
 30
0.0
 11
151.70025430275956
 21
-91.259629853995463
 31
0.0
  0
LINE
  5
1B8
100
AcDbEntity
  8
0
  6
DASHED
 62
             200
100
AcDbLine
 10
149.43025751969435
 20
-91.48966160152959
 30
0.0
 11
149.20025430300407
 21
-91.259664818264881
 31
0.0
  0
LINE
  5
1B9
100
AcDbEntity
  8
0
  6
DASHED
 62
             200
100
AcDbLine
 10
149.20023793972598
 20
-90.089664818379291
 30
0.0
 11
149.20025430300407
 21
-91.259664818264881
 31
0.0
  0
LINE
  5
1BA
100
AcDbEntity
  8
0
  6
DASHED
 62
             200
100
AcDbLine
 10
151.70023793948147
 20
-90.089629854109873
 30
0.0
 11
151.70025430275956
 21
-91.259629853995463
 31
0.0
  0
LINE
  5
1BB
100
AcDbEntity
  8
0
  6
DASHED
 62
             200
100
AcDbLine
 10
149.20025430300407
 20
-91.259664818264881
 30
0.0
 11
151.70025430275956
 21
-91.259629853995463
 31
0.0
  0
LINE
  5
1BC
100
AcDbEntity
  8
0
  6
DASHED
 62
             200
100
AcDbLine
 10
170.45020157480752
 20
-87.489367622343451
 30
0.0
 11
170.45026590906326
 21
-92.089367621893558
 31
0.0
  0
LINE
  5
1BD
100
AcDbEntity
  8
0
  6
DASHED
 62
             200
100
AcDbLine
 10
35.643674473047014
 20
-117.48939813992158
 30
0.0
 11
57.643674469141317
 21
-117.48981268846059
 31
0.0
  0
LINE
  5
1BE
100
AcDbEntity
  8
0
  6
DASHED
 62
             200
100
AcDbLine
 10
40.343587793881738
 20
-122.08948670174735
 30
0.0
 11
57.643587790810436
 21
-122.08981268764393
 31
0.0
  0
LINE
  5
1BF
100
AcDbEntity
  8
0
  6
DASHED
 62
             200
100
AcDbLine
 10
57.643674469141317
 20
-117.48981268846059
 30
0.0
 11
57.643587790810436
 21
-122.08981268764393
 31
0.0
  0
LINE
  5
1C0
100
AcDbEntity
  8
0
  6
DASHED
 62
             200
100
AcDbLine
 10
35.643640555439276
 20
-119.289398139602
 30
0.0
 11
35.643674473047014
 21
-117.48939813992158
 31
0.0
  0
LINE
  5
1C1
100
AcDbEntity
  8
0
  6
DASHED
 62
             200
100
AcDbLine
 10
40.343617189141774
 20
-120.5294867020243
 30
0.0
 11
40.343587793881738
 21
-122.08948670174735
 31
0.0
  0
LINE
  5
1C2
100
AcDbEntity
  8
0
  6
DASHED
 62
             200
100
AcDbLine
 10
35.643640555439276
 20
-119.289398139602
 30
0.0
 11
39.893640554684765
 21
-119.28947822284249
 31
0.0
  0
LINE
  5
1C3
100
AcDbEntity
  8
0
  6
DASHED
 62
             200
100
AcDbLine
 10
39.893640554684765
 20
-119.28947822284249
 30
0.0
 11
39.893617189221658
 21
-120.52947822262236
 31
0.0
  0
LINE
  5
1C4
100
AcDbEntity
  8
0
  6
DASHED
 62
             200
100
AcDbLine
 10
39.643640554729153
 20
-119.28947351206364
 30
0.0
 11
39.643625480236821
 21
-120.08947351192163
 31
0.0
  0
LINE
  5
1C5
100
AcDbEntity
  8
0
  6
DASHED
 62
             200
100
AcDbLine
 10
35.643640555439276
 20
-119.289398139602
 30
0.0
 11
35.643625480946952
 21
-120.08939813945999
 31
0.0
  0
LINE
  5
1C6
100
AcDbEntity
  8
0
  6
DASHED
 62
             200
100
AcDbLine
 10
35.643625480946952
 20
-120.08939813945999
 30
0.0
 11
39.643625480236821
 21
-120.08947351192163
 31
0.0
  0
LINE
  5
1C7
100
AcDbEntity
  8
0
  6
DASHED
 62
             200
100
AcDbLine
 10
39.84364055469365
 20
-119.28947728068673
 30
0.0
 11
39.843602868462831
 21
-121.28947728033165
 31
0.0
  0
LINE
  5
1C8
100
AcDbEntity
  8
0
  6
DASHED
 62
             200
100
AcDbLine
 10
39.843602868462831
 20
-121.28947728033165
 30
0.0
 11
40.343602868374063
 21
-121.28948670188936
 31
0.0
  0
LINE
  5
1C9
100
AcDbEntity
  8
0
  6
DASHED
 62
             200
100
AcDbLine
 10
39.893617189221658
 20
-120.52947822262236
 30
0.0
 11
40.343617189141774
 21
-120.5294867020243
 31
0.0
  0
LINE
  5
1CA
100
AcDbEntity
  8
0
  6
DASHED
 62
             200
100
AcDbLine
 10
66.143655624516896
 20
-118.48997285476403
 30
0.0
 11
66.143606632416834
 21
-121.08997285430245
 31
0.0
  0
LINE
  5
1CB
100
AcDbEntity
  8
0
  6
DASHED
 62
             200
100
AcDbLine
 10
76.143644316872326
 20
-119.0901612858116
 30
0.0
 11
76.143634895314619
 21
-119.59016128572283
 31
0.0
  0
LINE
  5
1CC
100
AcDbEntity
  8
0
  6
DASHED
 62
             200
100
AcDbLine
 10
76.143627358068471
 20
-119.99016128565182
 30
0.0
 11
76.143617936510765
 21
-120.49016128556306
 31
0.0
  0
LINE
  5
1CD
100
AcDbEntity
  8
0
  6
DASHED
 62
             200
100
AcDbLine
 10
73.143648086028008
 20
-118.89010475650089
 30
0.0
 11
73.143614168420271
 21
-120.69010475618134
 31
0.0
  0
LINE
  5
1CE
100
AcDbEntity
  8
0
  6
DASHED
 62
             200
100
AcDbLine
 10
66.143614169662996
 20
-120.68997285437348
 30
0.0
 11
70.143614168952865
 21
-120.69004822683512
 31
0.0
  0
LINE
  5
1CF
100
AcDbEntity
  8
0
  6
DASHED
 62
             200
100
AcDbLine
 10
66.143631128466865
 20
-119.78997285453322
 30
0.0
 11
69.623631127849052
 21
-119.79003842857485
 31
0.0
  0
LINE
  5
1D0
100
AcDbEntity
  8
0
  6
DASHED
 62
             200
100
AcDbLine
 10
71.123631127582755
 20
-119.79006669324797
 30
0.0
 11
73.14363112722414
 21
-119.79010475634109
 31
0.0
  0
LINE
  5
1D1
100
AcDbEntity
  8
0
  6
DASHED
 62
             200
100
AcDbLine
 10
71.643614168686568
 20
-120.69007649150822
 30
0.0
 11
73.143614168420271
 21
-120.69010475618134
 31
0.0
  0
LINE
  5
1D2
100
AcDbEntity
  8
0
  6
DASHED
 62
             200
100
AcDbLine
 10
66.143648087270734
 20
-118.88997285469303
 30
0.0
 11
69.103648086745238
 21
-118.89002863031463
 31
0.0
  0
LINE
  5
1D3
100
AcDbEntity
  8
0
  6
DASHED
 62
             200
100
AcDbLine
 10
70.603648086478927
 20
-118.89005689498775
 30
0.0
 11
73.143648086028008
 21
-118.89010475650089
 31
0.0
  0
LINE
  5
1D4
100
AcDbEntity
  8
0
  6
DASHED
 62
             200
100
AcDbLine
 10
73.14364431740492
 20
-119.09010475646537
 30
0.0
 11
76.143644316872326
 21
-119.0901612858116
 31
0.0
  0
LINE
  5
1D5
100
AcDbEntity
  8
0
  6
DASHED
 62
             200
100
AcDbLine
 10
73.143634895847214
 20
-119.5901047563766
 30
0.0
 11
76.143634895314619
 21
-119.59016128572283
 31
0.0
  0
LINE
  5
1D6
100
AcDbEntity
  8
0
  6
DASHED
 62
             200
100
AcDbLine
 10
73.143627358601066
 20
-119.9901047563056
 30
0.0
 11
76.143627358068471
 21
-119.99016128565182
 31
0.0
  0
LINE
  5
1D7
100
AcDbEntity
  8
0
  6
DASHED
 62
             200
100
AcDbLine
 10
73.143617937043359
 20
-120.49010475621684
 30
0.0
 11
76.143617936510765
 21
-120.49016128556306
 31
0.0
  0
LINE
  5
1D8
100
AcDbEntity
  8
0
  6
DASHED
 62
             200
100
AcDbLine
 10
36.613599100413168
 20
-121.4894164170334
 30
0.0
 11
38.66359910004924
 21
-121.48945504541999
 31
0.0
  0
LINE
  5
1D9
100
AcDbEntity
  8
0
  6
DASHED
 62
             200
100
AcDbLine
 10
38.66359910004924
 20
-121.48945504541999
 30
0.0
 11
38.893603433924945
 21
-121.25945937937738
 31
0.0
  0
LINE
  5
1DA
100
AcDbEntity
  8
0
  6
DASHED
 62
             200
100
AcDbLine
 10
36.613599100413168
 20
-121.4894164170334
 30
0.0
 11
36.393603434368771
 21
-121.25941227158884
 31
0.0
  0
LINE
  5
1DB
100
AcDbEntity
  8
0
  6
DASHED
 62
             200
100
AcDbLine
 10
36.393625669244955
 20
-120.07941227179833
 30
0.0
 11
36.393603434368771
 21
-121.25941227158884
 31
0.0
  0
LINE
  5
1DC
100
AcDbEntity
  8
0
  6
DASHED
 62
             200
100
AcDbLine
 10
38.893625668801128
 20
-120.07945937958685
 30
0.0
 11
38.893603433924945
 21
-121.25945937937738
 31
0.0
  0
LINE
  5
1DD
100
AcDbEntity
  8
0
  6
DASHED
 62
             200
100
AcDbLine
 10
36.393603434368771
 20
-121.25941227158884
 30
0.0
 11
38.893603433924945
 21
-121.25945937937738
 31
0.0
  0
LINE
  5
1DE
100
AcDbEntity
  8
0
  6
DASHED
 62
             200
100
AcDbLine
 10
35.643655629931601
 20
-118.48939813974404
 30
0.0
 11
57.643655626025911
 21
-118.48981268828305
 31
0.0
  0
LINE
  5
1DF
100
AcDbEntity
  8
0
  6
DASHED
 62
             200
100
AcDbLine
 10
35.643665993645079
 20
-117.9393981398417
 30
0.0
 11
57.643665989739389
 21
-117.93981268838071
 31
0.0
  0
LINE
  5
1E0
100
AcDbEntity
  8
0
  6
DASHED
 62
             200
100
AcDbLine
 10
57.643655626025911
 20
-118.48981268828305
 30
0.0
 11
59.893655625626465
 21
-118.48985508529272
 31
0.0
  0
LINE
  5
1E1
100
AcDbEntity
  8
0
  6
DASHED
 62
             200
100
AcDbLine
 10
57.643606633925842
 20
-121.08981268782146
 30
0.0
 11
61.393606633260106
 21
-121.08988334950425
 31
0.0
  0
LINE
  5
1E2
100
AcDbEntity
  8
0
  6
DASHED
 62
             200
100
AcDbLine
 10
61.393655625360168
 20
-118.48988334996584
 30
0.0
 11
66.143655624516896
 21
-118.48997285476403
 31
0.0
  0
LINE
  5
1E3
100
AcDbEntity
  8
0
  6
DASHED
 62
             200
100
AcDbLine
 10
62.893606632993809
 20
-121.08991161417737
 30
0.0
 11
66.143606632416834
 21
-121.08997285430245
 31
0.0
  0
LINE
  5
1E4
100
AcDbEntity
  8
0
  6
DASHED
 62
             200
100
AcDbLine
 10
35.650198729636742
 20
-82.889675230648109
 30
0.0
 11
57.650198729615575
 21
-82.889644713069998
 31
0.0
  0
LINE
  5
1E5
100
AcDbEntity
  8
0
  6
DASHED
 62
             200
100
AcDbLine
 10
35.650204417003572
 20
-86.989675230644167
 30
0.0
 11
57.650204416982405
 21
-86.989644713066042
 31
0.0
  0
LINE
  5
1E6
100
AcDbEntity
  8
0
  6
DASHED
 62
             200
100
AcDbLine
 10
35.650198729636742
 20
-82.889675230648109
 30
0.0
 11
35.650199353859932
 21
-83.339675230647671
 31
0.0
  0
LINE
  5
1E7
100
AcDbEntity
  8
0
  6
DASHED
 62
             200
100
AcDbLine
 10
57.650198729615575
 20
-82.889644713069998
 30
0.0
 11
57.650199353838765
 21
-83.339644713069546
 31
0.0
  0
LINE
  5
1E8
100
AcDbEntity
  8
0
  6
DASHED
 62
             200
100
AcDbLine
 10
35.650203792780388
 20
-86.539675230644576
 30
0.0
 11
35.650204417003572
 21
-86.989675230644167
 31
0.0
  0
LINE
  5
1E9
100
AcDbEntity
  8
0
  6
DASHED
 62
             200
100
AcDbLine
 10
57.650203792759214
 20
-86.539644713066465
 30
0.0
 11
57.650204416982405
 21
-86.989644713066042
 31
0.0
  0
INSERT
  5
1EA
100
AcDbEntity
  8
0
100
AcDbBlockReference
  2
MS_10
 10
148.45487511555623
 20
-39.889178413359076
 30
0.0
  0
INSERT
  5
1EB
100
AcDbEntity
  8
0
100
AcDbBlockReference
  2
MS_10
 10
148.45487511555623
 20
-39.889178413359076
 30
0.0
  0
INSERT
  5
1EC
100
AcDbEntity
  8
0
100
AcDbBlockReference
  2
MS_9
 10
105.4121634042436
 20
-87.489199775663764
 30
0.0
 50
0.0057864842961183
  0
INSERT
  5
1ED
100
AcDbEntity
  8
0
100
AcDbBlockReference
  2
MS_8
 10
148.45509109902358
 20
-87.489367622343451
 30
0.0
 50
0.0008013220288072
  0
INSERT
  5
1EE
100
AcDbEntity
  8
0
100
AcDbBlockReference
  2
MS_7
 10
35.643796543359514
 20
-84.939196723905951
 30
0.0
 50
0.0000794785648643
  0
INSERT
  5
1EF
100
AcDbEntity
  8
0
100
AcDbBlockReference
  2
MS_6
 10
-8.8990806539061111
 20
-117.48929132839814
 30
0.0
  0
INSERT
  5
1F0
100
AcDbEntity
  8
0
100
AcDbBlockReference
  2
MS_5
 10
35.643674473047014
 20
-117.48939813992158
 30
0.0
 50
359.99892036901332
  0
LINE
  5
1F1
100
AcDbEntity
  8
0
  6
CONTINUOUS
 62
               7
100
AcDbLine
 10
-159.25
 20
-87.509999999999991
 30
0.0
 11
-159.25
 21
-123.49999999999999
 31
0.0
  0
LINE
  5
1F2
100
AcDbEntity
  8
0
  6
CONTINUOUS
 62
               7
100
AcDbLine
 10
-147.25
 20
-87.509999999999991
 30
0.0
 11
-147.25
 21
-123.49999999999999
 31
0.0
  0
LINE
  5
1F3
100
AcDbEntity
  8
0
  6
CONTINUOUS
 62
               7
100
AcDbLine
 10
-135.25
 20
-87.509999999999991
 30
0.0
 11
-135.25
 21
-123.49999999999999
 31
0.0
  0
LINE
  5
1F4
100
AcDbEntity
  8
0
  6
CONTINUOUS
 62
               7
100
AcDbLine
 10
-123.25
 20
-87.509999999999991
 30
0.0
 11
-123.25
 21
-123.49999999999999
 31
0.0
  0
LINE
  5
1F5
100
AcDbEntity
  8
0
  6
CONTINUOUS
 62
               7
100
AcDbLine
 10
-111.25
 20
-87.509999999999991
 30
0.0
 11
-111.25
 21
-123.49999999999999
 31
0.0
  0
LINE
  5
1F6
100
AcDbEntity
  8
0
  6
CONTINUOUS
 62
               7
100
AcDbLine
 10
-99.25
 20
-87.509999999999991
 30
0.0
 11
-99.25
 21
-123.49999999999999
 31
0.0
  0
LINE
  5
1F7
100
AcDbEntity
  8
0
  6
CONTINUOUS
 62
               7
100
AcDbLine
 10
-87.25
 20
-87.509999999999991
 30
0.0
 11
-87.25
 21
-123.49999999999999
 31
0.0
  0
LINE
  5
1F8
100
AcDbEntity
  8
0
  6
CONTINUOUS
 62
               7
100
AcDbLine
 10
-39.25
 20
-87.509999999999991
 30
0.0
 11
-39.25
 21
-123.49999999999999
 31
0.0
  0
LINE
  5
1F9
100
AcDbEntity
  8
0
  6
CONTINUOUS
 62
               7
100
AcDbLine
 10
-184.25
 20
-87.509999999999991
 30
0.0
 11
-39.25
 21
-87.509999999999991
 31
0.0
  0
LINE
  5
1FA
100
AcDbEntity
  8
0
  6
CONTINUOUS
 62
               7
100
AcDbLine
 10
-184.25
 20
-105.49999999999999
 30
0.0
 11
-39.25
 21
-105.49999999999999
 31
0.0
  0
LINE
  5
1FB
100
AcDbEntity
  8
0
  6
CONTINUOUS
 62
               7
100
AcDbLine
 10
-184.25
 20
-111.49999999999999
 30
0.0
 11
-39.25
 21
-111.49999999999999
 31
0.0
  0
LINE
  5
1FC
100
AcDbEntity
  8
0
  6
CONTINUOUS
 62
               7
100
AcDbLine
 10
-184.25
 20
-123.49999999999999
 30
0.0
 11
-39.25
 21
-123.49999999999999
 31
0.0
  0
LINE
  5
1FD
100
AcDbEntity
  8
0
  6
CONTINUOUS
 62
               7
100
AcDbLine
 10
-159.25
 20
-105.49999999999999
 30
0.0
 11
-161.36000000000001
 21
-93.509999999999991
 31
0.0
  0
LINE
  5
1FE
100
AcDbEntity
  8
0
  6
CONTINUOUS
 62
               7
100
AcDbLine
 10
-184.25
 20
-93.509999999999991
 30
0.0
 11
-161.36000000000001
 21
-93.509999999999991
 31
0.0
  0
LINE
  5
1FF
100
AcDbEntity
  8
0
  6
CONTINUOUS
 62
               7
100
AcDbLine
 10
-184.25
 20
-87.509999999999991
 30
0.0
 11
-184.25
 21
-123.49999999999999
 31
0.0
  0
LINE
  5
200
100
AcDbEntity
  8
0
  6
CONTINUOUS
 62
               7
100
AcDbLine
 10
-184.25
 20
-117.49999999999999
 30
0.0
 11
-39.25
 21
-117.49999999999999
 31
0.0
  0
LINE
  5
201
100
AcDbEntity
  8
0
  6
CONTINUOUS
 62
               7
100
AcDbLine
 10
-75.25
 20
-87.509999999999991
 30
0.0
 11
-75.25
 21
-123.49999999999999
 31
0.0
  0
LINE
  5
202
100
AcDbEntity
  8
0
  6
CONTINUOUS
 62
               7
100
AcDbLine
 10
-63.25
 20
-87.509999999999991
 30
0.0
 11
-63.25
 21
-123.49999999999999
 31
0.0
  0
LINE
  5
203
100
AcDbEntity
  8
0
  6
CONTINUOUS
 62
               7
100
AcDbLine
 10
-51.25
 20
-87.509999999999991
 30
0.0
 11
-51.25
 21
-123.49999999999999
 31
0.0
  0
MTEXT
  5
204
100
AcDbEntity
  8
0
  6
CONTINUOUS
 62
               7
100
AcDbMText
 10
-154.204475025177
 20
-120.50636596679686
 30
0.0
 40
3.1999998092651367
 41
0.0
 71
               4
 72
               1
  1
\W1.200;\A1;0
  7
MX_NOTE_STANDARD
  0
MTEXT
  5
205
100
AcDbEntity
  8
0
  6
CONTINUOUS
 62
               7
100
AcDbMText
 10
-143.7333638381958
 20
-120.50636596679686
 30
0.0
 40
3.1999998092651367
 41
0.0
 71
               4
 72
               1
  1
\W1.333;\A1;10
  7
MX_NOTE_STANDARD
  0
MTEXT
  5
206
100
AcDbEntity
  8
0
  6
CONTINUOUS
 62
               7
100
AcDbMText
 10
-131.86265675347698
 20
-120.50636596679686
 30
0.0
 40
3.1999998092651367
 41
0.0
 71
               4
 72
               1
  1
\W1.091;\A1;20
  7
MX_NOTE_STANDARD
  0
MTEXT
  5
207
100
AcDbEntity
  8
0
  6
CONTINUOUS
 62
               7
100
AcDbMText
 10
-119.86265675347698
 20
-120.50636596679686
 30
0.0
 40
3.1999998092651367
 41
0.0
 71
               4
 72
               1
  1
\W1.091;\A1;30
  7
MX_NOTE_STANDARD
  0
MTEXT
  5
208
100
AcDbEntity
  8
0
  6
CONTINUOUS
 62
               7
100
AcDbMText
 10
-107.86265675347698
 20
-120.50636596679686
 30
0.0
 40
3.1999998092651367
 41
0.0
 71
               4
 72
               1
  1
\W1.091;\A1;40
  7
MX_NOTE_STANDARD
  0
MTEXT
  5
209
100
AcDbEntity
  8
0
  6
CONTINUOUS
 62
               7
100
AcDbMText
 10
-95.862656753476983
 20
-120.50636596679686
 30
0.0
 40
3.1999998092651367
 41
0.0
 71
               4
 72
               1
  1
\W1.091;\A1;50
  7
MX_NOTE_STANDARD
  0
MTEXT
  5
20A
100
AcDbEntity
  8
0
  6
CONTINUOUS
 62
               7
100
AcDbMText
 10
-71.862656753476983
 20
-120.50636596679686
 30
0.0
 40
3.1999998092651367
 41
0.0
 71
               4
 72
               1
  1
\W1.091;\A1;70
  7
MX_NOTE_STANDARD
  0
MTEXT
  5
20B
100
AcDbEntity
  8
0
  6
CONTINUOUS
 62
               7
100
AcDbMText
 10
-179.81114122390747
 20
-90.506377410888661
 30
0.0
 40
3.1999998092651367
 41
0.0
 71
               4
 72
               1
  1
\A1;STROKE
  7
MX_NOTE_STANDARD
  0
MTEXT
  5
20C
100
AcDbEntity
  8
0
  6
CONTINUOUS
 62
               7
100
AcDbMText
 10
-95.862656753476983
 20
-96.506377410888661
 30
0.0
 40
3.1999998092651367
 41
0.0
 71
               4
 72
               1
  1
\W1.091;\A1;60
  7
MX_NOTE_STANDARD
  0
MTEXT
  5
20D
100
AcDbEntity
  8
0
  6
CONTINUOUS
 62
               7
100
AcDbMText
 10
-49.358760560872604
 20
-96.506377410888661
 30
0.0
 40
3.1999998092651367
 41
0.0
 71
               4
 72
               1
  1
\W1.286;\A1;100
  7
MX_NOTE_STANDARD
  0
MTEXT
  5
20E
100
AcDbEntity
  8
0
  6
CONTINUOUS
 62
               7
100
AcDbMText
 10
-107.86265675347698
 20
-96.506377410888661
 30
0.0
 40
3.1999998092651367
 41
0.0
 71
               4
 72
               1
  1
\W1.091;\A1;50
  7
MX_NOTE_STANDARD
  0
MTEXT
  5
20F
100
AcDbEntity
  8
0
  6
CONTINUOUS
 62
               7
100
AcDbMText
 10
-119.86265675347698
 20
-96.506377410888661
 30
0.0
 40
3.1999998092651367
 41
0.0
 71
               4
 72
               1
  1
\W1.091;\A1;40
  7
MX_NOTE_STANDARD
  0
MTEXT
  5
210
100
AcDbEntity
  8
0
  6
CONTINUOUS
 62
               7
100
AcDbMText
 10
-131.86265675347698
 20
-96.506377410888661
 30
0.0
 40
3.1999998092651367
 41
0.0
 71
               4
 72
               1
  1
\W1.091;\A1;30
  7
MX_NOTE_STANDARD
  0
MTEXT
  5
211
100
AcDbEntity
  8
0
  6
CONTINUOUS
 62
               7
100
AcDbMText
 10
-143.86265675347698
 20
-96.506377410888661
 30
0.0
 40
3.1999998092651367
 41
0.0
 71
               4
 72
               1
  1
\W1.091;\A1;20
  7
MX_NOTE_STANDARD
  0
MTEXT
  5
212
100
AcDbEntity
  8
0
  6
CONTINUOUS
 62
               7
100
AcDbMText
 10
-155.7333638381958
 20
-96.506377410888661
 30
0.0
 40
3.1999998092651367
 41
0.0
 71
               4
 72
               1
  1
\W1.333;\A1;10
  7
MX_NOTE_STANDARD
  0
MTEXT
  5
213
100
AcDbEntity
  8
0
  6
CONTINUOUS
 62
               7
100
AcDbMText
 10
-95.862656753476983
 20
-108.50637741088866
 30
0.0
 40
3.1999998092651367
 41
0.0
 71
               4
 72
               1
  1
\W1.091;\A1;50
  7
MX_NOTE_STANDARD
  0
MTEXT
  5
214
100
AcDbEntity
  8
0
  6
CONTINUOUS
 62
               7
100
AcDbMText
 10
-71.862656753476983
 20
-108.50637741088866
 30
0.0
 40
3.1999998092651367
 41
0.0
 71
               4
 72
               1
  1
\W1.091;\A1;70
  7
MX_NOTE_STANDARD
  0
MTEXT
  5
215
100
AcDbEntity
  8
0
  6
CONTINUOUS
 62
               7
100
AcDbMText
 10
-107.86265675347698
 20
-108.50637741088866
 30
0.0
 40
3.1999998092651367
 41
0.0
 71
               4
 72
               1
  1
\W1.091;\A1;40
  7
MX_NOTE_STANDARD
  0
MTEXT
  5
216
100
AcDbEntity
  8
0
  6
CONTINUOUS
 62
               7
100
AcDbMText
 10
-119.86265675347698
 20
-108.50637741088866
 30
0.0
 40
3.1999998092651367
 41
0.0
 71
               4
 72
               1
  1
\W1.091;\A1;30
  7
MX_NOTE_STANDARD
  0
MTEXT
  5
217
100
AcDbEntity
  8
0
  6
CONTINUOUS
 62
               7
100
AcDbMText
 10
-131.86265675347698
 20
-108.50637741088866
 30
0.0
 40
3.1999998092651367
 41
0.0
 71
               4
 72
               1
  1
\W1.091;\A1;20
  7
MX_NOTE_STANDARD
  0
MTEXT
  5
218
100
AcDbEntity
  8
0
  6
CONTINUOUS
 62
               7
100
AcDbMText
 10
-143.7333638381958
 20
-108.50637741088866
 30
0.0
 40
3.1999998092651367
 41
0.0
 71
               4
 72
               1
  1
\W1.333;\A1;10
  7
MX_NOTE_STANDARD
  0
MTEXT
  5
219
100
AcDbEntity
  8
0
  6
CONTINUOUS
 62
               7
100
AcDbMText
 10
-154.204475025177
 20
-108.50637741088866
 30
0.0
 40
3.1999998092651367
 41
0.0
 71
               4
 72
               1
  1
\W1.200;\A1;0
  7
MX_NOTE_STANDARD
  0
MTEXT
  5
21A
100
AcDbEntity
  8
0
  6
CONTINUOUS
 62
               7
100
AcDbMText
 10
-183.03173829247089
 20
-100.48637504577636
 30
0.0
 40
2.8800001831054733
 41
0.0
 71
               4
 72
               1
  1
\T0.984;\W1.129;\A1;STRETCH\P  PLACE
  7
MX_NOTE_STANDARD
  0
MTEXT
  5
21B
100
AcDbEntity
  8
0
  6
CONTINUOUS
 62
               7
100
AcDbMText
 10
-172.81114170074463
 20
-108.50637741088866
 30
0.0
 40
3.1999998092651367
 41
0.0
 71
               4
 72
               1
  1
\A1;A
  7
MX_NOTE_STANDARD
  0
MTEXT
  5
21C
100
AcDbEntity
  8
0
  6
CONTINUOUS
 62
               7
100
AcDbMText
 10
-172.81114170074463
 20
-114.50637931823729
 30
0.0
 40
3.1999998092651367
 41
0.0
 71
               4
 72
               1
  1
\A1;B
  7
MX_NOTE_STANDARD
  0
MTEXT
  5
21D
100
AcDbEntity
  8
0
  6
CONTINUOUS
 62
               7
100
AcDbMText
 10
-172.81114170074463
 20
-120.50636596679686
 30
0.0
 40
3.1999998092651367
 41
0.0
 71
               4
 72
               1
  1
\A1;C
  7
MX_NOTE_STANDARD
  0
MTEXT
  5
21E
100
AcDbEntity
  8
0
  6
CONTINUOUS
 62
               7
100
AcDbMText
 10
-71.862656753476983
 20
-114.50637741088866
 30
0.0
 40
3.1999998092651367
 41
0.0
 71
               4
 72
               1
  1
\W1.091;\A1;30
  7
MX_NOTE_STANDARD
  0
MTEXT
  5
21F
100
AcDbEntity
  8
0
  6
CONTINUOUS
 62
               7
100
AcDbMText
 10
-95.862656753476983
 20
-114.50637741088866
 30
0.0
 40
3.1999998092651367
 41
0.0
 71
               4
 72
               1
  1
\W1.091;\A1;20
  7
MX_NOTE_STANDARD
  0
MTEXT
  5
220
100
AcDbEntity
  8
0
  6
CONTINUOUS
 62
               7
100
AcDbMText
 10
-107.80447495269775
 20
-114.50637741088866
 30
0.0
 40
3.1999998092651367
 41
0.0
 71
               4
 72
               1
  1
\W1.200;\A1;15
  7
MX_NOTE_STANDARD
  0
MTEXT
  5
221
100
AcDbEntity
  8
0
  6
CONTINUOUS
 62
               7
100
AcDbMText
 10
-119.7333638381958
 20
-114.50637741088866
 30
0.0
 40
3.1999998092651367
 41
0.0
 71
               4
 72
               1
  1
\W1.333;\A1;10
  7
MX_NOTE_STANDARD
  0
MTEXT
  5
222
100
AcDbEntity
  8
0
  6
CONTINUOUS
 62
               7
100
AcDbMText
 10
-130.31114170074463
 20
-114.50637741088866
 30
0.0
 40
3.1999998092651367
 41
0.0
 71
               4
 72
               1
  1
\A1;5
  7
MX_NOTE_STANDARD
  0
MTEXT
  5
223
100
AcDbEntity
  8
0
  6
CONTINUOUS
 62
               7
100
AcDbMText
 10
-142.204475025177
 20
-114.50637741088866
 30
0.0
 40
3.1999998092651367
 41
0.0
 71
               4
 72
               1
  1
\W1.200;\A1;0
  7
MX_NOTE_STANDARD
  0
MTEXT
  5
224
100
AcDbEntity
  8
0
  6
CONTINUOUS
 62
               7
100
AcDbMText
 10
-154.204475025177
 20
-114.50637741088866
 30
0.0
 40
3.1999998092651367
 41
0.0
 71
               4
 72
               1
  1
\W1.200;\A1;0
  7
MX_NOTE_STANDARD
  0
MTEXT
  5
225
100
AcDbEntity
  8
0
  6
CONTINUOUS
 62
               7
100
AcDbMText
 10
-83.862656753476983
 20
-96.506377410888661
 30
0.0
 40
3.1999998092651367
 41
0.0
 71
               4
 72
               1
  1
\W1.091;\A1;70
  7
MX_NOTE_STANDARD
  0
MTEXT
  5
226
100
AcDbEntity
  8
0
  6
CONTINUOUS
 62
               7
100
AcDbMText
 10
-71.862656753476983
 20
-96.506377410888661
 30
0.0
 40
3.1999998092651367
 41
0.0
 71
               4
 72
               1
  1
\W1.091;\A1;80
  7
MX_NOTE_STANDARD
  0
MTEXT
  5
227
100
AcDbEntity
  8
0
  6
CONTINUOUS
 62
               7
100
AcDbMText
 10
-59.862656753476983
 20
-96.506377410888661
 30
0.0
 40
3.1999998092651367
 41
0.0
 71
               4
 72
               1
  1
\W1.091;\A1;90
  7
MX_NOTE_STANDARD
  0
MTEXT
  5
228
100
AcDbEntity
  8
0
  6
CONTINUOUS
 62
               7
100
AcDbMText
 10
-83.862656753476983
 20
-108.50637741088866
 30
0.0
 40
3.1999998092651367
 41
0.0
 71
               4
 72
               1
  1
\W1.091;\A1;60
  7
MX_NOTE_STANDARD
  0
MTEXT
  5
229
100
AcDbEntity
  8
0
  6
CONTINUOUS
 62
               7
100
AcDbMText
 10
-83.911141605377196
 20
-114.50637741088866
 30
0.0
 40
3.1999998092651367
 41
0.0
 71
               4
 72
               1
  1
\A1;25
  7
MX_NOTE_STANDARD
  0
MTEXT
  5
22A
100
AcDbEntity
  8
0
  6
CONTINUOUS
 62
               7
100
AcDbMText
 10
-83.862656753476983
 20
-120.50636596679686
 30
0.0
 40
3.1999998092651367
 41
0.0
 71
               4
 72
               1
  1
\W1.091;\A1;60
  7
MX_NOTE_STANDARD
  0
MTEXT
  5
22B
100
AcDbEntity
  8
0
  6
CONTINUOUS
 62
               7
100
AcDbMText
 10
-47.862656753476983
 20
-108.50637741088866
 30
0.0
 40
3.1999998092651367
 41
0.0
 71
               4
 72
               1
  1
\W1.091;\A1;90
  7
MX_NOTE_STANDARD
  0
MTEXT
  5
22C
100
AcDbEntity
  8
0
  6
CONTINUOUS
 62
               7
100
AcDbMText
 10
-47.862656753476983
 20
-114.50637741088866
 30
0.0
 40
3.1999998092651367
 41
0.0
 71
               4
 72
               1
  1
\W1.091;\A1;40
  7
MX_NOTE_STANDARD
  0
MTEXT
  5
22D
100
AcDbEntity
  8
0
  6
CONTINUOUS
 62
               7
100
AcDbMText
 10
-47.862656753476983
 20
-120.50636596679686
 30
0.0
 40
3.1999998092651367
 41
0.0
 71
               4
 72
               1
  1
\W1.091;\A1;90
  7
MX_NOTE_STANDARD
  0
MTEXT
  5
22E
100
AcDbEntity
  8
0
  6
CONTINUOUS
 62
               7
100
AcDbMText
 10
-59.862656753476983
 20
-108.50637741088866
 30
0.0
 40
3.1999998092651367
 41
0.0
 71
               4
 72
               1
  1
\W1.091;\A1;80
  7
MX_NOTE_STANDARD
  0
MTEXT
  5
22F
100
AcDbEntity
  8
0
  6
CONTINUOUS
 62
               7
100
AcDbMText
 10
-59.911141605377196
 20
-114.50637741088866
 30
0.0
 40
3.1999998092651367
 41
0.0
 71
               4
 72
               1
  1
\A1;35
  7
MX_NOTE_STANDARD
  0
MTEXT
  5
230
100
AcDbEntity
  8
0
  6
CONTINUOUS
 62
               7
100
AcDbMText
 10
-59.862656753476983
 20
-120.50636596679686
 30
0.0
 40
3.1999998092651367
 41
0.0
 71
               4
 72
               1
  1
\W1.091;\A1;80
  7
MX_NOTE_STANDARD
  0
MTEXT
  5
231
100
AcDbEntity
  8
0
  6
CONTINUOUS
 62
               7
100
AcDbMText
 10
-51.200030315893663
 20
-84.506377410888661
 30
0.0
 40
3.1999998092651367
 41
0.0
 71
               4
 72
               1
  1
\W0.833;\A1;（ｍｍ）
  7
MX_NOTE_STANDARD
  0
MTEXT
  5
232
100
AcDbEntity
  8
0
  6
CONTINUOUS
 62
               7
100
AcDbMText
 10
-130.37642665082893
 20
-84.506377410888661
 30
0.0
 40
3.1999998092651367
 41
0.0
 71
               4
 72
               1
  1
\W1.065;\A1;STRETCH LIST
  7
MX_NOTE_STANDARD
  0
INSERT
  5
233
100
AcDbEntity
  8
0
100
AcDbBlockReference
  2
MS_4
 10
-28.485715377087587
 20
-27.185712180575621
 30
0.0
  0
INSERT
  5
234
100
AcDbEntity
  8
0
100
AcDbBlockReference
  2
MS_3
 10
130.21428817705231
 20
52.028575904515307
 30
0.0
  0
INSERT
  5
235
100
AcDbEntity
  8
0
100
AcDbBlockReference
  2
MS_2
 10
-136.98571773572854
 20
52.028575904515307
 30
0.0
  0
INSERT
  5
236
100
AcDbEntity
  8
0
100
AcDbBlockReference
  2
MS_1
 10
-28.485715377087587
 20
52.028575904515307
 30
0.0
  0
MTEXT
  5
237
100
AcDbEntity
  8
0
  6
CONTINUOUS
 62
               7
100
AcDbMText
 10
-10.304806768814965
 20
-93.520175117460639
 30
0.0
 40
4.5
 41
0.0
 71
               1
 72
               1
  1
\W1.111;\A1;ZE102
  7
MX_NOTE_STANDARD
  0
MTEXT
  5
238
100
AcDbEntity
  8
0
  6
CONTINUOUS
 62
               7
100
AcDbMText
 10
78.722323167187739
 20
-29.745175069180874
 30
0.0
 40
4.0500000965595273
 41
0.0
 71
               1
 72
               1
  1
\T1.027;\W1.178;\A1;SENSOR\P SWITCH:ZE235
  7
MX_NOTE_STANDARD
  0
MTEXT
  5
239
100
AcDbEntity
  8
0
  6
CONTINUOUS
 62
               7
100
AcDbMText
 10
114.6118598978517
 20
-41.520175117460639
 30
0.0
 40
4.5
 41
0.0
 71
               1
 72
               1
  1
\A1;ZE255
  7
MX_NOTE_STANDARD
  0
MTEXT
  5
23A
100
AcDbEntity
  8
0
  6
CONTINUOUS
 62
               7
100
AcDbMText
 10
114.69519323118503
 20
-47.520175117460639
 30
0.0
 40
4.5
 41
0.0
 71
               1
 72
               1
  1
\W1.111;\A1;ZE201
  7
MX_NOTE_STANDARD
  0
MTEXT
  5
23B
100
AcDbEntity
  8
0
  6
CONTINUOUS
 62
               7
100
AcDbMText
 10
114.63772197000652
 20
-53.520175117460639
 30
0.0
 40
4.5
 41
0.0
 71
               1
 72
               1
  1
\W1.034;\A1;ZE202
  7
MX_NOTE_STANDARD
  0
MTEXT
  5
23C
100
AcDbEntity
  8
0
  6
CONTINUOUS
 62
               7
100
AcDbMText
 10
-46.229934790148981
 20
-69.745175069180874
 30
0.0
 40
4.0500000965595273
 41
0.0
 71
               1
 72
               1
  1
\T1.042;\W1.195;\A1;SENSOR\P SWITCH:ZE135
  7
MX_NOTE_STANDARD
  0
MTEXT
  5
23D
100
AcDbEntity
  8
0
  6
CONTINUOUS
 62
               7
100
AcDbMText
 10
-10.334568676998055
 20
-81.520175117460639
 30
0.0
 40
4.5
 41
0.0
 71
               1
 72
               1
  1
\W1.071;\A1;ZE155
  7
MX_NOTE_STANDARD
  0
MTEXT
  5
23E
100
AcDbEntity
  8
0
  6
CONTINUOUS
 62
               7
100
AcDbMText
 10
-10.238140106439833
 20
-87.520175117460639
 30
0.0
 40
4.5
 41
0.0
 71
               1
 72
               1
  1
\W1.200;\A1;ZE101
  7
MX_NOTE_STANDARD
  0
MTEXT
  5
23F
100
AcDbEntity
  8
0
  6
CONTINUOUS
 62
               7
100
AcDbMText
 10
-185.67500000122934
 20
107.60000610351562
 30
0.0
 40
4.5
 41
0.0
 71
               4
 72
               1
  1
\W1.100;\A1;MODEL:CS-TBDA20*ST(10)
  7
MX_NOTE_STANDARD
  0
MTEXT
  5
240
100
AcDbEntity
  8
0
  6
CONTINUOUS
 62
               3
100
AcDbMText
 10
2.1728557067327561
 20
118.97732995501332
 30
0.0
 40
3.1999998092651367
 41
0.0
 71
               4
 72
               1
  1
\W1.088;\A1;STRETCH LINE C
  7
MX_NOTE_STANDARD
  0
MTEXT
  5
241
100
AcDbEntity
  8
0
  6
CONTINUOUS
 62
               3
100
AcDbMText
 10
-23.713178614467459
 20
109.56422656548597
 30
0.0
 40
3.1999998092651367
 41
0.0
 71
               4
 72
               1
  1
\W1.088;\A1;STRETCH LINE B
  7
MX_NOTE_STANDARD
  0
MTEXT
  5
242
100
AcDbEntity
  8
0
  6
CONTINUOUS
 62
               3
100
AcDbMText
 10
-63.003029764195453
 20
101.14949648947514
 30
0.0
 40
3.1999998092651367
 41
0.0
 71
               4
 72
               1
  1
\W1.088;\A1;STRETCH LINE A
  7
MX_NOTE_STANDARD
  0
MTEXT
  5
243
100
AcDbEntity
  8
0
  6
CONTINUOUS
 62
               7
100
AcDbMText
 10
-189.20494699981546
 20
125.10001220703126
 30
0.0
 40
4.5
 41
0.0
 71
               4
 72
               1
  1
\W1.060;\A1;CS-TWIN ROD CYLINDER
  7
MX_NOTE_STANDARD
  0
LINE
  5
244
100
AcDbEntity
  8
0
  6
CONTINUOUS
 62
               7
100
AcDbLine
 10
-194.25
 20
132.60000610351562
 30
0.0
 11
194.80000305175781
 21
132.60000610351562
 31
0.0
  0
LINE
  5
245
100
AcDbEntity
  8
0
  6
CONTINUOUS
 62
               7
100
AcDbLine
 10
194.80000305175781
 20
132.60000610351562
 30
0.0
 11
194.80000305175781
 21
-133.5
 31
0.0
  0
LINE
  5
246
100
AcDbEntity
  8
0
  6
CONTINUOUS
 62
               7
100
AcDbLine
 10
-194.25
 20
132.60000610351562
 30
0.0
 11
-194.25
 21
-133.5
 31
0.0
  0
LINE
  5
247
100
AcDbEntity
  8
0
  6
CONTINUOUS
 62
               7
100
AcDbLine
 10
-194.25
 20
-133.5
 30
0.0
 11
194.80000305175781
 21
-133.5
 31
0.0
  0
LINE
  5
248
100
AcDbEntity
  8
0
  6
CONTINUOUS
 62
               7
100
AcDbLine
 10
109.80000305175781
 20
-118.5
 30
0.0
 11
109.80000305175781
 21
-133.5
 31
0.0
  0
LINE
  5
249
100
AcDbEntity
  8
0
  6
CONTINUOUS
 62
               7
100
AcDbLine
 10
109.80000305175781
 20
-118.5
 30
0.0
 11
194.80000305175781
 21
-118.5
 31
0.0
  0
LINE
  5
24A
100
AcDbEntity
  8
0
  6
CONTINUOUS
 62
               7
100
AcDbLine
 10
109.80000305175781
 20
132.60000610351562
 30
0.0
 11
109.80000305175781
 21
117.60000610351562
 31
0.0
  0
LINE
  5
24B
100
AcDbEntity
  8
0
  6
CONTINUOUS
 62
               7
100
AcDbLine
 10
109.80000305175781
 20
117.60000610351562
 30
0.0
 11
194.80000305175781
 21
117.60000610351562
 31
0.0
  0
LINE
  5
24C
100
AcDbEntity
  8
0
  6
CONTINUOUS
 62
               7
100
AcDbLine
 10
-194.25
 20
117.60000610351562
 30
0.0
 11
-95.75
 21
117.60000610351562
 31
0.0
  0
MTEXT
  5
24D
100
AcDbEntity
  8
0
  6
CONTINUOUS
 62
               7
100
AcDbMText
 10
135.28361320576767
 20
125.10000610351562
 30
0.0
 40
4.5
 41
0.0
 71
               4
 72
               1
  1
\W1.311;\A1;Ver. 1.0
  7
MX_NOTE_STANDARD
  0
MTEXT
  5
24E
100
AcDbEntity
  8
0
  6
CONTINUOUS
 62
               7
100
AcDbMText
 10
115.5267259825148
 20
-126.0
 30
0.0
 40
6.3000001907348633
 41
0.0
 71
               4
 72
               1
  1
\W1.121;\A1;KOGANEI CORP.
  7
MX_NOTE_STANDARD
  0
ENDSEC
  0
SECTION
  2
OBJECTS
  0
DICTIONARY
  5
19
100
AcDbDictionary
  3
ACAD_GROUP
350
1A
  3
ACAD_MLINESTYLE
350
1B
  0
DICTIONARY
  5
1A
102
{ACAD_REACTORS
330
19
102
}
100
AcDbDictionary
  0
DICTIONARY
  5
1B
102
{ACAD_REACTORS
330
19
102
}
100
AcDbDictionary
  3
STANDARD
350
1C
  0
MLINESTYLE
  5
1C
102
{ACAD_REACTORS
330
1B
102
}
100
AcDbMlineStyle
  2
Standard
 70
               0
  3

 62
               0
 51
90.0
 52
90.0
 71
               2
 49
0.5
 62
             256
  6
ByLayer
 49
-0.5
 62
             256
  6
ByLayer
  0
ENDSEC
  0
EOF
