  0
SECTION
  2
HEADER
  9
$ACADVER
  1
AC1012
  9
$DWGCODEPAGE
  3
dos932
  9
$INSBASE
 10
0.0
 20
0.0
 30
0.0
  9
$EXTMIN
 10
-194.25
 20
-133.5
 30
0.0
  9
$EXTMAX
 10
196.25000429153442
 20
132.60000610351562
 30
0.0
  9
$LIMMIN
 10
-194.25
 20
-133.5
  9
$LIMMAX
 10
196.25000429153442
 20
132.60000610351562
  9
$ORTHOMODE
 70
               0
  9
$REGENMODE
 70
               1
  9
$FILLMODE
 70
               1
  9
$QTEXTMODE
 70
               0
  9
$MIRRTEXT
 70
               1
  9
$DRAGMODE
 70
               2
  9
$LTSCALE
 40
1.0
  9
$OSMODE
 70
               0
  9
$ATTMODE
 70
               1
  9
$TEXTSIZE
 40
3.2000000476837158
  9
$TRACEWID
 40
0.05
  9
$TEXTSTYLE
  7
MX_NOTE_STANDARD
  9
$CLAYER
  8
0
  9
$CELTYPE
  6
CONTINUOUS
  9
$CECOLOR
 62
             256
  9
$CELTSCALE
 40
1.0
  9
$DELOBJ
 70
               1
  9
$DISPSILH
 70
               0
  9
$DIMSCALE
 40
1.0
  9
$DIMASZ
 40
2.5
  9
$DIMEXO
 40
1.5
  9
$DIMDLI
 40
3.75
  9
$DIMRND
 40
0.0
  9
$DIMDLE
 40
0.0
  9
$DIMEXE
 40
1.5
  9
$DIMTP
 40
0.0
  9
$DIMTM
 40
0.0
  9
$DIMTXT
 40
3.2000000476837158
  9
$DIMCEN
 40
2.5
  9
$DIMTSZ
 40
0.0
  9
$DIMTOL
 70
               0
  9
$DIMLIM
 70
               0
  9
$DIMTIH
 70
               0
  9
$DIMTOH
 70
               0
  9
$DIMSE1
 70
               0
  9
$DIMSE2
 70
               0
  9
$DIMTAD
 70
               1
  9
$DIMZIN
 70
               8
  9
$DIMBLK
  1

  9
$DIMASO
 70
               1
  9
$DIMSHO
 70
               1
  9
$DIMPOST
  1

  9
$DIMAPOST
  1

  9
$DIMALT
 70
               0
  9
$DIMALTD
 70
               4
  9
$DIMALTF
 40
0.0394
  9
$DIMLFAC
 40
1.0
  9
$DIMTOFL
 70
               1
  9
$DIMTVP
 40
0.0
  9
$DIMTIX
 70
               0
  9
$DIMSOXD
 70
               0
  9
$DIMSAH
 70
               0
  9
$DIMBLK1
  1

  9
$DIMBLK2
  1

  9
$DIMSTYLE
  2
MXDIMSTYLE
  9
$DIMCLRD
 70
               0
  9
$DIMCLRE
 70
               0
  9
$DIMCLRT
 70
               0
  9
$DIMTFAC
 40
1.0
  9
$DIMGAP
 40
1.0
  9
$DIMJUST
 70
               0
  9
$DIMSD1
 70
               0
  9
$DIMSD2
 70
               0
  9
$DIMTOLJ
 70
               1
  9
$DIMTZIN
 70
               0
  9
$DIMALTZ
 70
               0
  9
$DIMALTTZ
 70
               0
  9
$DIMFIT
 70
               3
  9
$DIMUPT
 70
               1
  9
$DIMUNIT
 70
               2
  9
$DIMDEC
 70
               4
  9
$DIMTDEC
 70
               4
  9
$DIMALTU
 70
               8
  9
$DIMALTTD
 70
               4
  9
$DIMTXSTY
  7
MX_NOTE_STANDARD
  9
$DIMAUNIT
 70
               0
  9
$LUNITS
 70
               2
  9
$LUPREC
 70
               4
  9
$SKETCHINC
 40
0.1
  9
$FILLETRAD
 40
0.0
  9
$AUNITS
 70
               0
  9
$AUPREC
 70
               0
  9
$MENU
  1
acad
  9
$ELEVATION
 40
0.0
  9
$PELEVATION
 40
0.0
  9
$THICKNESS
 40
0.0
  9
$LIMCHECK
 70
               0
  9
$BLIPMODE
 70
               1
  9
$CHAMFERA
 40
0.0
  9
$CHAMFERB
 40
0.0
  9
$CHAMFERC
 40
0.0
  9
$CHAMFERD
 40
0.0
  9
$SKPOLY
 70
               0
  9
$TDCREATE
 40
2452220.697557870
  9
$TDUPDATE
 40
2452220.697557870
  9
$TDINDWG
 40
0.0000000000
  9
$TDUSRTIMER
 40
0.0000000000
  9
$USRTIMER
 70
               1
  9
$ANGBASE
 50
0.0
  9
$ANGDIR
 70
               0
  9
$PDMODE
 70
               0
  9
$PDSIZE
 40
0.0
  9
$PLINEWID
 40
0.0
  9
$COORDS
 70
               1
  9
$SPLFRAME
 70
               0
  9
$SPLINETYPE
 70
               6
  9
$SPLINESEGS
 70
               8
  9
$ATTDIA
 70
               0
  9
$ATTREQ
 70
               1
  9
$HANDLING
 70
               1
  9
$HANDSEED
  5
25B
  9
$SURFTAB1
 70
               6
  9
$SURFTAB2
 70
               6
  9
$SURFTYPE
 70
               6
  9
$SURFU
 70
               6
  9
$SURFV
 70
               6
  9
$UCSNAME
  2

  9
$UCSORG
 10
0.0
 20
0.0
 30
0.0
  9
$UCSXDIR
 10
1.0
 20
0.0
 30
0.0
  9
$UCSYDIR
 10
0.0
 20
1.0
 30
0.0
  9
$PUCSNAME
  2

  9
$PUCSORG
 10
0.0
 20
0.0
 30
0.0
  9
$PUCSXDIR
 10
1.0
 20
0.0
 30
0.0
  9
$PUCSYDIR
 10
0.0
 20
1.0
 30
0.0
  9
$USERI1
 70
               0
  9
$USERI2
 70
               0
  9
$USERI3
 70
               0
  9
$USERI4
 70
               0
  9
$USERI5
 70
               0
  9
$USERR1
 40
0.0
  9
$USERR2
 40
0.0
  9
$USERR3
 40
0.0
  9
$USERR4
 40
0.0
  9
$USERR5
 40
0.0
  9
$WORLDVIEW
 70
               1
  9
$SHADEDGE
 70
               3
  9
$SHADEDIF
 70
              70
  9
$TILEMODE
 70
               1
  9
$MAXACTVP
 70
              16
  9
$PINSBASE
 10
0.0
 20
0.0
 30
0.0
  9
$PLIMCHECK
 70
               0
  9
$PEXTMIN
 10
1.0000000000000000E+20
 20
1.0000000000000000E+20
 30
1.0000000000000000E+20
  9
$PEXTMAX
 10
-1.0000000000000000E+20
 20
-1.0000000000000000E+20
 30
-1.0000000000000000E+20
  9
$PLIMMIN
 10
0.0
 20
0.0
  9
$PLIMMAX
 10
12.0
 20
9.0
  9
$UNITMODE
 70
               0
  9
$VISRETAIN
 70
               0
  9
$PLINEGEN
 70
               1
  9
$PSLTSCALE
 70
               0
  9
$TREEDEPTH
 70
            3020
  9
$PICKSTYLE
 70
               1
  9
$CMLSTYLE
  2
Standard
  9
$CMLJUST
 70
               0
  9
$CMLSCALE
 40
1.0
  9
$SAVEIMAGES
 70
               0
  0
ENDSEC
  0
SECTION
  2
CLASSES
  0
CLASS
  1
LWPOLYLINE
  2
AcDbPolyline
  3
"AutoCAD"
 90
        0
280
               0
281
               1
  0
CLASS
  1
IMAGE
  2
AcDbRasterImage
  3
ISM
 90
      127
280
               0
281
               1
  0
CLASS
  1
OLE2FRAME
  2
AcDbOle2Frame
  3
""
 90
        0
280
               0
281
               1
  0
CLASS
  1
HATCH
  2
AcDbHatch
  3
"ACAD_SEDONA"
 90
        0
280
               0
281
               1
  0
CLASS
  1
DICTIONARYVAR
  2
AcDbDictionaryVar
  3
"AutoCAD"
 90
        0
280
               0
281
               0
  0
CLASS
  1
RASTERVARIABLES
  2
AcDbRasterVariables
  3
ISM
 90
        0
280
               0
281
               0
  0
CLASS
  1
IMAGEDEF
  2
AcDbRasterImageDef
  3
ISM
 90
        0
280
               0
281
               0
  0
CLASS
  1
IMAGEDEF_REACTOR
  2
AcDbRasterImageDefReactor
  3
ISM
 90
        1
280
               0
281
               0
  0
CLASS
  1
IDBUFFER
  2
AcDbIdBuffer
  3
"Acad"
 90
        0
280
               0
281
               0
  0
CLASS
  1
SPATIAL_FILTER
  2
AcDbSpatialFilter
  3
"Acad"
 90
        0
280
               0
281
               0
  0
CLASS
  1
XRECORD
  2
AcDbXrecord
  3
"<Built In>"
 90
        0
280
               0
281
               0
  0
CLASS
  1
SORTENTSTABLE
  2
AcDbSortentsTable
  3
"AutoCAD"
 90
        0
280
               0
281
               0
  0
CLASS
  1
LAYER_INDEX
  2
AcDbLayerIndex
  3
"Acad"
 90
        0
280
               0
281
               0
  0
CLASS
  1
SPATIAL_INDEX
  2
AcDbSpatialIndex
  3
"Acad"
 90
        0
280
               0
281
               0
  0
CLASS
  1
OBJECT_PTR
  2
CAseDLPNTableRecord
  3
"ASE-LPNTableRecord"
 90
        1
280
               0
281
               0
  0
CLASS
  1
LAYOUT
  2
AcDbLayout
  3
"AutoCAD 2000"
 90
        1
280
               0
281
               0
  0
CLASS
  1
PLOTSETTINGS
  2
AcDbPlotSettings
  3
"AutoCAD 2000"
 90
        1
280
               0
281
               0
  0
CLASS
  1
ACDBDICTIONARYWDFLT
  2
AcDbDictionaryWithDefault
  3
"AutoCAD 2000"
 90
        1
280
               0
281
               0
  0
CLASS
  1
ACDBPLACEHOLDER
  2
AcDbPlaceHolder
  3
"AutoCAD 2000"
 90
        1
280
               0
281
               0
  0
CLASS
  1
VBA_PROJECT
  2
AcDbVbaProject
  3
"acadvba"
 90
        1
280
               0
281
               0
  0
CLASS
  1
WIPEOUT
  2
AcDbWipeout
  3
WipeOut|AutoCAD Express Tool|expresstools@autodesk.com
 90
      127
280
               0
281
               1
  0
CLASS
  1
WIPEOUTVARIABLES
  2
AcDbWipeoutVariables
  3
WipeOut|AutoCAD Express Tool|expresstools@autodesk.com
 90
        0
280
               0
281
               0
  0
CLASS
  1
RTEXT
  2
RText
  3
RText|AutoCAD Express Tool|expresstools@autodesk.com
 90
        0
280
               0
281
               1
  0
CLASS
  1
ARCALIGNEDTEXT
  2
AcDbArcAlignedText
  3
ATEXT|AutoCAD Express Tool|expresstools@autodesk.com
 90
        0
280
               0
281
               1
  0
ENDSEC
  0
SECTION
  2
TABLES
  0
TABLE
  2
VPORT
  5
7
100
AcDbSymbolTable
 70
               1
  0
VPORT
  5
15
100
AcDbSymbolTableRecord
100
AcDbViewportTableRecord
  2
*ACTIVE
 70
               0
 10
0.0
 20
0.0
 11
1.0
 21
1.0
 12
1.0000021457672119
 22
-0.4499969482421875
 13
0.0
 23
0.0
 14
1.0
 24
1.0
 15
0.0
 25
0.0
 16
0.0
 26
0.0
 36
1.0
 17
0.0
 27
0.0
 37
0.0
 40
268.76100616455079
 41
1.7320508075688772
 42
50.0
 43
0.0
 44
0.0
 50
0.0
 51
0.0
 71
               0
 72
             100
 73
               1
 74
               1
 75
               0
 76
               0
 77
               0
 78
               0
  0
ENDTAB
  0
TABLE
  2
LTYPE
  5
4
100
AcDbSymbolTable
 70
               6
  0
LTYPE
  5
11
100
AcDbSymbolTableRecord
100
AcDbLinetypeTableRecord
  2
BYBLOCK
 70
              64
  3

 72
              65
 73
               0
 40
0.0
  0
LTYPE
  5
12
100
AcDbSymbolTableRecord
100
AcDbLinetypeTableRecord
  2
BYLAYER
 70
              64
  3

 72
              65
 73
               0
 40
0.0
  0
LTYPE
  5
13
100
AcDbSymbolTableRecord
100
AcDbLinetypeTableRecord
  2
CONTINUOUS
 70
              64
  3
Solid line
 72
              65
 73
               0
 40
0.0
  0
LTYPE
  5
48
100
AcDbSymbolTableRecord
100
AcDbLinetypeTableRecord
  2
CENTER
 70
              64
  3
Center ____ _ ____ _ ____ _ ____ _ ____ _ ____
 72
              65
 73
               4
 40
50.800000000000004
 49
31.75
 74
               0
 49
-6.3499999999999996
 74
               0
 49
6.3499999999999996
 74
               0
 49
-6.3499999999999996
 74
               0
  0
LTYPE
  5
5D
100
AcDbSymbolTableRecord
100
AcDbLinetypeTableRecord
  2
DASHED
 70
              64
  3
Dashed __ __ __ __ __ __ __ __ __ __ __ __ __ _
 72
              65
 73
               2
 40
19.049999999999997
 49
12.699999999999999
 74
               0
 49
-6.3499999999999996
 74
               0
  0
LTYPE
  5
6B
100
AcDbSymbolTableRecord
100
AcDbLinetypeTableRecord
  2
PHANTOM
 70
              64
  3
Phantom ______  __  __  ______  __  __  ______
 72
              65
 73
               6
 40
63.500000000000007
 49
31.75
 74
               0
 49
-6.3499999999999996
 74
               0
 49
6.3499999999999996
 74
               0
 49
-6.3499999999999996
 74
               0
 49
6.3499999999999996
 74
               0
 49
-6.3499999999999996
 74
               0
  0
ENDTAB
  0
TABLE
  2
LAYER
  5
2
100
AcDbSymbolTable
 70
               2
  0
LAYER
  5
14
100
AcDbSymbolTableRecord
100
AcDbLayerTableRecord
  2
0
 70
               0
 62
               7
  6
CONTINUOUS
  0
LAYER
  5
1D
100
AcDbSymbolTableRecord
100
AcDbLayerTableRecord
  2
DEFPOINTS
 70
               0
 62
               7
  6
CONTINUOUS
  0
ENDTAB
  0
TABLE
  2
STYLE
  5
3
100
AcDbSymbolTable
 70
               1
  0
STYLE
  5
17
100
AcDbSymbolTableRecord
100
AcDbTextStyleTableRecord
  2
MX_NOTE_STANDARD
 70
               0
 40
3.2000000476837158
 41
1.0
 50
0.0
 71
               0
 42
3.2000000476837158
  3
txt.shx
  4
extfont.shx
  0
ENDTAB
  0
TABLE
  2
VIEW
  5
5
100
AcDbSymbolTable
 70
               0
  0
ENDTAB
  0
TABLE
  2
UCS
  5
6
100
AcDbSymbolTable
 70
               0
  0
ENDTAB
  0
TABLE
  2
APPID
  5
8
100
AcDbSymbolTable
 70
               1
  0
APPID
  5
16
100
AcDbSymbolTableRecord
100
AcDbRegAppTableRecord
  2
ACAD
 70
               0
  0
ENDTAB
  0
TABLE
  2
DIMSTYLE
  5
9
100
AcDbSymbolTable
 70
               1
  0
DIMSTYLE
105
18
100
AcDbSymbolTableRecord
100
AcDbDimStyleTableRecord
  2
MXDIMSTYLE
 70
               0
  3

  4

  5

  6

  7

 40
1.0
 41
2.5
 42
1.5
 43
3.75
 44
1.5
 45
0.0
 46
0.0
 47
0.0
 48
0.0
 71
               0
 72
               0
 73
               0
 74
               0
 75
               0
 76
               0
 77
               1
 78
               8
140
3.2000000476837158
141
2.5
142
0.0
143
0.0394
144
1.0
145
0.0
146
1.0
147
1.0
170
               0
171
               4
172
               1
173
               0
174
               0
175
               0
176
               0
177
               0
178
               0
270
               2
271
               4
272
               4
273
               8
274
               4
275
               0
280
               0
281
               0
282
               0
283
               1
284
               0
285
               0
286
               0
287
               3
288
               1
340
17
  0
ENDTAB
  0
TABLE
  2
BLOCK_RECORD
  5
1
100
AcDbSymbolTable
 70
              10
  0
BLOCK_RECORD
  5
A
100
AcDbSymbolTableRecord
100
AcDbBlockTableRecord
  2
*MODEL_SPACE
  0
BLOCK_RECORD
  5
B
100
AcDbSymbolTableRecord
100
AcDbBlockTableRecord
  2
*PAPER_SPACE
  0
BLOCK_RECORD
  5
1E
100
AcDbSymbolTableRecord
100
AcDbBlockTableRecord
  2
MS_1
  0
BLOCK_RECORD
  5
1F
100
AcDbSymbolTableRecord
100
AcDbBlockTableRecord
  2
MS_2
  0
BLOCK_RECORD
  5
20
100
AcDbSymbolTableRecord
100
AcDbBlockTableRecord
  2
MS_3
  0
BLOCK_RECORD
  5
21
100
AcDbSymbolTableRecord
100
AcDbBlockTableRecord
  2
MS_4
  0
BLOCK_RECORD
  5
22
100
AcDbSymbolTableRecord
100
AcDbBlockTableRecord
  2
MS_5
  0
BLOCK_RECORD
  5
23
100
AcDbSymbolTableRecord
100
AcDbBlockTableRecord
  2
MS_6
  0
BLOCK_RECORD
  5
24
100
AcDbSymbolTableRecord
100
AcDbBlockTableRecord
  2
MS_7
  0
BLOCK_RECORD
  5
25
100
AcDbSymbolTableRecord
100
AcDbBlockTableRecord
  2
MS_8
  0
BLOCK_RECORD
  5
26
100
AcDbSymbolTableRecord
100
AcDbBlockTableRecord
  2
MS_9
  0
BLOCK_RECORD
  5
27
100
AcDbSymbolTableRecord
100
AcDbBlockTableRecord
  2
MS_10
  0
ENDTAB
  0
ENDSEC
  0
SECTION
  2
BLOCKS
  0
BLOCK
  5
D
100
AcDbEntity
  8
0
100
AcDbBlockBegin
  2
*MODEL_SPACE
 70
               0
 10
0.0
 20
0.0
 30
0.0
  3
*MODEL_SPACE
  1

  0
ENDBLK
  5
E
100
AcDbEntity
  8
0
100
AcDbBlockEnd
  0
BLOCK
  5
F
100
AcDbEntity
 67
               1
  8
0
100
AcDbBlockBegin
  2
*PAPER_SPACE
 70
               0
 10
0.0
 20
0.0
 30
0.0
  3
*PAPER_SPACE
  1

  0
ENDBLK
  5
10
100
AcDbEntity
 67
               1
  8
0
100
AcDbBlockEnd
  0
BLOCK
  5
28
100
AcDbEntity
  8
0
100
AcDbBlockBegin
  2
MS_1
 70
               0
 10
0.0
 20
0.0
 30
0.0
  3
MS_1
  1

  0
ARC
  5
29
100
AcDbEntity
  8
0
  6
CONTINUOUS
 62
               7
100
AcDbCircle
 10
50.000000936644426
 20
32.999991842678469
 30
0.0
 40
4.5000975602206283
100
AcDbArc
 50
128.94380049761961
 51
51.056199502379989
  0
CIRCLE
  5
2A
100
AcDbEntity
  8
0
  6
CONTINUOUS
 62
               7
100
AcDbCircle
 10
65.000001447541393
 20
-0.0000174386163962
 30
0.0
 40
4.4999995316777834
  0
CIRCLE
  5
2B
100
AcDbEntity
  8
0
  6
CONTINUOUS
 62
               7
100
AcDbCircle
 10
25.000000425747459
 20
-0.0000174386163962
 30
0.0
 40
4.4999995316777834
  0
ARC
  5
2C
100
AcDbEntity
  8
0
  6
CONTINUOUS
 62
               7
100
AcDbCircle
 10
50.000000936644426
 20
-33.000026719911261
 30
0.0
 40
4.5000704340575162
100
AcDbArc
 50
308.94407961737011
 51
231.0559203826287
  0
CIRCLE
  5
2D
100
AcDbEntity
  8
0
  6
CONTINUOUS
 62
               7
100
AcDbCircle
 10
50.000000936644426
 20
32.999991842678469
 30
0.0
 40
2.2499997658388917
  0
CIRCLE
  5
2E
100
AcDbEntity
  8
0
  6
CONTINUOUS
 62
               7
100
AcDbCircle
 10
65.000001447541393
 20
-0.0000174386163962
 30
0.0
 40
2.2499997658388917
  0
CIRCLE
  5
2F
100
AcDbEntity
  8
0
  6
CONTINUOUS
 62
               7
100
AcDbCircle
 10
50.000000936644426
 20
-33.000026719911261
 30
0.0
 40
2.2499997658388917
  0
CIRCLE
  5
30
100
AcDbEntity
  8
0
  6
CONTINUOUS
 62
               7
100
AcDbCircle
 10
25.000000425747459
 20
-0.0000174386163962
 30
0.0
 40
2.2499997658388917
  0
CIRCLE
  5
31
100
AcDbEntity
  8
0
  6
CONTINUOUS
 62
               7
100
AcDbCircle
 10
-34.000005108969674
 20
27.99999175752896
 30
0.0
 40
2.0949990765537376
  0
CIRCLE
  5
32
100
AcDbEntity
  8
0
  6
CONTINUOUS
 62
               7
100
AcDbCircle
 10
-34.000005108969674
 20
-28.000026634761753
 30
0.0
 40
2.0949990765537376
  0
CIRCLE
  5
33
100
AcDbEntity
  8
0
  6
CONTINUOUS
 62
               2
100
AcDbCircle
 10
-34.000005108969674
 20
-28.000026634761753
 30
0.0
 40
2.5000000425747468
  0
CIRCLE
  5
34
100
AcDbEntity
  8
0
  6
CONTINUOUS
 62
               2
100
AcDbCircle
 10
-34.000005108969674
 20
27.99999175752896
 30
0.0
 40
2.5000000425747468
  0
LINE
  5
35
100
AcDbEntity
  8
0
  6
CONTINUOUS
 62
               7
100
AcDbLine
 10
82.000001737049686
 20
-35.78571489514141
 30
0.0
 11
82.000001737049686
 21
35.785714895141325
 31
0.0
  0
LINE
  5
36
100
AcDbEntity
  8
0
  6
CONTINUOUS
 62
               7
100
AcDbLine
 10
0.0
 20
36.500000621591255
 30
0.0
 11
10.000000170298989
 21
36.500000621591255
 31
0.0
  0
LINE
  5
37
100
AcDbEntity
  8
0
  6
CONTINUOUS
 62
               7
100
AcDbLine
 10
0.0
 20
-36.50000062159134
 30
0.0
 11
10.000000170298989
 21
-36.50000062159134
 31
0.0
  0
LINE
  5
38
100
AcDbEntity
  8
0
  6
CONTINUOUS
 62
               7
100
AcDbLine
 10
0.0
 20
36.500000621591255
 30
0.0
 11
0.0
 21
-36.50000062159134
 31
0.0
  0
LINE
  5
39
100
AcDbEntity
  8
0
  6
CONTINUOUS
 62
               7
100
AcDbLine
 10
66.842858621782227
 20
4.1000000698225563
 30
0.0
 11
82.000001737049686
 21
4.1000000698225563
 31
0.0
  0
LINE
  5
3A
100
AcDbEntity
  8
0
  6
CONTINUOUS
 62
               7
100
AcDbLine
 10
53.157143847553101
 20
29.80000050749095
 30
0.0
 11
82.000001737049686
 21
29.80000050749095
 31
0.0
  0
LINE
  5
3B
100
AcDbEntity
  8
0
  6
CONTINUOUS
 62
               7
100
AcDbLine
 10
58.000001328332104
 20
26.600000452995289
 30
0.0
 11
80.500001711504808
 21
26.600000452995289
 31
0.0
  0
LINE
  5
3C
100
AcDbEntity
  8
0
  6
CONTINUOUS
 62
               7
100
AcDbLine
 10
58.000001328332104
 20
29.80000050749095
 30
0.0
 11
80.500001711504808
 21
29.80000050749095
 31
0.0
  0
LINE
  5
3D
100
AcDbEntity
  8
0
  6
CONTINUOUS
 62
               7
100
AcDbLine
 10
10.000000170298989
 20
7.3000001243182169
 30
0.0
 11
82.000001737049686
 21
7.3000001243182169
 31
0.0
  0
LINE
  5
3E
100
AcDbEntity
  8
0
  6
CONTINUOUS
 62
               7
100
AcDbLine
 10
10.000000170298989
 20
4.1000000698225563
 30
0.0
 11
23.14285753697763
 21
4.1000000698225563
 31
0.0
  0
LINE
  5
3F
100
AcDbEntity
  8
0
  6
CONTINUOUS
 62
               7
100
AcDbLine
 10
10.000000170298989
 20
26.600000452995289
 30
0.0
 11
82.000001737049686
 21
26.600000452995289
 31
0.0
  0
LINE
  5
40
100
AcDbEntity
  8
0
  6
CONTINUOUS
 62
               7
100
AcDbLine
 10
10.000000170298989
 20
29.80000050749095
 30
0.0
 11
46.828572311206756
 21
29.80000050749095
 31
0.0
  0
LINE
  5
41
100
AcDbEntity
  8
0
  6
CONTINUOUS
 62
               7
100
AcDbLine
 10
26.842857599988264
 20
4.1000000698225563
 30
0.0
 11
63.142858558771593
 21
4.1000000698225563
 31
0.0
  0
LINE
  5
42
100
AcDbEntity
  8
0
  6
CONTINUOUS
 62
               7
100
AcDbLine
 10
43.500000825950082
 20
7.3000001243182169
 30
0.0
 11
56.000001209122814
 21
7.3000001243182169
 31
0.0
  0
LINE
  5
43
100
AcDbEntity
  8
0
  6
CONTINUOUS
 62
               7
100
AcDbLine
 10
82.000001737049686
 20
-35.78571489514141
 30
0.0
 11
81.285716010599756
 21
-36.50000062159134
 31
0.0
  0
LINE
  5
44
100
AcDbEntity
  8
0
  6
CONTINUOUS
 62
               7
100
AcDbLine
 10
10.000000170298989
 20
-35.78571489514141
 30
0.0
 11
10.714285896748919
 21
-36.50000062159134
 31
0.0
  0
LINE
  5
45
100
AcDbEntity
  8
0
  6
CONTINUOUS
 62
               7
100
AcDbLine
 10
81.285716010599756
 20
36.500000621591255
 30
0.0
 11
82.000001737049686
 21
35.785714895141325
 31
0.0
  0
LINE
  5
46
100
AcDbEntity
  8
0
  6
CONTINUOUS
 62
               7
100
AcDbLine
 10
10.714285896748919
 20
36.500000621591255
 30
0.0
 11
10.000000170298989
 21
35.785714895141325
 31
0.0
  0
LINE
  5
47
100
AcDbEntity
  8
0
  6
CONTINUOUS
 62
               7
100
AcDbLine
 10
-39.000000834465084
 20
36.000000613076338
 30
0.0
 11
-39.000000834465084
 21
-36.000000613076395
 31
0.0
  0
LINE
  5
49
100
AcDbEntity
  8
0
  6
CENTER
 62
               2
100
AcDbLine
 10
-41.000000868524808
 20
-17.000000289508307
 30
0.0
 11
3.8285714937716193
 21
-17.000000289508307
 31
0.0
  0
LINE
  5
4A
100
AcDbEntity
  8
0
  6
CENTER
 62
               2
100
AcDbLine
 10
44.50000084298
 20
33.00000056198661
 30
0.0
 11
56.50000104733877
 21
33.00000056198661
 31
0.0
  0
LINE
  5
4B
100
AcDbEntity
  8
0
  6
CENTER
 62
               2
100
AcDbLine
 10
44.000000834465027
 20
-33.000000561986724
 30
0.0
 11
56.157143898642801
 21
-33.000000561986724
 31
0.0
  0
LINE
  5
4C
100
AcDbEntity
  8
0
  6
CENTER
 62
               2
100
AcDbLine
 10
65.000001447541393
 20
6.5000001106943159
 30
0.0
 11
65.000001447541393
 21
-6.1714286765273982
 31
0.0
  0
LINE
  5
4D
100
AcDbEntity
  8
0
  6
CENTER
 62
               2
100
AcDbLine
 10
25.000000425747459
 20
5.5000000936644255
 30
0.0
 11
25.000000425747459
 21
-6.1714286765273982
 31
0.0
  0
LINE
  5
4E
100
AcDbEntity
  8
0
  6
CENTER
 62
               2
100
AcDbLine
 10
50.000000936644426
 20
37.742857785614149
 30
0.0
 11
50.000000936644426
 21
26.500000451292294
 31
0.0
  0
LINE
  5
4F
100
AcDbEntity
  8
0
  6
CENTER
 62
               2
100
AcDbLine
 10
-34.000000749315575
 20
-23.171428966035705
 30
0.0
 11
-34.000000749315575
 21
-32.84285770216772
 31
0.0
  0
LINE
  5
50
100
AcDbEntity
  8
0
  6
CENTER
 62
               2
100
AcDbLine
 10
-34.000000749315575
 20
32.157143404775695
 30
0.0
 11
-34.000000749315575
 21
23.500000400202566
 31
0.0
  0
LINE
  5
51
100
AcDbEntity
  8
0
  6
CENTER
 62
               2
100
AcDbLine
 10
-37.842857957616161
 20
28.000000476837158
 30
0.0
 11
-30.500000689710873
 21
28.000000476837158
 31
0.0
  0
LINE
  5
52
100
AcDbEntity
  8
0
  6
CENTER
 62
               2
100
AcDbLine
 10
-37.50000080892022
 20
-28.000000476837215
 30
0.0
 11
-29.842857821376981
 21
-28.000000476837215
 31
0.0
  0
LINE
  5
53
100
AcDbEntity
  8
0
  6
CONTINUOUS
 62
               7
100
AcDbLine
 10
-27.000000630106285
 20
-13.842857378599604
 30
0.0
 11
-29.000000664166066
 21
-13.842857378599604
 31
0.0
  0
LINE
  5
54
100
AcDbEntity
  8
0
  6
CONTINUOUS
 62
               7
100
AcDbLine
 10
-27.000000630106285
 20
-20.171428914945977
 30
0.0
 11
-29.000000664166066
 21
-20.171428914945977
 31
0.0
  0
LINE
  5
55
100
AcDbEntity
  8
0
  6
CONTINUOUS
 62
               7
100
AcDbLine
 10
-27.000000630106285
 20
-13.842857378599604
 30
0.0
 11
-27.000000630106285
 21
-20.171428914945977
 31
0.0
  0
LINE
  5
56
100
AcDbEntity
  8
0
  6
CONTINUOUS
 62
               7
100
AcDbLine
 10
-29.000000664166066
 20
-15.957143128891403
 30
0.0
 11
-27.000000630106285
 21
-20.171428914945977
 31
0.0
  0
LINE
  5
57
100
AcDbEntity
  8
0
  6
CONTINUOUS
 62
               7
100
AcDbLine
 10
-27.000000630106285
 20
-13.842857378599604
 30
0.0
 11
-29.000000664166066
 21
-18.057143164654235
 31
0.0
  0
LINE
  5
58
100
AcDbEntity
  8
0
  6
CONTINUOUS
 62
               7
100
AcDbLine
 10
-27.000000630106285
 20
20.157143200416897
 30
0.0
 11
-29.000000664166066
 21
15.942857414362322
 31
0.0
  0
LINE
  5
59
100
AcDbEntity
  8
0
  6
CONTINUOUS
 62
               7
100
AcDbLine
 10
-29.000000664166066
 20
18.042857450125155
 30
0.0
 11
-27.000000630106285
 21
13.82857166407058
 31
0.0
  0
LINE
  5
5A
100
AcDbEntity
  8
0
  6
CONTINUOUS
 62
               7
100
AcDbLine
 10
-27.000000630106285
 20
20.157143200416897
 30
0.0
 11
-29.000000664166066
 21
20.157143200416897
 31
0.0
  0
LINE
  5
5B
100
AcDbEntity
  8
0
  6
CONTINUOUS
 62
               7
100
AcDbLine
 10
-27.000000630106285
 20
20.157143200416897
 30
0.0
 11
-27.000000630106285
 21
13.82857166407058
 31
0.0
  0
LINE
  5
5C
100
AcDbEntity
  8
0
  6
CONTINUOUS
 62
               7
100
AcDbLine
 10
-29.000000664166066
 20
13.82857166407058
 30
0.0
 11
-27.000000630106285
 21
13.82857166407058
 31
0.0
  0
LINE
  5
5E
100
AcDbEntity
  8
0
  6
DASHED
 62
               7
100
AcDbLine
 10
-29.000000664166066
 20
20.157143200416897
 30
0.0
 11
-27.000000630106285
 21
20.157143200416897
 31
0.0
  0
LINE
  5
5F
100
AcDbEntity
  8
0
  6
CONTINUOUS
 62
               7
100
AcDbLine
 10
-39.000000834465084
 20
-36.000000613076395
 30
0.0
 11
-29.000000664166066
 21
-36.000000613076395
 31
0.0
  0
LINE
  5
60
100
AcDbEntity
  8
0
  6
CONTINUOUS
 62
               7
100
AcDbLine
 10
-39.000000834465084
 20
36.000000613076338
 30
0.0
 11
-29.000000664166066
 21
36.000000613076338
 31
0.0
  0
LINE
  5
61
100
AcDbEntity
  8
0
  6
CONTINUOUS
 62
               7
100
AcDbLine
 10
10.714285896748919
 20
-36.50000062159134
 30
0.0
 11
81.285716010599756
 21
-36.50000062159134
 31
0.0
  0
LINE
  5
62
100
AcDbEntity
  8
0
  6
CENTER
 62
               2
100
AcDbLine
 10
-41.800000882148765
 20
0.0
 30
0.0
 11
89.028573285316952
 21
0.0
 31
0.0
  0
LINE
  5
63
100
AcDbEntity
  8
0
  6
CENTER
 62
               2
100
AcDbLine
 10
-41.400000875336787
 20
17.00000028950825
 30
0.0
 11
4.8285715108015097
 21
17.00000028950825
 31
0.0
  0
LINE
  5
64
100
AcDbEntity
  8
0
  6
CONTINUOUS
 62
               7
100
AcDbLine
 10
10.714285896748919
 20
36.500000621591255
 30
0.0
 11
81.285716010599756
 21
36.500000621591255
 31
0.0
  0
LINE
  5
65
100
AcDbEntity
  8
0
  6
CONTINUOUS
 62
               7
100
AcDbLine
 10
-29.000000664166066
 20
-11.000000187328908
 30
0.0
 11
0.0
 21
-11.000000187328908
 31
0.0
  0
LINE
  5
66
100
AcDbEntity
  8
0
  6
CONTINUOUS
 62
               7
100
AcDbLine
 10
-29.000000664166066
 20
-23.000000391687735
 30
0.0
 11
0.0
 21
-23.000000391687735
 31
0.0
  0
LINE
  5
67
100
AcDbEntity
  8
0
  6
CONTINUOUS
 62
               7
100
AcDbLine
 10
-29.000000664166066
 20
23.000000391687649
 30
0.0
 11
0.0
 21
23.000000391687649
 31
0.0
  0
LINE
  5
68
100
AcDbEntity
  8
0
  6
CONTINUOUS
 62
               7
100
AcDbLine
 10
-29.000000664166066
 20
11.000000187328851
 30
0.0
 11
0.0
 21
11.000000187328851
 31
0.0
  0
LINE
  5
69
100
AcDbEntity
  8
0
  6
CONTINUOUS
 62
               7
100
AcDbLine
 10
-29.000000664166066
 20
36.000000613076338
 30
0.0
 11
-29.000000664166066
 21
-36.000000613076395
 31
0.0
  0
LINE
  5
6A
100
AcDbEntity
  8
0
  6
CONTINUOUS
 62
               7
100
AcDbLine
 10
10.000000170298989
 20
36.500000621591255
 30
0.0
 11
10.000000170298989
 21
-36.50000062159134
 31
0.0
  0
LINE
  5
6C
100
AcDbEntity
  8
0
  6
PHANTOM
 62
               3
100
AcDbLine
 10
58.402749968928561
 20
-39.760980621591344
 30
0.0
 11
58.402749968928561
 21
47.501161109501425
 31
0.0
  0
LINE
  5
6D
100
AcDbEntity
  8
0
  6
PHANTOM
 62
               3
100
AcDbLine
 10
35.456264931860431
 20
-46.579427527529845
 30
0.0
 11
35.456264931860431
 21
52.549387817656395
 31
0.0
  0
LINE
  5
6E
100
AcDbEntity
  8
0
  6
PHANTOM
 62
               3
100
AcDbLine
 10
-13.156556268336985
 20
-39.760980621591344
 30
0.0
 11
-13.156556268336985
 21
44.288653204311885
 31
0.0
  0
LINE
  5
6F
100
AcDbEntity
  8
0
  6
CENTER
 62
               2
100
AcDbLine
 10
50.000000936644426
 20
-26.771429027343316
 30
0.0
 11
50.000000936644426
 21
-39.171429238514065
 31
0.0
  0
ENDBLK
  5
70
100
AcDbEntity
  8
0
100
AcDbBlockEnd
  0
BLOCK
  5
71
100
AcDbEntity
  8
0
100
AcDbBlockBegin
  2
MS_2
 70
               0
 10
0.0
 20
0.0
 30
0.0
  3
MS_2
  1

  0
CIRCLE
  5
72
100
AcDbEntity
  8
0
  6
CONTINUOUS
 62
               7
100
AcDbCircle
 10
14.999997639655987
 20
-17.000009008816505
 30
0.0
 40
4.4999995316777834
  0
CIRCLE
  5
73
100
AcDbEntity
  8
0
  6
CONTINUOUS
 62
               7
100
AcDbCircle
 10
14.999997639655987
 20
16.999974131583713
 30
0.0
 40
4.4999995316777834
  0
CIRCLE
  5
74
100
AcDbEntity
  8
0
  6
CONTINUOUS
 62
               7
100
AcDbCircle
 10
14.999997639655987
 20
-17.000009008816505
 30
0.0
 40
5.0000000851494937
  0
CIRCLE
  5
75
100
AcDbEntity
  8
0
  6
CONTINUOUS
 62
               7
100
AcDbCircle
 10
14.999997639655987
 20
16.999974131583713
 30
0.0
 40
5.0000000851494937
  0
CIRCLE
  5
76
100
AcDbEntity
  8
0
  6
CONTINUOUS
 62
               7
100
AcDbCircle
 10
14.999997639655987
 20
-33.000026719911261
 30
0.0
 40
1.6199997769083259
  0
CIRCLE
  5
77
100
AcDbEntity
  8
0
  6
CONTINUOUS
 62
               7
100
AcDbCircle
 10
14.999997639655987
 20
32.999991842678469
 30
0.0
 40
1.6199997769083259
  0
CIRCLE
  5
78
100
AcDbEntity
  8
0
  6
CONTINUOUS
 62
               2
100
AcDbCircle
 10
14.999997639655987
 20
-33.000026719911261
 30
0.0
 40
1.9999994891030362
  0
CIRCLE
  5
79
100
AcDbEntity
  8
0
  6
CONTINUOUS
 62
               2
100
AcDbCircle
 10
14.999997639655987
 20
32.999991842678469
 30
0.0
 40
1.9999994891030362
  0
CIRCLE
  5
7A
100
AcDbEntity
  8
0
  6
CONTINUOUS
 62
               7
100
AcDbCircle
 10
14.999997639655987
 20
-17.000009008816505
 30
0.0
 40
5.4999992762293015
  0
CIRCLE
  5
7B
100
AcDbEntity
  8
0
  6
CONTINUOUS
 62
               7
100
AcDbCircle
 10
14.999997639655987
 20
16.999974131583713
 30
0.0
 40
5.4999992762293015
  0
LINE
  5
7C
100
AcDbEntity
  8
0
  6
CONTINUOUS
 62
               7
100
AcDbLine
 10
30.000000510896939
 20
-35.78571489514141
 30
0.0
 11
29.285714784447009
 21
-36.50000062159134
 31
0.0
  0
LINE
  5
7D
100
AcDbEntity
  8
0
  6
CONTINUOUS
 62
               7
100
AcDbLine
 10
0.0
 20
-35.78571489514141
 30
0.0
 11
0.7142857264499298
 21
-36.50000062159134
 31
0.0
  0
LINE
  5
7E
100
AcDbEntity
  8
0
  6
CONTINUOUS
 62
               7
100
AcDbLine
 10
29.285714784447009
 20
36.500000621591255
 30
0.0
 11
30.000000510896939
 21
35.785714895141325
 31
0.0
  0
LINE
  5
7F
100
AcDbEntity
  8
0
  6
CONTINUOUS
 62
               7
100
AcDbLine
 10
0.7142857264499298
 20
36.500000621591255
 30
0.0
 11
0.0
 21
35.785714895141325
 31
0.0
  0
LINE
  5
80
100
AcDbEntity
  8
0
  6
CONTINUOUS
 62
               7
100
AcDbLine
 10
30.000000510896939
 20
-7.9000001345362421
 30
0.0
 11
30.000000510896939
 21
-4.9000000834465141
 31
0.0
  0
LINE
  5
81
100
AcDbEntity
  8
0
  6
CENTER
 62
               2
100
AcDbLine
 10
11.385714479611806
 20
33.00000056198661
 30
0.0
 11
18.857143178278079
 21
33.00000056198661
 31
0.0
  0
LINE
  5
82
100
AcDbEntity
  8
0
  6
CONTINUOUS
 62
               7
100
AcDbLine
 10
29.500000502381965
 20
36.000000613076338
 30
0.0
 11
0.5000000085148599
 21
36.000000613076338
 31
0.0
  0
LINE
  5
83
100
AcDbEntity
  8
0
  6
CONTINUOUS
 62
               7
100
AcDbLine
 10
15.000000255448469
 20
19.88571462436596
 30
0.0
 11
17.500000298023224
 21
18.442857456937077
 31
0.0
  0
LINE
  5
84
100
AcDbEntity
  8
0
  6
CONTINUOUS
 62
               7
100
AcDbLine
 10
17.500000298023224
 20
18.442857456937077
 30
0.0
 11
17.500000298023224
 21
15.557143122079367
 31
0.0
  0
LINE
  5
85
100
AcDbEntity
  8
0
  6
CONTINUOUS
 62
               7
100
AcDbLine
 10
15.000000255448469
 20
14.100000240121574
 30
0.0
 11
17.500000298023224
 21
15.557143122079367
 31
0.0
  0
LINE
  5
86
100
AcDbEntity
  8
0
  6
CONTINUOUS
 62
               7
100
AcDbLine
 10
12.500000212873715
 20
15.557143122079367
 30
0.0
 11
15.000000255448469
 21
14.100000240121574
 31
0.0
  0
LINE
  5
87
100
AcDbEntity
  8
0
  6
CONTINUOUS
 62
               7
100
AcDbLine
 10
12.500000212873715
 20
18.442857456937077
 30
0.0
 11
12.500000212873715
 21
15.557143122079367
 31
0.0
  0
LINE
  5
88
100
AcDbEntity
  8
0
  6
CONTINUOUS
 62
               7
100
AcDbLine
 10
12.500000212873715
 20
18.442857456937077
 30
0.0
 11
15.000000255448469
 21
19.88571462436596
 31
0.0
  0
LINE
  5
89
100
AcDbEntity
  8
0
  6
CONTINUOUS
 62
               7
100
AcDbLine
 10
12.500000212873715
 20
-18.44285745693719
 30
0.0
 11
15.000000255448469
 21
-19.90000033889504
 31
0.0
  0
LINE
  5
8A
100
AcDbEntity
  8
0
  6
CONTINUOUS
 62
               7
100
AcDbLine
 10
15.000000255448469
 20
-14.114285954650597
 30
0.0
 11
17.500000298023224
 21
-15.557143122079481
 31
0.0
  0
LINE
  5
8B
100
AcDbEntity
  8
0
  6
CONTINUOUS
 62
               7
100
AcDbLine
 10
15.000000255448469
 20
-19.90000033889504
 30
0.0
 11
17.500000298023224
 21
-18.44285745693719
 31
0.0
  0
LINE
  5
8C
100
AcDbEntity
  8
0
  6
CONTINUOUS
 62
               7
100
AcDbLine
 10
12.500000212873715
 20
-15.557143122079481
 30
0.0
 11
15.000000255448469
 21
-14.114285954650597
 31
0.0
  0
LINE
  5
8D
100
AcDbEntity
  8
0
  6
CONTINUOUS
 62
               7
100
AcDbLine
 10
12.500000212873715
 20
-15.557143122079481
 30
0.0
 11
12.500000212873715
 21
-18.44285745693719
 31
0.0
  0
LINE
  5
8E
100
AcDbEntity
  8
0
  6
CONTINUOUS
 62
               7
100
AcDbLine
 10
17.500000298023224
 20
-15.557143122079481
 30
0.0
 11
17.500000298023224
 21
-18.44285745693719
 31
0.0
  0
LINE
  5
8F
100
AcDbEntity
  8
0
  6
CONTINUOUS
 62
               7
100
AcDbLine
 10
11.457143052256811
 20
-36.50000062159134
 30
0.0
 11
29.285714784447009
 21
-36.50000062159134
 31
0.0
  0
LINE
  5
90
100
AcDbEntity
  8
0
  6
CONTINUOUS
 62
               7
100
AcDbLine
 10
30.000000510896939
 20
35.785714895141325
 30
0.0
 11
30.000000510896939
 21
-35.78571489514141
 31
0.0
  0
LINE
  5
91
100
AcDbEntity
  8
0
  6
CONTINUOUS
 62
               7
100
AcDbLine
 10
0.7142857264499298
 20
36.500000621591255
 30
0.0
 11
29.285714784447009
 21
36.500000621591255
 31
0.0
  0
LINE
  5
92
100
AcDbEntity
  8
0
  6
CONTINUOUS
 62
               7
100
AcDbLine
 10
0.0
 20
35.785714895141325
 30
0.0
 11
0.0
 21
-35.78571489514141
 31
0.0
  0
LINE
  5
93
100
AcDbEntity
  8
0
  6
CENTER
 62
               2
100
AcDbLine
 10
11.814285915481776
 20
-33.000000561986724
 30
0.0
 11
18.4571431714661
 21
-33.000000561986724
 31
0.0
  0
LINE
  5
94
100
AcDbEntity
  8
0
  6
CONTINUOUS
 62
               7
100
AcDbLine
 10
0.5000000085148599
 20
36.000000613076338
 30
0.0
 11
0.5000000085148599
 21
-36.000000613076395
 31
0.0
  0
LINE
  5
95
100
AcDbEntity
  8
0
  6
CONTINUOUS
 62
               7
100
AcDbLine
 10
29.500000502381965
 20
36.000000613076338
 30
0.0
 11
29.500000502381965
 21
-36.000000613076395
 31
0.0
  0
LINE
  5
96
100
AcDbEntity
  8
0
  6
CONTINUOUS
 62
               7
100
AcDbLine
 10
0.5000000085148599
 20
-36.000000613076395
 30
0.0
 11
29.500000502381965
 21
-36.000000613076395
 31
0.0
  0
LINE
  5
97
100
AcDbEntity
  8
0
  6
CENTER
 62
               2
100
AcDbLine
 10
7.9428572781231992
 20
-17.000000289508307
 30
0.0
 11
22.171428949005701
 21
-17.000000289508307
 31
0.0
  0
LINE
  5
98
100
AcDbEntity
  8
0
  6
CENTER
 62
               2
100
AcDbLine
 10
8.2571429977610933
 20
17.00000028950825
 30
0.0
 11
22.628571813933661
 21
17.00000028950825
 31
0.0
  0
LINE
  5
99
100
AcDbEntity
  8
0
  6
CENTER
 62
               2
100
AcDbLine
 10
-2.257142895581751
 20
0.0
 30
0.0
 11
32.985714847457587
 21
0.0
 31
0.0
  0
LINE
  5
9A
100
AcDbEntity
  8
0
  6
CONTINUOUS
 62
               7
100
AcDbLine
 10
0.7142857264499298
 20
-36.50000062159134
 30
0.0
 11
11.457143052256811
 21
-36.50000062159134
 31
0.0
  0
LINE
  5
9B
100
AcDbEntity
  8
0
  6
CENTER
 62
               2
100
AcDbLine
 10
15.000000255448469
 20
40.057143539311937
 30
0.0
 11
15.000000255448469
 21
-40.47142926065294
 31
0.0
  0
ENDBLK
  5
9C
100
AcDbEntity
  8
0
100
AcDbBlockEnd
  0
BLOCK
  5
9D
100
AcDbEntity
  8
0
100
AcDbBlockBegin
  2
MS_3
 70
               0
 10
0.0
 20
0.0
 30
0.0
  3
MS_3
  1

  0
ARC
  5
9E
100
AcDbEntity
  8
0
  6
CONTINUOUS
 62
               7
100
AcDbCircle
 10
-27.400000466619247
 20
28.200000480243091
 30
0.0
 40
2.100000035885162
100
AcDbArc
 50
269.99999999999937
 51
89.999999999999801
  0
ARC
  5
9F
100
AcDbEntity
  8
0
  6
CONTINUOUS
 62
               7
100
AcDbCircle
 10
-2.6164359402035871
 20
28.200000480243091
 30
0.0
 40
2.1000351000324131
100
AcDbArc
 50
90.331098609027023
 51
269.66890139097217
  0
ARC
  5
A0
100
AcDbEntity
  8
0
  6
CONTINUOUS
 62
               7
100
AcDbCircle
 10
-15.000000255448498
 20
33.883497542713371
 30
0.0
 40
2.1000347131294026
100
AcDbArc
 50
180.32926687813787
 51
359.67073312186091
  0
ARC
  5
A1
100
AcDbEntity
  8
0
  6
CONTINUOUS
 62
               7
100
AcDbCircle
 10
-2.6164359402035871
 20
5.7000000970703582
 30
0.0
 40
2.1000351000324131
100
AcDbArc
 50
90.331098609027023
 51
269.66890139097217
  0
ARC
  5
A2
100
AcDbEntity
  8
0
  6
CONTINUOUS
 62
               7
100
AcDbCircle
 10
-27.400000466619247
 20
5.7000000970703582
 30
0.0
 40
2.100000035885162
100
AcDbArc
 50
269.99999999999937
 51
89.999999999999801
  0
CIRCLE
  5
A3
100
AcDbEntity
  8
0
  6
CONTINUOUS
 62
               7
100
AcDbCircle
 10
-14.999989792278654
 20
-27.000009179115494
 30
0.0
 40
1.0499999531677784
  0
CIRCLE
  5
A4
100
AcDbEntity
  8
0
  6
CONTINUOUS
 62
               7
100
AcDbCircle
 10
-14.999989792278654
 20
-7.0000088385174877
 30
0.0
 40
1.0499999531677784
  0
CIRCLE
  5
A5
100
AcDbEntity
  8
0
  6
CONTINUOUS
 62
               7
100
AcDbCircle
 10
-14.999989792278654
 20
6.9999739612846952
 30
0.0
 40
1.0499999531677784
  0
CIRCLE
  5
A6
100
AcDbEntity
  8
0
  6
CONTINUOUS
 62
               7
100
AcDbCircle
 10
-14.999989792278654
 20
26.999974301882673
 30
0.0
 40
1.0499999531677784
  0
CIRCLE
  5
A7
100
AcDbEntity
  8
0
  6
CONTINUOUS
 62
               7
100
AcDbCircle
 10
-14.999989792278654
 20
16.999974131583713
 30
0.0
 40
12.500000212873735
  0
CIRCLE
  5
A8
100
AcDbEntity
  8
0
  6
CONTINUOUS
 62
               7
100
AcDbCircle
 10
-14.999989792278654
 20
-17.000009008816505
 30
0.0
 40
12.500000212873735
  0
CIRCLE
  5
A9
100
AcDbEntity
  8
0
  6
CONTINUOUS
 62
               7
100
AcDbCircle
 10
-14.999989792278654
 20
-17.000009008816505
 30
0.0
 40
12.999999403953542
  0
CIRCLE
  5
AA
100
AcDbEntity
  8
0
  6
CONTINUOUS
 62
               7
100
AcDbCircle
 10
-14.999989792278654
 20
16.999974131583713
 30
0.0
 40
12.999999403953542
  0
LINE
  5
AB
100
AcDbEntity
  8
0
  6
CONTINUOUS
 62
               7
100
AcDbLine
 10
-25.557143292378413
 20
27.2000004632132
 30
0.0
 11
-25.800000439371416
 21
26.94285760169123
 31
0.0
  0
LINE
  5
AC
100
AcDbEntity
  8
0
  6
CONTINUOUS
 62
               7
100
AcDbLine
 10
-29.500000502382051
 20
29.80000050749095
 30
0.0
 11
-29.000000493867049
 21
30.300000516005866
 31
0.0
  0
LINE
  5
AD
100
AcDbEntity
  8
0
  6
CONTINUOUS
 62
               7
100
AcDbLine
 10
-29.000000493867049
 20
30.300000516005866
 30
0.0
 11
-27.400000466619247
 21
30.300000516005866
 31
0.0
  0
LINE
  5
AE
100
AcDbEntity
  8
0
  6
CONTINUOUS
 62
               7
100
AcDbLine
 10
-29.000000493867049
 20
26.100000444480315
 30
0.0
 11
-27.400000466619247
 21
26.100000444480315
 31
0.0
  0
LINE
  5
AF
100
AcDbEntity
  8
0
  6
CONTINUOUS
 62
               7
100
AcDbLine
 10
-29.500000502382051
 20
26.600000452995289
 30
0.0
 11
-29.000000493867049
 21
26.100000444480315
 31
0.0
  0
LINE
  5
B0
100
AcDbEntity
  8
0
  6
CONTINUOUS
 62
               7
100
AcDbLine
 10
-30.000000510896967
 20
29.80000050749095
 30
0.0
 11
-29.500000502382051
 21
29.80000050749095
 31
0.0
  0
LINE
  5
B1
100
AcDbEntity
  8
0
  6
CONTINUOUS
 62
               7
100
AcDbLine
 10
-30.000000510896967
 20
26.600000452995289
 30
0.0
 11
-29.500000502382051
 21
26.600000452995289
 31
0.0
  0
LINE
  5
B2
100
AcDbEntity
  8
0
  6
CONTINUOUS
 62
               7
100
AcDbLine
 10
-29.000000493867049
 20
26.100000444480315
 30
0.0
 11
-27.428571895677209
 21
26.100000444480315
 31
0.0
  0
LINE
  5
B3
100
AcDbEntity
  8
0
  6
CONTINUOUS
 62
               7
100
AcDbLine
 10
-30.000000510896967
 20
29.80000050749095
 30
0.0
 11
-30.000000510896967
 21
30.000000510896939
 31
0.0
  0
LINE
  5
B4
100
AcDbEntity
  8
0
  6
CONTINUOUS
 62
               7
100
AcDbLine
 10
-30.000000510896967
 20
26.600000452995289
 30
0.0
 11
-30.000000510896967
 21
7.3000001243182169
 31
0.0
  0
LINE
  5
B5
100
AcDbEntity
  8
0
  6
CONTINUOUS
 62
               7
100
AcDbLine
 10
-1.0285714460879092
 20
30.300000516005866
 30
0.0
 11
-0.528571437572964
 21
29.80000050749095
 31
0.0
  0
LINE
  5
B6
100
AcDbEntity
  8
0
  6
CONTINUOUS
 62
               7
100
AcDbLine
 10
-1.0285714460879092
 20
30.300000516005866
 30
0.0
 11
-2.6285714733357395
 21
30.300000516005866
 31
0.0
  0
LINE
  5
B7
100
AcDbEntity
  8
0
  6
CONTINUOUS
 62
               7
100
AcDbLine
 10
-0.528571437572964
 20
26.600000452995289
 30
0.0
 11
-1.0285714460879092
 21
26.100000444480315
 31
0.0
  0
LINE
  5
B8
100
AcDbEntity
  8
0
  6
CONTINUOUS
 62
               7
100
AcDbLine
 10
-1.0285714460879092
 20
26.100000444480315
 30
0.0
 11
-2.6285714733357395
 21
26.100000444480315
 31
0.0
  0
LINE
  5
B9
100
AcDbEntity
  8
0
  6
CONTINUOUS
 62
               7
100
AcDbLine
 10
0.0
 20
26.600000452995289
 30
0.0
 11
-0.528571437572964
 21
26.600000452995289
 31
0.0
  0
LINE
  5
BA
100
AcDbEntity
  8
0
  6
CONTINUOUS
 62
               7
100
AcDbLine
 10
0.0
 20
29.80000050749095
 30
0.0
 11
-0.528571437572964
 21
29.80000050749095
 31
0.0
  0
LINE
  5
BB
100
AcDbEntity
  8
0
  6
CONTINUOUS
 62
               7
100
AcDbLine
 10
-17.100000291211273
 20
35.471429175503374
 30
0.0
 11
-16.600000282696328
 21
35.971429184018348
 31
0.0
  0
LINE
  5
BC
100
AcDbEntity
  8
0
  6
CONTINUOUS
 62
               7
100
AcDbLine
 10
-17.100000291211273
 20
35.471429175503374
 30
0.0
 11
-17.100000291211273
 21
33.871429148255515
 31
0.0
  0
LINE
  5
BD
100
AcDbEntity
  8
0
  6
CONTINUOUS
 62
               7
100
AcDbLine
 10
-13.400000228200639
 20
35.971429184018348
 30
0.0
 11
-12.900000219685722
 21
35.471429175503374
 31
0.0
  0
LINE
  5
BE
100
AcDbEntity
  8
0
  6
CONTINUOUS
 62
               7
100
AcDbLine
 10
-12.900000219685722
 20
35.471429175503374
 30
0.0
 11
-12.900000219685722
 21
33.871429148255515
 31
0.0
  0
LINE
  5
BF
100
AcDbEntity
  8
0
  6
CONTINUOUS
 62
               7
100
AcDbLine
 10
-13.400000228200639
 20
36.500000621591255
 30
0.0
 11
-13.400000228200639
 21
35.971429184018348
 31
0.0
  0
LINE
  5
C0
100
AcDbEntity
  8
0
  6
CONTINUOUS
 62
               7
100
AcDbLine
 10
-16.600000282696328
 20
36.500000621591255
 30
0.0
 11
-16.600000282696328
 21
35.971429184018348
 31
0.0
  0
LINE
  5
C1
100
AcDbEntity
  8
0
  6
CENTER
 62
               2
100
AcDbLine
 10
-31.600000538144826
 20
28.200000480243148
 30
0.0
 11
2.4285714699297785
 21
28.200000480243148
 31
0.0
  0
LINE
  5
C2
100
AcDbEntity
  8
0
  6
CENTER
 62
               2
100
AcDbLine
 10
-32.114286261188738
 20
5.700000097070415
 30
0.0
 11
2.4285714699297785
 21
5.700000097070415
 31
0.0
  0
LINE
  5
C3
100
AcDbEntity
  8
0
  6
CONTINUOUS
 62
               7
100
AcDbLine
 10
0.0
 20
4.1000000698225563
 30
0.0
 11
-0.528571437572964
 21
4.1000000698225563
 31
0.0
  0
LINE
  5
C4
100
AcDbEntity
  8
0
  6
CONTINUOUS
 62
               7
100
AcDbLine
 10
0.0
 20
7.3000001243182169
 30
0.0
 11
-0.528571437572964
 21
7.3000001243182169
 31
0.0
  0
LINE
  5
C5
100
AcDbEntity
  8
0
  6
CONTINUOUS
 62
               7
100
AcDbLine
 10
-1.0285714460879092
 20
7.8000001328331905
 30
0.0
 11
-0.528571437572964
 21
7.3000001243182169
 31
0.0
  0
LINE
  5
C6
100
AcDbEntity
  8
0
  6
CONTINUOUS
 62
               7
100
AcDbLine
 10
-1.0285714460879092
 20
7.8000001328331905
 30
0.0
 11
-2.6285714733357395
 21
7.8000001328331905
 31
0.0
  0
LINE
  5
C7
100
AcDbEntity
  8
0
  6
CONTINUOUS
 62
               7
100
AcDbLine
 10
-0.528571437572964
 20
4.1000000698225563
 30
0.0
 11
-1.0285714460879092
 21
3.6000000613075827
 31
0.0
  0
LINE
  5
C8
100
AcDbEntity
  8
0
  6
CONTINUOUS
 62
               7
100
AcDbLine
 10
-1.0285714460879092
 20
3.6000000613075827
 30
0.0
 11
-2.6285714733357395
 21
3.6000000613075827
 31
0.0
  0
LINE
  5
C9
100
AcDbEntity
  8
0
  6
CONTINUOUS
 62
               7
100
AcDbLine
 10
-25.557143292378413
 20
6.7000001141003054
 30
0.0
 11
-25.800000439371416
 21
6.942857261093252
 31
0.0
  0
LINE
  5
CA
100
AcDbEntity
  8
0
  6
CONTINUOUS
 62
               7
100
AcDbLine
 10
-29.500000502382051
 20
7.3000001243182169
 30
0.0
 11
-29.000000493867049
 21
7.8000001328331905
 31
0.0
  0
LINE
  5
CB
100
AcDbEntity
  8
0
  6
CONTINUOUS
 62
               7
100
AcDbLine
 10
-29.000000493867049
 20
7.8000001328331905
 30
0.0
 11
-27.400000466619247
 21
7.8000001328331905
 31
0.0
  0
LINE
  5
CC
100
AcDbEntity
  8
0
  6
CONTINUOUS
 62
               7
100
AcDbLine
 10
-29.000000493867049
 20
3.6000000613075827
 30
0.0
 11
-27.400000466619247
 21
3.6000000613075827
 31
0.0
  0
LINE
  5
CD
100
AcDbEntity
  8
0
  6
CONTINUOUS
 62
               7
100
AcDbLine
 10
-29.500000502382051
 20
4.1000000698225563
 30
0.0
 11
-29.000000493867049
 21
3.6000000613075827
 31
0.0
  0
LINE
  5
CE
100
AcDbEntity
  8
0
  6
CONTINUOUS
 62
               7
100
AcDbLine
 10
-30.000000510896967
 20
7.3000001243182169
 30
0.0
 11
-29.500000502382051
 21
7.3000001243182169
 31
0.0
  0
LINE
  5
CF
100
AcDbEntity
  8
0
  6
CONTINUOUS
 62
               7
100
AcDbLine
 10
-30.000000510896967
 20
4.1000000698225563
 30
0.0
 11
-29.500000502382051
 21
4.1000000698225563
 31
0.0
  0
LINE
  5
D0
100
AcDbEntity
  8
0
  6
CONTINUOUS
 62
               7
100
AcDbLine
 10
-29.000000493867049
 20
3.6000000613075827
 30
0.0
 11
-27.428571895677209
 21
3.6000000613075827
 31
0.0
  0
LINE
  5
D1
100
AcDbEntity
  8
0
  6
CONTINUOUS
 62
               7
100
AcDbLine
 10
-30.000000510896967
 20
7.3000001243182169
 30
0.0
 11
-30.000000510896967
 21
7.5000001277242063
 31
0.0
  0
LINE
  5
D2
100
AcDbEntity
  8
0
  6
CONTINUOUS
 62
               7
100
AcDbLine
 10
0.0
 20
-35.78571489514141
 30
0.0
 11
-0.7142857264499298
 21
-36.50000062159134
 31
0.0
  0
LINE
  5
D3
100
AcDbEntity
  8
0
  6
CONTINUOUS
 62
               7
100
AcDbLine
 10
-30.000000510896967
 20
-35.78571489514141
 30
0.0
 11
-29.285714784447038
 21
-36.50000062159134
 31
0.0
  0
LINE
  5
D4
100
AcDbEntity
  8
0
  6
CONTINUOUS
 62
               7
100
AcDbLine
 10
-0.7142857264499298
 20
36.500000621591255
 30
0.0
 11
0.0
 21
35.785714895141325
 31
0.0
  0
LINE
  5
D5
100
AcDbEntity
  8
0
  6
CONTINUOUS
 62
               7
100
AcDbLine
 10
-29.285714784447038
 20
36.500000621591255
 30
0.0
 11
-30.000000510896967
 21
35.785714895141325
 31
0.0
  0
LINE
  5
D6
100
AcDbEntity
  8
0
  6
CONTINUOUS
 62
               7
100
AcDbLine
 10
0.0
 20
35.785714895141325
 30
0.0
 11
0.0
 21
-35.78571489514141
 31
0.0
  0
LINE
  5
D7
100
AcDbEntity
  8
0
  6
CONTINUOUS
 62
               7
100
AcDbLine
 10
-30.000000510896967
 20
4.1000000698225563
 30
0.0
 11
-30.000000510896967
 21
-35.78571489514141
 31
0.0
  0
LINE
  5
D8
100
AcDbEntity
  8
0
  6
CENTER
 62
               2
100
AcDbLine
 10
-32.114286261188738
 20
0.0
 30
0.0
 11
2.4285714699297785
 21
0.0
 31
0.0
  0
LINE
  5
D9
100
AcDbEntity
  8
0
  6
CONTINUOUS
 62
               7
100
AcDbLine
 10
-29.285714784447038
 20
36.500000621591255
 30
0.0
 11
-0.7142857264499298
 21
36.500000621591255
 31
0.0
  0
LINE
  5
DA
100
AcDbEntity
  8
0
  6
CONTINUOUS
 62
               7
100
AcDbLine
 10
-29.285714784447038
 20
-36.50000062159134
 30
0.0
 11
-0.7142857264499298
 21
-36.50000062159134
 31
0.0
  0
LINE
  5
DB
100
AcDbEntity
  8
0
  6
CONTINUOUS
 62
               7
100
AcDbLine
 10
-30.000000510896967
 20
35.785714895141325
 30
0.0
 11
-30.000000510896967
 21
29.80000050749095
 31
0.0
  0
LINE
  5
DC
100
AcDbEntity
  8
0
  6
CENTER
 62
               2
100
AcDbLine
 10
-15.000000255448498
 20
39.542857816267997
 30
0.0
 11
-15.000000255448498
 21
-38.714286373586134
 31
0.0
  0
LINE
  5
DD
100
AcDbEntity
  8
0
  6
CENTER
 62
               2
100
AcDbLine
 10
-17.000000289508307
 20
-27.000000459807296
 30
0.0
 11
-13.000000221388689
 21
-27.000000459807296
 31
0.0
  0
LINE
  5
DE
100
AcDbEntity
  8
0
  6
CENTER
 62
               2
100
AcDbLine
 10
-17.000000289508307
 20
-7.0000001192093464
 30
0.0
 11
-13.000000221388689
 21
-7.0000001192093464
 31
0.0
  0
LINE
  5
DF
100
AcDbEntity
  8
0
  6
CENTER
 62
               2
100
AcDbLine
 10
-17.000000289508307
 20
7.0000001192092327
 30
0.0
 11
-13.000000221388689
 21
7.0000001192092327
 31
0.0
  0
LINE
  5
E0
100
AcDbEntity
  8
0
  6
CENTER
 62
               2
100
AcDbLine
 10
-17.000000289508307
 20
27.000000459807211
 30
0.0
 11
-13.000000221388689
 21
27.000000459807211
 31
0.0
  0
LINE
  5
E1
100
AcDbEntity
  8
0
  6
CENTER
 62
               2
100
AcDbLine
 10
-31.414286249267803
 20
17.00000028950825
 30
0.0
 11
1.8571428887698289
 21
17.00000028950825
 31
0.0
  0
LINE
  5
E2
100
AcDbEntity
  8
0
  6
CENTER
 62
               2
100
AcDbLine
 10
-32.114286261188738
 20
-17.000000289508307
 30
0.0
 11
1.7142857434798486
 21
-17.000000289508307
 31
0.0
  0
ENDBLK
  5
E3
100
AcDbEntity
  8
0
100
AcDbBlockEnd
  0
BLOCK
  5
E4
100
AcDbEntity
  8
0
100
AcDbBlockBegin
  2
MS_4
 70
               0
 10
0.0
 20
0.0
 30
0.0
  3
MS_4
  1

  0
LINE
  5
E5
100
AcDbEntity
  8
0
  6
CENTER
 62
               3
100
AcDbLine
 10
35.456264924029881
 20
37.173305774998454
 30
0.0
 11
43.716999545204942
 21
37.173305774998454
 31
0.0
  0
LINE
  5
E6
100
AcDbEntity
  8
0
  6
CENTER
 62
               3
100
AcDbLine
 10
43.716999545204942
 20
-5.7205946694830629
 30
0.0
 11
43.716999545204942
 21
37.173305774998454
 31
0.0
  0
CIRCLE
  5
E7
100
AcDbEntity
  8
0
  6
CONTINUOUS
 62
               7
100
AcDbCircle
 10
5.0000000851494804
 20
15.000000255448469
 30
0.0
 40
1.0
  0
CIRCLE
  5
E8
100
AcDbEntity
  8
0
  6
CONTINUOUS
 62
               7
100
AcDbCircle
 10
5.0000000851494804
 20
15.000000255448469
 30
0.0
 40
2.2294998548626874
  0
CIRCLE
  5
E9
100
AcDbEntity
  8
0
  6
CONTINUOUS
 62
               2
100
AcDbCircle
 10
5.0000000851494804
 20
15.000000255448469
 30
0.0
 40
2.5000000425747468
  0
CIRCLE
  5
EA
100
AcDbEntity
  8
0
  6
CONTINUOUS
 62
               7
100
AcDbCircle
 10
70.000001532690874
 20
15.000000255448469
 30
0.0
 40
1.0
  0
CIRCLE
  5
EB
100
AcDbEntity
  8
0
  6
CONTINUOUS
 62
               7
100
AcDbCircle
 10
35.000000681195957
 20
15.000000255448469
 30
0.0
 40
1.0
  0
CIRCLE
  5
EC
100
AcDbEntity
  8
0
  6
CONTINUOUS
 62
               7
100
AcDbCircle
 10
70.000001532690874
 20
15.000000255448469
 30
0.0
 40
2.0949990765537376
  0
CIRCLE
  5
ED
100
AcDbEntity
  8
0
  6
CONTINUOUS
 62
               7
100
AcDbCircle
 10
35.000000681195957
 20
15.000000255448469
 30
0.0
 40
2.0949990765537376
  0
CIRCLE
  5
EE
100
AcDbEntity
  8
0
  6
CONTINUOUS
 62
               2
100
AcDbCircle
 10
70.000001532690874
 20
15.000000255448469
 30
0.0
 40
2.5000000425747468
  0
CIRCLE
  5
EF
100
AcDbEntity
  8
0
  6
CONTINUOUS
 62
               2
100
AcDbCircle
 10
35.000000681195957
 20
15.000000255448469
 30
0.0
 40
2.5000000425747468
  0
LINE
  5
F0
100
AcDbEntity
  8
0
  6
CENTER
 62
               2
100
AcDbLine
 10
5.0000000851494804
 20
18.500000315053114
 30
0.0
 11
5.0000000851494804
 21
11.500000195843825
 31
0.0
  0
LINE
  5
F1
100
AcDbEntity
  8
0
  6
CONTINUOUS
 62
               7
100
AcDbLine
 10
10.000000170298989
 20
30.000000510896967
 30
0.0
 11
0.0
 21
30.000000510896967
 31
0.0
  0
LINE
  5
F2
100
AcDbEntity
  8
0
  6
CONTINUOUS
 62
               7
100
AcDbLine
 10
0.0
 20
0.0
 30
0.0
 11
10.000000170298989
 21
0.0
 31
0.0
  0
LINE
  5
F3
100
AcDbEntity
  8
0
  6
CONTINUOUS
 62
               7
100
AcDbLine
 10
0.0
 20
30.000000510896967
 30
0.0
 11
0.0
 21
0.0
 31
0.0
  0
LINE
  5
F4
100
AcDbEntity
  8
0
  6
CONTINUOUS
 62
               7
100
AcDbLine
 10
52.828572413386155
 20
6.0000001021793992
 30
0.0
 11
52.828572413386155
 21
0.0
 31
0.0
  0
LINE
  5
F5
100
AcDbEntity
  8
0
  6
CONTINUOUS
 62
               7
100
AcDbLine
 10
47.171429459902697
 20
6.0000001021793992
 30
0.0
 11
47.171429459902697
 21
0.0
 31
0.0
  0
LINE
  5
F6
100
AcDbEntity
  8
0
  6
CONTINUOUS
 62
               7
100
AcDbLine
 10
52.828572413386155
 20
30.000000510896967
 30
0.0
 11
52.828572413386155
 21
24.000000408717568
 31
0.0
  0
LINE
  5
F7
100
AcDbEntity
  8
0
  6
CONTINUOUS
 62
               7
100
AcDbLine
 10
47.171429459902697
 20
30.000000510896967
 30
0.0
 11
47.171429459902697
 21
24.000000408717568
 31
0.0
  0
LINE
  5
F8
100
AcDbEntity
  8
0
  6
CONTINUOUS
 62
               7
100
AcDbLine
 10
47.171429459902697
 20
6.0000001021793992
 30
0.0
 11
52.828572413386155
 21
6.0000001021793992
 31
0.0
  0
LINE
  5
F9
100
AcDbEntity
  8
0
  6
CONTINUOUS
 62
               7
100
AcDbLine
 10
47.171429459902697
 20
24.000000408717568
 30
0.0
 11
52.828572413386155
 21
24.000000408717568
 31
0.0
  0
LINE
  5
FA
100
AcDbEntity
  8
0
  6
CONTINUOUS
 62
               7
100
AcDbLine
 10
82.000001737049686
 20
0.7142857264499156
 30
0.0
 11
81.285716010599756
 21
0.0
 31
0.0
  0
LINE
  5
FB
100
AcDbEntity
  8
0
  6
CONTINUOUS
 62
               7
100
AcDbLine
 10
10.000000170298989
 20
0.7142857264499156
 30
0.0
 11
10.714285896748919
 21
0.0
 31
0.0
  0
LINE
  5
FC
100
AcDbEntity
  8
0
  6
CONTINUOUS
 62
               7
100
AcDbLine
 10
81.285716010599756
 20
30.000000510896967
 30
0.0
 11
82.000001737049686
 21
29.285714784447038
 31
0.0
  0
LINE
  5
FD
100
AcDbEntity
  8
0
  6
CONTINUOUS
 62
               7
100
AcDbLine
 10
10.714285896748919
 20
30.000000510896967
 30
0.0
 11
10.000000170298989
 21
29.285714784447038
 31
0.0
  0
LINE
  5
FE
100
AcDbEntity
  8
0
  6
CONTINUOUS
 62
               7
100
AcDbLine
 10
-39.000000834465084
 20
29.500000502382022
 30
0.0
 11
-39.000000834465084
 21
0.500000008514931
 31
0.0
  0
LINE
  5
FF
100
AcDbEntity
  8
0
  6
CONTINUOUS
 62
               7
100
AcDbLine
 10
-27.000000630106285
 20
9.9000001685959944
 30
0.0
 11
-27.000000630106285
 21
9.0000001532690703
 31
0.0
  0
LINE
  5
100
100
AcDbEntity
  8
0
  6
CENTER
 62
               2
100
AcDbLine
 10
70.000001532690874
 20
18.814286034691094
 30
0.0
 11
70.000001532690874
 21
11.128571618089865
 31
0.0
  0
LINE
  5
101
100
AcDbEntity
  8
0
  6
CENTER
 62
               2
100
AcDbLine
 10
35.000000681195957
 20
18.571428887698119
 30
0.0
 11
35.000000681195957
 21
10.88571447109689
 31
0.0
  0
LINE
  5
102
100
AcDbEntity
  8
0
  6
CONTINUOUS
 62
               7
100
AcDbLine
 10
-29.000000664166066
 20
9.9000001685959944
 30
0.0
 11
-29.000000664166066
 21
0.500000008514931
 31
0.0
  0
LINE
  5
103
100
AcDbEntity
  8
0
  6
CONTINUOUS
 62
               7
100
AcDbLine
 10
-27.000000630106285
 20
21.000000357627869
 30
0.0
 11
-27.000000630106285
 21
20.100000342300945
 31
0.0
  0
LINE
  5
104
100
AcDbEntity
  8
0
  6
CONTINUOUS
 62
               7
100
AcDbLine
 10
-30.000000681195957
 20
20.100000342300945
 30
0.0
 11
-27.000000630106285
 21
20.100000342300945
 31
0.0
  0
LINE
  5
105
100
AcDbEntity
  8
0
  6
CONTINUOUS
 62
               7
100
AcDbLine
 10
-30.000000681195957
 20
9.9000001685959944
 30
0.0
 11
-27.000000630106285
 21
9.9000001685959944
 31
0.0
  0
LINE
  5
106
100
AcDbEntity
  8
0
  6
CONTINUOUS
 62
               7
100
AcDbLine
 10
-30.000000681195957
 20
20.100000342300945
 30
0.0
 11
-30.000000681195957
 21
9.9000001685959944
 31
0.0
  0
LINE
  5
107
100
AcDbEntity
  8
0
  6
CONTINUOUS
 62
               7
100
AcDbLine
 10
-27.000000630106285
 20
9.0000001532690703
 30
0.0
 11
0.0
 21
9.0000001532690703
 31
0.0
  0
LINE
  5
108
100
AcDbEntity
  8
0
  6
CONTINUOUS
 62
               7
100
AcDbLine
 10
-27.000000630106285
 20
21.000000357627869
 30
0.0
 11
0.0
 21
21.000000357627869
 31
0.0
  0
LINE
  5
109
100
AcDbEntity
  8
0
  6
CONTINUOUS
 62
               7
100
AcDbLine
 10
-39.000000834465084
 20
29.500000502382022
 30
0.0
 11
-29.000000664166066
 21
29.500000502382022
 31
0.0
  0
LINE
  5
10A
100
AcDbEntity
  8
0
  6
CONTINUOUS
 62
               7
100
AcDbLine
 10
-39.000000834465084
 20
0.500000008514931
 30
0.0
 11
-29.000000664166066
 21
0.500000008514931
 31
0.0
  0
LINE
  5
10B
100
AcDbEntity
  8
0
  6
CONTINUOUS
 62
               7
100
AcDbLine
 10
10.714285896748919
 20
0.0
 30
0.0
 11
81.285716010599756
 21
0.0
 31
0.0
  0
LINE
  5
10C
100
AcDbEntity
  8
0
  6
CONTINUOUS
 62
               7
100
AcDbLine
 10
10.714285896748919
 20
30.000000510896967
 30
0.0
 11
81.285716010599756
 21
30.000000510896967
 31
0.0
  0
LINE
  5
10D
100
AcDbEntity
  8
0
  6
CONTINUOUS
 62
               7
100
AcDbLine
 10
82.000001737049686
 20
29.285714784447038
 30
0.0
 11
82.000001737049686
 21
0.7142857264499156
 31
0.0
  0
LINE
  5
10E
100
AcDbEntity
  8
0
  6
CONTINUOUS
 62
               7
100
AcDbLine
 10
10.000000170298989
 20
30.000000510896967
 30
0.0
 11
10.000000170298989
 21
0.0
 31
0.0
  0
LINE
  5
10F
100
AcDbEntity
  8
0
  6
CONTINUOUS
 62
               7
100
AcDbLine
 10
-29.000000664166066
 20
29.500000502382022
 30
0.0
 11
-29.000000664166066
 21
20.100000342300945
 31
0.0
  0
MTEXT
  5
110
100
AcDbEntity
  8
0
  6
CONTINUOUS
 62
             255
100
AcDbMText
 10
36.807590200486942
 20
-9.3902135508229208
 30
0.0
 40
3.1999998092651367
 41
0.0
 71
               4
 72
               1
  1
\A1;D-4
  7
MX_NOTE_STANDARD
  0
LINE
  5
111
100
AcDbEntity
  8
0
  6
PHANTOM
 62
               3
100
AcDbLine
 10
58.402749968928561
 20
-5.7205946694830629
 30
0.0
 11
58.402749968928561
 21
43.991746632210692
 31
0.0
  0
LINE
  5
112
100
AcDbEntity
  8
0
  6
PHANTOM
 62
               3
100
AcDbLine
 10
-13.156556268336985
 20
-5.720594653396688
 30
0.0
 11
-13.156556268336985
 21
43.991746632210692
 31
0.0
  0
LINE
  5
113
100
AcDbEntity
  8
0
  6
CENTER
 62
               2
100
AcDbLine
 10
-41.400000875336787
 20
15.000000255448469
 30
0.0
 11
88.642858993033997
 21
15.000000255448469
 31
0.0
  0
ENDBLK
  5
114
100
AcDbEntity
  8
0
100
AcDbBlockEnd
  0
BLOCK
  5
115
100
AcDbEntity
  8
0
100
AcDbBlockBegin
  2
MS_5
 70
               0
 10
0.0
 20
0.0
 30
0.0
  3
MS_5
  1

  0
LINE
  5
116
100
AcDbEntity
  8
0
  6
CENTER
 62
             200
100
AcDbLine
 10
1.9935949707031284
 20
0.8004754638671727
 30
0.0
 11
1.9935949707031284
 21
-3.8495245361328045
 31
0.0
  0
LINE
  5
117
100
AcDbEntity
  8
0
  6
CONTINUOUS
 62
               4
100
AcDbLine
 10
0.7435949707031284
 20
0.5004754638671898
 30
0.0
 11
0.7435949707031284
 21
0.0004754638671898
 31
0.0
  0
LINE
  5
118
100
AcDbEntity
  8
0
  6
CONTINUOUS
 62
             200
100
AcDbLine
 10
0.9635949707031273
 20
0.5004754638671898
 30
0.0
 11
0.9635949707031273
 21
0.0004754638671898
 31
0.0
  0
LINE
  5
119
100
AcDbEntity
  8
0
  6
CONTINUOUS
 62
             200
100
AcDbLine
 10
3.0135949707031244
 20
0.5004754638671898
 30
0.0
 11
3.0135949707031244
 21
0.0004754638671898
 31
0.0
  0
LINE
  5
11A
100
AcDbEntity
  8
0
  6
CONTINUOUS
 62
               4
100
AcDbLine
 10
3.2435949707031284
 20
0.5004754638671898
 30
0.0
 11
3.2435949707031284
 21
0.0004754638671898
 31
0.0
  0
LINE
  5
11B
100
AcDbEntity
  8
0
  6
CONTINUOUS
 62
               4
100
AcDbLine
 10
0.7435949707031284
 20
0.5004754638671898
 30
0.0
 11
3.2435949707031284
 21
0.5004754638671898
 31
0.0
  0
ENDBLK
  5
11C
100
AcDbEntity
  8
0
100
AcDbBlockEnd
  0
BLOCK
  5
11D
100
AcDbEntity
  8
0
100
AcDbBlockBegin
  2
MS_6
 70
               0
 10
0.0
 20
0.0
 30
0.0
  3
MS_6
  1

  0
LINE
  5
11E
100
AcDbEntity
  8
0
  6
CENTER
 62
             200
100
AcDbLine
 10
0.0002054457601517
 20
2.0499999999999829
 30
0.0
 11
0.0002054457601517
 21
-4.9199999999999875
 31
0.0
  0
LINE
  5
11F
100
AcDbEntity
  8
0
  6
CONTINUOUS
 62
               4
100
AcDbLine
 10
-2.0497945542398455
 20
-1.0
 30
0.0
 11
-2.0497945542398455
 21
-2.5499999999999829
 31
0.0
  0
LINE
  5
120
100
AcDbEntity
  8
0
  6
CONTINUOUS
 62
               4
100
AcDbLine
 10
-2.0497945542398455
 20
-1.0
 30
0.0
 11
-1.4997945542398483
 21
-0.4500000000000171
 31
0.0
  0
LINE
  5
121
100
AcDbEntity
  8
0
  6
CONTINUOUS
 62
               4
100
AcDbLine
 10
-1.4997945542398483
 20
0.0
 30
0.0
 11
-1.4997945542398483
 21
-0.4500000000000171
 31
0.0
  0
LINE
  5
122
100
AcDbEntity
  8
0
  6
CONTINUOUS
 62
               4
100
AcDbLine
 10
-1.4997945542398483
 20
0.0
 30
0.0
 11
1.5002054457601517
 21
0.0
 31
0.0
  0
LINE
  5
123
100
AcDbEntity
  8
0
  6
CONTINUOUS
 62
               4
100
AcDbLine
 10
1.5002054457601517
 20
0.0
 30
0.0
 11
1.5002054457601517
 21
-0.4500000000000171
 31
0.0
  0
LINE
  5
124
100
AcDbEntity
  8
0
  6
CONTINUOUS
 62
               4
100
AcDbLine
 10
2.0502054457601488
 20
-1.0
 30
0.0
 11
1.5002054457601517
 21
-0.4500000000000171
 31
0.0
  0
LINE
  5
125
100
AcDbEntity
  8
0
  6
CONTINUOUS
 62
               4
100
AcDbLine
 10
2.0502054457601488
 20
-1.0
 30
0.0
 11
2.0502054457601488
 21
-2.5499999999999829
 31
0.0
  0
LINE
  5
126
100
AcDbEntity
  8
0
  6
CONTINUOUS
 62
               4
100
AcDbLine
 10
-2.0497945542398455
 20
-1.7999999999999829
 30
0.0
 11
2.0502054457601488
 21
-1.7999999999999829
 31
0.0
  0
LINE
  5
127
100
AcDbEntity
  8
0
  6
CONTINUOUS
 62
               4
100
AcDbLine
 10
-2.0497945542398455
 20
-2.5900000000000034
 30
0.0
 11
2.0502054457601488
 21
-2.5900000000000034
 31
0.0
  0
LINE
  5
128
100
AcDbEntity
  8
0
  6
CONTINUOUS
 62
               4
100
AcDbLine
 10
-1.0197945542398443
 20
-4.0
 30
0.0
 11
1.0202054457601477
 21
-4.0
 31
0.0
  0
LINE
  5
129
100
AcDbEntity
  8
0
  6
CONTINUOUS
 62
               4
100
AcDbLine
 10
1.0202054457601477
 20
-4.0
 30
0.0
 11
1.2502054457601517
 21
-3.7700000000000102
 31
0.0
  0
LINE
  5
12A
100
AcDbEntity
  8
0
  6
CONTINUOUS
 62
               4
100
AcDbLine
 10
-1.0197945542398443
 20
-4.0
 30
0.0
 11
-1.2497945542398483
 21
-3.7700000000000102
 31
0.0
  0
LINE
  5
12B
100
AcDbEntity
  8
0
  6
CONTINUOUS
 62
               4
100
AcDbLine
 10
-1.2497945542398483
 20
-2.5900000000000034
 30
0.0
 11
-1.2497945542398483
 21
-3.7700000000000102
 31
0.0
  0
LINE
  5
12C
100
AcDbEntity
  8
0
  6
CONTINUOUS
 62
             200
100
AcDbLine
 10
-1.0197945542398443
 20
-2.5900000000000034
 30
0.0
 11
-1.0197945542398443
 21
-4.0
 31
0.0
  0
LINE
  5
12D
100
AcDbEntity
  8
0
  6
CONTINUOUS
 62
             200
100
AcDbLine
 10
1.0202054457601477
 20
-2.5900000000000034
 30
0.0
 11
1.0202054457601477
 21
-4.0
 31
0.0
  0
LINE
  5
12E
100
AcDbEntity
  8
0
  6
CONTINUOUS
 62
               4
100
AcDbLine
 10
1.2502054457601517
 20
-2.5900000000000034
 30
0.0
 11
1.2502054457601517
 21
-3.7700000000000102
 31
0.0
  0
LINE
  5
12F
100
AcDbEntity
  8
0
  6
CONTINUOUS
 62
               4
100
AcDbLine
 10
-1.2497945542398483
 20
-3.7700000000000102
 30
0.0
 11
1.2502054457601517
 21
-3.7700000000000102
 31
0.0
  0
LINE
  5
130
100
AcDbEntity
  8
0
  6
CONTINUOUS
 62
               4
100
AcDbLine
 10
-1.2497945542398483
 20
0.5
 30
0.0
 11
-1.2497945542398483
 21
0.0
 31
0.0
  0
LINE
  5
131
100
AcDbEntity
  8
0
  6
CONTINUOUS
 62
             200
100
AcDbLine
 10
-1.0197945542398443
 20
0.5
 30
0.0
 11
-1.0197945542398443
 21
0.0
 31
0.0
  0
LINE
  5
132
100
AcDbEntity
  8
0
  6
CONTINUOUS
 62
             200
100
AcDbLine
 10
1.0202054457601477
 20
0.5
 30
0.0
 11
1.0202054457601477
 21
0.0
 31
0.0
  0
LINE
  5
133
100
AcDbEntity
  8
0
  6
CONTINUOUS
 62
               4
100
AcDbLine
 10
1.2502054457601517
 20
0.5
 30
0.0
 11
1.2502054457601517
 21
0.0
 31
0.0
  0
LINE
  5
134
100
AcDbEntity
  8
0
  6
CONTINUOUS
 62
               4
100
AcDbLine
 10
-1.2497945542398483
 20
0.5
 30
0.0
 11
1.2502054457601517
 21
0.5
 31
0.0
  0
ARC
  5
135
100
AcDbEntity
  8
0
  6
CONTINUOUS
 62
               4
100
AcDbCircle
 10
0.0002077345797957
 20
-2.5499977111803673
 30
0.0
 40
2.0500022888209148
100
AcDbArc
 50
180.00006397051609
 51
269.99993602948291
  0
ARC
  5
136
100
AcDbEntity
  8
0
  6
CONTINUOUS
 62
               4
100
AcDbCircle
 10
0.0002031569405077
 20
-2.5499977111803673
 30
0.0
 40
2.0500022888209148
100
AcDbArc
 50
270.0000639705159
 51
359.99993602948268
  0
ENDBLK
  5
137
100
AcDbEntity
  8
0
100
AcDbBlockEnd
  0
BLOCK
  5
138
100
AcDbEntity
  8
0
100
AcDbBlockBegin
  2
MS_7
 70
               0
 10
0.0
 20
0.0
 30
0.0
  3
MS_7
  1

  0
LINE
  5
139
100
AcDbEntity
  8
0
  6
CENTER
 62
             200
100
AcDbLine
 10
-2.7999999999999972
 20
0.0
 30
0.0
 11
27.399999999999999
 21
0.0
 31
0.0
  0
LINE
  5
13A
100
AcDbEntity
  8
0
  6
CONTINUOUS
 62
               4
100
AcDbLine
 10
0.0
 20
-1.5
 30
0.0
 11
22.0
 21
-1.5
 31
0.0
  0
LINE
  5
13B
100
AcDbEntity
  8
0
  6
CONTINUOUS
 62
               4
100
AcDbLine
 10
0.0
 20
1.5
 30
0.0
 11
22.0
 21
1.5
 31
0.0
  0
LINE
  5
13C
100
AcDbEntity
  8
0
  6
CENTER
 62
             200
100
AcDbLine
 10
2.0
 20
2.8300000000000125
 30
0.0
 11
2.0
 21
-2.75
 31
0.0
  0
LINE
  5
13D
100
AcDbEntity
  8
0
  6
CONTINUOUS
 62
             200
100
AcDbLine
 10
23.079999999999998
 20
2.1599999999999966
 30
0.0
 11
25.579999999999998
 21
-2.1599999999999966
 31
0.0
  0
LINE
  5
13E
100
AcDbEntity
  8
0
  6
CONTINUOUS
 62
               4
100
AcDbLine
 10
22.0
 20
1.2999999999999829
 30
0.0
 11
23.579999999999998
 21
1.2999999999999829
 31
0.0
  0
LINE
  5
13F
100
AcDbEntity
  8
0
  6
CONTINUOUS
 62
               4
100
AcDbLine
 10
22.0
 20
-1.2999999999999829
 30
0.0
 11
25.090000000000003
 21
-1.2999999999999829
 31
0.0
  0
LINE
  5
140
100
AcDbEntity
  8
0
  6
CONTINUOUS
 62
               4
100
AcDbLine
 10
0.9899999999999949
 20
-0.7199999999999989
 30
0.0
 11
2.730000000000004
 21
1.0099999999999909
 31
0.0
  0
LINE
  5
141
100
AcDbEntity
  8
0
  6
CONTINUOUS
 62
               4
100
AcDbLine
 10
1.269999999999996
 20
-1.0
 30
0.0
 11
3.0100000000000051
 21
0.7299999999999898
 31
0.0
  0
LINE
  5
142
100
AcDbEntity
  8
0
  6
CONTINUOUS
 62
               4
100
AcDbLine
 10
0.0
 20
1.5999999999999943
 30
0.0
 11
0.0
 21
-1.5999999999999943
 31
0.0
  0
LINE
  5
143
100
AcDbEntity
  8
0
  6
CONTINUOUS
 62
               4
100
AcDbLine
 10
22.0
 20
1.5999999999999943
 30
0.0
 11
22.0
 21
-1.5999999999999943
 31
0.0
  0
CIRCLE
  5
144
100
AcDbEntity
  8
0
  6
CONTINUOUS
 62
             200
100
AcDbCircle
 10
2.0000152587890625
 20
-0.00628662109375
 30
0.0
 40
1.0
  0
CIRCLE
  5
145
100
AcDbEntity
  8
0
  6
CONTINUOUS
 62
               4
100
AcDbCircle
 10
2.0000152587890625
 20
-0.00628662109375
 30
0.0
 40
1.25
  0
ENDBLK
  5
146
100
AcDbEntity
  8
0
100
AcDbBlockEnd
  0
BLOCK
  5
147
100
AcDbEntity
  8
0
100
AcDbBlockBegin
  2
MS_8
 70
               0
 10
0.0
 20
0.0
 30
0.0
  3
MS_8
  1

  0
LINE
  5
148
100
AcDbEntity
  8
0
  6
CONTINUOUS
 62
             200
100
AcDbLine
 10
0.9799999999999898
 20
0.5
 30
0.0
 11
0.9799999999999898
 21
0.0
 31
0.0
  0
LINE
  5
149
100
AcDbEntity
  8
0
  6
CONTINUOUS
 62
             200
100
AcDbLine
 10
3.0299999999999727
 20
0.5
 30
0.0
 11
3.0299999999999727
 21
0.0
 31
0.0
  0
LINE
  5
14A
100
AcDbEntity
  8
0
  6
CONTINUOUS
 62
               4
100
AcDbLine
 10
22.004736938476555
 20
6.9004754638671955
 30
0.0
 11
22.004736938476555
 21
0.0004754638671898
 31
0.0
  0
LINE
  5
14B
100
AcDbEntity
  8
0
  6
CENTER
 62
             200
100
AcDbLine
 10
2.0047369384765545
 20
0.7304754638671795
 30
0.0
 11
2.0047369384765545
 21
-4.2695245361328205
 31
0.0
  0
LINE
  5
14C
100
AcDbEntity
  8
0
  6
CONTINUOUS
 62
               4
100
AcDbLine
 10
16.104736938476549
 20
6.9004754638671955
 30
0.0
 11
16.104736938476549
 21
0.0004754638671898
 31
0.0
  0
LINE
  5
14D
100
AcDbEntity
  8
0
  6
CONTINUOUS
 62
               4
100
AcDbLine
 10
16.104736938476549
 20
6.9004754638671955
 30
0.0
 11
22.004736938476555
 21
6.9004754638671955
 31
0.0
  0
LINE
  5
14E
100
AcDbEntity
  8
0
  6
CONTINUOUS
 62
               4
100
AcDbLine
 10
16.104736938476549
 20
1.1504754638671955
 30
0.0
 11
22.004736938476555
 21
1.1504754638671955
 31
0.0
  0
LINE
  5
14F
100
AcDbEntity
  8
0
  6
CONTINUOUS
 62
               4
100
AcDbLine
 10
16.104736938476549
 20
0.4004754638671955
 30
0.0
 11
22.004736938476555
 21
0.4004754638671955
 31
0.0
  0
LINE
  5
150
100
AcDbEntity
  8
0
  6
CONTINUOUS
 62
               4
100
AcDbLine
 10
16.104736938476549
 20
5.4004754638671955
 30
0.0
 11
22.004736938476555
 21
5.4004754638671955
 31
0.0
  0
LINE
  5
151
100
AcDbEntity
  8
0
  6
CONTINUOUS
 62
               4
100
AcDbLine
 10
18.104736938476549
 20
15.400475463867195
 30
0.0
 11
20.704736938476572
 21
15.400475463867195
 31
0.0
  0
LINE
  5
152
100
AcDbEntity
  8
0
  6
CENTER
 62
             200
100
AcDbLine
 10
18.954736938476572
 20
13.670475463867177
 30
0.0
 11
18.954736938476572
 21
25.600475463867184
 31
0.0
  0
LINE
  5
153
100
AcDbEntity
  8
0
  6
CENTER
 62
             200
100
AcDbLine
 10
19.854736938476549
 20
13.720475463867189
 30
0.0
 11
19.854736938476549
 21
25.650475463867195
 31
0.0
  0
LINE
  5
154
100
AcDbEntity
  8
0
  6
CONTINUOUS
 62
               4
100
AcDbLine
 10
18.704736938476572
 20
25.400475463867195
 30
0.0
 11
19.204736938476572
 21
25.400475463867195
 31
0.0
  0
LINE
  5
155
100
AcDbEntity
  8
0
  6
CONTINUOUS
 62
               4
100
AcDbLine
 10
19.604736938476549
 20
25.400475463867195
 30
0.0
 11
20.104736938476549
 21
25.400475463867195
 31
0.0
  0
LINE
  5
156
100
AcDbEntity
  8
0
  6
CONTINUOUS
 62
               4
100
AcDbLine
 10
18.504736938476555
 20
22.400475463867195
 30
0.0
 11
20.304736938476537
 21
22.400475463867195
 31
0.0
  0
LINE
  5
157
100
AcDbEntity
  8
0
  6
CONTINUOUS
 62
               4
100
AcDbLine
 10
20.304736938476537
 20
15.400475463867195
 30
0.0
 11
20.304736938476537
 21
19.400475463867195
 31
0.0
  0
LINE
  5
158
100
AcDbEntity
  8
0
  6
CONTINUOUS
 62
               4
100
AcDbLine
 10
19.40473693847656
 20
15.400475463867195
 30
0.0
 11
19.40473693847656
 21
18.880475463867185
 31
0.0
  0
LINE
  5
159
100
AcDbEntity
  8
0
  6
CONTINUOUS
 62
               4
100
AcDbLine
 10
19.40473693847656
 20
20.380475463867185
 30
0.0
 11
19.40473693847656
 21
22.400475463867195
 31
0.0
  0
LINE
  5
15A
100
AcDbEntity
  8
0
  6
CONTINUOUS
 62
               4
100
AcDbLine
 10
20.304736938476537
 20
20.900475463867195
 30
0.0
 11
20.304736938476537
 21
22.400475463867195
 31
0.0
  0
LINE
  5
15B
100
AcDbEntity
  8
0
  6
CONTINUOUS
 62
               4
100
AcDbLine
 10
18.504736938476555
 20
15.400475463867195
 30
0.0
 11
18.504736938476555
 21
18.360475463867175
 31
0.0
  0
LINE
  5
15C
100
AcDbEntity
  8
0
  6
CONTINUOUS
 62
               4
100
AcDbLine
 10
18.504736938476555
 20
19.860475463867175
 30
0.0
 11
18.504736938476555
 21
22.400475463867195
 31
0.0
  0
LINE
  5
15D
100
AcDbEntity
  8
0
  6
CONTINUOUS
 62
               4
100
AcDbLine
 10
18.704736938476572
 20
22.400475463867195
 30
0.0
 11
18.704736938476572
 21
25.400475463867195
 31
0.0
  0
LINE
  5
15E
100
AcDbEntity
  8
0
  6
CONTINUOUS
 62
               4
100
AcDbLine
 10
19.204736938476572
 20
22.400475463867195
 30
0.0
 11
19.204736938476572
 21
25.400475463867195
 31
0.0
  0
LINE
  5
15F
100
AcDbEntity
  8
0
  6
CONTINUOUS
 62
               4
100
AcDbLine
 10
19.604736938476549
 20
22.400475463867195
 30
0.0
 11
19.604736938476549
 21
25.400475463867195
 31
0.0
  0
LINE
  5
160
100
AcDbEntity
  8
0
  6
CONTINUOUS
 62
               4
100
AcDbLine
 10
20.104736938476549
 20
22.400475463867195
 30
0.0
 11
20.104736938476549
 21
25.400475463867195
 31
0.0
  0
LINE
  5
161
100
AcDbEntity
  8
0
  6
CONTINUOUS
 62
             200
100
AcDbLine
 10
17.244736938476535
 20
19.130475463867185
 30
0.0
 11
21.574736938476548
 21
21.630475463867185
 31
0.0
  0
LINE
  5
162
100
AcDbEntity
  8
0
  6
CENTER
 62
             200
100
AcDbLine
 10
19.40473693847656
 20
5.5804754638672023
 30
0.0
 11
19.40473693847656
 21
15.400475463867195
 31
0.0
  0
LINE
  5
163
100
AcDbEntity
  8
0
  6
CONTINUOUS
 62
             200
100
AcDbLine
 10
17.244736938476535
 20
17.630475463867185
 30
0.0
 11
21.574736938476548
 21
20.130475463867185
 31
0.0
  0
LINE
  5
164
100
AcDbEntity
  8
0
  6
CONTINUOUS
 62
             200
100
AcDbLine
 10
17.244736938476535
 20
10.150475463867195
 30
0.0
 11
21.574736938476548
 21
12.650475463867195
 31
0.0
  0
LINE
  5
165
100
AcDbEntity
  8
0
  6
CONTINUOUS
 62
             200
100
AcDbLine
 10
17.244736938476535
 20
8.6504754638671955
 30
0.0
 11
21.574736938476548
 21
11.150475463867195
 31
0.0
  0
LINE
  5
166
100
AcDbEntity
  8
0
  6
CONTINUOUS
 62
               4
100
AcDbLine
 10
0.7547369384765545
 20
0.5004754638671898
 30
0.0
 11
0.7547369384765545
 21
0.0004754638671898
 31
0.0
  0
LINE
  5
167
100
AcDbEntity
  8
0
  6
CONTINUOUS
 62
             200
100
AcDbLine
 10
0.9747369384765534
 20
0.5004754638671898
 30
0.0
 11
0.9747369384765534
 21
0.0004754638671898
 31
0.0
  0
LINE
  5
168
100
AcDbEntity
  8
0
  6
CONTINUOUS
 62
             200
100
AcDbLine
 10
3.0247369384765648
 20
0.5004754638671898
 30
0.0
 11
3.0247369384765648
 21
0.0004754638671898
 31
0.0
  0
LINE
  5
169
100
AcDbEntity
  8
0
  6
CONTINUOUS
 62
               4
100
AcDbLine
 10
3.2547369384765545
 20
0.5004754638671898
 30
0.0
 11
3.2547369384765545
 21
0.0004754638671898
 31
0.0
  0
LINE
  5
16A
100
AcDbEntity
  8
0
  6
CONTINUOUS
 62
               4
100
AcDbLine
 10
0.7547369384765545
 20
0.5004754638671898
 30
0.0
 11
3.2547369384765545
 21
0.5004754638671898
 31
0.0
  0
LINE
  5
16B
100
AcDbEntity
  8
0
  6
CONTINUOUS
 62
               4
100
AcDbLine
 10
20.704736938476572
 20
6.9004754638671955
 30
0.0
 11
20.704736938476572
 21
10.650475463867195
 31
0.0
  0
LINE
  5
16C
100
AcDbEntity
  8
0
  6
CONTINUOUS
 62
               4
100
AcDbLine
 10
18.104736938476549
 20
6.9004754638671955
 30
0.0
 11
18.104736938476549
 21
9.1504754638671955
 31
0.0
  0
LINE
  5
16D
100
AcDbEntity
  8
0
  6
CONTINUOUS
 62
               4
100
AcDbLine
 10
18.104736938476549
 20
10.650475463867195
 30
0.0
 11
18.104736938476549
 21
15.400475463867195
 31
0.0
  0
LINE
  5
16E
100
AcDbEntity
  8
0
  6
CONTINUOUS
 62
               4
100
AcDbLine
 10
20.704736938476572
 20
12.150475463867195
 30
0.0
 11
20.704736938476572
 21
15.400475463867195
 31
0.0
  0
ENDBLK
  5
16F
100
AcDbEntity
  8
0
100
AcDbBlockEnd
  0
BLOCK
  5
170
100
AcDbEntity
  8
0
100
AcDbBlockBegin
  2
MS_9
 70
               0
 10
0.0
 20
0.0
 30
0.0
  3
MS_9
  1

  0
LINE
  5
171
100
AcDbEntity
  8
0
  6
CONTINUOUS
 62
               4
100
AcDbLine
 10
-2.25
 20
5.4000000000000057
 30
0.0
 11
2.25
 21
5.4000000000000057
 31
0.0
  0
LINE
  5
172
100
AcDbEntity
  8
0
  6
CONTINUOUS
 62
               4
100
AcDbLine
 10
-2.25
 20
6.9000000000000057
 30
0.0
 11
-2.25
 21
1.1500000000000057
 31
0.0
  0
LINE
  5
173
100
AcDbEntity
  8
0
  6
CONTINUOUS
 62
               4
100
AcDbLine
 10
-1.5
 20
0.4000000000000057
 30
0.0
 11
-2.25
 21
1.1500000000000057
 31
0.0
  0
LINE
  5
174
100
AcDbEntity
  8
0
  6
CONTINUOUS
 62
               4
100
AcDbLine
 10
-1.5
 20
-0.4500000000000171
 30
0.0
 11
-1.5
 21
0.4000000000000057
 31
0.0
  0
LINE
  5
175
100
AcDbEntity
  8
0
  6
CONTINUOUS
 62
               4
100
AcDbLine
 10
-2.0499999999999972
 20
-1.0
 30
0.0
 11
-1.5
 21
-0.4500000000000171
 31
0.0
  0
LINE
  5
176
100
AcDbEntity
  8
0
  6
CONTINUOUS
 62
               4
100
AcDbLine
 10
-2.0499999999999972
 20
-1.0
 30
0.0
 11
-2.0499999999999972
 21
-2.5499999999999829
 31
0.0
  0
LINE
  5
177
100
AcDbEntity
  8
0
  6
CONTINUOUS
 62
               4
100
AcDbLine
 10
2.0499999999999972
 20
-1.0
 30
0.0
 11
2.0499999999999972
 21
-2.5499999999999829
 31
0.0
  0
LINE
  5
178
100
AcDbEntity
  8
0
  6
CONTINUOUS
 62
               4
100
AcDbLine
 10
2.0499999999999972
 20
-1.0
 30
0.0
 11
1.5
 21
-0.4500000000000171
 31
0.0
  0
LINE
  5
179
100
AcDbEntity
  8
0
  6
CONTINUOUS
 62
               4
100
AcDbLine
 10
1.5
 20
-0.4500000000000171
 30
0.0
 11
1.5
 21
0.4000000000000057
 31
0.0
  0
LINE
  5
17A
100
AcDbEntity
  8
0
  6
CONTINUOUS
 62
               4
100
AcDbLine
 10
1.5
 20
0.4000000000000057
 30
0.0
 11
2.25
 21
1.1500000000000057
 31
0.0
  0
LINE
  5
17B
100
AcDbEntity
  8
0
  6
CONTINUOUS
 62
               4
100
AcDbLine
 10
2.25
 20
6.9000000000000057
 30
0.0
 11
2.25
 21
1.1500000000000057
 31
0.0
  0
LINE
  5
17C
100
AcDbEntity
  8
0
  6
CENTER
 62
             200
100
AcDbLine
 10
0.0
 20
12.560000000000002
 30
0.0
 11
0.0
 21
-6.0600000000000023
 31
0.0
  0
LINE
  5
17D
100
AcDbEntity
  8
0
  6
CONTINUOUS
 62
               4
100
AcDbLine
 10
-1.5
 20
0.0
 30
0.0
 11
1.5
 21
0.0
 31
0.0
  0
LINE
  5
17E
100
AcDbEntity
  8
0
  6
CONTINUOUS
 62
               4
100
AcDbLine
 10
-2.0499999999999972
 20
-1.7999999999999829
 30
0.0
 11
2.0499999999999972
 21
-1.7999999999999829
 31
0.0
  0
LINE
  5
17F
100
AcDbEntity
  8
0
  6
CONTINUOUS
 62
               4
100
AcDbLine
 10
-2.0499999999999972
 20
-2.5999999999999943
 30
0.0
 11
2.0499999999999972
 21
-2.5999999999999943
 31
0.0
  0
LINE
  5
180
100
AcDbEntity
  8
0
  6
CONTINUOUS
 62
               4
100
AcDbLine
 10
-2.25
 20
6.9000000000000057
 30
0.0
 11
2.25
 21
6.9000000000000057
 31
0.0
  0
LINE
  5
181
100
AcDbEntity
  8
0
  6
CONTINUOUS
 62
             200
100
AcDbLine
 10
-2.1599999999999966
 20
8.6500000000000057
 30
0.0
 11
2.1599999999999966
 21
11.150000000000006
 31
0.0
  0
LINE
  5
182
100
AcDbEntity
  8
0
  6
CONTINUOUS
 62
               4
100
AcDbLine
 10
-1.0200000000000102
 20
-4.0
 30
0.0
 11
1.0200000000000102
 21
-4.0
 31
0.0
  0
LINE
  5
183
100
AcDbEntity
  8
0
  6
CONTINUOUS
 62
               4
100
AcDbLine
 10
1.0200000000000102
 20
-4.0
 30
0.0
 11
1.25
 21
-3.7700000000000102
 31
0.0
  0
LINE
  5
184
100
AcDbEntity
  8
0
  6
CONTINUOUS
 62
               4
100
AcDbLine
 10
-1.0200000000000102
 20
-4.0
 30
0.0
 11
-1.25
 21
-3.7700000000000102
 31
0.0
  0
LINE
  5
185
100
AcDbEntity
  8
0
  6
CONTINUOUS
 62
               4
100
AcDbLine
 10
-1.25
 20
-2.5999999999999943
 30
0.0
 11
-1.25
 21
-3.7700000000000102
 31
0.0
  0
LINE
  5
186
100
AcDbEntity
  8
0
  6
CONTINUOUS
 62
             200
100
AcDbLine
 10
-1.0200000000000102
 20
-2.5999999999999943
 30
0.0
 11
-1.0200000000000102
 21
-4.0
 31
0.0
  0
LINE
  5
187
100
AcDbEntity
  8
0
  6
CONTINUOUS
 62
             200
100
AcDbLine
 10
1.0200000000000102
 20
-2.5999999999999943
 30
0.0
 11
1.0200000000000102
 21
-4.0
 31
0.0
  0
LINE
  5
188
100
AcDbEntity
  8
0
  6
CONTINUOUS
 62
               4
100
AcDbLine
 10
1.25
 20
-2.5999999999999943
 30
0.0
 11
1.25
 21
-3.7700000000000102
 31
0.0
  0
LINE
  5
189
100
AcDbEntity
  8
0
  6
CONTINUOUS
 62
               4
100
AcDbLine
 10
-1.25
 20
-3.7700000000000102
 30
0.0
 11
1.25
 21
-3.7700000000000102
 31
0.0
  0
LINE
  5
18A
100
AcDbEntity
  8
0
  6
CONTINUOUS
 62
               4
100
AcDbLine
 10
-1.25
 20
0.5
 30
0.0
 11
-1.25
 21
0.0
 31
0.0
  0
LINE
  5
18B
100
AcDbEntity
  8
0
  6
CONTINUOUS
 62
             200
100
AcDbLine
 10
-1.0200000000000102
 20
0.5
 30
0.0
 11
-1.0200000000000102
 21
0.0
 31
0.0
  0
LINE
  5
18C
100
AcDbEntity
  8
0
  6
CONTINUOUS
 62
             200
100
AcDbLine
 10
1.0200000000000102
 20
0.5
 30
0.0
 11
1.0200000000000102
 21
0.0
 31
0.0
  0
LINE
  5
18D
100
AcDbEntity
  8
0
  6
CONTINUOUS
 62
               4
100
AcDbLine
 10
1.25
 20
0.5
 30
0.0
 11
1.25
 21
0.0
 31
0.0
  0
LINE
  5
18E
100
AcDbEntity
  8
0
  6
CONTINUOUS
 62
               4
100
AcDbLine
 10
-1.25
 20
0.5
 30
0.0
 11
1.25
 21
0.5
 31
0.0
  0
LINE
  5
18F
100
AcDbEntity
  8
0
  6
CONTINUOUS
 62
               4
100
AcDbLine
 10
-1.2999999999999972
 20
9.1500000000000057
 30
0.0
 11
-1.2999999999999972
 21
6.9000000000000057
 31
0.0
  0
LINE
  5
190
100
AcDbEntity
  8
0
  6
CONTINUOUS
 62
               4
100
AcDbLine
 10
1.2999999999999972
 20
10.650000000000006
 30
0.0
 11
1.2999999999999972
 21
6.9000000000000057
 31
0.0
  0
ARC
  5
191
100
AcDbEntity
  8
0
  6
CONTINUOUS
 62
               4
100
AcDbCircle
 10
0.000002288819644
 20
-2.5499977111803673
 30
0.0
 40
2.0500022888209148
100
AcDbArc
 50
180.00006397051609
 51
269.99993602948291
  0
ARC
  5
192
100
AcDbEntity
  8
0
  6
CONTINUOUS
 62
               4
100
AcDbCircle
 10
0.0048075112054846
 20
-2.5451044595701262
 30
0.0
 40
2.0451983479696025
100
AcDbArc
 50
270.98595845240197
 51
359.86285238631956
  0
ENDBLK
  5
193
100
AcDbEntity
  8
0
100
AcDbBlockEnd
  0
BLOCK
  5
194
100
AcDbEntity
  8
0
100
AcDbBlockBegin
  2
MS_10
 70
               0
 10
0.0
 20
0.0
 30
0.0
  3
MS_10
  1

  0
LINE
  5
195
100
AcDbEntity
  8
0
  6
CENTER
 62
             200
100
AcDbLine
 10
-1.3199542236328057
 20
0.000030517578125
 30
0.0
 11
23.5800457763672
 21
0.000030517578125
 31
0.0
  0
LINE
  5
196
100
AcDbEntity
  8
0
  6
CONTINUOUS
 62
               4
100
AcDbLine
 10
0.0000457763671875
 20
-1.499969482421875
 30
0.0
 11
16.56004577636719
 21
-1.499969482421875
 31
0.0
  0
LINE
  5
197
100
AcDbEntity
  8
0
  6
CONTINUOUS
 62
               4
100
AcDbLine
 10
0.0000457763671875
 20
1.500030517578125
 30
0.0
 11
16.56004577636719
 21
1.500030517578125
 31
0.0
  0
LINE
  5
198
100
AcDbEntity
  8
0
  6
CONTINUOUS
 62
               4
100
AcDbLine
 10
0.0000457763671875
 20
1.6000305175781193
 30
0.0
 11
0.0000457763671875
 21
-1.5999694824218693
 31
0.0
  0
LINE
  5
199
100
AcDbEntity
  8
0
  6
CENTER
 62
             200
100
AcDbLine
 10
2.0000457763671875
 20
2.8300305175781375
 30
0.0
 11
2.0000457763671875
 21
-2.749969482421875
 31
0.0
  0
LINE
  5
19A
100
AcDbEntity
  8
0
  6
CONTINUOUS
 62
               4
100
AcDbLine
 10
17.0800457763672
 20
2.250030517578125
 30
0.0
 11
22.000045776367188
 21
2.250030517578125
 31
0.0
  0
LINE
  5
19B
100
AcDbEntity
  8
0
  6
CONTINUOUS
 62
               4
100
AcDbLine
 10
17.0800457763672
 20
-2.249969482421875
 30
0.0
 11
22.000045776367188
 21
-2.249969482421875
 31
0.0
  0
LINE
  5
19C
100
AcDbEntity
  8
0
  6
CONTINUOUS
 62
               4
100
AcDbLine
 10
22.000045776367188
 20
2.250030517578125
 30
0.0
 11
22.000045776367188
 21
-2.249969482421875
 31
0.0
  0
LINE
  5
19D
100
AcDbEntity
  8
0
  6
CONTINUOUS
 62
               4
100
AcDbLine
 10
0.9900457763671682
 20
-0.7199694824218739
 30
0.0
 11
2.7300457763671773
 21
1.0100305175781159
 31
0.0
  0
LINE
  5
19E
100
AcDbEntity
  8
0
  6
CONTINUOUS
 62
               4
100
AcDbLine
 10
1.2700457763671977
 20
-0.999969482421875
 30
0.0
 11
3.0100457763672068
 21
0.7300305175781148
 31
0.0
  0
ARC
  5
19F
100
AcDbEntity
  8
0
  6
CONTINUOUS
 62
               4
100
AcDbCircle
 10
19.500045776367188
 20
0.000030517578125
 30
0.0
 40
3.3043758866085451
100
AcDbArc
 50
137.08479304050996
 51
222.91520695948924
  0
CIRCLE
  5
1A0
100
AcDbEntity
  8
0
  6
CONTINUOUS
 62
               4
100
AcDbCircle
 10
19.407394409179687
 20
0.000030517578125
 30
0.0
 40
1.2999992370605469
  0
CIRCLE
  5
1A1
100
AcDbEntity
  8
0
  6
CONTINUOUS
 62
               4
100
AcDbCircle
 10
19.729202270507813
 20
-0.340972900390625
 30
0.0
 40
0.449999988079071
  0
CIRCLE
  5
1A2
100
AcDbEntity
  8
0
  6
CONTINUOUS
 62
               4
100
AcDbCircle
 10
19.117324829101563
 20
0.3181838989257813
 30
0.0
 40
0.449999988079071
  0
CIRCLE
  5
1A3
100
AcDbEntity
  8
0
  6
CONTINUOUS
 62
               4
100
AcDbCircle
 10
19.729202270507813
 20
-0.340972900390625
 30
0.0
 40
0.25
  0
CIRCLE
  5
1A4
100
AcDbEntity
  8
0
  6
CONTINUOUS
 62
               4
100
AcDbCircle
 10
19.117324829101563
 20
0.3181838989257813
 30
0.0
 40
0.25
  0
CIRCLE
  5
1A5
100
AcDbEntity
  8
0
  6
CONTINUOUS
 62
             200
100
AcDbCircle
 10
2.0000457763671875
 20
-0.006256103515625
 30
0.0
 40
1.0
  0
CIRCLE
  5
1A6
100
AcDbEntity
  8
0
  6
CONTINUOUS
 62
               4
100
AcDbCircle
 10
2.0000457763671875
 20
-0.006256103515625
 30
0.0
 40
1.25
  0
ENDBLK
  5
1A7
100
AcDbEntity
  8
0
100
AcDbBlockEnd
  0
ENDSEC
  0
SECTION
  2
ENTITIES
  0
LINE
  5
1A8
100
AcDbEntity
  8
0
  6
CONTINUOUS
 62
             200
100
AcDbLine
 10
49.393674473047014
 20
-97.619398139921572
 30
0.0
 11
51.893674473047014
 21
-101.94939813992158
 31
0.0
  0
LINE
  5
1A9
100
AcDbEntity
  8
0
  6
CONTINUOUS
 62
             200
100
AcDbLine
 10
50.893674473047014
 20
-97.619398139921572
 30
0.0
 11
53.393674473047014
 21
-101.94939813992158
 31
0.0
  0
LINE
  5
1AA
100
AcDbEntity
  8
0
  6
CONTINUOUS
 62
             200
100
AcDbLine
 10
58.373674473047018
 20
-97.619398139921572
 30
0.0
 11
60.873674473047018
 21
-101.94939813992158
 31
0.0
  0
LINE
  5
1AB
100
AcDbEntity
  8
0
  6
CENTER
 62
             200
100
AcDbLine
 10
46.323674473047021
 20
-99.789398139921559
 30
0.0
 11
56.143674473047014
 21
-99.789398139921559
 31
0.0
  0
LINE
  5
1AC
100
AcDbEntity
  8
0
  6
CONTINUOUS
 62
             200
100
AcDbLine
 10
59.873674473047018
 20
-97.619398139921572
 30
0.0
 11
62.373674473047018
 21
-101.94939813992158
 31
0.0
  0
LINE
  5
1AD
100
AcDbEntity
  8
0
  6
CENTER
 62
             200
100
AcDbLine
 10
54.423674473047015
 20
-99.33939813992157
 30
0.0
 11
66.353674473047022
 21
-99.33939813992157
 31
0.0
  0
LINE
  5
1AE
100
AcDbEntity
  8
0
  6
CENTER
 62
             200
100
AcDbLine
 10
54.473674473047019
 20
-100.23939813992158
 30
0.0
 11
66.393674473047014
 21
-100.23939813992158
 31
0.0
  0
LINE
  5
1AF
100
AcDbEntity
  8
0
  6
CONTINUOUS
 62
               7
100
AcDbLine
 10
-95.75
 20
132.60000610351562
 30
0.0
 11
-95.75
 21
117.60000610351562
 31
0.0
  0
LINE
  5
1B0
100
AcDbEntity
  8
0
  6
DASHED
 62
             200
100
AcDbLine
 10
160.4550910954039
 20
-63.489766703292254
 30
0.0
 11
160.45500765120551
 21
-68.0897667025354
 31
0.0
  0
LINE
  5
1B1
100
AcDbEntity
  8
0
  6
DASHED
 62
             200
100
AcDbLine
 10
139.20502271093758
 20
-67.259381226755522
 30
0.0
 11
141.70502271052626
 21
-67.259426576863348
 31
0.0
  0
LINE
  5
1B2
100
AcDbEntity
  8
0
  6
DASHED
 62
             200
100
AcDbLine
 10
141.70504393437673
 20
-66.089426577055832
 30
0.0
 11
141.70502271052626
 21
-67.259426576863348
 31
0.0
  0
LINE
  5
1B3
100
AcDbEntity
  8
0
  6
DASHED
 62
             200
100
AcDbLine
 10
139.20504393478805
 20
-66.089381226948007
 30
0.0
 11
139.20502271093758
 21
-67.259381226755522
 31
0.0
  0
LINE
  5
1B4
100
AcDbEntity
  8
0
  6
DASHED
 62
             200
100
AcDbLine
 10
139.4350185386898
 20
-67.489385398927595
 30
0.0
 11
139.20502271093758
 21
-67.259381226755522
 31
0.0
  0
LINE
  5
1B5
100
AcDbEntity
  8
0
  6
DASHED
 62
             200
100
AcDbLine
 10
141.48501853835251
 20
-67.489422586016005
 30
0.0
 11
141.70502271052626
 21
-67.259426576863348
 31
0.0
  0
LINE
  5
1B6
100
AcDbEntity
  8
0
  6
DASHED
 62
             200
100
AcDbLine
 10
139.4350185386898
 20
-67.489385398927595
 30
0.0
 11
141.48501853835251
 21
-67.489422586016005
 31
0.0
  0
LINE
  5
1B7
100
AcDbEntity
  8
0
  6
DASHED
 62
             200
100
AcDbLine
 10
138.45508293600417
 20
-63.93936762226943
 30
0.0
 11
160.4550829323845
 21
-63.939766703218233
 31
0.0
  0
LINE
  5
1B8
100
AcDbEntity
  8
0
  6
DASHED
 62
             200
100
AcDbLine
 10
138.45507295898045
 20
-64.489367622178918
 30
0.0
 11
160.45507295536078
 21
-64.489766703127728
 31
0.0
  0
LINE
  5
1B9
100
AcDbEntity
  8
0
  6
DASHED
 62
             200
100
AcDbLine
 10
142.72505844624339
 20
-65.289445080031427
 30
0.0
 11
142.7250370409925
 21
-66.4694450798373
 31
0.0
  0
LINE
  5
1BA
100
AcDbEntity
  8
0
  6
DASHED
 62
             200
100
AcDbLine
 10
142.7250370409925
 20
-66.4694450798373
 30
0.0
 11
143.15503704092174
 21
-66.46945288005584
 31
0.0
  0
LINE
  5
1BB
100
AcDbEntity
  8
0
  6
DASHED
 62
             200
100
AcDbLine
 10
142.65505844625491
 20
-65.28944381022842
 30
0.0
 11
142.65502216616866
 21
-67.289443809899353
 31
0.0
  0
LINE
  5
1BC
100
AcDbEntity
  8
0
  6
DASHED
 62
             200
100
AcDbLine
 10
142.65502216616866
 20
-67.289443809899353
 30
0.0
 11
143.15502216608638
 21
-67.289452879920916
 31
0.0
  0
LINE
  5
1BD
100
AcDbEntity
  8
0
  6
DASHED
 62
             200
100
AcDbLine
 10
142.45505844628784
 20
-65.289440182219792
 30
0.0
 11
142.45504393425333
 21
-66.089440182088168
 31
0.0
  0
LINE
  5
1BE
100
AcDbEntity
  8
0
  6
DASHED
 62
             200
100
AcDbLine
 10
138.45504393491146
 20
-66.08936762191567
 30
0.0
 11
142.45504393425333
 21
-66.089440182088168
 31
0.0
  0
LINE
  5
1BF
100
AcDbEntity
  8
0
  6
DASHED
 62
             200
100
AcDbLine
 10
138.45505844694594
 20
-65.28936762204728
 30
0.0
 11
142.72505844624339
 21
-65.289445080031427
 31
0.0
  0
LINE
  5
1C0
100
AcDbEntity
  8
0
  6
DASHED
 62
             200
100
AcDbLine
 10
143.15503704092174
 20
-66.46945288005584
 30
0.0
 11
143.15500765405187
 21
-68.089452879789306
 31
0.0
  0
LINE
  5
1C1
100
AcDbEntity
  8
0
  6
DASHED
 62
             200
100
AcDbLine
 10
138.45504393491146
 20
-66.08936762191567
 30
0.0
 11
138.45509109902358
 21
-63.489367622343451
 31
0.0
  0
LINE
  5
1C2
100
AcDbEntity
  8
0
  6
DASHED
 62
             200
100
AcDbLine
 10
143.15500765405187
 20
-68.089452879789306
 30
0.0
 11
160.45500765120551
 21
-68.0897667025354
 31
0.0
  0
LINE
  5
1C3
100
AcDbEntity
  8
0
  6
DASHED
 62
             200
100
AcDbLine
 10
138.45509109902358
 20
-63.489367622343451
 30
0.0
 11
154.55509109637464
 21
-63.4896596770378
 31
0.0
  0
LINE
  5
1C4
100
AcDbEntity
  8
0
  6
DASHED
 62
             200
100
AcDbLine
 10
138.45019935256474
 20
-17.489675233022055
 30
0.0
 11
138.45019872834587
 21
-17.93967523302161
 31
0.0
  0
LINE
  5
1C5
100
AcDbEntity
  8
0
  6
DASHED
 62
             200
100
AcDbLine
 10
138.45020379145438
 20
-14.289675233025115
 30
0.0
 11
138.45020441567326
 21
-13.839675233025559
 31
0.0
  0
LINE
  5
1C6
100
AcDbEntity
  8
0
  6
DASHED
 62
             200
100
AcDbLine
 10
138.45020441567326
 20
-13.839675233025559
 30
0.0
 11
155.36020441565699
 21
-13.839698689783148
 31
0.0
  0
LINE
  5
1C7
100
AcDbEntity
  8
0
  6
DASHED
 62
             200
100
AcDbLine
 10
138.45019872834587
 20
-17.93967523302161
 30
0.0
 11
155.36019872832958
 21
-17.939698689779199
 31
0.0
  0
LINE
  5
1C8
100
AcDbEntity
  8
0
  6
DASHED
 62
             200
100
AcDbLine
 10
52.893674473047014
 20
-101.08939813992157
 30
0.0
 11
56.143674473047014
 21
-101.08939813992157
 31
0.0
  0
LINE
  5
1C9
100
AcDbEntity
  8
0
  6
DASHED
 62
             200
100
AcDbLine
 10
51.393674473047014
 20
-98.489398139921576
 30
0.0
 11
56.143674473047014
 21
-98.489398139921576
 31
0.0
  0
LINE
  5
1CA
100
AcDbEntity
  8
0
  6
DASHED
 62
             200
100
AcDbLine
 10
47.643674473047014
 20
-101.08939813992157
 30
0.0
 11
51.393674473047014
 21
-101.08939813992157
 31
0.0
  0
LINE
  5
1CB
100
AcDbEntity
  8
0
  6
DASHED
 62
             200
100
AcDbLine
 10
47.643674473047014
 20
-98.489398139921576
 30
0.0
 11
49.893674473047014
 21
-98.489398139921576
 31
0.0
  0
LINE
  5
1CC
100
AcDbEntity
  8
0
  6
DASHED
 62
             200
100
AcDbLine
 10
25.643674473047014
 20
-97.939398139921593
 30
0.0
 11
47.643674473047014
 21
-97.939398139921593
 31
0.0
  0
LINE
  5
1CD
100
AcDbEntity
  8
0
  6
DASHED
 62
             200
100
AcDbLine
 10
25.643674473047014
 20
-98.489398139921576
 30
0.0
 11
47.643674473047014
 21
-98.489398139921576
 31
0.0
  0
LINE
  5
1CE
100
AcDbEntity
  8
0
  6
DASHED
 62
             200
100
AcDbLine
 10
26.393674473047014
 20
-101.25939813992159
 30
0.0
 11
28.893674473047014
 21
-101.25939813992159
 31
0.0
  0
LINE
  5
1CF
100
AcDbEntity
  8
0
  6
DASHED
 62
             200
100
AcDbLine
 10
28.893674473047014
 20
-100.07939813992158
 30
0.0
 11
28.893674473047014
 21
-101.25939813992159
 31
0.0
  0
LINE
  5
1D0
100
AcDbEntity
  8
0
  6
DASHED
 62
             200
100
AcDbLine
 10
26.393674473047014
 20
-100.07939813992158
 30
0.0
 11
26.393674473047014
 21
-101.25939813992159
 31
0.0
  0
LINE
  5
1D1
100
AcDbEntity
  8
0
  6
DASHED
 62
             200
100
AcDbLine
 10
26.613674473047013
 20
-101.48939813992158
 30
0.0
 11
26.393674473047014
 21
-101.25939813992159
 31
0.0
  0
LINE
  5
1D2
100
AcDbEntity
  8
0
  6
DASHED
 62
             200
100
AcDbLine
 10
28.663674473047024
 20
-101.48939813992158
 30
0.0
 11
28.893674473047014
 21
-101.25939813992159
 31
0.0
  0
LINE
  5
1D3
100
AcDbEntity
  8
0
  6
DASHED
 62
             200
100
AcDbLine
 10
26.613674473047013
 20
-101.48939813992158
 30
0.0
 11
28.663674473047024
 21
-101.48939813992158
 31
0.0
  0
LINE
  5
1D4
100
AcDbEntity
  8
0
  6
DASHED
 62
             200
100
AcDbLine
 10
63.143674473047014
 20
-100.48939813992158
 30
0.0
 11
66.143674473047014
 21
-100.48939813992158
 31
0.0
  0
LINE
  5
1D5
100
AcDbEntity
  8
0
  6
DASHED
 62
             200
100
AcDbLine
 10
63.143674473047014
 20
-99.989398139921576
 30
0.0
 11
66.143674473047014
 21
-99.989398139921576
 31
0.0
  0
LINE
  5
1D6
100
AcDbEntity
  8
0
  6
DASHED
 62
             200
100
AcDbLine
 10
63.143674473047014
 20
-99.58939813992157
 30
0.0
 11
66.143674473047014
 21
-99.58939813992157
 31
0.0
  0
LINE
  5
1D7
100
AcDbEntity
  8
0
  6
DASHED
 62
             200
100
AcDbLine
 10
63.143674473047014
 20
-99.08939813992157
 30
0.0
 11
66.143674473047014
 21
-99.08939813992157
 31
0.0
  0
LINE
  5
1D8
100
AcDbEntity
  8
0
  6
DASHED
 62
             200
100
AcDbLine
 10
60.603674473047015
 20
-98.889398139921582
 30
0.0
 11
63.143674473047014
 21
-98.889398139921582
 31
0.0
  0
LINE
  5
1D9
100
AcDbEntity
  8
0
  6
DASHED
 62
             200
100
AcDbLine
 10
56.143674473047014
 20
-98.889398139921582
 30
0.0
 11
59.103674473047015
 21
-98.889398139921582
 31
0.0
  0
LINE
  5
1DA
100
AcDbEntity
  8
0
  6
DASHED
 62
             200
100
AcDbLine
 10
61.643674473047014
 20
-100.68939813992159
 30
0.0
 11
63.143674473047014
 21
-100.68939813992159
 31
0.0
  0
LINE
  5
1DB
100
AcDbEntity
  8
0
  6
DASHED
 62
             200
100
AcDbLine
 10
61.123674473047018
 20
-99.789398139921559
 30
0.0
 11
63.143674473047014
 21
-99.789398139921559
 31
0.0
  0
LINE
  5
1DC
100
AcDbEntity
  8
0
  6
DASHED
 62
             200
100
AcDbLine
 10
56.143674473047014
 20
-99.789398139921559
 30
0.0
 11
59.623674473047018
 21
-99.789398139921559
 31
0.0
  0
LINE
  5
1DD
100
AcDbEntity
  8
0
  6
DASHED
 62
             200
100
AcDbLine
 10
56.143674473047014
 20
-100.68939813992159
 30
0.0
 11
60.143674473047014
 21
-100.68939813992159
 31
0.0
  0
LINE
  5
1DE
100
AcDbEntity
  8
0
  6
DASHED
 62
             200
100
AcDbLine
 10
63.143674473047014
 20
-98.889398139921582
 30
0.0
 11
63.143674473047014
 21
-100.68939813992159
 31
0.0
  0
LINE
  5
1DF
100
AcDbEntity
  8
0
  6
DASHED
 62
             200
100
AcDbLine
 10
66.143674473047014
 20
-99.989398139921576
 30
0.0
 11
66.143674473047014
 21
-100.48939813992158
 31
0.0
  0
LINE
  5
1E0
100
AcDbEntity
  8
0
  6
DASHED
 62
             200
100
AcDbLine
 10
66.143674473047014
 20
-99.08939813992157
 30
0.0
 11
66.143674473047014
 21
-99.58939813992157
 31
0.0
  0
LINE
  5
1E1
100
AcDbEntity
  8
0
  6
DASHED
 62
             200
100
AcDbLine
 10
56.143674473047014
 20
-98.489398139921576
 30
0.0
 11
56.143674473047014
 21
-101.08939813992157
 31
0.0
  0
LINE
  5
1E2
100
AcDbEntity
  8
0
  6
DASHED
 62
             200
100
AcDbLine
 10
29.893674473047014
 20
-100.52939813992157
 30
0.0
 11
30.343674473047017
 21
-100.52939813992157
 31
0.0
  0
LINE
  5
1E3
100
AcDbEntity
  8
0
  6
DASHED
 62
             200
100
AcDbLine
 10
29.843674473047017
 20
-101.28939813992156
 30
0.0
 11
30.343674473047017
 21
-101.28939813992156
 31
0.0
  0
LINE
  5
1E4
100
AcDbEntity
  8
0
  6
DASHED
 62
             200
100
AcDbLine
 10
29.843674473047017
 20
-99.289398139921559
 30
0.0
 11
29.843674473047017
 21
-101.28939813992156
 31
0.0
  0
LINE
  5
1E5
100
AcDbEntity
  8
0
  6
DASHED
 62
             200
100
AcDbLine
 10
25.643674473047014
 20
-100.08939813992157
 30
0.0
 11
29.643674473047014
 21
-100.08939813992157
 31
0.0
  0
LINE
  5
1E6
100
AcDbEntity
  8
0
  6
DASHED
 62
             200
100
AcDbLine
 10
25.643674473047014
 20
-99.289398139921559
 30
0.0
 11
25.643674473047014
 21
-100.08939813992157
 31
0.0
  0
LINE
  5
1E7
100
AcDbEntity
  8
0
  6
DASHED
 62
             200
100
AcDbLine
 10
29.643674473047014
 20
-99.289398139921559
 30
0.0
 11
29.643674473047014
 21
-100.08939813992157
 31
0.0
  0
LINE
  5
1E8
100
AcDbEntity
  8
0
  6
DASHED
 62
             200
100
AcDbLine
 10
29.893674473047014
 20
-99.289398139921559
 30
0.0
 11
29.893674473047014
 21
-100.52939813992157
 31
0.0
  0
LINE
  5
1E9
100
AcDbEntity
  8
0
  6
DASHED
 62
             200
100
AcDbLine
 10
25.643674473047014
 20
-99.289398139921559
 30
0.0
 11
29.893674473047014
 21
-99.289398139921559
 31
0.0
  0
LINE
  5
1EA
100
AcDbEntity
  8
0
  6
DASHED
 62
             200
100
AcDbLine
 10
30.343674473047017
 20
-100.52939813992157
 30
0.0
 11
30.343674473047017
 21
-102.08939813992157
 31
0.0
  0
LINE
  5
1EB
100
AcDbEntity
  8
0
  6
DASHED
 62
             200
100
AcDbLine
 10
25.643674473047014
 20
-99.289398139921559
 30
0.0
 11
25.643674473047014
 21
-97.489398139921576
 31
0.0
  0
LINE
  5
1EC
100
AcDbEntity
  8
0
  6
DASHED
 62
             200
100
AcDbLine
 10
47.643674473047014
 20
-97.489398139921576
 30
0.0
 11
47.643674473047014
 21
-102.08939813992157
 31
0.0
  0
LINE
  5
1ED
100
AcDbEntity
  8
0
  6
DASHED
 62
             200
100
AcDbLine
 10
30.343674473047017
 20
-102.08939813992157
 30
0.0
 11
47.643674473047014
 21
-102.08939813992157
 31
0.0
  0
LINE
  5
1EE
100
AcDbEntity
  8
0
  6
DASHED
 62
             200
100
AcDbLine
 10
25.643674473047014
 20
-97.489398139921576
 30
0.0
 11
47.643674473047014
 21
-97.489398139921576
 31
0.0
  0
LINE
  5
1EF
100
AcDbEntity
  8
0
  6
DASHED
 62
             200
100
AcDbLine
 10
47.650203792759214
 20
-66.539644713066465
 30
0.0
 11
47.650204416982405
 21
-66.989644713066042
 31
0.0
  0
LINE
  5
1F0
100
AcDbEntity
  8
0
  6
DASHED
 62
             200
100
AcDbLine
 10
25.650203792780385
 20
-66.539675230644576
 30
0.0
 11
25.650204417003575
 21
-66.989675230644167
 31
0.0
  0
LINE
  5
1F1
100
AcDbEntity
  8
0
  6
DASHED
 62
             200
100
AcDbLine
 10
47.650198729615575
 20
-62.889644713069998
 30
0.0
 11
47.650199353838765
 21
-63.339644713069553
 31
0.0
  0
LINE
  5
1F2
100
AcDbEntity
  8
0
  6
DASHED
 62
             200
100
AcDbLine
 10
25.650198729636742
 20
-62.889675230648116
 30
0.0
 11
25.650199353859932
 21
-63.339675230647671
 31
0.0
  0
LINE
  5
1F3
100
AcDbEntity
  8
0
  6
DASHED
 62
             200
100
AcDbLine
 10
25.650204417003575
 20
-66.989675230644167
 30
0.0
 11
47.650204416982405
 21
-66.989644713066042
 31
0.0
  0
LINE
  5
1F4
100
AcDbEntity
  8
0
  6
DASHED
 62
             200
100
AcDbLine
 10
25.650198729636742
 20
-62.889675230648116
 30
0.0
 11
47.650198729615575
 21
-62.889644713069998
 31
0.0
  0
INSERT
  5
1F5
100
AcDbEntity
  8
0
100
AcDbBlockReference
  2
MS_10
 10
138.45489273476576
 20
-15.889208930937201
 30
0.0
 50
359.99992052198559
  0
INSERT
  5
1F6
100
AcDbEntity
  8
0
100
AcDbBlockReference
  2
MS_9
 10
95.412198642968889
 20
-63.489260810820014
 30
0.0
  0
INSERT
  5
1F7
100
AcDbEntity
  8
0
100
AcDbBlockReference
  2
MS_8
 10
138.45509109902358
 20
-63.489367622343451
 30
0.0
 50
359.99896065208776
  0
INSERT
  5
1F8
100
AcDbEntity
  8
0
100
AcDbBlockReference
  2
MS_7
 10
25.643796543359514
 20
-64.939196723905951
 30
0.0
 50
0.0000794785648643
  0
INSERT
  5
1F9
100
AcDbEntity
  8
0
100
AcDbBlockReference
  2
MS_6
 10
-9.8990806539061111
 20
-97.489291328398139
 30
0.0
  0
INSERT
  5
1FA
100
AcDbEntity
  8
0
100
AcDbBlockReference
  2
MS_5
 10
25.643674473047014
 20
-97.489398139921576
 30
0.0
  0
INSERT
  5
1FB
100
AcDbEntity
  8
0
100
AcDbBlockReference
  2
MS_4
 10
-27.342852424602086
 20
-25.002735937905101
 30
0.0
  0
INSERT
  5
1FC
100
AcDbEntity
  8
0
100
AcDbBlockReference
  2
MS_3
 10
131.68572239340577
 20
58.749997364623205
 30
0.0
  0
INSERT
  5
1FD
100
AcDbEntity
  8
0
100
AcDbBlockReference
  2
MS_2
 10
-138.88571214821872
 20
58.749997364623198
 30
0.0
  0
INSERT
  5
1FE
100
AcDbEntity
  8
0
100
AcDbBlockReference
  2
MS_1
 10
-27.342852424602086
 20
58.749997364623198
 30
0.0
  0
LINE
  5
1FF
100
AcDbEntity
  8
0
  6
CONTINUOUS
 62
               7
100
AcDbLine
 10
-159.25
 20
-87.5
 30
0.0
 11
-159.25
 21
-123.5
 31
0.0
  0
LINE
  5
200
100
AcDbEntity
  8
0
  6
CONTINUOUS
 62
               7
100
AcDbLine
 10
-147.25
 20
-87.5
 30
0.0
 11
-147.25
 21
-123.5
 31
0.0
  0
LINE
  5
201
100
AcDbEntity
  8
0
  6
CONTINUOUS
 62
               7
100
AcDbLine
 10
-135.25
 20
-87.5
 30
0.0
 11
-135.25
 21
-123.5
 31
0.0
  0
LINE
  5
202
100
AcDbEntity
  8
0
  6
CONTINUOUS
 62
               7
100
AcDbLine
 10
-123.25
 20
-87.5
 30
0.0
 11
-123.25
 21
-123.5
 31
0.0
  0
LINE
  5
203
100
AcDbEntity
  8
0
  6
CONTINUOUS
 62
               7
100
AcDbLine
 10
-111.25
 20
-87.5
 30
0.0
 11
-111.25
 21
-123.5
 31
0.0
  0
LINE
  5
204
100
AcDbEntity
  8
0
  6
CONTINUOUS
 62
               7
100
AcDbLine
 10
-99.25
 20
-87.5
 30
0.0
 11
-99.25
 21
-123.5
 31
0.0
  0
LINE
  5
205
100
AcDbEntity
  8
0
  6
CONTINUOUS
 62
               7
100
AcDbLine
 10
-87.25
 20
-87.5
 30
0.0
 11
-87.25
 21
-123.5
 31
0.0
  0
LINE
  5
206
100
AcDbEntity
  8
0
  6
CONTINUOUS
 62
               7
100
AcDbLine
 10
-39.25
 20
-87.5
 30
0.0
 11
-39.25
 21
-123.5
 31
0.0
  0
LINE
  5
207
100
AcDbEntity
  8
0
  6
CONTINUOUS
 62
               7
100
AcDbLine
 10
-184.25
 20
-87.5
 30
0.0
 11
-39.25
 21
-87.5
 31
0.0
  0
LINE
  5
208
100
AcDbEntity
  8
0
  6
CONTINUOUS
 62
               7
100
AcDbLine
 10
-184.25
 20
-105.5
 30
0.0
 11
-39.25
 21
-105.5
 31
0.0
  0
LINE
  5
209
100
AcDbEntity
  8
0
  6
CONTINUOUS
 62
               7
100
AcDbLine
 10
-184.25
 20
-111.5
 30
0.0
 11
-39.25
 21
-111.5
 31
0.0
  0
LINE
  5
20A
100
AcDbEntity
  8
0
  6
CONTINUOUS
 62
               7
100
AcDbLine
 10
-184.25
 20
-123.5
 30
0.0
 11
-39.25
 21
-123.5
 31
0.0
  0
LINE
  5
20B
100
AcDbEntity
  8
0
  6
CONTINUOUS
 62
               7
100
AcDbLine
 10
-159.25
 20
-105.5
 30
0.0
 11
-161.35999999999999
 21
-93.5
 31
0.0
  0
LINE
  5
20C
100
AcDbEntity
  8
0
  6
CONTINUOUS
 62
               7
100
AcDbLine
 10
-184.25
 20
-93.5
 30
0.0
 11
-161.35999999999999
 21
-93.5
 31
0.0
  0
LINE
  5
20D
100
AcDbEntity
  8
0
  6
CONTINUOUS
 62
               7
100
AcDbLine
 10
-184.25
 20
-87.5
 30
0.0
 11
-184.25
 21
-123.5
 31
0.0
  0
LINE
  5
20E
100
AcDbEntity
  8
0
  6
CONTINUOUS
 62
               7
100
AcDbLine
 10
-184.25
 20
-117.5
 30
0.0
 11
-39.25
 21
-117.5
 31
0.0
  0
LINE
  5
20F
100
AcDbEntity
  8
0
  6
CONTINUOUS
 62
               7
100
AcDbLine
 10
-75.25
 20
-87.5
 30
0.0
 11
-75.25
 21
-123.5
 31
0.0
  0
LINE
  5
210
100
AcDbEntity
  8
0
  6
CONTINUOUS
 62
               7
100
AcDbLine
 10
-63.25
 20
-87.5
 30
0.0
 11
-63.25
 21
-123.5
 31
0.0
  0
LINE
  5
211
100
AcDbEntity
  8
0
  6
CONTINUOUS
 62
               7
100
AcDbLine
 10
-51.25
 20
-87.5
 30
0.0
 11
-51.25
 21
-123.5
 31
0.0
  0
MTEXT
  5
212
100
AcDbEntity
  8
0
  6
CONTINUOUS
 62
               7
100
AcDbMText
 10
-154.204475025177
 20
-120.50636596679688
 30
0.0
 40
3.1999998092651367
 41
0.0
 71
               4
 72
               1
  1
\W1.200;\A1;0
  7
MX_NOTE_STANDARD
  0
MTEXT
  5
213
100
AcDbEntity
  8
0
  6
CONTINUOUS
 62
               7
100
AcDbMText
 10
-143.7333638381958
 20
-120.50636596679688
 30
0.0
 40
3.1999998092651367
 41
0.0
 71
               4
 72
               1
  1
\W1.333;\A1;10
  7
MX_NOTE_STANDARD
  0
MTEXT
  5
214
100
AcDbEntity
  8
0
  6
CONTINUOUS
 62
               7
100
AcDbMText
 10
-131.86265675347698
 20
-120.50636596679688
 30
0.0
 40
3.1999998092651367
 41
0.0
 71
               4
 72
               1
  1
\W1.091;\A1;20
  7
MX_NOTE_STANDARD
  0
MTEXT
  5
215
100
AcDbEntity
  8
0
  6
CONTINUOUS
 62
               7
100
AcDbMText
 10
-119.86265675347698
 20
-120.50636596679688
 30
0.0
 40
3.1999998092651367
 41
0.0
 71
               4
 72
               1
  1
\W1.091;\A1;30
  7
MX_NOTE_STANDARD
  0
MTEXT
  5
216
100
AcDbEntity
  8
0
  6
CONTINUOUS
 62
               7
100
AcDbMText
 10
-107.86265675347698
 20
-120.50636596679688
 30
0.0
 40
3.1999998092651367
 41
0.0
 71
               4
 72
               1
  1
\W1.091;\A1;40
  7
MX_NOTE_STANDARD
  0
MTEXT
  5
217
100
AcDbEntity
  8
0
  6
CONTINUOUS
 62
               7
100
AcDbMText
 10
-95.862656753476983
 20
-120.50636596679688
 30
0.0
 40
3.1999998092651367
 41
0.0
 71
               4
 72
               1
  1
\W1.091;\A1;50
  7
MX_NOTE_STANDARD
  0
MTEXT
  5
218
100
AcDbEntity
  8
0
  6
CONTINUOUS
 62
               7
100
AcDbMText
 10
-71.862656753476983
 20
-120.50636596679688
 30
0.0
 40
3.1999998092651367
 41
0.0
 71
               4
 72
               1
  1
\W1.091;\A1;70
  7
MX_NOTE_STANDARD
  0
MTEXT
  5
219
100
AcDbEntity
  8
0
  6
CONTINUOUS
 62
               7
100
AcDbMText
 10
-179.81114122390747
 20
-90.506377410888675
 30
0.0
 40
3.1999998092651367
 41
0.0
 71
               4
 72
               1
  1
\A1;STROKE
  7
MX_NOTE_STANDARD
  0
MTEXT
  5
21A
100
AcDbEntity
  8
0
  6
CONTINUOUS
 62
               7
100
AcDbMText
 10
-95.862656753476983
 20
-96.506365966796878
 30
0.0
 40
3.1999998092651367
 41
0.0
 71
               4
 72
               1
  1
\W1.091;\A1;60
  7
MX_NOTE_STANDARD
  0
MTEXT
  5
21B
100
AcDbEntity
  8
0
  6
CONTINUOUS
 62
               7
100
AcDbMText
 10
-49.358760560872604
 20
-96.506365966796878
 30
0.0
 40
3.1999998092651367
 41
0.0
 71
               4
 72
               1
  1
\W1.286;\A1;100
  7
MX_NOTE_STANDARD
  0
MTEXT
  5
21C
100
AcDbEntity
  8
0
  6
CONTINUOUS
 62
               7
100
AcDbMText
 10
-107.86265675347698
 20
-96.506365966796878
 30
0.0
 40
3.1999998092651367
 41
0.0
 71
               4
 72
               1
  1
\W1.091;\A1;50
  7
MX_NOTE_STANDARD
  0
MTEXT
  5
21D
100
AcDbEntity
  8
0
  6
CONTINUOUS
 62
               7
100
AcDbMText
 10
-119.86265675347698
 20
-96.506365966796878
 30
0.0
 40
3.1999998092651367
 41
0.0
 71
               4
 72
               1
  1
\W1.091;\A1;40
  7
MX_NOTE_STANDARD
  0
MTEXT
  5
21E
100
AcDbEntity
  8
0
  6
CONTINUOUS
 62
               7
100
AcDbMText
 10
-131.86265675347698
 20
-96.506365966796878
 30
0.0
 40
3.1999998092651367
 41
0.0
 71
               4
 72
               1
  1
\W1.091;\A1;30
  7
MX_NOTE_STANDARD
  0
MTEXT
  5
21F
100
AcDbEntity
  8
0
  6
CONTINUOUS
 62
               7
100
AcDbMText
 10
-143.86265675347698
 20
-96.506365966796878
 30
0.0
 40
3.1999998092651367
 41
0.0
 71
               4
 72
               1
  1
\W1.091;\A1;20
  7
MX_NOTE_STANDARD
  0
MTEXT
  5
220
100
AcDbEntity
  8
0
  6
CONTINUOUS
 62
               7
100
AcDbMText
 10
-155.7333638381958
 20
-96.506365966796878
 30
0.0
 40
3.1999998092651367
 41
0.0
 71
               4
 72
               1
  1
\W1.333;\A1;10
  7
MX_NOTE_STANDARD
  0
MTEXT
  5
221
100
AcDbEntity
  8
0
  6
CONTINUOUS
 62
               7
100
AcDbMText
 10
-83.862656753476983
 20
-108.50636596679688
 30
0.0
 40
3.1999998092651367
 41
0.0
 71
               4
 72
               1
  1
\W1.091;\A1;60
  7
MX_NOTE_STANDARD
  0
MTEXT
  5
222
100
AcDbEntity
  8
0
  6
CONTINUOUS
 62
               7
100
AcDbMText
 10
-59.862656753476983
 20
-108.50636596679688
 30
0.0
 40
3.1999998092651367
 41
0.0
 71
               4
 72
               1
  1
\W1.091;\A1;80
  7
MX_NOTE_STANDARD
  0
MTEXT
  5
223
100
AcDbEntity
  8
0
  6
CONTINUOUS
 62
               7
100
AcDbMText
 10
-95.862656753476983
 20
-108.50636596679688
 30
0.0
 40
3.1999998092651367
 41
0.0
 71
               4
 72
               1
  1
\W1.091;\A1;50
  7
MX_NOTE_STANDARD
  0
MTEXT
  5
224
100
AcDbEntity
  8
0
  6
CONTINUOUS
 62
               7
100
AcDbMText
 10
-107.86265675347698
 20
-108.50636596679688
 30
0.0
 40
3.1999998092651367
 41
0.0
 71
               4
 72
               1
  1
\W1.091;\A1;40
  7
MX_NOTE_STANDARD
  0
MTEXT
  5
225
100
AcDbEntity
  8
0
  6
CONTINUOUS
 62
               7
100
AcDbMText
 10
-119.86265675347698
 20
-108.50636596679688
 30
0.0
 40
3.1999998092651367
 41
0.0
 71
               4
 72
               1
  1
\W1.091;\A1;30
  7
MX_NOTE_STANDARD
  0
MTEXT
  5
226
100
AcDbEntity
  8
0
  6
CONTINUOUS
 62
               7
100
AcDbMText
 10
-131.86265675347698
 20
-108.50636596679688
 30
0.0
 40
3.1999998092651367
 41
0.0
 71
               4
 72
               1
  1
\W1.091;\A1;20
  7
MX_NOTE_STANDARD
  0
MTEXT
  5
227
100
AcDbEntity
  8
0
  6
CONTINUOUS
 62
               7
100
AcDbMText
 10
-154.204475025177
 20
-108.50636596679688
 30
0.0
 40
3.1999998092651367
 41
0.0
 71
               4
 72
               1
  1
\W1.200;\A1;0
  7
MX_NOTE_STANDARD
  0
MTEXT
  5
228
100
AcDbEntity
  8
0
  6
CONTINUOUS
 62
               7
100
AcDbMText
 10
-183.03173829247089
 20
-100.48636169433594
 30
0.0
 40
2.8800001831054733
 41
0.0
 71
               4
 72
               1
  1
\T0.984;\W1.129;\A1;STRETCH\P  PLACE
  7
MX_NOTE_STANDARD
  0
MTEXT
  5
229
100
AcDbEntity
  8
0
  6
CONTINUOUS
 62
               7
100
AcDbMText
 10
-172.81114170074463
 20
-108.50636596679688
 30
0.0
 40
3.1999998092651367
 41
0.0
 71
               4
 72
               1
  1
\A1;A
  7
MX_NOTE_STANDARD
  0
MTEXT
  5
22A
100
AcDbEntity
  8
0
  6
CONTINUOUS
 62
               7
100
AcDbMText
 10
-172.81114170074463
 20
-114.50638122558594
 30
0.0
 40
3.1999998092651367
 41
0.0
 71
               4
 72
               1
  1
\A1;B
  7
MX_NOTE_STANDARD
  0
MTEXT
  5
22B
100
AcDbEntity
  8
0
  6
CONTINUOUS
 62
               7
100
AcDbMText
 10
-172.81114170074463
 20
-120.50638122558594
 30
0.0
 40
3.1999998092651367
 41
0.0
 71
               4
 72
               1
  1
\A1;C
  7
MX_NOTE_STANDARD
  0
MTEXT
  5
22C
100
AcDbEntity
  8
0
  6
CONTINUOUS
 62
               7
100
AcDbMText
 10
-83.911141605377196
 20
-114.50636596679688
 30
0.0
 40
3.1999998092651367
 41
0.0
 71
               4
 72
               1
  1
\A1;25
  7
MX_NOTE_STANDARD
  0
MTEXT
  5
22D
100
AcDbEntity
  8
0
  6
CONTINUOUS
 62
               7
100
AcDbMText
 10
-107.80447495269775
 20
-114.50636596679688
 30
0.0
 40
3.1999998092651367
 41
0.0
 71
               4
 72
               1
  1
\W1.200;\A1;15
  7
MX_NOTE_STANDARD
  0
MTEXT
  5
22E
100
AcDbEntity
  8
0
  6
CONTINUOUS
 62
               7
100
AcDbMText
 10
-119.7333638381958
 20
-114.50636596679688
 30
0.0
 40
3.1999998092651367
 41
0.0
 71
               4
 72
               1
  1
\W1.333;\A1;10
  7
MX_NOTE_STANDARD
  0
MTEXT
  5
22F
100
AcDbEntity
  8
0
  6
CONTINUOUS
 62
               7
100
AcDbMText
 10
-130.31114170074463
 20
-114.50636596679688
 30
0.0
 40
3.1999998092651367
 41
0.0
 71
               4
 72
               1
  1
\A1;5
  7
MX_NOTE_STANDARD
  0
MTEXT
  5
230
100
AcDbEntity
  8
0
  6
CONTINUOUS
 62
               7
100
AcDbMText
 10
-142.204475025177
 20
-114.50636596679688
 30
0.0
 40
3.1999998092651367
 41
0.0
 71
               4
 72
               1
  1
\W1.200;\A1;0
  7
MX_NOTE_STANDARD
  0
MTEXT
  5
231
100
AcDbEntity
  8
0
  6
CONTINUOUS
 62
               7
100
AcDbMText
 10
-154.204475025177
 20
-114.50636596679688
 30
0.0
 40
3.1999998092651367
 41
0.0
 71
               4
 72
               1
  1
\W1.200;\A1;0
  7
MX_NOTE_STANDARD
  0
MTEXT
  5
232
100
AcDbEntity
  8
0
  6
CONTINUOUS
 62
               7
100
AcDbMText
 10
-83.862656753476983
 20
-96.506365966796878
 30
0.0
 40
3.1999998092651367
 41
0.0
 71
               4
 72
               1
  1
\W1.091;\A1;70
  7
MX_NOTE_STANDARD
  0
MTEXT
  5
233
100
AcDbEntity
  8
0
  6
CONTINUOUS
 62
               7
100
AcDbMText
 10
-71.862656753476983
 20
-96.506365966796878
 30
0.0
 40
3.1999998092651367
 41
0.0
 71
               4
 72
               1
  1
\W1.091;\A1;80
  7
MX_NOTE_STANDARD
  0
MTEXT
  5
234
100
AcDbEntity
  8
0
  6
CONTINUOUS
 62
               7
100
AcDbMText
 10
-59.862656753476983
 20
-96.506365966796878
 30
0.0
 40
3.1999998092651367
 41
0.0
 71
               4
 72
               1
  1
\W1.091;\A1;90
  7
MX_NOTE_STANDARD
  0
MTEXT
  5
235
100
AcDbEntity
  8
0
  6
CONTINUOUS
 62
               7
100
AcDbMText
 10
-71.862656753476983
 20
-108.50636596679688
 30
0.0
 40
3.1999998092651367
 41
0.0
 71
               4
 72
               1
  1
\W1.091;\A1;70
  7
MX_NOTE_STANDARD
  0
MTEXT
  5
236
100
AcDbEntity
  8
0
  6
CONTINUOUS
 62
               7
100
AcDbMText
 10
-95.862656753476983
 20
-114.50636596679688
 30
0.0
 40
3.1999998092651367
 41
0.0
 71
               4
 72
               1
  1
\W1.091;\A1;20
  7
MX_NOTE_STANDARD
  0
MTEXT
  5
237
100
AcDbEntity
  8
0
  6
CONTINUOUS
 62
               7
100
AcDbMText
 10
-83.862656753476983
 20
-120.50636596679688
 30
0.0
 40
3.1999998092651367
 41
0.0
 71
               4
 72
               1
  1
\W1.091;\A1;60
  7
MX_NOTE_STANDARD
  0
MTEXT
  5
238
100
AcDbEntity
  8
0
  6
CONTINUOUS
 62
               7
100
AcDbMText
 10
-59.911141605377196
 20
-114.50636596679688
 30
0.0
 40
3.1999998092651367
 41
0.0
 71
               4
 72
               1
  1
\A1;35
  7
MX_NOTE_STANDARD
  0
MTEXT
  5
239
100
AcDbEntity
  8
0
  6
CONTINUOUS
 62
               7
100
AcDbMText
 10
-47.862656753476983
 20
-120.50636596679688
 30
0.0
 40
3.1999998092651367
 41
0.0
 71
               4
 72
               1
  1
\W1.091;\A1;90
  7
MX_NOTE_STANDARD
  0
MTEXT
  5
23A
100
AcDbEntity
  8
0
  6
CONTINUOUS
 62
               7
100
AcDbMText
 10
-47.862656753476983
 20
-108.50636596679688
 30
0.0
 40
3.1999998092651367
 41
0.0
 71
               4
 72
               1
  1
\W1.091;\A1;90
  7
MX_NOTE_STANDARD
  0
MTEXT
  5
23B
100
AcDbEntity
  8
0
  6
CONTINUOUS
 62
               7
100
AcDbMText
 10
-71.862656753476983
 20
-114.50636596679688
 30
0.0
 40
3.1999998092651367
 41
0.0
 71
               4
 72
               1
  1
\W1.091;\A1;30
  7
MX_NOTE_STANDARD
  0
MTEXT
  5
23C
100
AcDbEntity
  8
0
  6
CONTINUOUS
 62
               7
100
AcDbMText
 10
-59.862656753476983
 20
-120.50636596679688
 30
0.0
 40
3.1999998092651367
 41
0.0
 71
               4
 72
               1
  1
\W1.091;\A1;80
  7
MX_NOTE_STANDARD
  0
MTEXT
  5
23D
100
AcDbEntity
  8
0
  6
CONTINUOUS
 62
               7
100
AcDbMText
 10
-143.7333638381958
 20
-108.50636596679688
 30
0.0
 40
3.1999998092651367
 41
0.0
 71
               4
 72
               1
  1
\W1.333;\A1;10
  7
MX_NOTE_STANDARD
  0
MTEXT
  5
23E
100
AcDbEntity
  8
0
  6
CONTINUOUS
 62
               7
100
AcDbMText
 10
-47.862656753476983
 20
-114.50636596679688
 30
0.0
 40
3.1999998092651367
 41
0.0
 71
               4
 72
               1
  1
\W1.091;\A1;40
  7
MX_NOTE_STANDARD
  0
MTEXT
  5
23F
100
AcDbEntity
  8
0
  6
CONTINUOUS
 62
               7
100
AcDbMText
 10
-51.200030315893663
 20
-84.506377410888675
 30
0.0
 40
3.1999998092651367
 41
0.0
 71
               4
 72
               1
  1
\W0.833;\A1;（ｍｍ）
  7
MX_NOTE_STANDARD
  0
MTEXT
  5
240
100
AcDbEntity
  8
0
  6
CONTINUOUS
 62
               7
100
AcDbMText
 10
-130.37642665082893
 20
-84.506377410888675
 30
0.0
 40
3.1999998092651367
 41
0.0
 71
               4
 72
               1
  1
\W1.065;\A1;STRETCH LIST
  7
MX_NOTE_STANDARD
  0
MTEXT
  5
241
100
AcDbEntity
  8
0
  6
CONTINUOUS
 62
               3
100
AcDbMText
 10
17.500944338158753
 20
109.46366637931415
 30
0.0
 40
3.1999998092651367
 41
0.0
 71
               4
 72
               1
  1
\W1.088;\A1;STRETCH LINE C
  7
MX_NOTE_STANDARD
  0
MTEXT
  5
242
100
AcDbEntity
  8
0
  6
CONTINUOUS
 62
               3
100
AcDbMText
 10
-13.706275312253913
 20
115.88868218969323
 30
0.0
 40
3.1999998092651367
 41
0.0
 71
               4
 72
               1
  1
\W1.088;\A1;STRETCH LINE B
  7
MX_NOTE_STANDARD
  0
MTEXT
  5
243
100
AcDbEntity
  8
0
  6
CONTINUOUS
 62
               3
100
AcDbMText
 10
-61.860166811709952
 20
107.87091794958303
 30
0.0
 40
3.1999998092651367
 41
0.0
 71
               4
 72
               1
  1
\W1.088;\A1;STRETCH LINE A
  7
MX_NOTE_STANDARD
  0
MTEXT
  5
244
100
AcDbEntity
  8
0
  6
CONTINUOUS
 62
               7
100
AcDbMText
 10
105.63772197000652
 20
-29.520175117460639
 30
0.0
 40
4.5
 41
0.0
 71
               1
 72
               1
  1
\W1.034;\A1;ZE202
  7
MX_NOTE_STANDARD
  0
MTEXT
  5
245
100
AcDbEntity
  8
0
  6
CONTINUOUS
 62
               7
100
AcDbMText
 10
105.69519323118503
 20
-23.520175117460639
 30
0.0
 40
4.5
 41
0.0
 71
               1
 72
               1
  1
\W1.111;\A1;ZE201
  7
MX_NOTE_STANDARD
  0
MTEXT
  5
246
100
AcDbEntity
  8
0
  6
CONTINUOUS
 62
               7
100
AcDbMText
 10
105.6118598978517
 20
-17.520175117460639
 30
0.0
 40
4.5
 41
0.0
 71
               1
 72
               1
  1
\A1;ZE255
  7
MX_NOTE_STANDARD
  0
MTEXT
  5
247
100
AcDbEntity
  8
0
  6
CONTINUOUS
 62
               7
100
AcDbMText
 10
69.722323167187739
 20
-5.7451750691808749
 30
0.0
 40
4.0500000965595273
 41
0.0
 71
               1
 72
               1
  1
\T1.027;\W1.178;\A1;SENSOR\P SWITCH:ZE235
  7
MX_NOTE_STANDARD
  0
MTEXT
  5
248
100
AcDbEntity
  8
0
  6
CONTINUOUS
 62
               7
100
AcDbMText
 10
-30.238140106439833
 20
-67.520175117460639
 30
0.0
 40
4.5
 41
0.0
 71
               1
 72
               1
  1
\W1.200;\A1;ZE101
  7
MX_NOTE_STANDARD
  0
MTEXT
  5
249
100
AcDbEntity
  8
0
  6
CONTINUOUS
 62
               7
100
AcDbMText
 10
-30.334568676998057
 20
-61.520175117460639
 30
0.0
 40
4.5
 41
0.0
 71
               1
 72
               1
  1
\W1.071;\A1;ZE155
  7
MX_NOTE_STANDARD
  0
MTEXT
  5
24A
100
AcDbEntity
  8
0
  6
CONTINUOUS
 62
               7
100
AcDbMText
 10
-30.304806768814966
 20
-73.520175117460639
 30
0.0
 40
4.5
 41
0.0
 71
               1
 72
               1
  1
\W1.111;\A1;ZE102
  7
MX_NOTE_STANDARD
  0
MTEXT
  5
24B
100
AcDbEntity
  8
0
  6
CONTINUOUS
 62
               7
100
AcDbMText
 10
-66.229934790148988
 20
-49.745175069180874
 30
0.0
 40
4.0500000965595273
 41
0.0
 71
               1
 72
               1
  1
\T1.042;\W1.195;\A1;SENSOR\P SWITCH:ZE135
  7
MX_NOTE_STANDARD
  0
MTEXT
  5
24C
100
AcDbEntity
  8
0
  6
CONTINUOUS
 62
               7
100
AcDbMText
 10
-185.68181818383337
 20
107.60000610351562
 30
0.0
 40
4.5
 41
0.0
 71
               4
 72
               1
  1
\W1.091;\A1;MODEL:CS-TBDA25*ST(10)
  7
MX_NOTE_STANDARD
  0
LINE
  5
24D
100
AcDbEntity
  8
0
  6
CONTINUOUS
 62
               7
100
AcDbLine
 10
-194.25
 20
132.60000610351562
 30
0.0
 11
194.80000305175781
 21
132.60000610351562
 31
0.0
  0
LINE
  5
24E
100
AcDbEntity
  8
0
  6
CONTINUOUS
 62
               7
100
AcDbLine
 10
194.80000305175781
 20
132.60000610351562
 30
0.0
 11
194.80000305175781
 21
-133.5
 31
0.0
  0
LINE
  5
24F
100
AcDbEntity
  8
0
  6
CONTINUOUS
 62
               7
100
AcDbLine
 10
-194.25
 20
132.60000610351562
 30
0.0
 11
-194.25
 21
-133.5
 31
0.0
  0
LINE
  5
250
100
AcDbEntity
  8
0
  6
CONTINUOUS
 62
               7
100
AcDbLine
 10
-194.25
 20
-133.5
 30
0.0
 11
194.80000305175781
 21
-133.5
 31
0.0
  0
LINE
  5
251
100
AcDbEntity
  8
0
  6
CONTINUOUS
 62
               7
100
AcDbLine
 10
109.80000305175781
 20
-118.5
 30
0.0
 11
109.80000305175781
 21
-133.5
 31
0.0
  0
LINE
  5
252
100
AcDbEntity
  8
0
  6
CONTINUOUS
 62
               7
100
AcDbLine
 10
109.80000305175781
 20
-118.5
 30
0.0
 11
194.80000305175781
 21
-118.5
 31
0.0
  0
LINE
  5
253
100
AcDbEntity
  8
0
  6
CONTINUOUS
 62
               7
100
AcDbLine
 10
109.80000305175781
 20
132.60000610351562
 30
0.0
 11
109.80000305175781
 21
117.60000610351562
 31
0.0
  0
LINE
  5
254
100
AcDbEntity
  8
0
  6
CONTINUOUS
 62
               7
100
AcDbLine
 10
109.80000305175781
 20
117.60000610351562
 30
0.0
 11
194.80000305175781
 21
117.60000610351562
 31
0.0
  0
LINE
  5
255
100
AcDbEntity
  8
0
  6
CONTINUOUS
 62
               7
100
AcDbLine
 10
-194.25
 20
117.60000610351562
 30
0.0
 11
-95.75
 21
117.60000610351562
 31
0.0
  0
MTEXT
  5
256
100
AcDbEntity
  8
0
  6
CONTINUOUS
 62
               7
100
AcDbMText
 10
135.28361320576767
 20
125.10000610351562
 30
0.0
 40
4.5
 41
0.0
 71
               4
 72
               1
  1
\W1.311;\A1;Ver. 1.0
  7
MX_NOTE_STANDARD
  0
MTEXT
  5
257
100
AcDbEntity
  8
0
  6
CONTINUOUS
 62
               7
100
AcDbMText
 10
115.5267259825148
 20
-126.0
 30
0.0
 40
6.3000001907348633
 41
0.0
 71
               4
 72
               1
  1
\W1.121;\A1;KOGANEI CORP.
  7
MX_NOTE_STANDARD
  0
MTEXT
  5
258
100
AcDbEntity
  8
0
  6
CONTINUOUS
 62
               7
100
AcDbMText
 10
-189.20494699981546
 20
125.10000610351562
 30
0.0
 40
4.5
 41
0.0
 71
               4
 72
               1
  1
\W1.060;\A1;CS-TWIN ROD CYLINDER
  7
MX_NOTE_STANDARD
  0
ENDSEC
  0
SECTION
  2
OBJECTS
  0
DICTIONARY
  5
19
100
AcDbDictionary
  3
ACAD_GROUP
350
1A
  3
ACAD_MLINESTYLE
350
1B
  0
DICTIONARY
  5
1A
102
{ACAD_REACTORS
330
19
102
}
100
AcDbDictionary
  0
DICTIONARY
  5
1B
102
{ACAD_REACTORS
330
19
102
}
100
AcDbDictionary
  3
STANDARD
350
1C
  0
MLINESTYLE
  5
1C
102
{ACAD_REACTORS
330
1B
102
}
100
AcDbMlineStyle
  2
Standard
 70
               0
  3

 62
               0
 51
90.0
 52
90.0
 71
               2
 49
0.5
 62
             256
  6
ByLayer
 49
-0.5
 62
             256
  6
ByLayer
  0
ENDSEC
  0
EOF
