  0
SECTION
  2
HEADER
  9
$ACADVER
  1
AC1012
  9
$DWGCODEPAGE
  3
dos932
  9
$INSBASE
 10
0.0
 20
0.0
 30
0.0
  9
$EXTMIN
 10
-281.25
 20
-195.0
 30
0.0
  9
$EXTMAX
 10
285.59998798370361
 20
195.5
 30
0.0
  9
$LIMMIN
 10
-281.25
 20
-195.0
  9
$LIMMAX
 10
285.59998798370361
 20
195.5
  9
$ORTHOMODE
 70
               0
  9
$REGENMODE
 70
               1
  9
$FILLMODE
 70
               1
  9
$QTEXTMODE
 70
               0
  9
$MIRRTEXT
 70
               1
  9
$DRAGMODE
 70
               2
  9
$LTSCALE
 40
1.0
  9
$OSMODE
 70
               0
  9
$ATTMODE
 70
               1
  9
$TEXTSIZE
 40
3.2000000476837158
  9
$TRACEWID
 40
0.05
  9
$TEXTSTYLE
  7
MX_NOTE_STANDARD
  9
$CLAYER
  8
0
  9
$CELTYPE
  6
CONTINUOUS
  9
$CECOLOR
 62
             256
  9
$CELTSCALE
 40
1.0
  9
$DELOBJ
 70
               1
  9
$DISPSILH
 70
               0
  9
$DIMSCALE
 40
1.0
  9
$DIMASZ
 40
2.5
  9
$DIMEXO
 40
1.5
  9
$DIMDLI
 40
3.75
  9
$DIMRND
 40
0.0
  9
$DIMDLE
 40
0.0
  9
$DIMEXE
 40
1.5
  9
$DIMTP
 40
0.0
  9
$DIMTM
 40
0.0
  9
$DIMTXT
 40
3.2000000476837158
  9
$DIMCEN
 40
2.5
  9
$DIMTSZ
 40
0.0
  9
$DIMTOL
 70
               0
  9
$DIMLIM
 70
               0
  9
$DIMTIH
 70
               0
  9
$DIMTOH
 70
               0
  9
$DIMSE1
 70
               0
  9
$DIMSE2
 70
               0
  9
$DIMTAD
 70
               1
  9
$DIMZIN
 70
               8
  9
$DIMBLK
  1

  9
$DIMASO
 70
               1
  9
$DIMSHO
 70
               1
  9
$DIMPOST
  1

  9
$DIMAPOST
  1

  9
$DIMALT
 70
               0
  9
$DIMALTD
 70
               4
  9
$DIMALTF
 40
0.0394
  9
$DIMLFAC
 40
1.0
  9
$DIMTOFL
 70
               1
  9
$DIMTVP
 40
0.0
  9
$DIMTIX
 70
               0
  9
$DIMSOXD
 70
               0
  9
$DIMSAH
 70
               0
  9
$DIMBLK1
  1

  9
$DIMBLK2
  1

  9
$DIMSTYLE
  2
MXDIMSTYLE
  9
$DIMCLRD
 70
               0
  9
$DIMCLRE
 70
               0
  9
$DIMCLRT
 70
               0
  9
$DIMTFAC
 40
1.0
  9
$DIMGAP
 40
1.0
  9
$DIMJUST
 70
               0
  9
$DIMSD1
 70
               0
  9
$DIMSD2
 70
               0
  9
$DIMTOLJ
 70
               1
  9
$DIMTZIN
 70
               0
  9
$DIMALTZ
 70
               0
  9
$DIMALTTZ
 70
               0
  9
$DIMFIT
 70
               3
  9
$DIMUPT
 70
               1
  9
$DIMUNIT
 70
               2
  9
$DIMDEC
 70
               4
  9
$DIMTDEC
 70
               4
  9
$DIMALTU
 70
               8
  9
$DIMALTTD
 70
               4
  9
$DIMTXSTY
  7
MX_NOTE_STANDARD
  9
$DIMAUNIT
 70
               0
  9
$LUNITS
 70
               2
  9
$LUPREC
 70
               4
  9
$SKETCHINC
 40
0.1
  9
$FILLETRAD
 40
0.0
  9
$AUNITS
 70
               0
  9
$AUPREC
 70
               0
  9
$MENU
  1
acad
  9
$ELEVATION
 40
0.0
  9
$PELEVATION
 40
0.0
  9
$THICKNESS
 40
0.0
  9
$LIMCHECK
 70
               0
  9
$BLIPMODE
 70
               1
  9
$CHAMFERA
 40
0.0
  9
$CHAMFERB
 40
0.0
  9
$CHAMFERC
 40
0.0
  9
$CHAMFERD
 40
0.0
  9
$SKPOLY
 70
               0
  9
$TDCREATE
 40
2452220.697557870
  9
$TDUPDATE
 40
2452220.697557870
  9
$TDINDWG
 40
0.0000000000
  9
$TDUSRTIMER
 40
0.0000000000
  9
$USRTIMER
 70
               1
  9
$ANGBASE
 50
0.0
  9
$ANGDIR
 70
               0
  9
$PDMODE
 70
               0
  9
$PDSIZE
 40
0.0
  9
$PLINEWID
 40
0.0
  9
$COORDS
 70
               1
  9
$SPLFRAME
 70
               0
  9
$SPLINETYPE
 70
               6
  9
$SPLINESEGS
 70
               8
  9
$ATTDIA
 70
               0
  9
$ATTREQ
 70
               1
  9
$HANDLING
 70
               1
  9
$HANDSEED
  5
277
  9
$SURFTAB1
 70
               6
  9
$SURFTAB2
 70
               6
  9
$SURFTYPE
 70
               6
  9
$SURFU
 70
               6
  9
$SURFV
 70
               6
  9
$UCSNAME
  2

  9
$UCSORG
 10
0.0
 20
0.0
 30
0.0
  9
$UCSXDIR
 10
1.0
 20
0.0
 30
0.0
  9
$UCSYDIR
 10
0.0
 20
1.0
 30
0.0
  9
$PUCSNAME
  2

  9
$PUCSORG
 10
0.0
 20
0.0
 30
0.0
  9
$PUCSXDIR
 10
1.0
 20
0.0
 30
0.0
  9
$PUCSYDIR
 10
0.0
 20
1.0
 30
0.0
  9
$USERI1
 70
               0
  9
$USERI2
 70
               0
  9
$USERI3
 70
               0
  9
$USERI4
 70
               0
  9
$USERI5
 70
               0
  9
$USERR1
 40
0.0
  9
$USERR2
 40
0.0
  9
$USERR3
 40
0.0
  9
$USERR4
 40
0.0
  9
$USERR5
 40
0.0
  9
$WORLDVIEW
 70
               1
  9
$SHADEDGE
 70
               3
  9
$SHADEDIF
 70
              70
  9
$TILEMODE
 70
               1
  9
$MAXACTVP
 70
              16
  9
$PINSBASE
 10
0.0
 20
0.0
 30
0.0
  9
$PLIMCHECK
 70
               0
  9
$PEXTMIN
 10
1.0000000000000000E+20
 20
1.0000000000000000E+20
 30
1.0000000000000000E+20
  9
$PEXTMAX
 10
-1.0000000000000000E+20
 20
-1.0000000000000000E+20
 30
-1.0000000000000000E+20
  9
$PLIMMIN
 10
0.0
 20
0.0
  9
$PLIMMAX
 10
12.0
 20
9.0
  9
$UNITMODE
 70
               0
  9
$VISRETAIN
 70
               0
  9
$PLINEGEN
 70
               1
  9
$PSLTSCALE
 70
               0
  9
$TREEDEPTH
 70
            3020
  9
$PICKSTYLE
 70
               1
  9
$CMLSTYLE
  2
Standard
  9
$CMLJUST
 70
               0
  9
$CMLSCALE
 40
1.0
  9
$SAVEIMAGES
 70
               0
  0
ENDSEC
  0
SECTION
  2
CLASSES
  0
CLASS
  1
LWPOLYLINE
  2
AcDbPolyline
  3
"AutoCAD"
 90
        0
280
               0
281
               1
  0
CLASS
  1
IMAGE
  2
AcDbRasterImage
  3
ISM
 90
      127
280
               0
281
               1
  0
CLASS
  1
OLE2FRAME
  2
AcDbOle2Frame
  3
""
 90
        0
280
               0
281
               1
  0
CLASS
  1
HATCH
  2
AcDbHatch
  3
"ACAD_SEDONA"
 90
        0
280
               0
281
               1
  0
CLASS
  1
DICTIONARYVAR
  2
AcDbDictionaryVar
  3
"AutoCAD"
 90
        0
280
               0
281
               0
  0
CLASS
  1
RASTERVARIABLES
  2
AcDbRasterVariables
  3
ISM
 90
        0
280
               0
281
               0
  0
CLASS
  1
IMAGEDEF
  2
AcDbRasterImageDef
  3
ISM
 90
        0
280
               0
281
               0
  0
CLASS
  1
IMAGEDEF_REACTOR
  2
AcDbRasterImageDefReactor
  3
ISM
 90
        1
280
               0
281
               0
  0
CLASS
  1
IDBUFFER
  2
AcDbIdBuffer
  3
"Acad"
 90
        0
280
               0
281
               0
  0
CLASS
  1
SPATIAL_FILTER
  2
AcDbSpatialFilter
  3
"Acad"
 90
        0
280
               0
281
               0
  0
CLASS
  1
XRECORD
  2
AcDbXrecord
  3
"<Built In>"
 90
        0
280
               0
281
               0
  0
CLASS
  1
SORTENTSTABLE
  2
AcDbSortentsTable
  3
"AutoCAD"
 90
        0
280
               0
281
               0
  0
CLASS
  1
LAYER_INDEX
  2
AcDbLayerIndex
  3
"Acad"
 90
        0
280
               0
281
               0
  0
CLASS
  1
SPATIAL_INDEX
  2
AcDbSpatialIndex
  3
"Acad"
 90
        0
280
               0
281
               0
  0
CLASS
  1
OBJECT_PTR
  2
CAseDLPNTableRecord
  3
"ASE-LPNTableRecord"
 90
        1
280
               0
281
               0
  0
CLASS
  1
LAYOUT
  2
AcDbLayout
  3
"AutoCAD 2000"
 90
        1
280
               0
281
               0
  0
CLASS
  1
PLOTSETTINGS
  2
AcDbPlotSettings
  3
"AutoCAD 2000"
 90
        1
280
               0
281
               0
  0
CLASS
  1
ACDBDICTIONARYWDFLT
  2
AcDbDictionaryWithDefault
  3
"AutoCAD 2000"
 90
        1
280
               0
281
               0
  0
CLASS
  1
ACDBPLACEHOLDER
  2
AcDbPlaceHolder
  3
"AutoCAD 2000"
 90
        1
280
               0
281
               0
  0
CLASS
  1
VBA_PROJECT
  2
AcDbVbaProject
  3
"acadvba"
 90
        1
280
               0
281
               0
  0
CLASS
  1
WIPEOUT
  2
AcDbWipeout
  3
WipeOut|AutoCAD Express Tool|expresstools@autodesk.com
 90
      127
280
               0
281
               1
  0
CLASS
  1
WIPEOUTVARIABLES
  2
AcDbWipeoutVariables
  3
WipeOut|AutoCAD Express Tool|expresstools@autodesk.com
 90
        0
280
               0
281
               0
  0
CLASS
  1
RTEXT
  2
RText
  3
RText|AutoCAD Express Tool|expresstools@autodesk.com
 90
        0
280
               0
281
               1
  0
CLASS
  1
ARCALIGNEDTEXT
  2
AcDbArcAlignedText
  3
ATEXT|AutoCAD Express Tool|expresstools@autodesk.com
 90
        0
280
               0
281
               1
  0
ENDSEC
  0
SECTION
  2
TABLES
  0
TABLE
  2
VPORT
  5
7
100
AcDbSymbolTable
 70
               1
  0
VPORT
  5
15
100
AcDbSymbolTableRecord
100
AcDbViewportTableRecord
  2
*ACTIVE
 70
               0
 10
0.0
 20
0.0
 11
1.0
 21
1.0
 12
2.1749939918518066
 22
0.25
 13
0.0
 23
0.0
 14
1.0
 24
1.0
 15
0.0
 25
0.0
 16
0.0
 26
0.0
 36
1.0
 17
0.0
 27
0.0
 37
0.0
 40
394.40500000000003
 41
1.7320508075688772
 42
50.0
 43
0.0
 44
0.0
 50
0.0
 51
0.0
 71
               0
 72
             100
 73
               1
 74
               1
 75
               0
 76
               0
 77
               0
 78
               0
  0
ENDTAB
  0
TABLE
  2
LTYPE
  5
4
100
AcDbSymbolTable
 70
               6
  0
LTYPE
  5
11
100
AcDbSymbolTableRecord
100
AcDbLinetypeTableRecord
  2
BYBLOCK
 70
              64
  3

 72
              65
 73
               0
 40
0.0
  0
LTYPE
  5
12
100
AcDbSymbolTableRecord
100
AcDbLinetypeTableRecord
  2
BYLAYER
 70
              64
  3

 72
              65
 73
               0
 40
0.0
  0
LTYPE
  5
13
100
AcDbSymbolTableRecord
100
AcDbLinetypeTableRecord
  2
CONTINUOUS
 70
              64
  3
Solid line
 72
              65
 73
               0
 40
0.0
  0
LTYPE
  5
29
100
AcDbSymbolTableRecord
100
AcDbLinetypeTableRecord
  2
PHANTOM
 70
              64
  3
Phantom ______  __  __  ______  __  __  ______
 72
              65
 73
               6
 40
63.500000000000007
 49
31.75
 74
               0
 49
-6.3499999999999996
 74
               0
 49
6.3499999999999996
 74
               0
 49
-6.3499999999999996
 74
               0
 49
6.3499999999999996
 74
               0
 49
-6.3499999999999996
 74
               0
  0
LTYPE
  5
37
100
AcDbSymbolTableRecord
100
AcDbLinetypeTableRecord
  2
CENTER
 70
              64
  3
Center ____ _ ____ _ ____ _ ____ _ ____ _ ____
 72
              65
 73
               4
 40
50.800000000000004
 49
31.75
 74
               0
 49
-6.3499999999999996
 74
               0
 49
6.3499999999999996
 74
               0
 49
-6.3499999999999996
 74
               0
  0
LTYPE
  5
1CA
100
AcDbSymbolTableRecord
100
AcDbLinetypeTableRecord
  2
DASHED
 70
              64
  3
Dashed __ __ __ __ __ __ __ __ __ __ __ __ __ _
 72
              65
 73
               2
 40
19.049999999999997
 49
12.699999999999999
 74
               0
 49
-6.3499999999999996
 74
               0
  0
ENDTAB
  0
TABLE
  2
LAYER
  5
2
100
AcDbSymbolTable
 70
               2
  0
LAYER
  5
14
100
AcDbSymbolTableRecord
100
AcDbLayerTableRecord
  2
0
 70
               0
 62
               7
  6
CONTINUOUS
  0
LAYER
  5
1D
100
AcDbSymbolTableRecord
100
AcDbLayerTableRecord
  2
DEFPOINTS
 70
               0
 62
               7
  6
CONTINUOUS
  0
ENDTAB
  0
TABLE
  2
STYLE
  5
3
100
AcDbSymbolTable
 70
               1
  0
STYLE
  5
17
100
AcDbSymbolTableRecord
100
AcDbTextStyleTableRecord
  2
MX_NOTE_STANDARD
 70
               0
 40
3.2000000476837158
 41
1.0
 50
0.0
 71
               0
 42
3.2000000476837158
  3
txt.shx
  4
extfont.shx
  0
ENDTAB
  0
TABLE
  2
VIEW
  5
5
100
AcDbSymbolTable
 70
               0
  0
ENDTAB
  0
TABLE
  2
UCS
  5
6
100
AcDbSymbolTable
 70
               0
  0
ENDTAB
  0
TABLE
  2
APPID
  5
8
100
AcDbSymbolTable
 70
               1
  0
APPID
  5
16
100
AcDbSymbolTableRecord
100
AcDbRegAppTableRecord
  2
ACAD
 70
               0
  0
ENDTAB
  0
TABLE
  2
DIMSTYLE
  5
9
100
AcDbSymbolTable
 70
               1
  0
DIMSTYLE
105
18
100
AcDbSymbolTableRecord
100
AcDbDimStyleTableRecord
  2
MXDIMSTYLE
 70
               0
  3

  4

  5

  6

  7

 40
1.0
 41
2.5
 42
1.5
 43
3.75
 44
1.5
 45
0.0
 46
0.0
 47
0.0
 48
0.0
 71
               0
 72
               0
 73
               0
 74
               0
 75
               0
 76
               0
 77
               1
 78
               8
140
3.2000000476837158
141
2.5
142
0.0
143
0.0394
144
1.0
145
0.0
146
1.0
147
1.0
170
               0
171
               4
172
               1
173
               0
174
               0
175
               0
176
               0
177
               0
178
               0
270
               2
271
               4
272
               4
273
               8
274
               4
275
               0
280
               0
281
               0
282
               0
283
               1
284
               0
285
               0
286
               0
287
               3
288
               1
340
17
  0
ENDTAB
  0
TABLE
  2
BLOCK_RECORD
  5
1
100
AcDbSymbolTable
 70
              10
  0
BLOCK_RECORD
  5
A
100
AcDbSymbolTableRecord
100
AcDbBlockTableRecord
  2
*MODEL_SPACE
  0
BLOCK_RECORD
  5
B
100
AcDbSymbolTableRecord
100
AcDbBlockTableRecord
  2
*PAPER_SPACE
  0
BLOCK_RECORD
  5
1E
100
AcDbSymbolTableRecord
100
AcDbBlockTableRecord
  2
MS_1
  0
BLOCK_RECORD
  5
1F
100
AcDbSymbolTableRecord
100
AcDbBlockTableRecord
  2
MS_2
  0
BLOCK_RECORD
  5
20
100
AcDbSymbolTableRecord
100
AcDbBlockTableRecord
  2
MS_3
  0
BLOCK_RECORD
  5
21
100
AcDbSymbolTableRecord
100
AcDbBlockTableRecord
  2
MS_4
  0
BLOCK_RECORD
  5
22
100
AcDbSymbolTableRecord
100
AcDbBlockTableRecord
  2
MS_5
  0
BLOCK_RECORD
  5
23
100
AcDbSymbolTableRecord
100
AcDbBlockTableRecord
  2
MS_6
  0
BLOCK_RECORD
  5
24
100
AcDbSymbolTableRecord
100
AcDbBlockTableRecord
  2
MS_7
  0
BLOCK_RECORD
  5
25
100
AcDbSymbolTableRecord
100
AcDbBlockTableRecord
  2
MS_8
  0
BLOCK_RECORD
  5
26
100
AcDbSymbolTableRecord
100
AcDbBlockTableRecord
  2
MS_9
  0
BLOCK_RECORD
  5
27
100
AcDbSymbolTableRecord
100
AcDbBlockTableRecord
  2
MS_10
  0
ENDTAB
  0
ENDSEC
  0
SECTION
  2
BLOCKS
  0
BLOCK
  5
D
100
AcDbEntity
  8
0
100
AcDbBlockBegin
  2
*MODEL_SPACE
 70
               0
 10
0.0
 20
0.0
 30
0.0
  3
*MODEL_SPACE
  1

  0
ENDBLK
  5
E
100
AcDbEntity
  8
0
100
AcDbBlockEnd
  0
BLOCK
  5
F
100
AcDbEntity
 67
               1
  8
0
100
AcDbBlockBegin
  2
*PAPER_SPACE
 70
               0
 10
0.0
 20
0.0
 30
0.0
  3
*PAPER_SPACE
  1

  0
ENDBLK
  5
10
100
AcDbEntity
 67
               1
  8
0
100
AcDbBlockEnd
  0
BLOCK
  5
28
100
AcDbEntity
  8
0
100
AcDbBlockBegin
  2
MS_1
 70
               0
 10
0.0
 20
0.0
 30
0.0
  3
MS_1
  1

  0
LINE
  5
2A
100
AcDbEntity
  8
0
  6
PHANTOM
 62
               3
100
AcDbLine
 10
55.521725120591725
 20
-81.185110608166383
 30
0.0
 11
55.521725120591725
 21
-74.490387010535244
 31
0.0
  0
LINE
  5
2B
100
AcDbEntity
  8
0
  6
PHANTOM
 62
               3
100
AcDbLine
 10
41.02197367974702
 20
-74.490387031611789
 30
0.0
 11
55.521725120591725
 21
-74.490387031611789
 31
0.0
  0
LINE
  5
2C
100
AcDbEntity
  8
0
  6
PHANTOM
 62
               3
100
AcDbLine
 10
-14.855117194614834
 20
-81.185110608166383
 30
0.0
 11
-14.855117194614834
 21
54.946418416539188
 31
0.0
  0
LINE
  5
2D
100
AcDbEntity
  8
0
  6
PHANTOM
 62
               3
100
AcDbLine
 10
64.716689443181508
 20
-81.185110608166383
 30
0.0
 11
64.716689443181508
 21
56.71468080286121
 31
0.0
  0
LINE
  5
2E
100
AcDbEntity
  8
0
  6
PHANTOM
 62
               3
100
AcDbLine
 10
41.021973688815478
 20
-74.490387010535244
 30
0.0
 11
41.021973688815478
 21
64.848687720337864
 31
0.0
  0
LINE
  5
2F
100
AcDbEntity
  8
0
  6
CONTINUOUS
 62
               7
100
AcDbLine
 10
-22.999999710491693
 20
47.000000800405246
 30
0.0
 11
-22.999999710491693
 21
-47.000000800405246
 31
0.0
  0
LINE
  5
30
100
AcDbEntity
  8
0
  6
CONTINUOUS
 62
               7
100
AcDbLine
 10
-40.0
 20
47.000000800405246
 30
0.0
 11
-40.0
 21
-47.000000800405246
 31
0.0
  0
LINE
  5
31
100
AcDbEntity
  8
0
  6
CONTINUOUS
 62
               7
100
AcDbLine
 10
11.000000187328936
 20
48.000000817435136
 30
0.0
 11
97.000002333096177
 21
48.000000817435136
 31
0.0
  0
LINE
  5
32
100
AcDbEntity
  8
0
  6
CONTINUOUS
 62
               7
100
AcDbLine
 10
11.000000187328936
 20
-48.000000817435136
 30
0.0
 11
97.000002333096177
 21
-48.000000817435136
 31
0.0
  0
LINE
  5
33
100
AcDbEntity
  8
0
  6
CONTINUOUS
 62
               7
100
AcDbLine
 10
98.000002350126067
 20
47.000000800405246
 30
0.0
 11
97.000002333096177
 21
48.000000817435136
 31
0.0
  0
LINE
  5
34
100
AcDbEntity
  8
0
  6
CONTINUOUS
 62
               7
100
AcDbLine
 10
98.000002350126067
 20
-47.000000800405246
 30
0.0
 11
97.000002333096177
 21
-48.000000817435136
 31
0.0
  0
LINE
  5
35
100
AcDbEntity
  8
0
  6
CONTINUOUS
 62
               7
100
AcDbLine
 10
-40.0
 20
47.000000800405246
 30
0.0
 11
-22.999999710491693
 21
47.000000800405246
 31
0.0
  0
LINE
  5
36
100
AcDbEntity
  8
0
  6
CONTINUOUS
 62
               7
100
AcDbLine
 10
-40.0
 20
-47.000000800405246
 30
0.0
 11
-22.999999710491693
 21
-47.000000800405246
 31
0.0
  0
LINE
  5
38
100
AcDbEntity
  8
0
  6
CENTER
 62
               2
100
AcDbLine
 10
-44.985714370620485
 20
0.0
 30
0.0
 11
101.92857384560068
 21
0.0
 31
0.0
  0
LINE
  5
39
100
AcDbEntity
  8
0
  6
CENTER
 62
               2
100
AcDbLine
 10
-44.714285794569491
 20
21.000000357627869
 30
0.0
 11
3.8000000647136574
 21
21.000000357627869
 31
0.0
  0
LINE
  5
3A
100
AcDbEntity
  8
0
  6
CENTER
 62
               2
100
AcDbLine
 10
-44.714285794569491
 20
-21.000000357627897
 30
0.0
 11
3.5857143467786727
 21
-21.000000357627897
 31
0.0
  0
LINE
  5
3B
100
AcDbEntity
  8
0
  6
CONTINUOUS
 62
               7
100
AcDbLine
 10
-22.999999710491693
 20
13.000000221388689
 30
0.0
 11
0.0
 21
13.000000221388689
 31
0.0
  0
LINE
  5
3C
100
AcDbEntity
  8
0
  6
CONTINUOUS
 62
               7
100
AcDbLine
 10
-22.999999710491693
 20
29.000000493867049
 30
0.0
 11
0.0
 21
29.000000493867049
 31
0.0
  0
LINE
  5
3D
100
AcDbEntity
  8
0
  6
CONTINUOUS
 62
               7
100
AcDbLine
 10
-22.999999710491693
 20
-29.000000493867077
 30
0.0
 11
0.0
 21
-29.000000493867077
 31
0.0
  0
LINE
  5
3E
100
AcDbEntity
  8
0
  6
CONTINUOUS
 62
               7
100
AcDbLine
 10
-22.999999710491693
 20
-13.000000221388717
 30
0.0
 11
0.0
 21
-13.000000221388717
 31
0.0
  0
LINE
  5
3F
100
AcDbEntity
  8
0
  6
CENTER
 62
               2
100
AcDbLine
 10
48.499999889305684
 20
41.500000706740764
 30
0.0
 11
61.500000110694344
 21
41.500000706740764
 31
0.0
  0
LINE
  5
40
100
AcDbEntity
  8
0
  6
CENTER
 62
               2
100
AcDbLine
 10
48.499999889305684
 20
-41.500000706740821
 30
0.0
 11
61.500000110694344
 21
-41.500000706740821
 31
0.0
  0
LINE
  5
41
100
AcDbEntity
  8
0
  6
CENTER
 62
               2
100
AcDbLine
 10
27.000000459807296
 20
6.5000001106943159
 30
0.0
 11
27.000000459807296
 21
-6.5000001106943444
 31
0.0
  0
LINE
  5
42
100
AcDbEntity
  8
0
  6
CENTER
 62
               2
100
AcDbLine
 10
55.0
 20
48.000000817435136
 30
0.0
 11
55.0
 21
35.000000596046448
 31
0.0
  0
LINE
  5
43
100
AcDbEntity
  8
0
  6
CENTER
 62
               2
100
AcDbLine
 10
55.0
 20
-35.000000596046448
 30
0.0
 11
55.0
 21
-48.000000817435136
 31
0.0
  0
LINE
  5
44
100
AcDbEntity
  8
0
  6
CENTER
 62
               2
100
AcDbLine
 10
72.000001907348718
 20
6.5000001106943159
 30
0.0
 11
72.000001907348718
 21
-6.5000001106943444
 31
0.0
  0
LINE
  5
45
100
AcDbEntity
  8
0
  6
CENTER
 62
               2
100
AcDbLine
 10
-37.499999957425246
 20
36.000000613076338
 30
0.0
 11
-25.242856891544477
 21
36.000000613076338
 31
0.0
  0
LINE
  5
46
100
AcDbEntity
  8
0
  6
CONTINUOUS
 62
               2
100
AcDbLine
 10
-37.499999957425246
 20
-36.000000613076367
 30
0.0
 11
-25.385714036834486
 21
-36.000000613076367
 31
0.0
  0
LINE
  5
47
100
AcDbEntity
  8
0
  6
CENTER
 62
               2
100
AcDbLine
 10
-31.499999855245846
 20
42.357143578480702
 30
0.0
 11
-31.499999855245846
 21
29.042857637454063
 31
0.0
  0
LINE
  5
48
100
AcDbEntity
  8
0
  6
CENTER
 62
               2
100
AcDbLine
 10
-31.499999855245846
 20
-28.614286201584093
 30
0.0
 11
-31.499999855245846
 21
-42.314286434893717
 31
0.0
  0
LINE
  5
49
100
AcDbEntity
  8
0
  6
CONTINUOUS
 62
               7
100
AcDbLine
 10
-20.999999676431912
 20
24.428571844587537
 30
0.0
 11
-20.999999676431912
 21
17.557143156139205
 31
0.0
  0
LINE
  5
4A
100
AcDbEntity
  8
0
  6
CONTINUOUS
 62
               7
100
AcDbLine
 10
-22.999999710491693
 20
24.428571844587537
 30
0.0
 11
-20.999999676431912
 21
24.428571844587537
 31
0.0
  0
LINE
  5
4B
100
AcDbEntity
  8
0
  6
CONTINUOUS
 62
               7
100
AcDbLine
 10
-22.999999710491693
 20
17.557143156139205
 30
0.0
 11
-20.999999676431912
 21
17.557143156139205
 31
0.0
  0
LINE
  5
4C
100
AcDbEntity
  8
0
  6
CONTINUOUS
 62
               2
100
AcDbLine
 10
-20.999999676431912
 20
24.428571844587537
 30
0.0
 11
-22.999999710491693
 21
21.000000357627869
 31
0.0
  0
LINE
  5
4D
100
AcDbEntity
  8
0
  6
CONTINUOUS
 62
               2
100
AcDbLine
 10
-22.999999710491693
 20
21.000000357627869
 30
0.0
 11
-20.999999676431912
 21
17.557143156139205
 31
0.0
  0
LINE
  5
4E
100
AcDbEntity
  8
0
  6
CONTINUOUS
 62
               7
100
AcDbLine
 10
-22.999999710491693
 20
-24.442857559116533
 30
0.0
 11
-20.999999676431912
 21
-24.442857559116533
 31
0.0
  0
LINE
  5
4F
100
AcDbEntity
  8
0
  6
CONTINUOUS
 62
               2
100
AcDbLine
 10
-20.999999676431912
 20
-24.442857559116533
 30
0.0
 11
-22.999999710491693
 21
-21.000000357627897
 31
0.0
  0
LINE
  5
50
100
AcDbEntity
  8
0
  6
CONTINUOUS
 62
               2
100
AcDbLine
 10
-22.999999710491693
 20
-21.000000357627897
 30
0.0
 11
-20.999999676431912
 21
-17.571428870668228
 31
0.0
  0
LINE
  5
51
100
AcDbEntity
  8
0
  6
CONTINUOUS
 62
               7
100
AcDbLine
 10
-22.999999710491693
 20
-17.571428870668228
 30
0.0
 11
-20.999999676431912
 21
-17.571428870668228
 31
0.0
  0
LINE
  5
52
100
AcDbEntity
  8
0
  6
CONTINUOUS
 62
               7
100
AcDbLine
 10
-20.999999676431912
 20
-17.571428870668228
 30
0.0
 11
-20.999999676431912
 21
-24.442857559116533
 31
0.0
  0
LINE
  5
53
100
AcDbEntity
  8
0
  6
CONTINUOUS
 62
               7
100
AcDbLine
 10
18.000000987734182
 20
5.500000093664454
 30
0.0
 11
40.500001370906887
 21
5.500000093664454
 31
0.0
  0
LINE
  5
54
100
AcDbEntity
  8
0
  6
CONTINUOUS
 62
               7
100
AcDbLine
 10
18.000000987734182
 20
5.500000093664454
 30
0.0
 11
40.500001370906887
 21
5.500000093664454
 31
0.0
  0
LINE
  5
55
100
AcDbEntity
  8
0
  6
CONTINUOUS
 62
               7
100
AcDbLine
 10
10.000000170298989
 20
5.500000093664454
 30
0.0
 11
98.000002350126067
 21
5.500000093664454
 31
0.0
  0
LINE
  5
56
100
AcDbEntity
  8
0
  6
CONTINUOUS
 62
               7
100
AcDbLine
 10
10.000000170298989
 20
2.3000000391687649
 30
0.0
 11
23.128571822448663
 21
2.3000000391687649
 31
0.0
  0
LINE
  5
57
100
AcDbEntity
  8
0
  6
CONTINUOUS
 62
               7
100
AcDbLine
 10
10.000000170298989
 20
39.500000672680983
 30
0.0
 11
50.977125849159862
 21
39.500000672680983
 31
0.0
  0
LINE
  5
58
100
AcDbEntity
  8
0
  6
CONTINUOUS
 62
               7
100
AcDbLine
 10
10.000000170298989
 20
36.300000618185265
 30
0.0
 11
98.000002350126067
 21
36.300000618185265
 31
0.0
  0
LINE
  5
59
100
AcDbEntity
  8
0
  6
CONTINUOUS
 62
               7
100
AcDbLine
 10
67.500001830714154
 20
39.500000672680983
 30
0.0
 11
90.000002213886887
 21
39.500000672680983
 31
0.0
  0
LINE
  5
5A
100
AcDbEntity
  8
0
  6
CONTINUOUS
 62
               7
100
AcDbLine
 10
67.500001830714154
 20
36.300000618185265
 30
0.0
 11
90.000002213886887
 21
36.300000618185265
 31
0.0
  0
LINE
  5
5B
100
AcDbEntity
  8
0
  6
CONTINUOUS
 62
               7
100
AcDbLine
 10
67.500001830714154
 20
39.500000672680983
 30
0.0
 11
90.000002213886887
 21
39.500000672680983
 31
0.0
  0
LINE
  5
5C
100
AcDbEntity
  8
0
  6
CONTINUOUS
 62
               7
100
AcDbLine
 10
67.500001830714154
 20
36.300000618185265
 30
0.0
 11
90.000002213886887
 21
36.300000618185265
 31
0.0
  0
LINE
  5
5D
100
AcDbEntity
  8
0
  6
CONTINUOUS
 62
               7
100
AcDbLine
 10
59.039395495987591
 20
39.500000672680983
 30
0.0
 11
98.000002350126067
 21
39.500000672680983
 31
0.0
  0
LINE
  5
5E
100
AcDbEntity
  8
0
  6
CONTINUOUS
 62
               7
100
AcDbLine
 10
75.871430544707295
 20
2.3000000391687649
 30
0.0
 11
98.000002350126067
 21
2.3000000391687649
 31
0.0
  0
LINE
  5
5F
100
AcDbEntity
  8
0
  6
CONTINUOUS
 62
               7
100
AcDbLine
 10
30.871429097165901
 20
2.3000000391687649
 30
0.0
 11
68.128573269990085
 21
2.3000000391687649
 31
0.0
  0
LINE
  5
60
100
AcDbEntity
  8
0
  6
CONTINUOUS
 62
               7
100
AcDbLine
 10
10.000000170298989
 20
48.000000817435136
 30
0.0
 11
10.000000170298989
 21
-48.000000817435136
 31
0.0
  0
LINE
  5
61
100
AcDbEntity
  8
0
  6
CONTINUOUS
 62
               7
100
AcDbLine
 10
0.0
 20
48.000000817435136
 30
0.0
 11
0.0
 21
-48.000000817435136
 31
0.0
  0
LINE
  5
62
100
AcDbEntity
  8
0
  6
CONTINUOUS
 62
               7
100
AcDbLine
 10
10.000000170298989
 20
47.000000800405246
 30
0.0
 11
11.000000187328936
 21
48.000000817435136
 31
0.0
  0
LINE
  5
63
100
AcDbEntity
  8
0
  6
CONTINUOUS
 62
               7
100
AcDbLine
 10
10.000000170298989
 20
-47.000000800405246
 30
0.0
 11
11.000000187328936
 21
-48.000000817435136
 31
0.0
  0
LINE
  5
64
100
AcDbEntity
  8
0
  6
CONTINUOUS
 62
               7
100
AcDbLine
 10
0.0
 20
-48.000000817435136
 30
0.0
 11
10.000000170298989
 21
-48.000000817435136
 31
0.0
  0
LINE
  5
65
100
AcDbEntity
  8
0
  6
CONTINUOUS
 62
               7
100
AcDbLine
 10
0.0
 20
48.000000817435136
 30
0.0
 11
10.000000170298989
 21
48.000000817435136
 31
0.0
  0
LINE
  5
66
100
AcDbEntity
  8
0
  6
CONTINUOUS
 62
               7
100
AcDbLine
 10
98.000002350126067
 20
47.000000800405246
 30
0.0
 11
98.000002350126067
 21
-47.000000800405246
 31
0.0
  0
CIRCLE
  5
67
100
AcDbEntity
  8
0
  6
CONTINUOUS
 62
               7
100
AcDbCircle
 10
27.008252413072825
 20
-0.0000174386163678
 30
0.0
 40
2.7499989569186987
  0
CIRCLE
  5
68
100
AcDbEntity
  8
0
  6
CONTINUOUS
 62
               7
100
AcDbCircle
 10
55.008260672573726
 20
41.499987627778523
 30
0.0
 40
2.7499989569186987
  0
CIRCLE
  5
69
100
AcDbEntity
  8
0
  6
CONTINUOUS
 62
               7
100
AcDbCircle
 10
72.008253860614218
 20
-0.0000174386163678
 30
0.0
 40
2.7499989569186987
  0
CIRCLE
  5
6A
100
AcDbEntity
  8
0
  6
CONTINUOUS
 62
               7
100
AcDbCircle
 10
55.008260672573726
 20
-41.500022505011259
 30
0.0
 40
2.7499989569186987
  0
CIRCLE
  5
6B
100
AcDbEntity
  8
0
  6
CONTINUOUS
 62
               2
100
AcDbCircle
 10
-31.506029256855243
 20
35.9999788148059
 30
0.0
 40
3.9999989782060723
  0
CIRCLE
  5
6C
100
AcDbEntity
  8
0
  6
CONTINUOUS
 62
               2
100
AcDbCircle
 10
-31.506029256855243
 20
-36.000013692038635
 30
0.0
 40
3.9999989782060723
  0
CIRCLE
  5
6D
100
AcDbEntity
  8
0
  6
CONTINUOUS
 62
               7
100
AcDbCircle
 10
-31.506029256855243
 20
35.9999788148059
 30
0.0
 40
2.9999992336545542
  0
CIRCLE
  5
6E
100
AcDbEntity
  8
0
  6
CONTINUOUS
 62
               7
100
AcDbCircle
 10
-31.506029256855243
 20
-36.000013692038635
 30
0.0
 40
2.9999992336545542
  0
CIRCLE
  5
6F
100
AcDbEntity
  8
0
  6
CONTINUOUS
 62
               7
100
AcDbCircle
 10
27.008252413072825
 20
-0.0000174386163678
 30
0.0
 40
4.4999995316777834
  0
CIRCLE
  5
70
100
AcDbEntity
  8
0
  6
CONTINUOUS
 62
               7
100
AcDbCircle
 10
72.008253860614218
 20
-0.0000174386163678
 30
0.0
 40
4.4999995316777834
  0
CIRCLE
  5
71
100
AcDbEntity
  8
0
  6
CONTINUOUS
 62
               7
100
AcDbCircle
 10
55.008260672573726
 20
41.499987627778523
 30
0.0
 40
4.4999995316777834
  0
CIRCLE
  5
72
100
AcDbEntity
  8
0
  6
CONTINUOUS
 62
               7
100
AcDbCircle
 10
55.008260672573726
 20
-41.500022505011259
 30
0.0
 40
4.4999995316777834
  0
ENDBLK
  5
73
100
AcDbEntity
  8
0
100
AcDbBlockEnd
  0
BLOCK
  5
74
100
AcDbEntity
  8
0
100
AcDbBlockBegin
  2
MS_2
 70
               0
 10
0.0
 20
0.0
 30
0.0
  3
MS_2
  1

  0
LINE
  5
75
100
AcDbEntity
  8
0
  6
CENTER
 62
               2
100
AcDbLine
 10
20.000000340597978
 20
52.928572329939641
 30
0.0
 11
20.000000340597978
 21
-55.18571522552142
 31
0.0
  0
LINE
  5
76
100
AcDbEntity
  8
0
  6
CENTER
 62
               2
100
AcDbLine
 10
-2.1428571793497895
 20
0.0
 30
0.0
 11
41.771429282791814
 21
0.0
 31
0.0
  0
LINE
  5
77
100
AcDbEntity
  8
0
  6
CONTINUOUS
 62
               7
100
AcDbLine
 10
39.000000664166066
 20
47.000000800405246
 30
0.0
 11
39.000000664166066
 21
-47.000000800405246
 31
0.0
  0
LINE
  5
78
100
AcDbEntity
  8
0
  6
CONTINUOUS
 62
               7
100
AcDbLine
 10
1.0000000170299472
 20
47.000000800405246
 30
0.0
 11
1.0000000170299472
 21
-47.000000800405246
 31
0.0
  0
LINE
  5
79
100
AcDbEntity
  8
0
  6
CONTINUOUS
 62
               7
100
AcDbLine
 10
1.0000000170299472
 20
-47.000000800405246
 30
0.0
 11
39.000000664166066
 21
-47.000000800405246
 31
0.0
  0
LINE
  5
7A
100
AcDbEntity
  8
0
  6
CONTINUOUS
 62
               7
100
AcDbLine
 10
1.0000000170299472
 20
47.000000800405246
 30
0.0
 11
39.000000664166066
 21
47.000000800405246
 31
0.0
  0
LINE
  5
7B
100
AcDbEntity
  8
0
  6
CENTER
 62
               2
100
AcDbLine
 10
14.500000246933496
 20
41.500000706740764
 30
0.0
 11
25.500000434262461
 21
41.500000706740764
 31
0.0
  0
LINE
  5
7C
100
AcDbEntity
  8
0
  6
CENTER
 62
               2
100
AcDbLine
 10
9.0000001532691272
 20
21.000000357627869
 30
0.0
 11
31.000000527926943
 21
21.000000357627869
 31
0.0
  0
LINE
  5
7D
100
AcDbEntity
  8
0
  6
CENTER
 62
               2
100
AcDbLine
 10
9.0000001532691272
 20
-21.000000357627897
 30
0.0
 11
31.000000527926943
 21
-21.000000357627897
 31
0.0
  0
LINE
  5
7E
100
AcDbEntity
  8
0
  6
CENTER
 62
               2
100
AcDbLine
 10
14.500000246933496
 20
-41.500000706740821
 30
0.0
 11
25.500000434262461
 21
-41.500000706740821
 31
0.0
  0
LINE
  5
7F
100
AcDbEntity
  8
0
  6
CONTINUOUS
 62
               7
100
AcDbLine
 10
39.000000664166066
 20
48.000000817435136
 30
0.0
 11
40.000000681195957
 21
47.000000800405246
 31
0.0
  0
LINE
  5
80
100
AcDbEntity
  8
0
  6
CONTINUOUS
 62
               7
100
AcDbLine
 10
39.000000664166066
 20
48.000000817435136
 30
0.0
 11
1.0000000170299472
 21
48.000000817435136
 31
0.0
  0
LINE
  5
81
100
AcDbEntity
  8
0
  6
CONTINUOUS
 62
               7
100
AcDbLine
 10
0.0
 20
47.000000800405246
 30
0.0
 11
1.0000000170299472
 21
48.000000817435136
 31
0.0
  0
LINE
  5
82
100
AcDbEntity
  8
0
  6
CONTINUOUS
 62
               7
100
AcDbLine
 10
40.000000681195957
 20
47.000000800405246
 30
0.0
 11
40.000000681195957
 21
-47.000000800405246
 31
0.0
  0
LINE
  5
83
100
AcDbEntity
  8
0
  6
CONTINUOUS
 62
               7
100
AcDbLine
 10
0.0
 20
47.000000800405246
 30
0.0
 11
0.0
 21
-47.000000800405246
 31
0.0
  0
LINE
  5
84
100
AcDbEntity
  8
0
  6
CONTINUOUS
 62
               7
100
AcDbLine
 10
39.000000664166066
 20
-48.000000817435136
 30
0.0
 11
1.0000000170299472
 21
-48.000000817435136
 31
0.0
  0
LINE
  5
85
100
AcDbEntity
  8
0
  6
CONTINUOUS
 62
               7
100
AcDbLine
 10
0.0
 20
-47.000000800405246
 30
0.0
 11
1.0000000170299472
 21
-48.000000817435136
 31
0.0
  0
LINE
  5
86
100
AcDbEntity
  8
0
  6
CONTINUOUS
 62
               7
100
AcDbLine
 10
40.000000681195957
 20
-47.000000800405246
 30
0.0
 11
39.000000664166066
 21
-48.000000817435136
 31
0.0
  0
LINE
  5
87
100
AcDbEntity
  8
0
  6
CONTINUOUS
 62
               7
100
AcDbLine
 10
20.000000340597978
 20
25.614286150494422
 30
0.0
 11
24.000000408717597
 21
23.300000396796662
 31
0.0
  0
LINE
  5
88
100
AcDbEntity
  8
0
  6
CONTINUOUS
 62
               7
100
AcDbLine
 10
16.000000272478474
 20
23.300000396796662
 30
0.0
 11
20.000000340597978
 21
25.614286150494422
 31
0.0
  0
LINE
  5
89
100
AcDbEntity
  8
0
  6
CONTINUOUS
 62
               7
100
AcDbLine
 10
16.000000272478474
 20
18.68571460393008
 30
0.0
 11
16.000000272478474
 21
23.300000396796662
 31
0.0
  0
LINE
  5
8A
100
AcDbEntity
  8
0
  6
CONTINUOUS
 62
               7
100
AcDbLine
 10
20.000000340597978
 20
16.37142885023232
 30
0.0
 11
16.000000272478474
 21
18.68571460393008
 31
0.0
  0
LINE
  5
8B
100
AcDbEntity
  8
0
  6
CONTINUOUS
 62
               7
100
AcDbLine
 10
24.000000408717597
 20
18.68571460393008
 30
0.0
 11
20.000000340597978
 21
16.37142885023232
 31
0.0
  0
LINE
  5
8C
100
AcDbEntity
  8
0
  6
CONTINUOUS
 62
               7
100
AcDbLine
 10
24.000000408717597
 20
23.300000396796662
 30
0.0
 11
24.000000408717597
 21
18.68571460393008
 31
0.0
  0
LINE
  5
8D
100
AcDbEntity
  8
0
  6
CONTINUOUS
 62
               7
100
AcDbLine
 10
16.000000272478474
 20
-23.314286111325657
 30
0.0
 11
20.000000340597978
 21
-25.628571865023389
 31
0.0
  0
LINE
  5
8E
100
AcDbEntity
  8
0
  6
CONTINUOUS
 62
               7
100
AcDbLine
 10
16.000000272478474
 20
-18.700000318459104
 30
0.0
 11
16.000000272478474
 21
-23.314286111325657
 31
0.0
  0
LINE
  5
8F
100
AcDbEntity
  8
0
  6
CONTINUOUS
 62
               7
100
AcDbLine
 10
20.000000340597978
 20
-16.385714564761372
 30
0.0
 11
16.000000272478474
 21
-18.700000318459104
 31
0.0
  0
LINE
  5
90
100
AcDbEntity
  8
0
  6
CONTINUOUS
 62
               7
100
AcDbLine
 10
24.000000408717597
 20
-18.700000318459104
 30
0.0
 11
20.000000340597978
 21
-16.385714564761372
 31
0.0
  0
LINE
  5
91
100
AcDbEntity
  8
0
  6
CONTINUOUS
 62
               7
100
AcDbLine
 10
20.000000340597978
 20
-25.628571865023389
 30
0.0
 11
24.000000408717597
 21
-23.314286111325657
 31
0.0
  0
LINE
  5
92
100
AcDbEntity
  8
0
  6
CONTINUOUS
 62
               7
100
AcDbLine
 10
24.000000408717597
 20
-23.314286111325657
 30
0.0
 11
24.000000408717597
 21
-18.700000318459104
 31
0.0
  0
CIRCLE
  5
93
100
AcDbEntity
  8
0
  6
CONTINUOUS
 62
               2
100
AcDbCircle
 10
19.999995980943879
 20
41.499987627778523
 30
0.0
 40
2.9999992336545542
  0
CIRCLE
  5
94
100
AcDbEntity
  8
0
  6
CONTINUOUS
 62
               2
100
AcDbCircle
 10
19.999995980943879
 20
-41.500000706740821
 30
0.0
 40
2.9999992336545542
  0
CIRCLE
  5
95
100
AcDbEntity
  8
0
  6
CONTINUOUS
 62
               7
100
AcDbCircle
 10
19.999995980943879
 20
20.999978559357402
 30
0.0
 40
7.9999993188040479
  0
CIRCLE
  5
96
100
AcDbEntity
  8
0
  6
CONTINUOUS
 62
               7
100
AcDbCircle
 10
19.999995980943879
 20
20.999978559357402
 30
0.0
 40
7.2499998509883854
  0
CIRCLE
  5
97
100
AcDbEntity
  8
0
  6
CONTINUOUS
 62
               7
100
AcDbCircle
 10
19.999995980943879
 20
20.999978559357402
 30
0.0
 40
8.7500001490116137
  0
CIRCLE
  5
98
100
AcDbEntity
  8
0
  6
CONTINUOUS
 62
               7
100
AcDbCircle
 10
19.999995980943879
 20
-21.000013436590166
 30
0.0
 40
8.7500001490116137
  0
CIRCLE
  5
99
100
AcDbEntity
  8
0
  6
CONTINUOUS
 62
               7
100
AcDbCircle
 10
19.999995980943879
 20
-21.000013436590166
 30
0.0
 40
7.9999993188040479
  0
CIRCLE
  5
9A
100
AcDbEntity
  8
0
  6
CONTINUOUS
 62
               7
100
AcDbCircle
 10
19.999995980943879
 20
-21.000013436590166
 30
0.0
 40
7.2499998509883854
  0
CIRCLE
  5
9B
100
AcDbEntity
  8
0
  6
CONTINUOUS
 62
               7
100
AcDbCircle
 10
19.999995980943879
 20
41.499987627778523
 30
0.0
 40
2.2499997658388917
  0
CIRCLE
  5
9C
100
AcDbEntity
  8
0
  6
CONTINUOUS
 62
               7
100
AcDbCircle
 10
19.999995980943879
 20
-41.500000706740821
 30
0.0
 40
2.2499997658388917
  0
ENDBLK
  5
9D
100
AcDbEntity
  8
0
100
AcDbBlockEnd
  0
BLOCK
  5
9E
100
AcDbEntity
  8
0
100
AcDbBlockBegin
  2
MS_3
 70
               0
 10
0.0
 20
0.0
 30
0.0
  3
MS_3
  1

  0
LINE
  5
9F
100
AcDbEntity
  8
0
  6
CENTER
 62
               2
100
AcDbLine
 10
-20.000000340597978
 20
53.5571437692156
 30
0.0
 11
-20.000000340597978
 21
-55.18571522552142
 31
0.0
  0
LINE
  5
A0
100
AcDbEntity
  8
0
  6
CENTER
 62
               2
100
AcDbLine
 10
-24.428571844587509
 20
9.0000001532690703
 30
0.0
 11
-16.442857422877353
 21
9.0000001532690703
 31
0.0
  0
LINE
  5
A1
100
AcDbEntity
  8
0
  6
CENTER
 62
               2
100
AcDbLine
 10
-23.842857548898564
 20
33.000000561986667
 30
0.0
 11
-15.971428843420398
 21
33.000000561986667
 31
0.0
  0
LINE
  5
A2
100
AcDbEntity
  8
0
  6
CENTER
 62
               2
100
AcDbLine
 10
-24.085714695891568
 20
-33.000000561986695
 30
0.0
 11
-16.214285990413345
 21
-33.000000561986695
 31
0.0
  0
LINE
  5
A3
100
AcDbEntity
  8
0
  6
CENTER
 62
               2
100
AcDbLine
 10
-24.314286128355548
 20
-9.0000001532690987
 30
0.0
 11
-16.085714559652388
 21
-9.0000001532690987
 31
0.0
  0
LINE
  5
A4
100
AcDbEntity
  8
0
  6
CONTINUOUS
 62
               7
100
AcDbLine
 10
-40.000000681195957
 20
47.000000800405246
 30
0.0
 11
-40.000000681195957
 21
39.500000672680983
 31
0.0
  0
LINE
  5
A5
100
AcDbEntity
  8
0
  6
CONTINUOUS
 62
               7
100
AcDbLine
 10
-39.000000664166066
 20
-48.000000817435136
 30
0.0
 11
-1.0000000170299188
 21
-48.000000817435136
 31
0.0
  0
LINE
  5
A6
100
AcDbEntity
  8
0
  6
CONTINUOUS
 62
               7
100
AcDbLine
 10
-39.000000664166066
 20
48.000000817435136
 30
0.0
 11
-40.000000681195957
 21
47.000000800405246
 31
0.0
  0
LINE
  5
A7
100
AcDbEntity
  8
0
  6
CONTINUOUS
 62
               7
100
AcDbLine
 10
0.0
 20
47.000000800405246
 30
0.0
 11
-1.0000000170299188
 21
48.000000817435136
 31
0.0
  0
LINE
  5
A8
100
AcDbEntity
  8
0
  6
CONTINUOUS
 62
               7
100
AcDbLine
 10
0.0
 20
-47.000000800405246
 30
0.0
 11
-1.0000000170299188
 21
-48.000000817435136
 31
0.0
  0
LINE
  5
A9
100
AcDbEntity
  8
0
  6
CONTINUOUS
 62
               7
100
AcDbLine
 10
-40.000000681195957
 20
-47.000000800405246
 30
0.0
 11
-39.000000664166066
 21
-48.000000817435136
 31
0.0
  0
LINE
  5
AA
100
AcDbEntity
  8
0
  6
CONTINUOUS
 62
               7
100
AcDbLine
 10
-39.000000664166066
 20
48.000000817435136
 30
0.0
 11
-1.0000000170299188
 21
48.000000817435136
 31
0.0
  0
LINE
  5
AB
100
AcDbEntity
  8
0
  6
CONTINUOUS
 62
               7
100
AcDbLine
 10
-40.000000681195957
 20
2.3000000391687649
 30
0.0
 11
-40.000000681195957
 21
-47.000000800405246
 31
0.0
  0
LINE
  5
AC
100
AcDbEntity
  8
0
  6
CONTINUOUS
 62
               7
100
AcDbLine
 10
0.0
 20
47.000000800405246
 30
0.0
 11
0.0
 21
-47.000000800405246
 31
0.0
  0
LINE
  5
AD
100
AcDbEntity
  8
0
  6
CONTINUOUS
 62
               7
100
AcDbLine
 10
-1.0000000170299188
 20
1.8000000306538197
 30
0.0
 11
-2.6000000442777207
 21
1.8000000306538197
 31
0.0
  0
LINE
  5
AE
100
AcDbEntity
  8
0
  6
CONTINUOUS
 62
               7
100
AcDbLine
 10
-0.5000000085149452
 20
2.3000000391687649
 30
0.0
 11
-1.0000000170299188
 21
1.8000000306538197
 31
0.0
  0
LINE
  5
AF
100
AcDbEntity
  8
0
  6
CONTINUOUS
 62
               7
100
AcDbLine
 10
-0.5000000085149452
 20
5.500000093664454
 30
0.0
 11
-1.0000000170299188
 21
6.0000001021793707
 31
0.0
  0
LINE
  5
B0
100
AcDbEntity
  8
0
  6
CONTINUOUS
 62
               7
100
AcDbLine
 10
-1.0000000170299188
 20
6.0000001021793707
 30
0.0
 11
-2.6000000442777207
 21
6.0000001021793707
 31
0.0
  0
LINE
  5
B1
100
AcDbEntity
  8
0
  6
CONTINUOUS
 62
               7
100
AcDbLine
 10
0.0
 20
5.500000093664454
 30
0.0
 11
-0.5000000085149452
 21
5.500000093664454
 31
0.0
  0
LINE
  5
B2
100
AcDbEntity
  8
0
  6
CONTINUOUS
 62
               7
100
AcDbLine
 10
0.0
 20
2.3000000391687649
 30
0.0
 11
-0.5000000085149452
 21
2.3000000391687649
 31
0.0
  0
LINE
  5
B3
100
AcDbEntity
  8
0
  6
CONTINUOUS
 62
               7
100
AcDbLine
 10
-39.000000664166066
 20
1.8000000306538197
 30
0.0
 11
-37.428572065976226
 21
1.8000000306538197
 31
0.0
  0
LINE
  5
B4
100
AcDbEntity
  8
0
  6
CONTINUOUS
 62
               7
100
AcDbLine
 10
-40.000000681195957
 20
2.3000000391687649
 30
0.0
 11
-39.500000672681011
 21
2.3000000391687649
 31
0.0
  0
LINE
  5
B5
100
AcDbEntity
  8
0
  6
CONTINUOUS
 62
               7
100
AcDbLine
 10
-40.000000681195957
 20
5.500000093664454
 30
0.0
 11
-39.500000672681011
 21
5.500000093664454
 31
0.0
  0
LINE
  5
B6
100
AcDbEntity
  8
0
  6
CONTINUOUS
 62
               7
100
AcDbLine
 10
-39.500000672681011
 20
2.3000000391687649
 30
0.0
 11
-39.000000664166066
 21
1.8000000306538197
 31
0.0
  0
LINE
  5
B7
100
AcDbEntity
  8
0
  6
CONTINUOUS
 62
               7
100
AcDbLine
 10
-39.000000664166066
 20
1.8000000306538197
 30
0.0
 11
-37.400000636918207
 21
1.8000000306538197
 31
0.0
  0
LINE
  5
B8
100
AcDbEntity
  8
0
  6
CONTINUOUS
 62
               7
100
AcDbLine
 10
-39.000000664166066
 20
6.0000001021793707
 30
0.0
 11
-37.400000636918207
 21
6.0000001021793707
 31
0.0
  0
LINE
  5
B9
100
AcDbEntity
  8
0
  6
CONTINUOUS
 62
               7
100
AcDbLine
 10
-39.500000672681011
 20
5.500000093664454
 30
0.0
 11
-39.000000664166066
 21
6.0000001021793707
 31
0.0
  0
LINE
  5
BA
100
AcDbEntity
  8
0
  6
CONTINUOUS
 62
               7
100
AcDbLine
 10
-35.557143462677402
 20
2.9000000493866764
 30
0.0
 11
-35.800000609670377
 21
2.6428571878647347
 31
0.0
  0
LINE
  5
BB
100
AcDbEntity
  8
0
  6
CONTINUOUS
 62
               7
100
AcDbLine
 10
-22.100000376360754
 20
46.971429371347256
 30
0.0
 11
-22.100000376360754
 21
45.371429344099397
 31
0.0
  0
LINE
  5
BC
100
AcDbEntity
  8
0
  6
CONTINUOUS
 62
               7
100
AcDbLine
 10
-22.100000376360754
 20
46.971429371347256
 30
0.0
 11
-21.600000367845809
 21
47.471429379862172
 31
0.0
  0
LINE
  5
BD
100
AcDbEntity
  8
0
  6
CONTINUOUS
 62
               7
100
AcDbLine
 10
-21.600000367845809
 20
48.000000817435136
 30
0.0
 11
-21.600000367845809
 21
47.471429379862172
 31
0.0
  0
LINE
  5
BE
100
AcDbEntity
  8
0
  6
CONTINUOUS
 62
               7
100
AcDbLine
 10
-18.40000031335012
 20
48.000000817435136
 30
0.0
 11
-18.40000031335012
 21
47.471429379862172
 31
0.0
  0
LINE
  5
BF
100
AcDbEntity
  8
0
  6
CONTINUOUS
 62
               7
100
AcDbLine
 10
-18.40000031335012
 20
47.471429379862172
 30
0.0
 11
-17.900000304835174
 21
46.971429371347256
 31
0.0
  0
LINE
  5
C0
100
AcDbEntity
  8
0
  6
CONTINUOUS
 62
               7
100
AcDbLine
 10
-1.0000000170299188
 20
1.8000000306538197
 30
0.0
 11
-2.6000000442777207
 21
1.8000000306538197
 31
0.0
  0
LINE
  5
C1
100
AcDbEntity
  8
0
  6
CONTINUOUS
 62
               7
100
AcDbLine
 10
-0.5000000085149452
 20
2.3000000391687649
 30
0.0
 11
-1.0000000170299188
 21
1.8000000306538197
 31
0.0
  0
LINE
  5
C2
100
AcDbEntity
  8
0
  6
CONTINUOUS
 62
               7
100
AcDbLine
 10
-0.5000000085149452
 20
5.500000093664454
 30
0.0
 11
-1.0000000170299188
 21
6.0000001021793707
 31
0.0
  0
LINE
  5
C3
100
AcDbEntity
  8
0
  6
CONTINUOUS
 62
               7
100
AcDbLine
 10
-1.0000000170299188
 20
6.0000001021793707
 30
0.0
 11
-2.6000000442777207
 21
6.0000001021793707
 31
0.0
  0
LINE
  5
C4
100
AcDbEntity
  8
0
  6
CONTINUOUS
 62
               7
100
AcDbLine
 10
0.0
 20
5.500000093664454
 30
0.0
 11
-0.5000000085149452
 21
5.500000093664454
 31
0.0
  0
LINE
  5
C5
100
AcDbEntity
  8
0
  6
CONTINUOUS
 62
               7
100
AcDbLine
 10
0.0
 20
2.3000000391687649
 30
0.0
 11
-0.5000000085149452
 21
2.3000000391687649
 31
0.0
  0
LINE
  5
C6
100
AcDbEntity
  8
0
  6
CONTINUOUS
 62
               7
100
AcDbLine
 10
-39.000000664166066
 20
1.8000000306538197
 30
0.0
 11
-37.428572065976226
 21
1.8000000306538197
 31
0.0
  0
LINE
  5
C7
100
AcDbEntity
  8
0
  6
CONTINUOUS
 62
               7
100
AcDbLine
 10
-40.000000681195957
 20
2.3000000391687649
 30
0.0
 11
-39.52857210173903
 21
2.3000000391687649
 31
0.0
  0
LINE
  5
C8
100
AcDbEntity
  8
0
  6
CONTINUOUS
 62
               7
100
AcDbLine
 10
-40.000000681195957
 20
5.500000093664454
 30
0.0
 11
-39.52857210173903
 21
5.500000093664454
 31
0.0
  0
LINE
  5
C9
100
AcDbEntity
  8
0
  6
CONTINUOUS
 62
               7
100
AcDbLine
 10
-39.500000672681011
 20
2.3000000391687649
 30
0.0
 11
-39.000000664166066
 21
1.8000000306538197
 31
0.0
  0
LINE
  5
CA
100
AcDbEntity
  8
0
  6
CONTINUOUS
 62
               7
100
AcDbLine
 10
-39.000000664166066
 20
1.8000000306538197
 30
0.0
 11
-37.400000636918207
 21
1.8000000306538197
 31
0.0
  0
LINE
  5
CB
100
AcDbEntity
  8
0
  6
CONTINUOUS
 62
               7
100
AcDbLine
 10
-39.000000664166066
 20
6.0000001021793707
 30
0.0
 11
-37.400000636918207
 21
6.0000001021793707
 31
0.0
  0
LINE
  5
CC
100
AcDbEntity
  8
0
  6
CONTINUOUS
 62
               7
100
AcDbLine
 10
-39.500000672681011
 20
5.500000093664454
 30
0.0
 11
-39.000000664166066
 21
6.0000001021793707
 31
0.0
  0
LINE
  5
CD
100
AcDbEntity
  8
0
  6
CONTINUOUS
 62
               7
100
AcDbLine
 10
-22.100000376360754
 20
46.971429371347256
 30
0.0
 11
-22.100000376360754
 21
45.371429344099397
 31
0.0
  0
LINE
  5
CE
100
AcDbEntity
  8
0
  6
CONTINUOUS
 62
               7
100
AcDbLine
 10
-22.100000376360754
 20
46.971429371347256
 30
0.0
 11
-21.600000367845809
 21
47.471429379862172
 31
0.0
  0
LINE
  5
CF
100
AcDbEntity
  8
0
  6
CONTINUOUS
 62
               7
100
AcDbLine
 10
-21.600000367845809
 20
47.971429388377146
 30
0.0
 11
-21.600000367845809
 21
47.471429379862172
 31
0.0
  0
LINE
  5
D0
100
AcDbEntity
  8
0
  6
CONTINUOUS
 62
               7
100
AcDbLine
 10
-18.40000031335012
 20
48.000000817435136
 30
0.0
 11
-18.40000031335012
 21
47.471429379862172
 31
0.0
  0
LINE
  5
D1
100
AcDbEntity
  8
0
  6
CONTINUOUS
 62
               7
100
AcDbLine
 10
-17.900000304835174
 20
46.971429371347256
 30
0.0
 11
-17.900000304835174
 21
45.371429344099397
 31
0.0
  0
LINE
  5
D2
100
AcDbEntity
  8
0
  6
CONTINUOUS
 62
               7
100
AcDbLine
 10
-18.40000031335012
 20
47.471429379862172
 30
0.0
 11
-17.900000304835174
 21
46.971429371347256
 31
0.0
  0
LINE
  5
D3
100
AcDbEntity
  8
0
  6
CONTINUOUS
 62
               7
100
AcDbLine
 10
-40.000000681195957
 20
39.500000672680983
 30
0.0
 11
-40.000000681195957
 21
39.700000676086972
 31
0.0
  0
LINE
  5
D4
100
AcDbEntity
  8
0
  6
CONTINUOUS
 62
               7
100
AcDbLine
 10
-39.000000664166066
 20
35.800000609670406
 30
0.0
 11
-37.428572065976226
 21
35.800000609670406
 31
0.0
  0
LINE
  5
D5
100
AcDbEntity
  8
0
  6
CONTINUOUS
 62
               7
100
AcDbLine
 10
-40.000000681195957
 20
36.300000618185265
 30
0.0
 11
-39.500000672681011
 21
36.300000618185265
 31
0.0
  0
LINE
  5
D6
100
AcDbEntity
  8
0
  6
CONTINUOUS
 62
               7
100
AcDbLine
 10
-40.000000681195957
 20
39.500000672680983
 30
0.0
 11
-39.500000672681011
 21
39.500000672680983
 31
0.0
  0
LINE
  5
D7
100
AcDbEntity
  8
0
  6
CONTINUOUS
 62
               7
100
AcDbLine
 10
-39.500000672681011
 20
36.300000618185265
 30
0.0
 11
-39.000000664166066
 21
35.800000609670406
 31
0.0
  0
LINE
  5
D8
100
AcDbEntity
  8
0
  6
CONTINUOUS
 62
               7
100
AcDbLine
 10
-39.000000664166066
 20
35.800000609670406
 30
0.0
 11
-37.400000636918207
 21
35.800000609670406
 31
0.0
  0
LINE
  5
D9
100
AcDbEntity
  8
0
  6
CONTINUOUS
 62
               7
100
AcDbLine
 10
-39.000000664166066
 20
40.000000681195957
 30
0.0
 11
-37.400000636918207
 21
40.000000681195957
 31
0.0
  0
LINE
  5
DA
100
AcDbEntity
  8
0
  6
CONTINUOUS
 62
               7
100
AcDbLine
 10
-39.500000672681011
 20
39.500000672680983
 30
0.0
 11
-39.000000664166066
 21
40.000000681195957
 31
0.0
  0
LINE
  5
DB
100
AcDbEntity
  8
0
  6
CONTINUOUS
 62
               7
100
AcDbLine
 10
-40.000000681195957
 20
39.500000672680983
 30
0.0
 11
-40.000000681195957
 21
39.700000676086972
 31
0.0
  0
LINE
  5
DC
100
AcDbEntity
  8
0
  6
CONTINUOUS
 62
               7
100
AcDbLine
 10
-39.000000664166066
 20
35.800000609670406
 30
0.0
 11
-37.428572065976226
 21
35.800000609670406
 31
0.0
  0
LINE
  5
DD
100
AcDbEntity
  8
0
  6
CONTINUOUS
 62
               7
100
AcDbLine
 10
-40.000000681195957
 20
36.300000618185265
 30
0.0
 11
-39.52857210173903
 21
36.300000618185265
 31
0.0
  0
LINE
  5
DE
100
AcDbEntity
  8
0
  6
CONTINUOUS
 62
               7
100
AcDbLine
 10
-40.000000681195957
 20
39.500000672680983
 30
0.0
 11
-39.52857210173903
 21
39.500000672680983
 31
0.0
  0
LINE
  5
DF
100
AcDbEntity
  8
0
  6
CONTINUOUS
 62
               7
100
AcDbLine
 10
-39.500000672681011
 20
36.300000618185265
 30
0.0
 11
-39.000000664166066
 21
35.800000609670406
 31
0.0
  0
LINE
  5
E0
100
AcDbEntity
  8
0
  6
CONTINUOUS
 62
               7
100
AcDbLine
 10
-39.000000664166066
 20
35.800000609670406
 30
0.0
 11
-37.400000636918207
 21
35.800000609670406
 31
0.0
  0
LINE
  5
E1
100
AcDbEntity
  8
0
  6
CONTINUOUS
 62
               7
100
AcDbLine
 10
-39.000000664166066
 20
40.000000681195957
 30
0.0
 11
-37.400000636918207
 21
40.000000681195957
 31
0.0
  0
LINE
  5
E2
100
AcDbEntity
  8
0
  6
CONTINUOUS
 62
               7
100
AcDbLine
 10
-39.500000672681011
 20
39.500000672680983
 30
0.0
 11
-39.000000664166066
 21
40.000000681195957
 31
0.0
  0
LINE
  5
E3
100
AcDbEntity
  8
0
  6
CONTINUOUS
 62
               7
100
AcDbLine
 10
-1.0000000170299188
 20
35.800000609670406
 30
0.0
 11
-2.6000000442777207
 21
35.800000609670406
 31
0.0
  0
LINE
  5
E4
100
AcDbEntity
  8
0
  6
CONTINUOUS
 62
               7
100
AcDbLine
 10
-0.5000000085149452
 20
36.300000618185265
 30
0.0
 11
-1.0000000170299188
 21
35.800000609670406
 31
0.0
  0
LINE
  5
E5
100
AcDbEntity
  8
0
  6
CONTINUOUS
 62
               7
100
AcDbLine
 10
-0.5000000085149452
 20
39.500000672680983
 30
0.0
 11
-1.0000000170299188
 21
40.000000681195957
 31
0.0
  0
LINE
  5
E6
100
AcDbEntity
  8
0
  6
CONTINUOUS
 62
               7
100
AcDbLine
 10
-1.0000000170299188
 20
40.000000681195957
 30
0.0
 11
-2.6000000442777207
 21
40.000000681195957
 31
0.0
  0
LINE
  5
E7
100
AcDbEntity
  8
0
  6
CONTINUOUS
 62
               7
100
AcDbLine
 10
0.0
 20
39.500000672680983
 30
0.0
 11
-0.5000000085149452
 21
39.500000672680983
 31
0.0
  0
LINE
  5
E8
100
AcDbEntity
  8
0
  6
CONTINUOUS
 62
               7
100
AcDbLine
 10
0.0
 20
36.300000618185265
 30
0.0
 11
-0.5000000085149452
 21
36.300000618185265
 31
0.0
  0
LINE
  5
E9
100
AcDbEntity
  8
0
  6
CONTINUOUS
 62
               7
100
AcDbLine
 10
0.0
 20
36.300000618185265
 30
0.0
 11
-0.5000000085149452
 21
36.300000618185265
 31
0.0
  0
LINE
  5
EA
100
AcDbEntity
  8
0
  6
CONTINUOUS
 62
               7
100
AcDbLine
 10
-1.0000000170299188
 20
35.800000609670406
 30
0.0
 11
-2.6000000442777207
 21
35.800000609670406
 31
0.0
  0
LINE
  5
EB
100
AcDbEntity
  8
0
  6
CONTINUOUS
 62
               7
100
AcDbLine
 10
-0.5000000085149452
 20
36.300000618185265
 30
0.0
 11
-1.0000000170299188
 21
35.800000609670406
 31
0.0
  0
LINE
  5
EC
100
AcDbEntity
  8
0
  6
CONTINUOUS
 62
               7
100
AcDbLine
 10
-0.5000000085149452
 20
39.500000672680983
 30
0.0
 11
-1.0000000170299188
 21
40.000000681195957
 31
0.0
  0
LINE
  5
ED
100
AcDbEntity
  8
0
  6
CONTINUOUS
 62
               7
100
AcDbLine
 10
-1.0000000170299188
 20
40.000000681195957
 30
0.0
 11
-2.6000000442777207
 21
40.000000681195957
 31
0.0
  0
LINE
  5
EE
100
AcDbEntity
  8
0
  6
CONTINUOUS
 62
               7
100
AcDbLine
 10
0.0
 20
39.500000672680983
 30
0.0
 11
-0.5000000085149452
 21
39.500000672680983
 31
0.0
  0
LINE
  5
EF
100
AcDbEntity
  8
0
  6
CONTINUOUS
 62
               7
100
AcDbLine
 10
-40.000000681195957
 20
36.300000618185265
 30
0.0
 11
-40.000000681195957
 21
5.500000093664454
 31
0.0
  0
CIRCLE
  5
F0
100
AcDbEntity
  8
0
  6
CONTINUOUS
 62
               7
100
AcDbCircle
 10
-20.000009059906176
 20
20.99982597146419
 30
0.0
 40
17.500000298023227
  0
CIRCLE
  5
F1
100
AcDbEntity
  8
0
  6
CONTINUOUS
 62
               7
100
AcDbCircle
 10
-20.000009059906176
 20
-21.000166024483377
 30
0.0
 40
17.500000298023227
  0
CIRCLE
  5
F2
100
AcDbEntity
  8
0
  6
CONTINUOUS
 62
               7
100
AcDbCircle
 10
-20.000009059906176
 20
32.999817456514791
 30
0.0
 40
1.500000298023229
  0
CIRCLE
  5
F3
100
AcDbEntity
  8
0
  6
CONTINUOUS
 62
               7
100
AcDbCircle
 10
-20.000009059906176
 20
8.9998344864135902
 30
0.0
 40
1.500000298023229
  0
CIRCLE
  5
F4
100
AcDbEntity
  8
0
  6
CONTINUOUS
 62
               7
100
AcDbCircle
 10
-20.000009059906176
 20
-9.000174539432777
 30
0.0
 40
1.500000298023229
  0
CIRCLE
  5
F5
100
AcDbEntity
  8
0
  6
CONTINUOUS
 62
               7
100
AcDbCircle
 10
-20.000009059906176
 20
-33.000157509533977
 30
0.0
 40
1.500000298023229
  0
ARC
  5
F6
100
AcDbEntity
  8
0
  6
CONTINUOUS
 62
               7
100
AcDbCircle
 10
-2.6000000442777207
 20
3.9000000664165952
 30
0.0
 40
2.1000000374659566
100
AcDbArc
 50
89.999999999999801
 51
269.99999999999937
  0
ARC
  5
F7
100
AcDbEntity
  8
0
  6
CONTINUOUS
 62
               7
100
AcDbCircle
 10
-37.400000636918207
 20
3.9000000664165952
 30
0.0
 40
2.1000000358947455
100
AcDbArc
 50
269.99999999999937
 51
89.999999999999801
  0
ARC
  5
F8
100
AcDbEntity
  8
0
  6
CONTINUOUS
 62
               7
100
AcDbCircle
 10
-20.000000340597978
 20
45.383218720695368
 30
0.0
 40
2.1000331282158915
100
AcDbArc
 50
180.32165448300631
 51
359.67834551699247
  0
ARC
  5
F9
100
AcDbEntity
  8
0
  6
CONTINUOUS
 62
               7
100
AcDbCircle
 10
-2.6000000442777207
 20
3.9000000664165952
 30
0.0
 40
2.1000000374659566
100
AcDbArc
 50
89.999999999999801
 51
269.99999999999937
  0
ARC
  5
FA
100
AcDbEntity
  8
0
  6
CONTINUOUS
 62
               7
100
AcDbCircle
 10
-37.400000636918207
 20
3.9000000664165952
 30
0.0
 40
2.1000000358947455
100
AcDbArc
 50
269.99999999999937
 51
89.999999999999801
  0
ARC
  5
FB
100
AcDbEntity
  8
0
  6
CONTINUOUS
 62
               7
100
AcDbCircle
 10
-20.000000340597978
 20
45.383218720695368
 30
0.0
 40
2.1000331282158915
100
AcDbArc
 50
180.32165448300631
 51
359.67834551699247
  0
ARC
  5
FC
100
AcDbEntity
  8
0
  6
CONTINUOUS
 62
               7
100
AcDbCircle
 10
-37.400000636918207
 20
37.900000645433124
 30
0.0
 40
2.1000000358947455
100
AcDbArc
 50
269.99999999999937
 51
89.999999999999801
  0
ARC
  5
FD
100
AcDbEntity
  8
0
  6
CONTINUOUS
 62
               7
100
AcDbCircle
 10
-37.400000636918207
 20
37.900000645433124
 30
0.0
 40
2.1000000358947455
100
AcDbArc
 50
269.99999999999937
 51
89.999999999999801
  0
ARC
  5
FE
100
AcDbEntity
  8
0
  6
CONTINUOUS
 62
               7
100
AcDbCircle
 10
-2.6000000442777207
 20
37.900000645433124
 30
0.0
 40
2.1000000374659566
100
AcDbArc
 50
89.999999999999801
 51
269.99999999999937
  0
ARC
  5
FF
100
AcDbEntity
  8
0
  6
CONTINUOUS
 62
               7
100
AcDbCircle
 10
-2.6000000442777207
 20
37.900000645433124
 30
0.0
 40
2.1000000374659566
100
AcDbArc
 50
89.999999999999801
 51
269.99999999999937
  0
LINE
  5
100
100
AcDbEntity
  8
0
  6
CENTER
 62
               2
100
AcDbLine
 10
-44.657143617649496
 20
37.900000645433124
 30
0.0
 11
2.3714286118137693
 21
37.900000645433124
 31
0.0
  0
LINE
  5
101
100
AcDbEntity
  8
0
  6
CENTER
 62
               2
100
AcDbLine
 10
-45.55714363297642
 20
3.9000000664165952
 30
0.0
 11
2.3714286118137693
 21
3.9000000664165952
 31
0.0
  0
LINE
  5
102
100
AcDbEntity
  8
0
  6
CENTER
 62
               2
100
AcDbLine
 10
-45.571429347505386
 20
0.0
 30
0.0
 11
4.7142857945694914
 21
0.0
 31
0.0
  0
LINE
  5
103
100
AcDbEntity
  8
0
  6
CENTER
 62
               2
100
AcDbLine
 10
-45.571429347505386
 20
21.000000357627869
 30
0.0
 11
4.7142857945694914
 21
21.000000357627869
 31
0.0
  0
LINE
  5
104
100
AcDbEntity
  8
0
  6
CENTER
 62
               2
100
AcDbLine
 10
-45.571429347505386
 20
-21.000000357627897
 30
0.0
 11
4.7142857945694914
 21
-21.000000357627897
 31
0.0
  0
ENDBLK
  5
105
100
AcDbEntity
  8
0
100
AcDbBlockEnd
  0
BLOCK
  5
106
100
AcDbEntity
  8
0
100
AcDbBlockBegin
  2
MS_4
 70
               0
 10
0.0
 20
0.0
 30
0.0
  3
MS_4
  1

  0
LINE
  5
107
100
AcDbEntity
  8
0
  6
PHANTOM
 62
               3
100
AcDbLine
 10
64.716689443181508
 20
-3.4996123207222922
 30
0.0
 11
64.716689443181508
 21
61.243463839766946
 31
0.0
  0
LINE
  5
108
100
AcDbEntity
  8
0
  6
PHANTOM
 62
               3
100
AcDbLine
 10
55.521725120591725
 20
-3.4996123207222922
 30
0.0
 11
55.521725120591725
 21
61.243463839766946
 31
0.0
  0
LINE
  5
109
100
AcDbEntity
  8
0
  6
PHANTOM
 62
               3
100
AcDbLine
 10
-14.855117194614834
 20
-3.4996123207222922
 30
0.0
 11
-14.855117194614834
 21
61.243463839766946
 31
0.0
  0
LINE
  5
10A
100
AcDbEntity
  8
0
  6
CONTINUOUS
 62
               7
100
AcDbLine
 10
11.000000187328936
 20
40.000000681195957
 30
0.0
 11
97.000002333096177
 21
40.000000681195957
 31
0.0
  0
LINE
  5
10B
100
AcDbEntity
  8
0
  6
CONTINUOUS
 62
               7
100
AcDbLine
 10
11.000000187328936
 20
0.0
 30
0.0
 11
97.000002333096177
 21
0.0
 31
0.0
  0
LINE
  5
10C
100
AcDbEntity
  8
0
  6
CONTINUOUS
 62
               7
100
AcDbLine
 10
98.000002350126067
 20
39.000000664166052
 30
0.0
 11
98.000002350126067
 21
1.0000000170298904
 31
0.0
  0
LINE
  5
10D
100
AcDbEntity
  8
0
  6
CONTINUOUS
 62
               7
100
AcDbLine
 10
10.000000170298989
 20
39.000000664166052
 30
0.0
 11
11.000000187328936
 21
40.000000681195957
 31
0.0
  0
LINE
  5
10E
100
AcDbEntity
  8
0
  6
CONTINUOUS
 62
               7
100
AcDbLine
 10
98.000002350126067
 20
39.000000664166052
 30
0.0
 11
97.000002333096177
 21
40.000000681195957
 31
0.0
  0
LINE
  5
10F
100
AcDbEntity
  8
0
  6
CONTINUOUS
 62
               7
100
AcDbLine
 10
10.000000170298989
 20
1.0000000170298904
 30
0.0
 11
11.000000187328936
 21
0.0
 31
0.0
  0
LINE
  5
110
100
AcDbEntity
  8
0
  6
CONTINUOUS
 62
               7
100
AcDbLine
 10
98.000002350126067
 20
1.0000000170298904
 30
0.0
 11
97.000002333096177
 21
0.0
 31
0.0
  0
LINE
  5
111
100
AcDbEntity
  8
0
  6
CONTINUOUS
 62
               7
100
AcDbLine
 10
-40.0
 20
39.000000664166052
 30
0.0
 11
-40.0
 21
1.0000000170298904
 31
0.0
  0
LINE
  5
112
100
AcDbEntity
  8
0
  6
CONTINUOUS
 62
               7
100
AcDbLine
 10
-22.999999710491693
 20
39.000000664166052
 30
0.0
 11
-22.999999710491693
 21
27.000000459807268
 31
0.0
  0
LINE
  5
113
100
AcDbEntity
  8
0
  6
CONTINUOUS
 62
               7
100
AcDbLine
 10
-40.0
 20
1.0000000170298904
 30
0.0
 11
-22.999999710491693
 21
1.0000000170298904
 31
0.0
  0
LINE
  5
114
100
AcDbEntity
  8
0
  6
CONTINUOUS
 62
               7
100
AcDbLine
 10
-40.0
 20
39.000000664166052
 30
0.0
 11
-22.999999710491693
 21
39.000000664166052
 31
0.0
  0
LINE
  5
115
100
AcDbEntity
  8
0
  6
CONTINUOUS
 62
               7
100
AcDbLine
 10
-20.999999676431912
 20
28.000000476837172
 30
0.0
 11
0.0
 21
28.000000476837172
 31
0.0
  0
LINE
  5
116
100
AcDbEntity
  8
0
  6
CENTER
 62
               2
100
AcDbLine
 10
46.000000783375384
 20
26.500000451292323
 30
0.0
 11
46.000000783375384
 21
13.500000229903634
 31
0.0
  0
LINE
  5
117
100
AcDbEntity
  8
0
  6
CENTER
 62
               2
100
AcDbLine
 10
78.000002009528089
 20
26.500000451292323
 30
0.0
 11
78.000002009528089
 21
13.500000229903634
 31
0.0
  0
LINE
  5
118
100
AcDbEntity
  8
0
  6
CONTINUOUS
 62
               7
100
AcDbLine
 10
10.000000170298989
 20
40.000000681195957
 30
0.0
 11
10.000000170298989
 21
0.0
 31
0.0
  0
LINE
  5
119
100
AcDbEntity
  8
0
  6
CONTINUOUS
 62
               7
100
AcDbLine
 10
-20.999999676431912
 20
12.000000204358798
 30
0.0
 11
0.0
 21
12.000000204358798
 31
0.0
  0
LINE
  5
11A
100
AcDbEntity
  8
0
  6
CONTINUOUS
 62
               7
100
AcDbLine
 10
-24.999999744551474
 20
27.000000459807268
 30
0.0
 11
-20.999999676431912
 21
27.000000459807268
 31
0.0
  0
LINE
  5
11B
100
AcDbEntity
  8
0
  6
CONTINUOUS
 62
               7
100
AcDbLine
 10
-24.999999744551474
 20
13.000000221388689
 30
0.0
 11
-20.999999676431912
 21
13.000000221388689
 31
0.0
  0
LINE
  5
11C
100
AcDbEntity
  8
0
  6
CONTINUOUS
 62
               7
100
AcDbLine
 10
-20.999999676431912
 20
28.000000476837172
 30
0.0
 11
-20.999999676431912
 21
27.000000459807268
 31
0.0
  0
LINE
  5
11D
100
AcDbEntity
  8
0
  6
CONTINUOUS
 62
               7
100
AcDbLine
 10
-20.999999676431912
 20
13.000000221388689
 30
0.0
 11
-20.999999676431912
 21
12.000000204358798
 31
0.0
  0
LINE
  5
11E
100
AcDbEntity
  8
0
  6
CONTINUOUS
 62
               7
100
AcDbLine
 10
-24.999999744551474
 20
27.000000459807268
 30
0.0
 11
-24.999999744551474
 21
13.000000221388689
 31
0.0
  0
LINE
  5
11F
100
AcDbEntity
  8
0
  6
CONTINUOUS
 62
               7
100
AcDbLine
 10
-22.999999710491693
 20
13.000000221388689
 30
0.0
 11
-22.999999710491693
 21
1.0000000170298904
 31
0.0
  0
LINE
  5
120
100
AcDbEntity
  8
0
  6
CENTER
 62
               2
100
AcDbLine
 10
5.0000000851495088
 20
24.385714701000538
 30
0.0
 11
5.0000000851495088
 21
15.457143120376429
 31
0.0
  0
LINE
  5
121
100
AcDbEntity
  8
0
  6
CONTINUOUS
 62
               7
100
AcDbLine
 10
0.0
 20
40.000000681195957
 30
0.0
 11
0.0
 21
0.0
 31
0.0
  0
LINE
  5
122
100
AcDbEntity
  8
0
  6
CONTINUOUS
 62
               7
100
AcDbLine
 10
0.0
 20
0.0
 30
0.0
 11
10.000000170298989
 21
0.0
 31
0.0
  0
LINE
  5
123
100
AcDbEntity
  8
0
  6
CONTINUOUS
 62
               7
100
AcDbLine
 10
0.0
 20
40.000000681195957
 30
0.0
 11
10.000000170298989
 21
40.000000681195957
 31
0.0
  0
CIRCLE
  5
124
100
AcDbEntity
  8
0
  6
CONTINUOUS
 62
               7
100
AcDbCircle
 10
46.008235298024545
 20
20.000009059906176
 30
0.0
 40
1.4999989356313252
  0
CIRCLE
  5
125
100
AcDbEntity
  8
0
  6
CONTINUOUS
 62
               7
100
AcDbCircle
 10
78.008249603139518
 20
20.000009059906176
 30
0.0
 40
1.4999989356313252
  0
CIRCLE
  5
126
100
AcDbEntity
  8
0
  6
CONTINUOUS
 62
               2
100
AcDbCircle
 10
46.008235298024545
 20
20.000009059906176
 30
0.0
 40
5.0000000851494937
  0
CIRCLE
  5
127
100
AcDbEntity
  8
0
  6
CONTINUOUS
 62
               2
100
AcDbCircle
 10
78.008249603139518
 20
20.000009059906176
 30
0.0
 40
5.0000000851494937
  0
CIRCLE
  5
128
100
AcDbEntity
  8
0
  6
CONTINUOUS
 62
               7
100
AcDbCircle
 10
46.008235298024545
 20
20.000009059906176
 30
0.0
 40
3.9999989782060723
  0
CIRCLE
  5
129
100
AcDbEntity
  8
0
  6
CONTINUOUS
 62
               7
100
AcDbCircle
 10
78.008249603139518
 20
20.000009059906176
 30
0.0
 40
3.9999989782060723
  0
CIRCLE
  5
12A
100
AcDbEntity
  8
0
  6
CONTINUOUS
 62
               2
100
AcDbCircle
 10
5.0082389594527683
 20
20.000009059906176
 30
0.0
 40
2.5000000425747468
  0
CIRCLE
  5
12B
100
AcDbEntity
  8
0
  6
CONTINUOUS
 62
               7
100
AcDbCircle
 10
5.0082389594527683
 20
20.000009059906176
 30
0.0
 40
1.9999994891030362
  0
CIRCLE
  5
12C
100
AcDbEntity
  8
0
  6
CONTINUOUS
 62
               7
100
AcDbCircle
 10
5.0082389594527683
 20
20.000009059906176
 30
0.0
 40
1.500000298023229
  0
LINE
  5
12D
100
AcDbEntity
  8
0
  6
CENTER
 62
               2
100
AcDbLine
 10
-47.28571440978925
 20
20.000000340597978
 30
0.0
 11
105.01428818386438
 21
20.000000340597978
 31
0.0
  0
ENDBLK
  5
12E
100
AcDbEntity
  8
0
100
AcDbBlockEnd
  0
BLOCK
  5
12F
100
AcDbEntity
  8
0
100
AcDbBlockBegin
  2
MS_5
 70
               0
 10
0.0
 20
0.0
 30
0.0
  3
MS_5
  1

  0
LINE
  5
130
100
AcDbEntity
  8
0
  6
CONTINUOUS
 62
               4
100
AcDbLine
 10
0.7501220703125
 20
0.5001983642578125
 30
0.0
 11
3.2501220703125
 21
0.5001983642578125
 31
0.0
  0
LINE
  5
131
100
AcDbEntity
  8
0
  6
CONTINUOUS
 62
               4
100
AcDbLine
 10
3.2501220703125
 20
0.5001983642578125
 30
0.0
 11
3.2501220703125
 21
0.0001983642578125
 31
0.0
  0
LINE
  5
132
100
AcDbEntity
  8
0
  6
CONTINUOUS
 62
             200
100
AcDbLine
 10
3.020122070312496
 20
0.5001983642578125
 30
0.0
 11
3.020122070312496
 21
0.0001983642578125
 31
0.0
  0
LINE
  5
133
100
AcDbEntity
  8
0
  6
CONTINUOUS
 62
             200
100
AcDbLine
 10
0.9701220703124989
 20
0.5001983642578125
 30
0.0
 11
0.9701220703124989
 21
0.0001983642578125
 31
0.0
  0
LINE
  5
134
100
AcDbEntity
  8
0
  6
CONTINUOUS
 62
               4
100
AcDbLine
 10
0.7501220703125
 20
0.5001983642578125
 30
0.0
 11
0.7501220703125
 21
0.0001983642578125
 31
0.0
  0
LINE
  5
135
100
AcDbEntity
  8
0
  6
CENTER
 62
             200
100
AcDbLine
 10
2.0001220703125
 20
0.8001983642577955
 30
0.0
 11
2.0001220703125
 21
-3.8498016357421818
 31
0.0
  0
ENDBLK
  5
136
100
AcDbEntity
  8
0
100
AcDbBlockEnd
  0
BLOCK
  5
137
100
AcDbEntity
  8
0
100
AcDbBlockBegin
  2
MS_6
 70
               0
 10
0.0
 20
0.0
 30
0.0
  3
MS_6
  1

  0
ARC
  5
138
100
AcDbEntity
  8
0
  6
CONTINUOUS
 62
               4
100
AcDbCircle
 10
-0.000002288819644
 20
-2.5499977111803673
 30
0.0
 40
2.0500022888209148
100
AcDbArc
 50
270.0000639705159
 51
359.99993602948268
  0
ARC
  5
139
100
AcDbEntity
  8
0
  6
CONTINUOUS
 62
               4
100
AcDbCircle
 10
0.000002288819644
 20
-2.5499977111803673
 30
0.0
 40
2.0500022888209148
100
AcDbArc
 50
180.00006397051609
 51
269.99993602948291
  0
LINE
  5
13A
100
AcDbEntity
  8
0
  6
CONTINUOUS
 62
               4
100
AcDbLine
 10
-1.25
 20
0.5
 30
0.0
 11
1.25
 21
0.5
 31
0.0
  0
LINE
  5
13B
100
AcDbEntity
  8
0
  6
CONTINUOUS
 62
               4
100
AcDbLine
 10
1.25
 20
0.5
 30
0.0
 11
1.25
 21
0.0
 31
0.0
  0
LINE
  5
13C
100
AcDbEntity
  8
0
  6
CONTINUOUS
 62
             200
100
AcDbLine
 10
1.019999999999996
 20
0.5
 30
0.0
 11
1.019999999999996
 21
0.0
 31
0.0
  0
LINE
  5
13D
100
AcDbEntity
  8
0
  6
CONTINUOUS
 62
             200
100
AcDbLine
 10
-1.019999999999996
 20
0.5
 30
0.0
 11
-1.019999999999996
 21
0.0
 31
0.0
  0
LINE
  5
13E
100
AcDbEntity
  8
0
  6
CONTINUOUS
 62
               4
100
AcDbLine
 10
-1.25
 20
0.5
 30
0.0
 11
-1.25
 21
0.0
 31
0.0
  0
LINE
  5
13F
100
AcDbEntity
  8
0
  6
CONTINUOUS
 62
               4
100
AcDbLine
 10
-1.25
 20
-3.7700000000000102
 30
0.0
 11
1.25
 21
-3.7700000000000102
 31
0.0
  0
LINE
  5
140
100
AcDbEntity
  8
0
  6
CONTINUOUS
 62
               4
100
AcDbLine
 10
1.25
 20
-2.5900000000000034
 30
0.0
 11
1.25
 21
-3.7700000000000102
 31
0.0
  0
LINE
  5
141
100
AcDbEntity
  8
0
  6
CONTINUOUS
 62
             200
100
AcDbLine
 10
1.019999999999996
 20
-2.5900000000000034
 30
0.0
 11
1.019999999999996
 21
-4.0
 31
0.0
  0
LINE
  5
142
100
AcDbEntity
  8
0
  6
CONTINUOUS
 62
             200
100
AcDbLine
 10
-1.019999999999996
 20
-2.5900000000000034
 30
0.0
 11
-1.019999999999996
 21
-4.0
 31
0.0
  0
LINE
  5
143
100
AcDbEntity
  8
0
  6
CONTINUOUS
 62
               4
100
AcDbLine
 10
-1.25
 20
-2.5900000000000034
 30
0.0
 11
-1.25
 21
-3.7700000000000102
 31
0.0
  0
LINE
  5
144
100
AcDbEntity
  8
0
  6
CONTINUOUS
 62
               4
100
AcDbLine
 10
-1.019999999999996
 20
-4.0
 30
0.0
 11
-1.25
 21
-3.7700000000000102
 31
0.0
  0
LINE
  5
145
100
AcDbEntity
  8
0
  6
CONTINUOUS
 62
               4
100
AcDbLine
 10
1.019999999999996
 20
-4.0
 30
0.0
 11
1.25
 21
-3.7700000000000102
 31
0.0
  0
LINE
  5
146
100
AcDbEntity
  8
0
  6
CONTINUOUS
 62
               4
100
AcDbLine
 10
-1.019999999999996
 20
-4.0
 30
0.0
 11
1.019999999999996
 21
-4.0
 31
0.0
  0
LINE
  5
147
100
AcDbEntity
  8
0
  6
CONTINUOUS
 62
               4
100
AcDbLine
 10
-2.0499999999999972
 20
-2.5900000000000034
 30
0.0
 11
2.0499999999999972
 21
-2.5900000000000034
 31
0.0
  0
LINE
  5
148
100
AcDbEntity
  8
0
  6
CONTINUOUS
 62
               4
100
AcDbLine
 10
-2.0499999999999972
 20
-1.7999999999999829
 30
0.0
 11
2.0499999999999972
 21
-1.7999999999999829
 31
0.0
  0
LINE
  5
149
100
AcDbEntity
  8
0
  6
CONTINUOUS
 62
               4
100
AcDbLine
 10
2.0499999999999972
 20
-1.0
 30
0.0
 11
2.0499999999999972
 21
-2.5499999999999829
 31
0.0
  0
LINE
  5
14A
100
AcDbEntity
  8
0
  6
CONTINUOUS
 62
               4
100
AcDbLine
 10
2.0499999999999972
 20
-1.0
 30
0.0
 11
1.5
 21
-0.4500000000000171
 31
0.0
  0
LINE
  5
14B
100
AcDbEntity
  8
0
  6
CONTINUOUS
 62
               4
100
AcDbLine
 10
1.5
 20
0.0
 30
0.0
 11
1.5
 21
-0.4500000000000171
 31
0.0
  0
LINE
  5
14C
100
AcDbEntity
  8
0
  6
CONTINUOUS
 62
               4
100
AcDbLine
 10
-1.5
 20
0.0
 30
0.0
 11
1.5
 21
0.0
 31
0.0
  0
LINE
  5
14D
100
AcDbEntity
  8
0
  6
CONTINUOUS
 62
               4
100
AcDbLine
 10
-1.5
 20
0.0
 30
0.0
 11
-1.5
 21
-0.4500000000000171
 31
0.0
  0
LINE
  5
14E
100
AcDbEntity
  8
0
  6
CONTINUOUS
 62
               4
100
AcDbLine
 10
-2.0499999999999972
 20
-1.0
 30
0.0
 11
-1.5
 21
-0.4500000000000171
 31
0.0
  0
LINE
  5
14F
100
AcDbEntity
  8
0
  6
CONTINUOUS
 62
               4
100
AcDbLine
 10
-2.0499999999999972
 20
-1.0
 30
0.0
 11
-2.0499999999999972
 21
-2.5499999999999829
 31
0.0
  0
LINE
  5
150
100
AcDbEntity
  8
0
  6
CENTER
 62
             200
100
AcDbLine
 10
0.0
 20
2.0499999999999829
 30
0.0
 11
0.0
 21
-4.9199999999999875
 31
0.0
  0
ENDBLK
  5
151
100
AcDbEntity
  8
0
100
AcDbBlockEnd
  0
BLOCK
  5
152
100
AcDbEntity
  8
0
100
AcDbBlockBegin
  2
MS_7
 70
               0
 10
0.0
 20
0.0
 30
0.0
  3
MS_7
  1

  0
CIRCLE
  5
153
100
AcDbEntity
  8
0
  6
CONTINUOUS
 62
               4
100
AcDbCircle
 10
2.0000152587890625
 20
-0.00628662109375
 30
0.0
 40
1.25
  0
CIRCLE
  5
154
100
AcDbEntity
  8
0
  6
CONTINUOUS
 62
             200
100
AcDbCircle
 10
2.0000152587890625
 20
-0.00628662109375
 30
0.0
 40
1.0
  0
LINE
  5
155
100
AcDbEntity
  8
0
  6
CONTINUOUS
 62
               4
100
AcDbLine
 10
22.0
 20
1.5999999999999943
 30
0.0
 11
22.0
 21
-1.5999999999999943
 31
0.0
  0
LINE
  5
156
100
AcDbEntity
  8
0
  6
CONTINUOUS
 62
               4
100
AcDbLine
 10
0.0
 20
1.5999999999999943
 30
0.0
 11
0.0
 21
-1.5999999999999943
 31
0.0
  0
LINE
  5
157
100
AcDbEntity
  8
0
  6
CONTINUOUS
 62
               4
100
AcDbLine
 10
1.269999999999996
 20
-1.0
 30
0.0
 11
3.0100000000000051
 21
0.7299999999999898
 31
0.0
  0
LINE
  5
158
100
AcDbEntity
  8
0
  6
CONTINUOUS
 62
               4
100
AcDbLine
 10
0.9899999999999949
 20
-0.7199999999999989
 30
0.0
 11
2.730000000000004
 21
1.0099999999999909
 31
0.0
  0
LINE
  5
159
100
AcDbEntity
  8
0
  6
CONTINUOUS
 62
               4
100
AcDbLine
 10
22.0
 20
-1.2999999999999829
 30
0.0
 11
25.090000000000003
 21
-1.2999999999999829
 31
0.0
  0
LINE
  5
15A
100
AcDbEntity
  8
0
  6
CONTINUOUS
 62
               4
100
AcDbLine
 10
22.0
 20
1.2999999999999829
 30
0.0
 11
23.579999999999998
 21
1.2999999999999829
 31
0.0
  0
LINE
  5
15B
100
AcDbEntity
  8
0
  6
CONTINUOUS
 62
             200
100
AcDbLine
 10
23.079999999999998
 20
2.1599999999999966
 30
0.0
 11
25.579999999999998
 21
-2.1599999999999966
 31
0.0
  0
LINE
  5
15C
100
AcDbEntity
  8
0
  6
CENTER
 62
             200
100
AcDbLine
 10
2.0
 20
2.8300000000000125
 30
0.0
 11
2.0
 21
-2.75
 31
0.0
  0
LINE
  5
15D
100
AcDbEntity
  8
0
  6
CONTINUOUS
 62
               4
100
AcDbLine
 10
0.0
 20
1.5
 30
0.0
 11
22.0
 21
1.5
 31
0.0
  0
LINE
  5
15E
100
AcDbEntity
  8
0
  6
CONTINUOUS
 62
               4
100
AcDbLine
 10
0.0
 20
-1.5
 30
0.0
 11
22.0
 21
-1.5
 31
0.0
  0
LINE
  5
15F
100
AcDbEntity
  8
0
  6
CENTER
 62
             200
100
AcDbLine
 10
-2.7999999999999972
 20
0.0
 30
0.0
 11
27.400000000000006
 21
0.0
 31
0.0
  0
ENDBLK
  5
160
100
AcDbEntity
  8
0
100
AcDbBlockEnd
  0
BLOCK
  5
161
100
AcDbEntity
  8
0
100
AcDbBlockBegin
  2
MS_8
 70
               0
 10
0.0
 20
0.0
 30
0.0
  3
MS_8
  1

  0
LINE
  5
162
100
AcDbEntity
  8
0
  6
CONTINUOUS
 62
               4
100
AcDbLine
 10
20.699847412109392
 20
12.150167846679693
 30
0.0
 11
20.699847412109392
 21
15.400167846679693
 31
0.0
  0
LINE
  5
163
100
AcDbEntity
  8
0
  6
CONTINUOUS
 62
               4
100
AcDbLine
 10
18.099847412109369
 20
10.650167846679693
 30
0.0
 11
18.099847412109369
 21
15.400167846679693
 31
0.0
  0
LINE
  5
164
100
AcDbEntity
  8
0
  6
CONTINUOUS
 62
               4
100
AcDbLine
 10
18.099847412109369
 20
6.9001678466796932
 30
0.0
 11
18.099847412109369
 21
9.1501678466796932
 31
0.0
  0
LINE
  5
165
100
AcDbEntity
  8
0
  6
CONTINUOUS
 62
               4
100
AcDbLine
 10
20.699847412109392
 20
6.9001678466796932
 30
0.0
 11
20.699847412109392
 21
10.650167846679693
 31
0.0
  0
LINE
  5
166
100
AcDbEntity
  8
0
  6
CONTINUOUS
 62
               4
100
AcDbLine
 10
0.749847412109375
 20
0.5001678466796875
 30
0.0
 11
3.249847412109375
 21
0.5001678466796875
 31
0.0
  0
LINE
  5
167
100
AcDbEntity
  8
0
  6
CONTINUOUS
 62
               4
100
AcDbLine
 10
3.249847412109375
 20
0.5001678466796875
 30
0.0
 11
3.249847412109375
 21
0.0001678466796875
 31
0.0
  0
LINE
  5
168
100
AcDbEntity
  8
0
  6
CONTINUOUS
 62
             200
100
AcDbLine
 10
3.0198474121093852
 20
0.5001678466796875
 30
0.0
 11
3.0198474121093852
 21
0.0001678466796875
 31
0.0
  0
LINE
  5
169
100
AcDbEntity
  8
0
  6
CONTINUOUS
 62
             200
100
AcDbLine
 10
0.9698474121093739
 20
0.5001678466796875
 30
0.0
 11
0.9698474121093739
 21
0.0001678466796875
 31
0.0
  0
LINE
  5
16A
100
AcDbEntity
  8
0
  6
CONTINUOUS
 62
               4
100
AcDbLine
 10
0.749847412109375
 20
0.5001678466796875
 30
0.0
 11
0.749847412109375
 21
0.0001678466796875
 31
0.0
  0
LINE
  5
16B
100
AcDbEntity
  8
0
  6
CONTINUOUS
 62
             200
100
AcDbLine
 10
17.239847412109356
 20
8.6501678466796932
 30
0.0
 11
21.569847412109368
 21
11.150167846679693
 31
0.0
  0
LINE
  5
16C
100
AcDbEntity
  8
0
  6
CONTINUOUS
 62
             200
100
AcDbLine
 10
17.239847412109356
 20
10.150167846679693
 30
0.0
 11
21.569847412109368
 21
12.650167846679693
 31
0.0
  0
LINE
  5
16D
100
AcDbEntity
  8
0
  6
CONTINUOUS
 62
             200
100
AcDbLine
 10
17.239847412109356
 20
17.630167846679683
 30
0.0
 11
21.569847412109368
 21
20.130167846679683
 31
0.0
  0
LINE
  5
16E
100
AcDbEntity
  8
0
  6
CENTER
 62
             200
100
AcDbLine
 10
19.399847412109381
 20
5.5801678466797
 30
0.0
 11
19.399847412109381
 21
15.400167846679693
 31
0.0
  0
LINE
  5
16F
100
AcDbEntity
  8
0
  6
CONTINUOUS
 62
             200
100
AcDbLine
 10
17.239847412109356
 20
19.130167846679683
 30
0.0
 11
21.569847412109368
 21
21.630167846679683
 31
0.0
  0
LINE
  5
170
100
AcDbEntity
  8
0
  6
CONTINUOUS
 62
               4
100
AcDbLine
 10
20.099847412109369
 20
22.400167846679693
 30
0.0
 11
20.099847412109369
 21
25.400167846679693
 31
0.0
  0
LINE
  5
171
100
AcDbEntity
  8
0
  6
CONTINUOUS
 62
               4
100
AcDbLine
 10
19.599847412109369
 20
22.400167846679693
 30
0.0
 11
19.599847412109369
 21
25.400167846679693
 31
0.0
  0
LINE
  5
172
100
AcDbEntity
  8
0
  6
CONTINUOUS
 62
               4
100
AcDbLine
 10
19.199847412109392
 20
22.400167846679693
 30
0.0
 11
19.199847412109392
 21
25.400167846679693
 31
0.0
  0
LINE
  5
173
100
AcDbEntity
  8
0
  6
CONTINUOUS
 62
               4
100
AcDbLine
 10
18.699847412109392
 20
22.400167846679693
 30
0.0
 11
18.699847412109392
 21
25.400167846679693
 31
0.0
  0
LINE
  5
174
100
AcDbEntity
  8
0
  6
CONTINUOUS
 62
               4
100
AcDbLine
 10
18.499847412109375
 20
19.860167846679673
 30
0.0
 11
18.499847412109375
 21
22.400167846679693
 31
0.0
  0
LINE
  5
175
100
AcDbEntity
  8
0
  6
CONTINUOUS
 62
               4
100
AcDbLine
 10
18.499847412109375
 20
15.400167846679693
 30
0.0
 11
18.499847412109375
 21
18.360167846679673
 31
0.0
  0
LINE
  5
176
100
AcDbEntity
  8
0
  6
CONTINUOUS
 62
               4
100
AcDbLine
 10
20.299847412109358
 20
20.900167846679693
 30
0.0
 11
20.299847412109358
 21
22.400167846679693
 31
0.0
  0
LINE
  5
177
100
AcDbEntity
  8
0
  6
CONTINUOUS
 62
               4
100
AcDbLine
 10
19.399847412109381
 20
20.380167846679683
 30
0.0
 11
19.399847412109381
 21
22.400167846679693
 31
0.0
  0
LINE
  5
178
100
AcDbEntity
  8
0
  6
CONTINUOUS
 62
               4
100
AcDbLine
 10
19.399847412109381
 20
15.400167846679693
 30
0.0
 11
19.399847412109381
 21
18.880167846679683
 31
0.0
  0
LINE
  5
179
100
AcDbEntity
  8
0
  6
CONTINUOUS
 62
               4
100
AcDbLine
 10
20.299847412109358
 20
15.400167846679693
 30
0.0
 11
20.299847412109358
 21
19.400167846679693
 31
0.0
  0
LINE
  5
17A
100
AcDbEntity
  8
0
  6
CONTINUOUS
 62
               4
100
AcDbLine
 10
18.499847412109375
 20
22.400167846679693
 30
0.0
 11
20.299847412109358
 21
22.400167846679693
 31
0.0
  0
LINE
  5
17B
100
AcDbEntity
  8
0
  6
CONTINUOUS
 62
               4
100
AcDbLine
 10
19.599847412109369
 20
25.400167846679693
 30
0.0
 11
20.099847412109369
 21
25.400167846679693
 31
0.0
  0
LINE
  5
17C
100
AcDbEntity
  8
0
  6
CONTINUOUS
 62
               4
100
AcDbLine
 10
18.699847412109392
 20
25.400167846679693
 30
0.0
 11
19.199847412109392
 21
25.400167846679693
 31
0.0
  0
LINE
  5
17D
100
AcDbEntity
  8
0
  6
CENTER
 62
             200
100
AcDbLine
 10
19.849847412109369
 20
13.720167846679686
 30
0.0
 11
19.849847412109369
 21
25.650167846679693
 31
0.0
  0
LINE
  5
17E
100
AcDbEntity
  8
0
  6
CENTER
 62
             200
100
AcDbLine
 10
18.949847412109392
 20
13.670167846679675
 30
0.0
 11
18.949847412109392
 21
25.600167846679682
 31
0.0
  0
LINE
  5
17F
100
AcDbEntity
  8
0
  6
CONTINUOUS
 62
               4
100
AcDbLine
 10
18.099847412109369
 20
15.400167846679693
 30
0.0
 11
20.699847412109392
 21
15.400167846679693
 31
0.0
  0
LINE
  5
180
100
AcDbEntity
  8
0
  6
CONTINUOUS
 62
               4
100
AcDbLine
 10
16.099847412109369
 20
5.4001678466796932
 30
0.0
 11
21.999847412109375
 21
5.4001678466796932
 31
0.0
  0
LINE
  5
181
100
AcDbEntity
  8
0
  6
CONTINUOUS
 62
               4
100
AcDbLine
 10
16.099847412109369
 20
0.4001678466796932
 30
0.0
 11
21.999847412109375
 21
0.4001678466796932
 31
0.0
  0
LINE
  5
182
100
AcDbEntity
  8
0
  6
CONTINUOUS
 62
               4
100
AcDbLine
 10
16.099847412109369
 20
1.1501678466796932
 30
0.0
 11
21.999847412109375
 21
1.1501678466796932
 31
0.0
  0
LINE
  5
183
100
AcDbEntity
  8
0
  6
CONTINUOUS
 62
               4
100
AcDbLine
 10
16.099847412109369
 20
6.9001678466796932
 30
0.0
 11
21.999847412109375
 21
6.9001678466796932
 31
0.0
  0
LINE
  5
184
100
AcDbEntity
  8
0
  6
CONTINUOUS
 62
               4
100
AcDbLine
 10
16.099847412109369
 20
6.9001678466796932
 30
0.0
 11
16.099847412109369
 21
0.0001678466796875
 31
0.0
  0
LINE
  5
185
100
AcDbEntity
  8
0
  6
CENTER
 62
             200
100
AcDbLine
 10
1.999847412109375
 20
0.7301678466796773
 30
0.0
 11
1.999847412109375
 21
-4.2698321533203227
 31
0.0
  0
LINE
  5
186
100
AcDbEntity
  8
0
  6
CONTINUOUS
 62
               4
100
AcDbLine
 10
21.999847412109375
 20
6.9001678466796932
 30
0.0
 11
21.999847412109375
 21
0.0001678466796875
 31
0.0
  0
LINE
  5
187
100
AcDbEntity
  8
0
  6
CONTINUOUS
 62
             200
100
AcDbLine
 10
3.0251104736327932
 20
0.4996923828124977
 30
0.0
 11
3.0251104736327932
 21
-0.0003076171875023
 31
0.0
  0
LINE
  5
188
100
AcDbEntity
  8
0
  6
CONTINUOUS
 62
             200
100
AcDbLine
 10
0.9751104736328102
 20
0.4996923828124977
 30
0.0
 11
0.9751104736328102
 21
-0.0003076171875023
 31
0.0
  0
ENDBLK
  5
189
100
AcDbEntity
  8
0
100
AcDbBlockEnd
  0
BLOCK
  5
18A
100
AcDbEntity
  8
0
100
AcDbBlockBegin
  2
MS_9
 70
               0
 10
0.0
 20
0.0
 30
0.0
  3
MS_9
  1

  0
ARC
  5
18B
100
AcDbEntity
  8
0
  6
CONTINUOUS
 62
               4
100
AcDbCircle
 10
0.0048075112054846
 20
-2.5451044595701262
 30
0.0
 40
2.0451983479696025
100
AcDbArc
 50
270.98595845240197
 51
359.86285238631956
  0
ARC
  5
18C
100
AcDbEntity
  8
0
  6
CONTINUOUS
 62
               4
100
AcDbCircle
 10
0.000002288819644
 20
-2.5499977111803673
 30
0.0
 40
2.0500022888209148
100
AcDbArc
 50
180.00006397051609
 51
269.99993602948291
  0
LINE
  5
18D
100
AcDbEntity
  8
0
  6
CONTINUOUS
 62
               4
100
AcDbLine
 10
1.2999999999999829
 20
10.650000000000006
 30
0.0
 11
1.2999999999999829
 21
6.9000000000000057
 31
0.0
  0
LINE
  5
18E
100
AcDbEntity
  8
0
  6
CONTINUOUS
 62
               4
100
AcDbLine
 10
-1.2999999999999829
 20
9.1500000000000057
 30
0.0
 11
-1.2999999999999829
 21
6.9000000000000057
 31
0.0
  0
LINE
  5
18F
100
AcDbEntity
  8
0
  6
CONTINUOUS
 62
               4
100
AcDbLine
 10
-1.25
 20
0.5
 30
0.0
 11
1.25
 21
0.5
 31
0.0
  0
LINE
  5
190
100
AcDbEntity
  8
0
  6
CONTINUOUS
 62
               4
100
AcDbLine
 10
1.25
 20
0.5
 30
0.0
 11
1.25
 21
0.0
 31
0.0
  0
LINE
  5
191
100
AcDbEntity
  8
0
  6
CONTINUOUS
 62
             200
100
AcDbLine
 10
1.0200000000000102
 20
0.5
 30
0.0
 11
1.0200000000000102
 21
0.0
 31
0.0
  0
LINE
  5
192
100
AcDbEntity
  8
0
  6
CONTINUOUS
 62
             200
100
AcDbLine
 10
-1.0200000000000102
 20
0.5
 30
0.0
 11
-1.0200000000000102
 21
0.0
 31
0.0
  0
LINE
  5
193
100
AcDbEntity
  8
0
  6
CONTINUOUS
 62
               4
100
AcDbLine
 10
-1.25
 20
0.5
 30
0.0
 11
-1.25
 21
0.0
 31
0.0
  0
LINE
  5
194
100
AcDbEntity
  8
0
  6
CONTINUOUS
 62
               4
100
AcDbLine
 10
-1.25
 20
-3.7700000000000102
 30
0.0
 11
1.25
 21
-3.7700000000000102
 31
0.0
  0
LINE
  5
195
100
AcDbEntity
  8
0
  6
CONTINUOUS
 62
               4
100
AcDbLine
 10
1.25
 20
-2.5999999999999943
 30
0.0
 11
1.25
 21
-3.7700000000000102
 31
0.0
  0
LINE
  5
196
100
AcDbEntity
  8
0
  6
CONTINUOUS
 62
             200
100
AcDbLine
 10
1.0200000000000102
 20
-2.5999999999999943
 30
0.0
 11
1.0200000000000102
 21
-4.0
 31
0.0
  0
LINE
  5
197
100
AcDbEntity
  8
0
  6
CONTINUOUS
 62
             200
100
AcDbLine
 10
-1.0200000000000102
 20
-2.5999999999999943
 30
0.0
 11
-1.0200000000000102
 21
-4.0
 31
0.0
  0
LINE
  5
198
100
AcDbEntity
  8
0
  6
CONTINUOUS
 62
               4
100
AcDbLine
 10
-1.25
 20
-2.5999999999999943
 30
0.0
 11
-1.25
 21
-3.7700000000000102
 31
0.0
  0
LINE
  5
199
100
AcDbEntity
  8
0
  6
CONTINUOUS
 62
               4
100
AcDbLine
 10
-1.0200000000000102
 20
-4.0
 30
0.0
 11
-1.25
 21
-3.7700000000000102
 31
0.0
  0
LINE
  5
19A
100
AcDbEntity
  8
0
  6
CONTINUOUS
 62
               4
100
AcDbLine
 10
1.0200000000000102
 20
-4.0
 30
0.0
 11
1.25
 21
-3.7700000000000102
 31
0.0
  0
LINE
  5
19B
100
AcDbEntity
  8
0
  6
CONTINUOUS
 62
               4
100
AcDbLine
 10
-1.0200000000000102
 20
-4.0
 30
0.0
 11
1.0200000000000102
 21
-4.0
 31
0.0
  0
LINE
  5
19C
100
AcDbEntity
  8
0
  6
CONTINUOUS
 62
             200
100
AcDbLine
 10
-2.1599999999999966
 20
8.6500000000000057
 30
0.0
 11
2.1599999999999966
 21
11.150000000000006
 31
0.0
  0
LINE
  5
19D
100
AcDbEntity
  8
0
  6
CONTINUOUS
 62
               4
100
AcDbLine
 10
-2.25
 20
6.9000000000000057
 30
0.0
 11
2.25
 21
6.9000000000000057
 31
0.0
  0
LINE
  5
19E
100
AcDbEntity
  8
0
  6
CONTINUOUS
 62
               4
100
AcDbLine
 10
-2.0499999999999829
 20
-2.5999999999999943
 30
0.0
 11
2.0499999999999829
 21
-2.5999999999999943
 31
0.0
  0
LINE
  5
19F
100
AcDbEntity
  8
0
  6
CONTINUOUS
 62
               4
100
AcDbLine
 10
-2.0499999999999829
 20
-1.7999999999999829
 30
0.0
 11
2.0499999999999829
 21
-1.7999999999999829
 31
0.0
  0
LINE
  5
1A0
100
AcDbEntity
  8
0
  6
CONTINUOUS
 62
               4
100
AcDbLine
 10
-1.5
 20
0.0
 30
0.0
 11
1.5
 21
0.0
 31
0.0
  0
LINE
  5
1A1
100
AcDbEntity
  8
0
  6
CENTER
 62
             200
100
AcDbLine
 10
0.0
 20
12.560000000000002
 30
0.0
 11
0.0
 21
-6.0600000000000023
 31
0.0
  0
LINE
  5
1A2
100
AcDbEntity
  8
0
  6
CONTINUOUS
 62
               4
100
AcDbLine
 10
2.25
 20
6.9000000000000057
 30
0.0
 11
2.25
 21
1.1500000000000057
 31
0.0
  0
LINE
  5
1A3
100
AcDbEntity
  8
0
  6
CONTINUOUS
 62
               4
100
AcDbLine
 10
1.5
 20
0.4000000000000057
 30
0.0
 11
2.25
 21
1.1500000000000057
 31
0.0
  0
LINE
  5
1A4
100
AcDbEntity
  8
0
  6
CONTINUOUS
 62
               4
100
AcDbLine
 10
1.5
 20
-0.4500000000000171
 30
0.0
 11
1.5
 21
0.4000000000000057
 31
0.0
  0
LINE
  5
1A5
100
AcDbEntity
  8
0
  6
CONTINUOUS
 62
               4
100
AcDbLine
 10
2.0499999999999829
 20
-1.0
 30
0.0
 11
1.5
 21
-0.4500000000000171
 31
0.0
  0
LINE
  5
1A6
100
AcDbEntity
  8
0
  6
CONTINUOUS
 62
               4
100
AcDbLine
 10
2.0499999999999829
 20
-1.0
 30
0.0
 11
2.0499999999999829
 21
-2.5499999999999829
 31
0.0
  0
LINE
  5
1A7
100
AcDbEntity
  8
0
  6
CONTINUOUS
 62
               4
100
AcDbLine
 10
-2.0499999999999829
 20
-1.0
 30
0.0
 11
-2.0499999999999829
 21
-2.5499999999999829
 31
0.0
  0
LINE
  5
1A8
100
AcDbEntity
  8
0
  6
CONTINUOUS
 62
               4
100
AcDbLine
 10
-2.0499999999999829
 20
-1.0
 30
0.0
 11
-1.5
 21
-0.4500000000000171
 31
0.0
  0
LINE
  5
1A9
100
AcDbEntity
  8
0
  6
CONTINUOUS
 62
               4
100
AcDbLine
 10
-1.5
 20
-0.4500000000000171
 30
0.0
 11
-1.5
 21
0.4000000000000057
 31
0.0
  0
LINE
  5
1AA
100
AcDbEntity
  8
0
  6
CONTINUOUS
 62
               4
100
AcDbLine
 10
-1.5
 20
0.4000000000000057
 30
0.0
 11
-2.25
 21
1.1500000000000057
 31
0.0
  0
LINE
  5
1AB
100
AcDbEntity
  8
0
  6
CONTINUOUS
 62
               4
100
AcDbLine
 10
-2.25
 20
6.9000000000000057
 30
0.0
 11
-2.25
 21
1.1500000000000057
 31
0.0
  0
LINE
  5
1AC
100
AcDbEntity
  8
0
  6
CONTINUOUS
 62
               4
100
AcDbLine
 10
-2.25
 20
5.4000000000000057
 30
0.0
 11
2.25
 21
5.4000000000000057
 31
0.0
  0
ENDBLK
  5
1AD
100
AcDbEntity
  8
0
100
AcDbBlockEnd
  0
BLOCK
  5
1AE
100
AcDbEntity
  8
0
100
AcDbBlockBegin
  2
MS_10
 70
               0
 10
0.0
 20
0.0
 30
0.0
  3
MS_10
  1

  0
CIRCLE
  5
1AF
100
AcDbEntity
  8
0
  6
CONTINUOUS
 62
               4
100
AcDbCircle
 10
2.0000633955767171
 20
-0.00628662109375
 30
0.0
 40
1.25
  0
CIRCLE
  5
1B0
100
AcDbEntity
  8
0
  6
CONTINUOUS
 62
             200
100
AcDbCircle
 10
2.0000633955767171
 20
-0.00628662109375
 30
0.0
 40
1.0
  0
CIRCLE
  5
1B1
100
AcDbEntity
  8
0
  6
CONTINUOUS
 62
               4
100
AcDbCircle
 10
19.117342448311092
 20
0.3181533813476563
 30
0.0
 40
0.25
  0
CIRCLE
  5
1B2
100
AcDbEntity
  8
0
  6
CONTINUOUS
 62
               4
100
AcDbCircle
 10
19.729219889717342
 20
-0.34100341796875
 30
0.0
 40
0.25
  0
CIRCLE
  5
1B3
100
AcDbEntity
  8
0
  6
CONTINUOUS
 62
               4
100
AcDbCircle
 10
19.117342448311092
 20
0.3181533813476563
 30
0.0
 40
0.449999988079071
  0
CIRCLE
  5
1B4
100
AcDbEntity
  8
0
  6
CONTINUOUS
 62
               4
100
AcDbCircle
 10
19.729219889717342
 20
-0.34100341796875
 30
0.0
 40
0.449999988079071
  0
CIRCLE
  5
1B5
100
AcDbEntity
  8
0
  6
CONTINUOUS
 62
               4
100
AcDbCircle
 10
19.407412028389217
 20
0.0
 30
0.0
 40
1.2999992370605469
  0
ARC
  5
1B6
100
AcDbEntity
  8
0
  6
CONTINUOUS
 62
               4
100
AcDbCircle
 10
19.500063395576717
 20
0.0
 30
0.0
 40
3.3043758866085451
100
AcDbArc
 50
137.08479304050996
 51
222.91520695948924
  0
LINE
  5
1B7
100
AcDbEntity
  8
0
  6
CONTINUOUS
 62
               4
100
AcDbLine
 10
1.2700633955767273
 20
-1.0
 30
0.0
 11
3.0100633955767364
 21
0.7299999999999898
 31
0.0
  0
LINE
  5
1B8
100
AcDbEntity
  8
0
  6
CONTINUOUS
 62
               4
100
AcDbLine
 10
0.9900633955766978
 20
-0.7199999999999989
 30
0.0
 11
2.7300633955767069
 21
1.0099999999999909
 31
0.0
  0
LINE
  5
1B9
100
AcDbEntity
  8
0
  6
CONTINUOUS
 62
               4
100
AcDbLine
 10
22.000063395576717
 20
2.25
 30
0.0
 11
22.000063395576717
 21
-2.25
 31
0.0
  0
LINE
  5
1BA
100
AcDbEntity
  8
0
  6
CONTINUOUS
 62
               4
100
AcDbLine
 10
17.08006339557673
 20
-2.25
 30
0.0
 11
22.000063395576717
 21
-2.25
 31
0.0
  0
LINE
  5
1BB
100
AcDbEntity
  8
0
  6
CONTINUOUS
 62
               4
100
AcDbLine
 10
17.08006339557673
 20
2.25
 30
0.0
 11
22.000063395576717
 21
2.25
 31
0.0
  0
LINE
  5
1BC
100
AcDbEntity
  8
0
  6
CENTER
 62
             200
100
AcDbLine
 10
2.0000633955767171
 20
2.8300000000000125
 30
0.0
 11
2.0000633955767171
 21
-2.75
 31
0.0
  0
LINE
  5
1BD
100
AcDbEntity
  8
0
  6
CONTINUOUS
 62
               4
100
AcDbLine
 10
0.0000633955767171
 20
1.5999999999999943
 30
0.0
 11
0.0000633955767171
 21
-1.5999999999999943
 31
0.0
  0
LINE
  5
1BE
100
AcDbEntity
  8
0
  6
CONTINUOUS
 62
               4
100
AcDbLine
 10
0.0000633955767171
 20
1.5
 30
0.0
 11
16.560063395576719
 21
1.5
 31
0.0
  0
LINE
  5
1BF
100
AcDbEntity
  8
0
  6
CONTINUOUS
 62
               4
100
AcDbLine
 10
0.0000633955767171
 20
-1.5
 30
0.0
 11
16.560063395576719
 21
-1.5
 31
0.0
  0
LINE
  5
1C0
100
AcDbEntity
  8
0
  6
CENTER
 62
             200
100
AcDbLine
 10
-1.3199366044232761
 20
0.0
 30
0.0
 11
23.58006339557673
 21
0.0
 31
0.0
  0
ENDBLK
  5
1C1
100
AcDbEntity
  8
0
100
AcDbBlockEnd
  0
ENDSEC
  0
SECTION
  2
ENTITIES
  0
LINE
  5
1C2
100
AcDbEntity
  8
0
  6
CENTER
 62
             200
100
AcDbLine
 10
61.730034868225331
 20
-153.83985524239307
 30
0.0
 11
73.660034868225338
 21
-153.83985524239307
 31
0.0
  0
LINE
  5
1C3
100
AcDbEntity
  8
0
  6
CENTER
 62
             200
100
AcDbLine
 10
61.780034868225343
 20
-154.73985524239308
 30
0.0
 11
73.70003486822533
 21
-154.73985524239308
 31
0.0
  0
LINE
  5
1C4
100
AcDbEntity
  8
0
  6
CONTINUOUS
 62
             200
100
AcDbLine
 10
67.180034868225334
 20
-152.11985524239307
 30
0.0
 11
69.680034868225334
 21
-156.44985524239308
 31
0.0
  0
LINE
  5
1C5
100
AcDbEntity
  8
0
  6
CENTER
 62
             200
100
AcDbLine
 10
53.630034868225337
 20
-154.28985524239306
 30
0.0
 11
63.45003486822533
 21
-154.28985524239306
 31
0.0
  0
LINE
  5
1C6
100
AcDbEntity
  8
0
  6
CONTINUOUS
 62
             200
100
AcDbLine
 10
65.680034868225334
 20
-152.11985524239307
 30
0.0
 11
68.180034868225334
 21
-156.44985524239308
 31
0.0
  0
LINE
  5
1C7
100
AcDbEntity
  8
0
  6
CONTINUOUS
 62
             200
100
AcDbLine
 10
58.20003486822533
 20
-152.11985524239307
 30
0.0
 11
60.70003486822533
 21
-156.44985524239308
 31
0.0
  0
LINE
  5
1C8
100
AcDbEntity
  8
0
  6
CONTINUOUS
 62
             200
100
AcDbLine
 10
56.70003486822533
 20
-152.11985524239307
 30
0.0
 11
59.20003486822533
 21
-156.44985524239308
 31
0.0
  0
LINE
  5
1C9
100
AcDbEntity
  8
0
  6
CONTINUOUS
 62
               7
100
AcDbLine
 10
-142.34999999999999
 20
195.5
 30
0.0
 11
-142.34999999999999
 21
175.5
 31
0.0
  0
LINE
  5
1CB
100
AcDbEntity
  8
0
  6
DASHED
 62
             200
100
AcDbLine
 10
205.75005203524347
 20
-148.98967521918325
 30
0.0
 11
221.85005203510406
 21
-148.98974221909242
 31
0.0
  0
LINE
  5
1CC
100
AcDbEntity
  8
0
  6
DASHED
 62
             200
100
AcDbLine
 10
210.45003289237158
 20
-153.58969477812312
 30
0.0
 11
227.75003289222181
 21
-153.58976677181431
 31
0.0
  0
LINE
  5
1CD
100
AcDbEntity
  8
0
  6
DASHED
 62
             200
100
AcDbLine
 10
205.75004121538237
 20
-151.58967521916074
 30
0.0
 11
205.75005203524347
 21
-148.98967521918325
 31
0.0
  0
LINE
  5
1CE
100
AcDbEntity
  8
0
  6
DASHED
 62
             200
100
AcDbLine
 10
210.45003963397735
 20
-151.96969477813713
 30
0.0
 11
210.45003289237158
 21
-153.58969477812312
 31
0.0
  0
LINE
  5
1CF
100
AcDbEntity
  8
0
  6
DASHED
 62
             200
100
AcDbLine
 10
205.75004454457041
 20
-150.78967521916766
 30
0.0
 11
210.02004454453342
 21
-150.78969298870877
 31
0.0
  0
LINE
  5
1D0
100
AcDbEntity
  8
0
  6
DASHED
 62
             200
100
AcDbLine
 10
205.75004121538237
 20
-151.58967521916074
 30
0.0
 11
209.75004121534775
 21
-151.58969186510089
 31
0.0
  0
LINE
  5
1D1
100
AcDbEntity
  8
0
  6
DASHED
 62
             200
100
AcDbLine
 10
209.75004454453577
 20
-150.78969186510781
 30
0.0
 11
209.75004121534775
 21
-151.58969186510089
 31
0.0
  0
LINE
  5
1D2
100
AcDbEntity
  8
0
  6
DASHED
 62
             200
100
AcDbLine
 10
209.95003622156395
 20
-152.78969269738752
 30
0.0
 11
210.45003622155963
 21
-152.78969477813004
 31
0.0
  0
LINE
  5
1D3
100
AcDbEntity
  8
0
  6
DASHED
 62
             200
100
AcDbLine
 10
209.95004454453402
 20
-150.78969269740483
 30
0.0
 11
209.95003622156395
 21
-152.78969269738752
 31
0.0
  0
LINE
  5
1D4
100
AcDbEntity
  8
0
  6
DASHED
 62
             200
100
AcDbLine
 10
210.02003963398107
 20
-151.96969298869857
 30
0.0
 11
210.45003963397735
 21
-151.96969477813713
 31
0.0
  0
LINE
  5
1D5
100
AcDbEntity
  8
0
  6
DASHED
 62
             200
100
AcDbLine
 10
210.02004454453342
 20
-150.78969298870877
 30
0.0
 11
210.02003963398107
 21
-151.96969298869857
 31
0.0
  0
LINE
  5
1D6
100
AcDbEntity
  8
0
  6
DASHED
 62
             200
100
AcDbLine
 10
205.75004787375843
 20
-149.98967521917461
 30
0.0
 11
227.75004787356795
 21
-149.9897667718455
 31
0.0
  0
LINE
  5
1D7
100
AcDbEntity
  8
0
  6
DASHED
 62
             200
100
AcDbLine
 10
205.75005016257521
 20
-149.43967521917938
 30
0.0
 11
227.75005016238472
 21
-149.43976677185026
 31
0.0
  0
LINE
  5
1D8
100
AcDbEntity
  8
0
  6
DASHED
 62
             200
100
AcDbLine
 10
206.73003538929481
 20
-152.98967929740397
 30
0.0
 11
208.78003538927706
 21
-152.9896878284483
 31
0.0
  0
LINE
  5
1D9
100
AcDbEntity
  8
0
  6
DASHED
 62
             200
100
AcDbLine
 10
208.78003538927706
 20
-152.9896878284483
 30
0.0
 11
209.00003634641675
 21
-152.75968874397699
 31
0.0
  0
LINE
  5
1DA
100
AcDbEntity
  8
0
  6
DASHED
 62
             200
100
AcDbLine
 10
206.73003538929481
 20
-152.98967929740397
 30
0.0
 11
206.50003634643838
 21
-152.7596783402644
 31
0.0
  0
LINE
  5
1DB
100
AcDbEntity
  8
0
  6
DASHED
 62
             200
100
AcDbLine
 10
206.50004121537589
 20
-151.58967834027453
 30
0.0
 11
206.50003634643838
 21
-152.7596783402644
 31
0.0
  0
LINE
  5
1DC
100
AcDbEntity
  8
0
  6
DASHED
 62
             200
100
AcDbLine
 10
209.00004121535423
 20
-151.58968874398713
 30
0.0
 11
209.00003634641675
 21
-152.75968874397699
 31
0.0
  0
LINE
  5
1DD
100
AcDbEntity
  8
0
  6
DASHED
 62
             200
100
AcDbLine
 10
206.50003634643838
 20
-152.7596783402644
 30
0.0
 11
209.00003634641675
 21
-152.75968874397699
 31
0.0
  0
LINE
  5
1DE
100
AcDbEntity
  8
0
  6
DASHED
 62
             200
100
AcDbLine
 10
227.75005203505299
 20
-148.98976677185414
 30
0.0
 11
227.75003289222181
 21
-153.58976677181431
 31
0.0
  0
LINE
  5
1DF
100
AcDbEntity
  8
0
  6
DASHED
 62
             200
100
AcDbLine
 10
205.7501154321003
 20
-103.43967523953094
 30
0.0
 11
222.6601154321003
 21
-103.43967523953094
 31
0.0
  0
LINE
  5
1E0
100
AcDbEntity
  8
0
  6
DASHED
 62
             200
100
AcDbLine
 10
205.7501154321003
 20
-99.339675239530948
 30
0.0
 11
222.6601154321003
 21
-99.339675239530948
 31
0.0
  0
LINE
  5
1E1
100
AcDbEntity
  8
0
  6
DASHED
 62
             200
100
AcDbLine
 10
205.7501154321003
 20
-99.789675239530936
 30
0.0
 11
205.7501154321003
 21
-99.339675239530948
 31
0.0
  0
LINE
  5
1E2
100
AcDbEntity
  8
0
  6
DASHED
 62
             200
100
AcDbLine
 10
205.7501154321003
 20
-102.98967523953095
 30
0.0
 11
205.7501154321003
 21
-103.43967523953094
 31
0.0
  0
LINE
  5
1E3
100
AcDbEntity
  8
0
  6
DASHED
 62
             200
100
AcDbLine
 10
32.950052034793742
 20
-151.9896752802743
 30
0.0
 11
54.950052034365129
 21
-151.98981260832812
 31
0.0
  0
LINE
  5
1E4
100
AcDbEntity
  8
0
  6
DASHED
 62
             200
100
AcDbLine
 10
37.650023320654554
 20
-156.58970461845072
 30
0.0
 11
54.950023320317506
 21
-156.5898126082385
 31
0.0
  0
LINE
  5
1E5
100
AcDbEntity
  8
0
  6
DASHED
 62
             200
100
AcDbLine
 10
54.950052034365129
 20
-151.98981260832812
 30
0.0
 11
54.950023320317506
 21
-156.5898126082385
 31
0.0
  0
LINE
  5
1E6
100
AcDbEntity
  8
0
  6
DASHED
 62
             200
100
AcDbLine
 10
32.950040798862062
 20
-153.78967528023921
 30
0.0
 11
32.950052034793742
 21
-151.9896752802743
 31
0.0
  0
LINE
  5
1E7
100
AcDbEntity
  8
0
  6
DASHED
 62
             200
100
AcDbLine
 10
37.650033058462007
 20
-155.02970461848111
 30
0.0
 11
37.650023320654554
 21
-156.58970461845072
 31
0.0
  0
LINE
  5
1E8
100
AcDbEntity
  8
0
  6
DASHED
 62
             200
100
AcDbLine
 10
32.950040798862062
 20
-153.78967528023921
 30
0.0
 11
37.200040798779263
 21
-153.78970180952234
 31
0.0
  0
LINE
  5
1E9
100
AcDbEntity
  8
0
  6
DASHED
 62
             200
100
AcDbLine
 10
37.200040798779263
 20
-153.78970180952234
 30
0.0
 11
37.200033058470773
 21
-155.02970180949819
 31
0.0
  0
LINE
  5
1EA
100
AcDbEntity
  8
0
  6
DASHED
 62
             200
100
AcDbLine
 10
36.95004079878413
 20
-153.78970024897629
 30
0.0
 11
36.95003580503672
 21
-154.5897002489607
 31
0.0
  0
LINE
  5
1EB
100
AcDbEntity
  8
0
  6
DASHED
 62
             200
100
AcDbLine
 10
32.950040798862062
 20
-153.78967528023921
 30
0.0
 11
32.950035805114652
 21
-154.58967528022364
 31
0.0
  0
LINE
  5
1EC
100
AcDbEntity
  8
0
  6
DASHED
 62
             200
100
AcDbLine
 10
32.950035805114652
 20
-154.58967528022364
 30
0.0
 11
36.95003580503672
 21
-154.5897002489607
 31
0.0
  0
LINE
  5
1ED
100
AcDbEntity
  8
0
  6
DASHED
 62
             200
100
AcDbLine
 10
37.150040798780239
 20
-153.78970149741312
 30
0.0
 11
37.150028314411713
 21
-155.78970149737418
 31
0.0
  0
LINE
  5
1EE
100
AcDbEntity
  8
0
  6
DASHED
 62
             200
100
AcDbLine
 10
37.150028314411713
 20
-155.78970149737418
 30
0.0
 11
37.650028314401965
 21
-155.78970461846629
 31
0.0
  0
LINE
  5
1EF
100
AcDbEntity
  8
0
  6
DASHED
 62
             200
100
AcDbLine
 10
37.200033058470773
 20
-155.02970180949819
 30
0.0
 11
37.650033058462007
 21
-155.02970461848111
 31
0.0
  0
LINE
  5
1F0
100
AcDbEntity
  8
0
  6
DASHED
 62
             200
100
AcDbLine
 10
63.45004579201526
 20
-152.98986566687489
 30
0.0
 11
63.450029562336169
 21
-155.58986566682424
 31
0.0
  0
LINE
  5
1F1
100
AcDbEntity
  8
0
  6
DASHED
 62
             200
100
AcDbLine
 10
73.450042046509878
 20
-153.58992808870585
 30
0.0
 11
73.450038925417743
 21
-154.08992808869613
 31
0.0
  0
LINE
  5
1F2
100
AcDbEntity
  8
0
  6
DASHED
 62
             200
100
AcDbLine
 10
73.450036428544038
 20
-154.48992808868832
 30
0.0
 11
73.450033307451918
 21
-154.9899280886786
 31
0.0
  0
LINE
  5
1F3
100
AcDbEntity
  8
0
  6
DASHED
 62
             200
100
AcDbLine
 10
70.450043295005173
 20
-153.38990936215697
 30
0.0
 11
70.450032059073507
 21
-155.18990936212191
 31
0.0
  0
LINE
  5
1F4
100
AcDbEntity
  8
0
  6
DASHED
 62
             200
100
AcDbLine
 10
63.450032059209875
 20
-155.18986566683205
 30
0.0
 11
67.450032059131956
 21
-155.18989063556913
 31
0.0
  0
LINE
  5
1F5
100
AcDbEntity
  8
0
  6
DASHED
 62
             200
100
AcDbLine
 10
63.450037677175715
 20
-154.28986566684955
 30
0.0
 11
66.930037677107919
 21
-154.2898873896508
 31
0.0
  0
LINE
  5
1F6
100
AcDbEntity
  8
0
  6
DASHED
 62
             200
100
AcDbLine
 10
68.430037677078701
 20
-154.28989675292721
 30
0.0
 11
70.450037677039347
 21
-154.28990936213941
 31
0.0
  0
LINE
  5
1F7
100
AcDbEntity
  8
0
  6
DASHED
 62
             200
100
AcDbLine
 10
68.950032059102725
 20
-155.1898999988455
 30
0.0
 11
70.450032059073507
 21
-155.18990936212191
 31
0.0
  0
LINE
  5
1F8
100
AcDbEntity
  8
0
  6
DASHED
 62
             200
100
AcDbLine
 10
63.450043295141555
 20
-153.38986566686711
 30
0.0
 11
66.410043295083895
 21
-153.38988414373253
 31
0.0
  0
LINE
  5
1F9
100
AcDbEntity
  8
0
  6
DASHED
 62
             200
100
AcDbLine
 10
67.910043295054663
 20
-153.38989350700894
 30
0.0
 11
70.450043295005173
 21
-153.38990936215697
 31
0.0
  0
LINE
  5
1FA
100
AcDbEntity
  8
0
  6
DASHED
 62
             200
100
AcDbLine
 10
70.450042046568328
 20
-153.58990936215307
 30
0.0
 11
73.450042046509878
 21
-153.58992808870585
 31
0.0
  0
LINE
  5
1FB
100
AcDbEntity
  8
0
  6
DASHED
 62
             200
100
AcDbLine
 10
70.450038925476193
 20
-154.08990936214332
 30
0.0
 11
73.450038925417743
 21
-154.08992808869613
 31
0.0
  0
LINE
  5
1FC
100
AcDbEntity
  8
0
  6
DASHED
 62
             200
100
AcDbLine
 10
70.450036428602488
 20
-154.48990936213553
 30
0.0
 11
73.450036428544038
 21
-154.48992808868832
 31
0.0
  0
LINE
  5
1FD
100
AcDbEntity
  8
0
  6
DASHED
 62
             200
100
AcDbLine
 10
70.450033307510353
 20
-154.98990936212579
 30
0.0
 11
73.450033307451918
 21
-154.9899280886786
 31
0.0
  0
LINE
  5
1FE
100
AcDbEntity
  8
0
  6
DASHED
 62
             200
100
AcDbLine
 10
33.920027066037783
 20
-155.98968133511511
 30
0.0
 11
35.970027065997854
 21
-155.98969413159287
 31
0.0
  0
LINE
  5
1FF
100
AcDbEntity
  8
0
  6
DASHED
 62
             200
100
AcDbLine
 10
35.970027065997854
 20
-155.98969413159287
 30
0.0
 11
36.200028501695741
 21
-155.75969556729973
 31
0.0
  0
LINE
  5
200
100
AcDbEntity
  8
0
  6
DASHED
 62
             200
100
AcDbLine
 10
33.920027066037783
 20
-155.98968133511511
 30
0.0
 11
33.700028501744448
 21
-155.75967996183905
 31
0.0
  0
LINE
  5
201
100
AcDbEntity
  8
0
  6
DASHED
 62
             200
100
AcDbLine
 10
33.700035867521883
 20
-154.57967996186204
 30
0.0
 11
33.700028501744448
 21
-155.75967996183905
 31
0.0
  0
LINE
  5
202
100
AcDbEntity
  8
0
  6
DASHED
 62
             200
100
AcDbLine
 10
36.200035867473176
 20
-154.57969556732272
 30
0.0
 11
36.200028501695741
 21
-155.75969556729973
 31
0.0
  0
LINE
  5
203
100
AcDbEntity
  8
0
  6
DASHED
 62
             200
100
AcDbLine
 10
33.700028501744448
 20
-155.75967996183905
 30
0.0
 11
36.200028501695741
 21
-155.75969556729973
 31
0.0
  0
LINE
  5
204
100
AcDbEntity
  8
0
  6
DASHED
 62
             200
100
AcDbLine
 10
32.950045792609473
 20
-152.98967528025483
 30
0.0
 11
54.950045792180859
 21
-152.98981260830865
 31
0.0
  0
LINE
  5
205
100
AcDbEntity
  8
0
  6
DASHED
 62
             200
100
AcDbLine
 10
32.950049225810822
 20
-152.43967528026556
 30
0.0
 11
54.950049225382202
 21
-152.43981260831939
 31
0.0
  0
LINE
  5
206
100
AcDbEntity
  8
0
  6
DASHED
 62
             200
100
AcDbLine
 10
54.950045792180859
 20
-152.98981260830865
 30
0.0
 11
57.200045792137026
 21
-152.98982665322325
 31
0.0
  0
LINE
  5
207
100
AcDbEntity
  8
0
  6
DASHED
 62
             200
100
AcDbLine
 10
54.950029562501769
 20
-155.589812608258
 30
0.0
 11
58.700029562428711
 21
-155.58983601644897
 31
0.0
  0
LINE
  5
208
100
AcDbEntity
  8
0
  6
DASHED
 62
             200
100
AcDbLine
 10
58.700045792107801
 20
-152.98983601649965
 30
0.0
 11
63.45004579201526
 21
-152.98986566687489
 31
0.0
  0
LINE
  5
209
100
AcDbEntity
  8
0
  6
DASHED
 62
             200
100
AcDbLine
 10
60.200029562399493
 20
-155.58984537972538
 30
0.0
 11
63.450029562336169
 21
-155.58986566682424
 31
0.0
  0
LINE
  5
20A
100
AcDbEntity
  8
0
  6
DASHED
 62
             200
100
AcDbLine
 10
32.950052036524013
 20
-117.38967523953171
 30
0.0
 11
54.950052036524013
 21
-117.38967523953171
 31
0.0
  0
LINE
  5
20B
100
AcDbEntity
  8
0
  6
DASHED
 62
             200
100
AcDbLine
 10
32.950052036524013
 20
-121.48967523953171
 30
0.0
 11
54.950052036524013
 21
-121.48967523953171
 31
0.0
  0
LINE
  5
20C
100
AcDbEntity
  8
0
  6
DASHED
 62
             200
100
AcDbLine
 10
32.950052036524013
 20
-117.38967523953171
 30
0.0
 11
32.950052036524013
 21
-117.8396752395317
 31
0.0
  0
LINE
  5
20D
100
AcDbEntity
  8
0
  6
DASHED
 62
             200
100
AcDbLine
 10
54.950052036524013
 20
-117.38967523953171
 30
0.0
 11
54.950052036524013
 21
-117.8396752395317
 31
0.0
  0
LINE
  5
20E
100
AcDbEntity
  8
0
  6
DASHED
 62
             200
100
AcDbLine
 10
32.950052036524013
 20
-121.03967523953169
 30
0.0
 11
32.950052036524013
 21
-121.48967523953171
 31
0.0
  0
LINE
  5
20F
100
AcDbEntity
  8
0
  6
DASHED
 62
             200
100
AcDbLine
 10
54.950052036524013
 20
-121.03967523953169
 30
0.0
 11
54.950052036524013
 21
-121.48967523953171
 31
0.0
  0
MTEXT
  5
210
100
AcDbEntity
  8
0
  6
CONTINUOUS
 62
               3
100
AcDbMText
 10
-70.884070895018326
 20
148.55357606577371
 30
0.0
 40
4.5
 41
0.0
 71
               7
 72
               1
  1
\W1.088;\A1;STRETCH LINE C
  7
MX_NOTE_STANDARD
  0
MTEXT
  5
211
100
AcDbEntity
  8
0
  6
CONTINUOUS
 62
               3
100
AcDbMText
 10
19.572136380372303
 20
152.08546693491434
 30
0.0
 40
4.5
 41
0.0
 71
               4
 72
               1
  1
\W1.088;\A1;STRETCH LINE B
  7
MX_NOTE_STANDARD
  0
MTEXT
  5
212
100
AcDbEntity
  8
0
  6
CONTINUOUS
 62
               3
100
AcDbMText
 10
-22.884086153807385
 20
157.4938073890159
 30
0.0
 40
4.5
 41
0.0
 71
               7
 72
               1
  1
\W1.088;\A1;STRETCH LINE A
  7
MX_NOTE_STANDARD
  0
LINE
  5
213
100
AcDbEntity
  8
0
  6
CONTINUOUS
 62
               7
100
AcDbLine
 10
-235.00000000000003
 20
-140.0
 30
0.0
 11
-235.00000000000003
 21
-185.0
 31
0.0
  0
LINE
  5
214
100
AcDbEntity
  8
0
  6
CONTINUOUS
 62
               7
100
AcDbLine
 10
-220.00000000000003
 20
-140.0
 30
0.0
 11
-220.00000000000003
 21
-185.0
 31
0.0
  0
LINE
  5
215
100
AcDbEntity
  8
0
  6
CONTINUOUS
 62
               7
100
AcDbLine
 10
-205.00000000000003
 20
-140.0
 30
0.0
 11
-205.00000000000003
 21
-185.0
 31
0.0
  0
LINE
  5
216
100
AcDbEntity
  8
0
  6
CONTINUOUS
 62
               7
100
AcDbLine
 10
-190.00000000000003
 20
-140.0
 30
0.0
 11
-190.00000000000003
 21
-185.0
 31
0.0
  0
LINE
  5
217
100
AcDbEntity
  8
0
  6
CONTINUOUS
 62
               7
100
AcDbLine
 10
-175.00000000000003
 20
-140.0
 30
0.0
 11
-175.00000000000003
 21
-185.0
 31
0.0
  0
LINE
  5
218
100
AcDbEntity
  8
0
  6
CONTINUOUS
 62
               7
100
AcDbLine
 10
-160.00000000000003
 20
-140.0
 30
0.0
 11
-160.00000000000003
 21
-185.0
 31
0.0
  0
LINE
  5
219
100
AcDbEntity
  8
0
  6
CONTINUOUS
 62
               7
100
AcDbLine
 10
-145.00000000000003
 20
-140.0
 30
0.0
 11
-145.00000000000003
 21
-185.0
 31
0.0
  0
LINE
  5
21A
100
AcDbEntity
  8
0
  6
CONTINUOUS
 62
               7
100
AcDbLine
 10
-85.000000000000028
 20
-140.0
 30
0.0
 11
-85.000000000000028
 21
-185.0
 31
0.0
  0
LINE
  5
21B
100
AcDbEntity
  8
0
  6
CONTINUOUS
 62
               7
100
AcDbLine
 10
-271.25
 20
-140.0
 30
0.0
 11
-85.000000000000028
 21
-140.0
 31
0.0
  0
LINE
  5
21C
100
AcDbEntity
  8
0
  6
CONTINUOUS
 62
               7
100
AcDbLine
 10
-271.25
 20
-162.5
 30
0.0
 11
-85.000000000000028
 21
-162.5
 31
0.0
  0
LINE
  5
21D
100
AcDbEntity
  8
0
  6
CONTINUOUS
 62
               7
100
AcDbLine
 10
-271.25
 20
-170.0
 30
0.0
 11
-85.000000000000028
 21
-170.0
 31
0.0
  0
LINE
  5
21E
100
AcDbEntity
  8
0
  6
CONTINUOUS
 62
               7
100
AcDbLine
 10
-271.25
 20
-185.0
 30
0.0
 11
-85.000000000000028
 21
-185.0
 31
0.0
  0
LINE
  5
21F
100
AcDbEntity
  8
0
  6
CONTINUOUS
 62
               7
100
AcDbLine
 10
-235.00000000000003
 20
-162.5
 30
0.0
 11
-237.63750000000002
 21
-147.5
 31
0.0
  0
LINE
  5
220
100
AcDbEntity
  8
0
  6
CONTINUOUS
 62
               7
100
AcDbLine
 10
-271.25
 20
-147.5
 30
0.0
 11
-237.63750000000002
 21
-147.5
 31
0.0
  0
LINE
  5
221
100
AcDbEntity
  8
0
  6
CONTINUOUS
 62
               7
100
AcDbLine
 10
-271.25
 20
-140.0
 30
0.0
 11
-271.25
 21
-185.0
 31
0.0
  0
LINE
  5
222
100
AcDbEntity
  8
0
  6
CONTINUOUS
 62
               7
100
AcDbLine
 10
-271.25
 20
-177.5
 30
0.0
 11
-85.000000000000028
 21
-177.5
 31
0.0
  0
LINE
  5
223
100
AcDbEntity
  8
0
  6
CONTINUOUS
 62
               7
100
AcDbLine
 10
-130.00000000000003
 20
-140.0
 30
0.0
 11
-130.00000000000003
 21
-185.0
 31
0.0
  0
LINE
  5
224
100
AcDbEntity
  8
0
  6
CONTINUOUS
 62
               7
100
AcDbLine
 10
-115.00000000000003
 20
-140.0
 30
0.0
 11
-115.00000000000003
 21
-185.0
 31
0.0
  0
LINE
  5
225
100
AcDbEntity
  8
0
  6
CONTINUOUS
 62
               7
100
AcDbLine
 10
-100.00000000000003
 20
-140.0
 30
0.0
 11
-100.00000000000003
 21
-185.0
 31
0.0
  0
MTEXT
  5
226
100
AcDbEntity
  8
0
  6
CONTINUOUS
 62
               7
100
AcDbMText
 10
-228.84999997854234
 20
-181.25
 30
0.0
 40
4.5
 41
0.0
 71
               4
 72
               1
  1
\W1.200;\A1;0
  7
MX_NOTE_STANDARD
  0
MTEXT
  5
227
100
AcDbEntity
  8
0
  6
CONTINUOUS
 62
               7
100
AcDbMText
 10
-216.00000000000003
 20
-181.25
 30
0.0
 40
4.5
 41
0.0
 71
               4
 72
               1
  1
\W1.333;\A1;10
  7
MX_NOTE_STANDARD
  0
MTEXT
  5
228
100
AcDbEntity
  8
0
  6
CONTINUOUS
 62
               7
100
AcDbMText
 10
-201.18181817295141
 20
-181.25
 30
0.0
 40
4.5
 41
0.0
 71
               4
 72
               1
  1
\W1.091;\A1;20
  7
MX_NOTE_STANDARD
  0
MTEXT
  5
229
100
AcDbEntity
  8
0
  6
CONTINUOUS
 62
               7
100
AcDbMText
 10
-186.18181817295141
 20
-181.25
 30
0.0
 40
4.5
 41
0.0
 71
               4
 72
               1
  1
\W1.091;\A1;30
  7
MX_NOTE_STANDARD
  0
MTEXT
  5
22A
100
AcDbEntity
  8
0
  6
CONTINUOUS
 62
               7
100
AcDbMText
 10
-171.18181817295141
 20
-181.25
 30
0.0
 40
4.5
 41
0.0
 71
               4
 72
               1
  1
\W1.091;\A1;40
  7
MX_NOTE_STANDARD
  0
MTEXT
  5
22B
100
AcDbEntity
  8
0
  6
CONTINUOUS
 62
               7
100
AcDbMText
 10
-156.18181817295141
 20
-181.25
 30
0.0
 40
4.5
 41
0.0
 71
               4
 72
               1
  1
\W1.091;\A1;50
  7
MX_NOTE_STANDARD
  0
MTEXT
  5
22C
100
AcDbEntity
  8
0
  6
CONTINUOUS
 62
               7
100
AcDbMText
 10
-126.18181817295141
 20
-181.25
 30
0.0
 40
4.5
 41
0.0
 71
               4
 72
               1
  1
\W1.091;\A1;70
  7
MX_NOTE_STANDARD
  0
MTEXT
  5
22D
100
AcDbEntity
  8
0
  6
CONTINUOUS
 62
               7
100
AcDbMText
 10
-265.875
 20
-143.75
 30
0.0
 40
4.5
 41
0.0
 71
               4
 72
               1
  1
\A1;STROKE
  7
MX_NOTE_STANDARD
  0
MTEXT
  5
22E
100
AcDbEntity
  8
0
  6
CONTINUOUS
 62
               7
100
AcDbMText
 10
-204.32618343336134
 20
-133.0
 30
0.0
 40
4.5
 41
0.0
 71
               4
 72
               1
  1
\W1.065;\A1;STRETCH LIST
  7
MX_NOTE_STANDARD
  0
MTEXT
  5
22F
100
AcDbEntity
  8
0
  6
CONTINUOUS
 62
               7
100
AcDbMText
 10
-156.18181817295141
 20
-151.25
 30
0.0
 40
4.5
 41
0.0
 71
               4
 72
               1
  1
\W1.091;\A1;60
  7
MX_NOTE_STANDARD
  0
MTEXT
  5
230
100
AcDbEntity
  8
0
  6
CONTINUOUS
 62
               7
100
AcDbMText
 10
-98.285714277503473
 20
-151.25
 30
0.0
 40
4.5
 41
0.0
 71
               4
 72
               1
  1
\W1.286;\A1;100
  7
MX_NOTE_STANDARD
  0
MTEXT
  5
231
100
AcDbEntity
  8
0
  6
CONTINUOUS
 62
               7
100
AcDbMText
 10
-171.18181817295141
 20
-151.25
 30
0.0
 40
4.5
 41
0.0
 71
               4
 72
               1
  1
\W1.091;\A1;50
  7
MX_NOTE_STANDARD
  0
MTEXT
  5
232
100
AcDbEntity
  8
0
  6
CONTINUOUS
 62
               7
100
AcDbMText
 10
-186.18181817295141
 20
-151.25
 30
0.0
 40
4.5
 41
0.0
 71
               4
 72
               1
  1
\W1.091;\A1;40
  7
MX_NOTE_STANDARD
  0
MTEXT
  5
233
100
AcDbEntity
  8
0
  6
CONTINUOUS
 62
               7
100
AcDbMText
 10
-201.18181817295141
 20
-151.25
 30
0.0
 40
4.5
 41
0.0
 71
               4
 72
               1
  1
\W1.091;\A1;30
  7
MX_NOTE_STANDARD
  0
MTEXT
  5
234
100
AcDbEntity
  8
0
  6
CONTINUOUS
 62
               7
100
AcDbMText
 10
-216.18181817295141
 20
-151.25
 30
0.0
 40
4.5
 41
0.0
 71
               4
 72
               1
  1
\W1.091;\A1;20
  7
MX_NOTE_STANDARD
  0
MTEXT
  5
235
100
AcDbEntity
  8
0
  6
CONTINUOUS
 62
               7
100
AcDbMText
 10
-231.00000000000003
 20
-151.25
 30
0.0
 40
4.5
 41
0.0
 71
               4
 72
               1
  1
\W1.333;\A1;10
  7
MX_NOTE_STANDARD
  0
MTEXT
  5
236
100
AcDbEntity
  8
0
  6
CONTINUOUS
 62
               7
100
AcDbMText
 10
-156.25000000000003
 20
-166.25
 30
0.0
 40
4.5
 41
0.0
 71
               4
 72
               1
  1
\A1;25
  7
MX_NOTE_STANDARD
  0
MTEXT
  5
237
100
AcDbEntity
  8
0
  6
CONTINUOUS
 62
               7
100
AcDbMText
 10
-126.25000000000003
 20
-166.25
 30
0.0
 40
4.5
 41
0.0
 71
               4
 72
               1
  1
\A1;35
  7
MX_NOTE_STANDARD
  0
MTEXT
  5
238
100
AcDbEntity
  8
0
  6
CONTINUOUS
 62
               7
100
AcDbMText
 10
-171.18181817295141
 20
-166.25
 30
0.0
 40
4.5
 41
0.0
 71
               4
 72
               1
  1
\W1.091;\A1;20
  7
MX_NOTE_STANDARD
  0
MTEXT
  5
239
100
AcDbEntity
  8
0
  6
CONTINUOUS
 62
               7
100
AcDbMText
 10
-186.10000001072888
 20
-166.25
 30
0.0
 40
4.5
 41
0.0
 71
               4
 72
               1
  1
\W1.200;\A1;15
  7
MX_NOTE_STANDARD
  0
MTEXT
  5
23A
100
AcDbEntity
  8
0
  6
CONTINUOUS
 62
               7
100
AcDbMText
 10
-201.00000000000003
 20
-166.25
 30
0.0
 40
4.5
 41
0.0
 71
               4
 72
               1
  1
\W1.333;\A1;10
  7
MX_NOTE_STANDARD
  0
MTEXT
  5
23B
100
AcDbEntity
  8
0
  6
CONTINUOUS
 62
               7
100
AcDbMText
 10
-214.00000000000003
 20
-166.25
 30
0.0
 40
4.5
 41
0.0
 71
               4
 72
               1
  1
\A1;5
  7
MX_NOTE_STANDARD
  0
MTEXT
  5
23C
100
AcDbEntity
  8
0
  6
CONTINUOUS
 62
               7
100
AcDbMText
 10
-228.84999997854234
 20
-166.25
 30
0.0
 40
4.5
 41
0.0
 71
               4
 72
               1
  1
\W1.200;\A1;0
  7
MX_NOTE_STANDARD
  0
MTEXT
  5
23D
100
AcDbEntity
  8
0
  6
CONTINUOUS
 62
               7
100
AcDbMText
 10
-100.8750000248353
 20
-133.68496017152495
 30
0.0
 40
4.5
 41
0.0
 71
               4
 72
               1
  1
\W0.833;\A1;（ｍｍ）
  7
MX_NOTE_STANDARD
  0
MTEXT
  5
23E
100
AcDbEntity
  8
0
  6
CONTINUOUS
 62
               7
100
AcDbMText
 10
-268.14899991403644
 20
-155.0
 30
0.0
 40
4.0500000965595273
 41
0.0
 71
               4
 72
               1
  1
\T0.984;\W1.129;\A1;STRETCH\P  PLACE
  7
MX_NOTE_STANDARD
  0
MTEXT
  5
23F
100
AcDbEntity
  8
0
  6
CONTINUOUS
 62
               7
100
AcDbMText
 10
-254.625
 20
-166.25
 30
0.0
 40
4.5
 41
0.0
 71
               4
 72
               1
  1
\A1;A
  7
MX_NOTE_STANDARD
  0
MTEXT
  5
240
100
AcDbEntity
  8
0
  6
CONTINUOUS
 62
               7
100
AcDbMText
 10
-254.625
 20
-173.75
 30
0.0
 40
4.5
 41
0.0
 71
               4
 72
               1
  1
\A1;B
  7
MX_NOTE_STANDARD
  0
MTEXT
  5
241
100
AcDbEntity
  8
0
  6
CONTINUOUS
 62
               7
100
AcDbMText
 10
-254.625
 20
-181.25
 30
0.0
 40
4.5
 41
0.0
 71
               4
 72
               1
  1
\A1;C
  7
MX_NOTE_STANDARD
  0
MTEXT
  5
242
100
AcDbEntity
  8
0
  6
CONTINUOUS
 62
               7
100
AcDbMText
 10
-126.25000000000003
 20
-173.75
 30
0.0
 40
4.5
 41
0.0
 71
               4
 72
               1
  1
\A1;35
  7
MX_NOTE_STANDARD
  0
MTEXT
  5
243
100
AcDbEntity
  8
0
  6
CONTINUOUS
 62
               7
100
AcDbMText
 10
-156.25000000000003
 20
-173.75
 30
0.0
 40
4.5
 41
0.0
 71
               4
 72
               1
  1
\A1;25
  7
MX_NOTE_STANDARD
  0
MTEXT
  5
244
100
AcDbEntity
  8
0
  6
CONTINUOUS
 62
               7
100
AcDbMText
 10
-171.18181817295141
 20
-173.75
 30
0.0
 40
4.5
 41
0.0
 71
               4
 72
               1
  1
\W1.091;\A1;20
  7
MX_NOTE_STANDARD
  0
MTEXT
  5
245
100
AcDbEntity
  8
0
  6
CONTINUOUS
 62
               7
100
AcDbMText
 10
-186.10000001072888
 20
-173.75
 30
0.0
 40
4.5
 41
0.0
 71
               4
 72
               1
  1
\W1.200;\A1;15
  7
MX_NOTE_STANDARD
  0
MTEXT
  5
246
100
AcDbEntity
  8
0
  6
CONTINUOUS
 62
               7
100
AcDbMText
 10
-201.00000000000003
 20
-173.75
 30
0.0
 40
4.5
 41
0.0
 71
               4
 72
               1
  1
\W1.333;\A1;10
  7
MX_NOTE_STANDARD
  0
MTEXT
  5
247
100
AcDbEntity
  8
0
  6
CONTINUOUS
 62
               7
100
AcDbMText
 10
-214.00000000000003
 20
-173.75
 30
0.0
 40
4.5
 41
0.0
 71
               4
 72
               1
  1
\A1;5
  7
MX_NOTE_STANDARD
  0
MTEXT
  5
248
100
AcDbEntity
  8
0
  6
CONTINUOUS
 62
               7
100
AcDbMText
 10
-228.84999997854234
 20
-173.75
 30
0.0
 40
4.5
 41
0.0
 71
               4
 72
               1
  1
\W1.200;\A1;0
  7
MX_NOTE_STANDARD
  0
MTEXT
  5
249
100
AcDbEntity
  8
0
  6
CONTINUOUS
 62
               7
100
AcDbMText
 10
-141.18181817295141
 20
-151.25
 30
0.0
 40
4.5
 41
0.0
 71
               4
 72
               1
  1
\W1.091;\A1;70
  7
MX_NOTE_STANDARD
  0
MTEXT
  5
24A
100
AcDbEntity
  8
0
  6
CONTINUOUS
 62
               7
100
AcDbMText
 10
-126.18181817295141
 20
-151.25
 30
0.0
 40
4.5
 41
0.0
 71
               4
 72
               1
  1
\W1.091;\A1;80
  7
MX_NOTE_STANDARD
  0
MTEXT
  5
24B
100
AcDbEntity
  8
0
  6
CONTINUOUS
 62
               7
100
AcDbMText
 10
-111.18181817295141
 20
-151.25
 30
0.0
 40
4.5
 41
0.0
 71
               4
 72
               1
  1
\W1.091;\A1;90
  7
MX_NOTE_STANDARD
  0
MTEXT
  5
24C
100
AcDbEntity
  8
0
  6
CONTINUOUS
 62
               7
100
AcDbMText
 10
-141.18181817295141
 20
-166.25
 30
0.0
 40
4.5
 41
0.0
 71
               4
 72
               1
  1
\W1.091;\A1;30
  7
MX_NOTE_STANDARD
  0
MTEXT
  5
24D
100
AcDbEntity
  8
0
  6
CONTINUOUS
 62
               7
100
AcDbMText
 10
-141.18181817295141
 20
-173.75
 30
0.0
 40
4.5
 41
0.0
 71
               4
 72
               1
  1
\W1.091;\A1;30
  7
MX_NOTE_STANDARD
  0
MTEXT
  5
24E
100
AcDbEntity
  8
0
  6
CONTINUOUS
 62
               7
100
AcDbMText
 10
-141.18181817295141
 20
-181.25
 30
0.0
 40
4.5
 41
0.0
 71
               4
 72
               1
  1
\W1.091;\A1;60
  7
MX_NOTE_STANDARD
  0
MTEXT
  5
24F
100
AcDbEntity
  8
0
  6
CONTINUOUS
 62
               7
100
AcDbMText
 10
-96.250000000000028
 20
-166.25
 30
0.0
 40
4.5
 41
0.0
 71
               4
 72
               1
  1
\A1;45
  7
MX_NOTE_STANDARD
  0
MTEXT
  5
250
100
AcDbEntity
  8
0
  6
CONTINUOUS
 62
               7
100
AcDbMText
 10
-96.250000000000028
 20
-173.75
 30
0.0
 40
4.5
 41
0.0
 71
               4
 72
               1
  1
\A1;45
  7
MX_NOTE_STANDARD
  0
MTEXT
  5
251
100
AcDbEntity
  8
0
  6
CONTINUOUS
 62
               7
100
AcDbMText
 10
-96.181818172951409
 20
-181.25
 30
0.0
 40
4.5
 41
0.0
 71
               4
 72
               1
  1
\W1.091;\A1;90
  7
MX_NOTE_STANDARD
  0
MTEXT
  5
252
100
AcDbEntity
  8
0
  6
CONTINUOUS
 62
               7
100
AcDbMText
 10
-111.18181817295141
 20
-166.25
 30
0.0
 40
4.5
 41
0.0
 71
               4
 72
               1
  1
\W1.091;\A1;40
  7
MX_NOTE_STANDARD
  0
MTEXT
  5
253
100
AcDbEntity
  8
0
  6
CONTINUOUS
 62
               7
100
AcDbMText
 10
-111.18181817295141
 20
-173.75
 30
0.0
 40
4.5
 41
0.0
 71
               4
 72
               1
  1
\W1.091;\A1;40
  7
MX_NOTE_STANDARD
  0
MTEXT
  5
254
100
AcDbEntity
  8
0
  6
CONTINUOUS
 62
               7
100
AcDbMText
 10
-111.18181817295141
 20
-181.25
 30
0.0
 40
4.5
 41
0.0
 71
               4
 72
               1
  1
\W1.091;\A1;80
  7
MX_NOTE_STANDARD
  0
INSERT
  5
255
100
AcDbEntity
  8
0
100
AcDbBlockReference
  2
MS_10
 10
205.75478897500014
 20
-101.38917841335908
 30
0.0
  0
INSERT
  5
256
100
AcDbEntity
  8
0
100
AcDbBlockReference
  2
MS_9
 10
162.71201386811077
 20
-148.98919977566376
 30
0.0
 50
0.0081179143977248
  0
INSERT
  5
257
100
AcDbEntity
  8
0
100
AcDbBlockReference
  2
MS_8
 10
205.75494156289076
 20
-148.98936762234345
 30
0.0
 50
359.99976156446991
  0
INSERT
  5
258
100
AcDbEntity
  8
0
100
AcDbBlockReference
  2
MS_7
 10
32.943647007227142
 20
-119.4391967239067
 30
0.0
  0
INSERT
  5
259
100
AcDbEntity
  8
0
100
AcDbBlockReference
  2
MS_6
 10
-11.599283047908443
 20
-151.98919977566376
 30
0.0
  0
INSERT
  5
25A
100
AcDbEntity
  8
0
100
AcDbBlockReference
  2
MS_5
 10
32.943524936914201
 20
-151.98939813992158
 30
0.0
 50
359.99964234918588
  0
INSERT
  5
25B
100
AcDbEntity
  8
0
100
AcDbBlockReference
  2
MS_4
 10
-34.200150678839123
 20
-51.999999182564864
 30
0.0
  0
INSERT
  5
25C
100
AcDbEntity
  8
0
100
AcDbBlockReference
  2
MS_3
 10
210.0998533112662
 20
90.428575352746691
 30
0.0
  0
INSERT
  5
25D
100
AcDbEntity
  8
0
100
AcDbBlockReference
  2
MS_2
 10
-184.47158266086984
 20
90.428575352746691
 30
0.0
  0
INSERT
  5
25E
100
AcDbEntity
  8
0
100
AcDbBlockReference
  2
MS_1
 10
-34.200150678839123
 20
90.428575265368465
 30
0.0
  0
MTEXT
  5
25F
100
AcDbEntity
  8
0
  6
CONTINUOUS
 62
               7
100
AcDbMText
 10
122.91171036171889
 20
-103.02017511746064
 30
0.0
 40
4.5
 41
0.0
 71
               1
 72
               1
  1
\A1;ZE255
  7
MX_NOTE_STANDARD
  0
MTEXT
  5
260
100
AcDbEntity
  8
0
  6
CONTINUOUS
 62
               7
100
AcDbMText
 10
122.99504369505222
 20
-109.02017511746064
 30
0.0
 40
4.5
 41
0.0
 71
               1
 72
               1
  1
\W1.111;\A1;ZE201
  7
MX_NOTE_STANDARD
  0
MTEXT
  5
261
100
AcDbEntity
  8
0
  6
CONTINUOUS
 62
               7
100
AcDbMText
 10
122.93757243387371
 20
-115.02017511746064
 30
0.0
 40
4.5
 41
0.0
 71
               1
 72
               1
  1
\W1.034;\A1;ZE202
  7
MX_NOTE_STANDARD
  0
MTEXT
  5
262
100
AcDbEntity
  8
0
  6
CONTINUOUS
 62
               7
100
AcDbMText
 10
87.022173631054926
 20
-91.245175069180874
 30
0.0
 40
4.0500000965595273
 41
0.0
 71
               1
 72
               1
  1
\T1.027;\W1.178;\A1;SENSOR\P SWITCH:ZE235
  7
MX_NOTE_STANDARD
  0
MTEXT
  5
263
100
AcDbEntity
  8
0
  6
CONTINUOUS
 62
               7
100
AcDbMText
 10
-78.930084326281801
 20
-92.245175069180874
 30
0.0
 40
4.0500000965595273
 41
0.0
 71
               1
 72
               1
  1
\T1.042;\W1.195;\A1;SENSOR\P SWITCH:ZE135
  7
MX_NOTE_STANDARD
  0
MTEXT
  5
264
100
AcDbEntity
  8
0
  6
CONTINUOUS
 62
               7
100
AcDbMText
 10
-43.004956304947775
 20
-116.02017511746064
 30
0.0
 40
4.5
 41
0.0
 71
               1
 72
               1
  1
\W1.111;\A1;ZE102
  7
MX_NOTE_STANDARD
  0
MTEXT
  5
265
100
AcDbEntity
  8
0
  6
CONTINUOUS
 62
               7
100
AcDbMText
 10
-43.034718213130866
 20
-104.02017511746064
 30
0.0
 40
4.5
 41
0.0
 71
               1
 72
               1
  1
\W1.071;\A1;ZE155
  7
MX_NOTE_STANDARD
  0
MTEXT
  5
266
100
AcDbEntity
  8
0
  6
CONTINUOUS
 62
               7
100
AcDbMText
 10
-42.938289642572649
 20
-110.02017511746064
 30
0.0
 40
4.5
 41
0.0
 71
               1
 72
               1
  1
\W1.200;\A1;ZE101
  7
MX_NOTE_STANDARD
  0
LINE
  5
267
100
AcDbEntity
  8
0
  6
CENTER
 62
               4
100
AcDbLine
 10
-11.599077602148299
 20
-149.93919977566378
 30
0.0
 11
-11.599077602148299
 21
-156.90919977566375
 31
0.0
  0
LINE
  5
268
100
AcDbEntity
  8
0
  6
CONTINUOUS
 62
               7
100
AcDbLine
 10
282.099853515625
 20
195.5
 30
0.0
 11
282.099853515625
 21
-195.0
 31
0.0
  0
LINE
  5
269
100
AcDbEntity
  8
0
  6
CONTINUOUS
 62
               7
100
AcDbLine
 10
-281.25
 20
195.5
 30
0.0
 11
282.099853515625
 21
195.5
 31
0.0
  0
LINE
  5
26A
100
AcDbEntity
  8
0
  6
CONTINUOUS
 62
               7
100
AcDbLine
 10
-281.25
 20
195.5
 30
0.0
 11
-281.25
 21
-195.0
 31
0.0
  0
LINE
  5
26B
100
AcDbEntity
  8
0
  6
CONTINUOUS
 62
               7
100
AcDbLine
 10
-281.25
 20
-195.0
 30
0.0
 11
282.099853515625
 21
-195.0
 31
0.0
  0
LINE
  5
26C
100
AcDbEntity
  8
0
  6
CONTINUOUS
 62
               7
100
AcDbLine
 10
162.0999755859375
 20
-175.0
 30
0.0
 11
162.0999755859375
 21
-195.0
 31
0.0
  0
LINE
  5
26D
100
AcDbEntity
  8
0
  6
CONTINUOUS
 62
               7
100
AcDbLine
 10
162.0999755859375
 20
-175.0
 30
0.0
 11
282.099853515625
 21
-175.0
 31
0.0
  0
LINE
  5
26E
100
AcDbEntity
  8
0
  6
CONTINUOUS
 62
               7
100
AcDbLine
 10
162.0999755859375
 20
175.5
 30
0.0
 11
282.099853515625
 21
175.5
 31
0.0
  0
LINE
  5
26F
100
AcDbEntity
  8
0
  6
CONTINUOUS
 62
               7
100
AcDbLine
 10
-281.25
 20
175.5
 30
0.0
 11
-142.34999999999999
 21
175.5
 31
0.0
  0
LINE
  5
270
100
AcDbEntity
  8
0
  6
CONTINUOUS
 62
               7
100
AcDbLine
 10
162.0999755859375
 20
195.5
 30
0.0
 11
162.0999755859375
 21
175.5
 31
0.0
  0
MTEXT
  5
271
100
AcDbEntity
  8
0
  6
CONTINUOUS
 62
               7
100
AcDbMText
 10
198.2770240315611
 20
185.5
 30
0.0
 40
6.3000001907348633
 41
0.0
 71
               4
 72
               1
  1
\W1.311;\A1;Ver. 1.0
  7
MX_NOTE_STANDARD
  0
MTEXT
  5
272
100
AcDbEntity
  8
0
  6
CONTINUOUS
 62
               7
100
AcDbMText
 10
170.2809980228688
 20
-185.0
 30
0.0
 40
9.0
 41
0.0
 71
               4
 72
               1
  1
\W1.121;\A1;KOGANEI CORP.
  7
MX_NOTE_STANDARD
  0
MTEXT
  5
273
100
AcDbEntity
  8
0
  6
CONTINUOUS
 62
               7
100
AcDbMText
 10
-273.68692767339149
 20
185.5
 30
0.0
 40
6.3000001907348633
 41
0.0
 71
               4
 72
               1
  1
\W1.060;\A1;CS-TWIN ROD CYLINDER
  7
MX_NOTE_STANDARD
  0
MTEXT
  5
274
100
AcDbEntity
  8
0
  6
CONTINUOUS
 62
               7
100
AcDbMText
 10
-268.34198480819492
 20
160.5
 30
0.0
 40
6.3000001907348633
 41
0.0
 71
               4
 72
               1
  1
\W1.008;\A1;MODEL:CS-TBDA32＊ＳＴ（10）
  7
MX_NOTE_STANDARD
  0
ENDSEC
  0
SECTION
  2
OBJECTS
  0
DICTIONARY
  5
19
100
AcDbDictionary
  3
ACAD_GROUP
350
1A
  3
ACAD_MLINESTYLE
350
1B
  0
DICTIONARY
  5
1A
102
{ACAD_REACTORS
330
19
102
}
100
AcDbDictionary
  0
DICTIONARY
  5
1B
102
{ACAD_REACTORS
330
19
102
}
100
AcDbDictionary
  3
STANDARD
350
1C
  0
MLINESTYLE
  5
1C
102
{ACAD_REACTORS
330
1B
102
}
100
AcDbMlineStyle
  2
Standard
 70
               0
  3

 62
               0
 51
90.0
 52
90.0
 71
               2
 49
0.5
 62
             256
  6
ByLayer
 49
-0.5
 62
             256
  6
ByLayer
  0
ENDSEC
  0
EOF
