  0
SECTION
  2
HEADER
  9
$ACADVER
  1
AC1012
  9
$DWGCODEPAGE
  3
dos932
  9
$INSBASE
 10
0.0
 20
0.0
 30
0.0
  9
$EXTMIN
 10
-262.24000000000001
 20
-180.0
 30
0.0
  9
$EXTMAX
 10
262.24000000000001
 20
180.0
 30
0.0
  9
$LIMMIN
 10
-262.24000000000001
 20
-180.0
  9
$LIMMAX
 10
262.24000000000001
 20
180.0
  9
$ORTHOMODE
 70
               0
  9
$REGENMODE
 70
               1
  9
$FILLMODE
 70
               1
  9
$QTEXTMODE
 70
               0
  9
$MIRRTEXT
 70
               1
  9
$DRAGMODE
 70
               2
  9
$LTSCALE
 40
1.0
  9
$OSMODE
 70
               0
  9
$ATTMODE
 70
               1
  9
$TEXTSIZE
 40
3.2000000476837158
  9
$TRACEWID
 40
0.05
  9
$TEXTSTYLE
  7
MX_NOTE_STANDARD
  9
$CLAYER
  8
0
  9
$CELTYPE
  6
CONTINUOUS
  9
$CECOLOR
 62
             256
  9
$CELTSCALE
 40
1.0
  9
$DELOBJ
 70
               1
  9
$DISPSILH
 70
               0
  9
$DIMSCALE
 40
1.0
  9
$DIMASZ
 40
2.5
  9
$DIMEXO
 40
1.5
  9
$DIMDLI
 40
3.75
  9
$DIMRND
 40
0.0
  9
$DIMDLE
 40
0.0
  9
$DIMEXE
 40
1.5
  9
$DIMTP
 40
0.0
  9
$DIMTM
 40
0.0
  9
$DIMTXT
 40
3.2000000476837158
  9
$DIMCEN
 40
2.5
  9
$DIMTSZ
 40
0.0
  9
$DIMTOL
 70
               0
  9
$DIMLIM
 70
               0
  9
$DIMTIH
 70
               0
  9
$DIMTOH
 70
               0
  9
$DIMSE1
 70
               0
  9
$DIMSE2
 70
               0
  9
$DIMTAD
 70
               1
  9
$DIMZIN
 70
               8
  9
$DIMBLK
  1

  9
$DIMASO
 70
               1
  9
$DIMSHO
 70
               1
  9
$DIMPOST
  1

  9
$DIMAPOST
  1

  9
$DIMALT
 70
               0
  9
$DIMALTD
 70
               4
  9
$DIMALTF
 40
0.0394
  9
$DIMLFAC
 40
1.0
  9
$DIMTOFL
 70
               1
  9
$DIMTVP
 40
0.0
  9
$DIMTIX
 70
               0
  9
$DIMSOXD
 70
               0
  9
$DIMSAH
 70
               0
  9
$DIMBLK1
  1

  9
$DIMBLK2
  1

  9
$DIMSTYLE
  2
MXDIMSTYLE
  9
$DIMCLRD
 70
               0
  9
$DIMCLRE
 70
               0
  9
$DIMCLRT
 70
               0
  9
$DIMTFAC
 40
1.0
  9
$DIMGAP
 40
1.0
  9
$DIMJUST
 70
               0
  9
$DIMSD1
 70
               0
  9
$DIMSD2
 70
               0
  9
$DIMTOLJ
 70
               1
  9
$DIMTZIN
 70
               0
  9
$DIMALTZ
 70
               0
  9
$DIMALTTZ
 70
               0
  9
$DIMFIT
 70
               3
  9
$DIMUPT
 70
               1
  9
$DIMUNIT
 70
               2
  9
$DIMDEC
 70
               4
  9
$DIMTDEC
 70
               4
  9
$DIMALTU
 70
               8
  9
$DIMALTTD
 70
               4
  9
$DIMTXSTY
  7
MX_NOTE_STANDARD
  9
$DIMAUNIT
 70
               0
  9
$LUNITS
 70
               2
  9
$LUPREC
 70
               4
  9
$SKETCHINC
 40
0.1
  9
$FILLETRAD
 40
0.0
  9
$AUNITS
 70
               0
  9
$AUPREC
 70
               0
  9
$MENU
  1
acad
  9
$ELEVATION
 40
0.0
  9
$PELEVATION
 40
0.0
  9
$THICKNESS
 40
0.0
  9
$LIMCHECK
 70
               0
  9
$BLIPMODE
 70
               1
  9
$CHAMFERA
 40
0.0
  9
$CHAMFERB
 40
0.0
  9
$CHAMFERC
 40
0.0
  9
$CHAMFERD
 40
0.0
  9
$SKPOLY
 70
               0
  9
$TDCREATE
 40
2452220.697581018
  9
$TDUPDATE
 40
2452220.697581018
  9
$TDINDWG
 40
0.0000000000
  9
$TDUSRTIMER
 40
0.0000000000
  9
$USRTIMER
 70
               1
  9
$ANGBASE
 50
0.0
  9
$ANGDIR
 70
               0
  9
$PDMODE
 70
               0
  9
$PDSIZE
 40
0.0
  9
$PLINEWID
 40
0.0
  9
$COORDS
 70
               1
  9
$SPLFRAME
 70
               0
  9
$SPLINETYPE
 70
               6
  9
$SPLINESEGS
 70
               8
  9
$ATTDIA
 70
               0
  9
$ATTREQ
 70
               1
  9
$HANDLING
 70
               1
  9
$HANDSEED
  5
823
  9
$SURFTAB1
 70
               6
  9
$SURFTAB2
 70
               6
  9
$SURFTYPE
 70
               6
  9
$SURFU
 70
               6
  9
$SURFV
 70
               6
  9
$UCSNAME
  2

  9
$UCSORG
 10
0.0
 20
0.0
 30
0.0
  9
$UCSXDIR
 10
1.0
 20
0.0
 30
0.0
  9
$UCSYDIR
 10
0.0
 20
1.0
 30
0.0
  9
$PUCSNAME
  2

  9
$PUCSORG
 10
0.0
 20
0.0
 30
0.0
  9
$PUCSXDIR
 10
1.0
 20
0.0
 30
0.0
  9
$PUCSYDIR
 10
0.0
 20
1.0
 30
0.0
  9
$USERI1
 70
               0
  9
$USERI2
 70
               0
  9
$USERI3
 70
               0
  9
$USERI4
 70
               0
  9
$USERI5
 70
               0
  9
$USERR1
 40
0.0
  9
$USERR2
 40
0.0
  9
$USERR3
 40
0.0
  9
$USERR4
 40
0.0
  9
$USERR5
 40
0.0
  9
$WORLDVIEW
 70
               1
  9
$SHADEDGE
 70
               3
  9
$SHADEDIF
 70
              70
  9
$TILEMODE
 70
               1
  9
$MAXACTVP
 70
              16
  9
$PINSBASE
 10
0.0
 20
0.0
 30
0.0
  9
$PLIMCHECK
 70
               0
  9
$PEXTMIN
 10
1.0000000000000000E+20
 20
1.0000000000000000E+20
 30
1.0000000000000000E+20
  9
$PEXTMAX
 10
-1.0000000000000000E+20
 20
-1.0000000000000000E+20
 30
-1.0000000000000000E+20
  9
$PLIMMIN
 10
0.0
 20
0.0
  9
$PLIMMAX
 10
12.0
 20
9.0
  9
$UNITMODE
 70
               0
  9
$VISRETAIN
 70
               0
  9
$PLINEGEN
 70
               1
  9
$PSLTSCALE
 70
               0
  9
$TREEDEPTH
 70
            3020
  9
$PICKSTYLE
 70
               1
  9
$CMLSTYLE
  2
Standard
  9
$CMLJUST
 70
               0
  9
$CMLSCALE
 40
1.0
  9
$SAVEIMAGES
 70
               0
  0
ENDSEC
  0
SECTION
  2
CLASSES
  0
CLASS
  1
LWPOLYLINE
  2
AcDbPolyline
  3
"AutoCAD"
 90
        0
280
               0
281
               1
  0
CLASS
  1
IMAGE
  2
AcDbRasterImage
  3
ISM
 90
      127
280
               0
281
               1
  0
CLASS
  1
OLE2FRAME
  2
AcDbOle2Frame
  3
""
 90
        0
280
               0
281
               1
  0
CLASS
  1
HATCH
  2
AcDbHatch
  3
"ACAD_SEDONA"
 90
        0
280
               0
281
               1
  0
CLASS
  1
DICTIONARYVAR
  2
AcDbDictionaryVar
  3
"AutoCAD"
 90
        0
280
               0
281
               0
  0
CLASS
  1
RASTERVARIABLES
  2
AcDbRasterVariables
  3
ISM
 90
        0
280
               0
281
               0
  0
CLASS
  1
IMAGEDEF
  2
AcDbRasterImageDef
  3
ISM
 90
        0
280
               0
281
               0
  0
CLASS
  1
IMAGEDEF_REACTOR
  2
AcDbRasterImageDefReactor
  3
ISM
 90
        1
280
               0
281
               0
  0
CLASS
  1
IDBUFFER
  2
AcDbIdBuffer
  3
"Acad"
 90
        0
280
               0
281
               0
  0
CLASS
  1
SPATIAL_FILTER
  2
AcDbSpatialFilter
  3
"Acad"
 90
        0
280
               0
281
               0
  0
CLASS
  1
XRECORD
  2
AcDbXrecord
  3
"<Built In>"
 90
        0
280
               0
281
               0
  0
CLASS
  1
SORTENTSTABLE
  2
AcDbSortentsTable
  3
"AutoCAD"
 90
        0
280
               0
281
               0
  0
CLASS
  1
LAYER_INDEX
  2
AcDbLayerIndex
  3
"Acad"
 90
        0
280
               0
281
               0
  0
CLASS
  1
SPATIAL_INDEX
  2
AcDbSpatialIndex
  3
"Acad"
 90
        0
280
               0
281
               0
  0
CLASS
  1
OBJECT_PTR
  2
CAseDLPNTableRecord
  3
"ASE-LPNTableRecord"
 90
        1
280
               0
281
               0
  0
CLASS
  1
LAYOUT
  2
AcDbLayout
  3
"AutoCAD 2000"
 90
        1
280
               0
281
               0
  0
CLASS
  1
PLOTSETTINGS
  2
AcDbPlotSettings
  3
"AutoCAD 2000"
 90
        1
280
               0
281
               0
  0
CLASS
  1
ACDBDICTIONARYWDFLT
  2
AcDbDictionaryWithDefault
  3
"AutoCAD 2000"
 90
        1
280
               0
281
               0
  0
CLASS
  1
ACDBPLACEHOLDER
  2
AcDbPlaceHolder
  3
"AutoCAD 2000"
 90
        1
280
               0
281
               0
  0
CLASS
  1
VBA_PROJECT
  2
AcDbVbaProject
  3
"acadvba"
 90
        1
280
               0
281
               0
  0
CLASS
  1
WIPEOUT
  2
AcDbWipeout
  3
WipeOut|AutoCAD Express Tool|expresstools@autodesk.com
 90
      127
280
               0
281
               1
  0
CLASS
  1
WIPEOUTVARIABLES
  2
AcDbWipeoutVariables
  3
WipeOut|AutoCAD Express Tool|expresstools@autodesk.com
 90
        0
280
               0
281
               0
  0
CLASS
  1
RTEXT
  2
RText
  3
RText|AutoCAD Express Tool|expresstools@autodesk.com
 90
        0
280
               0
281
               1
  0
CLASS
  1
ARCALIGNEDTEXT
  2
AcDbArcAlignedText
  3
ATEXT|AutoCAD Express Tool|expresstools@autodesk.com
 90
        0
280
               0
281
               1
  0
ENDSEC
  0
SECTION
  2
TABLES
  0
TABLE
  2
VPORT
  5
7
100
AcDbSymbolTable
 70
               1
  0
VPORT
  5
15
100
AcDbSymbolTableRecord
100
AcDbViewportTableRecord
  2
*ACTIVE
 70
               0
 10
0.0
 20
0.0
 11
1.0
 21
1.0
 12
0.0
 22
0.0
 13
0.0
 23
0.0
 14
1.0
 24
1.0
 15
0.0
 25
0.0
 16
0.0
 26
0.0
 36
1.0
 17
0.0
 27
0.0
 37
0.0
 40
363.60000000000002
 41
1.7320508075688772
 42
50.0
 43
0.0
 44
0.0
 50
0.0
 51
0.0
 71
               0
 72
             100
 73
               1
 74
               1
 75
               0
 76
               0
 77
               0
 78
               0
  0
ENDTAB
  0
TABLE
  2
LTYPE
  5
4
100
AcDbSymbolTable
 70
               4
  0
LTYPE
  5
11
100
AcDbSymbolTableRecord
100
AcDbLinetypeTableRecord
  2
BYBLOCK
 70
              64
  3

 72
              65
 73
               0
 40
0.0
  0
LTYPE
  5
12
100
AcDbSymbolTableRecord
100
AcDbLinetypeTableRecord
  2
BYLAYER
 70
              64
  3

 72
              65
 73
               0
 40
0.0
  0
LTYPE
  5
13
100
AcDbSymbolTableRecord
100
AcDbLinetypeTableRecord
  2
CONTINUOUS
 70
              64
  3
Solid line
 72
              65
 73
               0
 40
0.0
  0
LTYPE
  5
6F
100
AcDbSymbolTableRecord
100
AcDbLinetypeTableRecord
  2
CENTER
 70
              64
  3
Center ____ _ ____ _ ____ _ ____ _ ____ _ ____
 72
              65
 73
               4
 40
50.800000000000004
 49
31.75
 74
               0
 49
-6.3499999999999996
 74
               0
 49
6.3499999999999996
 74
               0
 49
-6.3499999999999996
 74
               0
  0
ENDTAB
  0
TABLE
  2
LAYER
  5
2
100
AcDbSymbolTable
 70
               2
  0
LAYER
  5
14
100
AcDbSymbolTableRecord
100
AcDbLayerTableRecord
  2
0
 70
               0
 62
               7
  6
CONTINUOUS
  0
LAYER
  5
1D
100
AcDbSymbolTableRecord
100
AcDbLayerTableRecord
  2
DEFPOINTS
 70
               0
 62
               7
  6
CONTINUOUS
  0
ENDTAB
  0
TABLE
  2
STYLE
  5
3
100
AcDbSymbolTable
 70
               1
  0
STYLE
  5
17
100
AcDbSymbolTableRecord
100
AcDbTextStyleTableRecord
  2
MX_NOTE_STANDARD
 70
               0
 40
3.2000000476837158
 41
1.0
 50
0.0
 71
               0
 42
3.2000000476837158
  3
txt.shx
  4
extfont.shx
  0
ENDTAB
  0
TABLE
  2
VIEW
  5
5
100
AcDbSymbolTable
 70
               0
  0
ENDTAB
  0
TABLE
  2
UCS
  5
6
100
AcDbSymbolTable
 70
               0
  0
ENDTAB
  0
TABLE
  2
APPID
  5
8
100
AcDbSymbolTable
 70
               1
  0
APPID
  5
16
100
AcDbSymbolTableRecord
100
AcDbRegAppTableRecord
  2
ACAD
 70
               0
  0
ENDTAB
  0
TABLE
  2
DIMSTYLE
  5
9
100
AcDbSymbolTable
 70
               1
  0
DIMSTYLE
105
18
100
AcDbSymbolTableRecord
100
AcDbDimStyleTableRecord
  2
MXDIMSTYLE
 70
               0
  3

  4

  5

  6

  7

 40
1.0
 41
2.5
 42
1.5
 43
3.75
 44
1.5
 45
0.0
 46
0.0
 47
0.0
 48
0.0
 71
               0
 72
               0
 73
               0
 74
               0
 75
               0
 76
               0
 77
               1
 78
               8
140
3.2000000476837158
141
2.5
142
0.0
143
0.0394
144
1.0
145
0.0
146
1.0
147
1.0
170
               0
171
               4
172
               1
173
               0
174
               0
175
               0
176
               0
177
               0
178
               0
270
               2
271
               4
272
               4
273
               8
274
               4
275
               0
280
               0
281
               0
282
               0
283
               1
284
               0
285
               0
286
               0
287
               3
288
               1
340
17
  0
ENDTAB
  0
TABLE
  2
BLOCK_RECORD
  5
1
100
AcDbSymbolTable
 70
              56
  0
BLOCK_RECORD
  5
A
100
AcDbSymbolTableRecord
100
AcDbBlockTableRecord
  2
*MODEL_SPACE
  0
BLOCK_RECORD
  5
B
100
AcDbSymbolTableRecord
100
AcDbBlockTableRecord
  2
*PAPER_SPACE
  0
BLOCK_RECORD
  5
1E
100
AcDbSymbolTableRecord
100
AcDbBlockTableRecord
  2
MS_1
  0
BLOCK_RECORD
  5
1F
100
AcDbSymbolTableRecord
100
AcDbBlockTableRecord
  2
MS_2
  0
BLOCK_RECORD
  5
20
100
AcDbSymbolTableRecord
100
AcDbBlockTableRecord
  2
MS_3
  0
BLOCK_RECORD
  5
21
100
AcDbSymbolTableRecord
100
AcDbBlockTableRecord
  2
MS_4
  0
BLOCK_RECORD
  5
22
100
AcDbSymbolTableRecord
100
AcDbBlockTableRecord
  2
MS_5
  0
BLOCK_RECORD
  5
23
100
AcDbSymbolTableRecord
100
AcDbBlockTableRecord
  2
MS_6
  0
BLOCK_RECORD
  5
24
100
AcDbSymbolTableRecord
100
AcDbBlockTableRecord
  2
MS_7
  0
BLOCK_RECORD
  5
25
100
AcDbSymbolTableRecord
100
AcDbBlockTableRecord
  2
MS_8
  0
BLOCK_RECORD
  5
26
100
AcDbSymbolTableRecord
100
AcDbBlockTableRecord
  2
MS_9
  0
BLOCK_RECORD
  5
27
100
AcDbSymbolTableRecord
100
AcDbBlockTableRecord
  2
MS_10
  0
BLOCK_RECORD
  5
28
100
AcDbSymbolTableRecord
100
AcDbBlockTableRecord
  2
MS_11
  0
BLOCK_RECORD
  5
29
100
AcDbSymbolTableRecord
100
AcDbBlockTableRecord
  2
MS_12
  0
BLOCK_RECORD
  5
2A
100
AcDbSymbolTableRecord
100
AcDbBlockTableRecord
  2
MS_13
  0
BLOCK_RECORD
  5
2B
100
AcDbSymbolTableRecord
100
AcDbBlockTableRecord
  2
MS_14
  0
BLOCK_RECORD
  5
2C
100
AcDbSymbolTableRecord
100
AcDbBlockTableRecord
  2
MS_15
  0
BLOCK_RECORD
  5
2D
100
AcDbSymbolTableRecord
100
AcDbBlockTableRecord
  2
MS_16
  0
BLOCK_RECORD
  5
2E
100
AcDbSymbolTableRecord
100
AcDbBlockTableRecord
  2
MS_17
  0
BLOCK_RECORD
  5
2F
100
AcDbSymbolTableRecord
100
AcDbBlockTableRecord
  2
MS_18
  0
BLOCK_RECORD
  5
30
100
AcDbSymbolTableRecord
100
AcDbBlockTableRecord
  2
MS_19
  0
BLOCK_RECORD
  5
31
100
AcDbSymbolTableRecord
100
AcDbBlockTableRecord
  2
MS_20
  0
BLOCK_RECORD
  5
32
100
AcDbSymbolTableRecord
100
AcDbBlockTableRecord
  2
MS_21
  0
BLOCK_RECORD
  5
33
100
AcDbSymbolTableRecord
100
AcDbBlockTableRecord
  2
MS_22
  0
BLOCK_RECORD
  5
34
100
AcDbSymbolTableRecord
100
AcDbBlockTableRecord
  2
MS_23
  0
BLOCK_RECORD
  5
35
100
AcDbSymbolTableRecord
100
AcDbBlockTableRecord
  2
MS_24
  0
BLOCK_RECORD
  5
36
100
AcDbSymbolTableRecord
100
AcDbBlockTableRecord
  2
MS_25
  0
BLOCK_RECORD
  5
37
100
AcDbSymbolTableRecord
100
AcDbBlockTableRecord
  2
MS_26
  0
BLOCK_RECORD
  5
38
100
AcDbSymbolTableRecord
100
AcDbBlockTableRecord
  2
MS_27
  0
BLOCK_RECORD
  5
39
100
AcDbSymbolTableRecord
100
AcDbBlockTableRecord
  2
MS_28
  0
BLOCK_RECORD
  5
3A
100
AcDbSymbolTableRecord
100
AcDbBlockTableRecord
  2
MS_29
  0
BLOCK_RECORD
  5
3B
100
AcDbSymbolTableRecord
100
AcDbBlockTableRecord
  2
MS_30
  0
BLOCK_RECORD
  5
3C
100
AcDbSymbolTableRecord
100
AcDbBlockTableRecord
  2
MS_31
  0
BLOCK_RECORD
  5
3D
100
AcDbSymbolTableRecord
100
AcDbBlockTableRecord
  2
MS_32
  0
BLOCK_RECORD
  5
3E
100
AcDbSymbolTableRecord
100
AcDbBlockTableRecord
  2
MS_33
  0
BLOCK_RECORD
  5
3F
100
AcDbSymbolTableRecord
100
AcDbBlockTableRecord
  2
MS_34
  0
BLOCK_RECORD
  5
40
100
AcDbSymbolTableRecord
100
AcDbBlockTableRecord
  2
MS_35
  0
BLOCK_RECORD
  5
41
100
AcDbSymbolTableRecord
100
AcDbBlockTableRecord
  2
MS_36
  0
BLOCK_RECORD
  5
42
100
AcDbSymbolTableRecord
100
AcDbBlockTableRecord
  2
MS_37
  0
BLOCK_RECORD
  5
43
100
AcDbSymbolTableRecord
100
AcDbBlockTableRecord
  2
MS_38
  0
BLOCK_RECORD
  5
44
100
AcDbSymbolTableRecord
100
AcDbBlockTableRecord
  2
MS_39
  0
BLOCK_RECORD
  5
45
100
AcDbSymbolTableRecord
100
AcDbBlockTableRecord
  2
MS_40
  0
BLOCK_RECORD
  5
46
100
AcDbSymbolTableRecord
100
AcDbBlockTableRecord
  2
MS_41
  0
BLOCK_RECORD
  5
47
100
AcDbSymbolTableRecord
100
AcDbBlockTableRecord
  2
MS_42
  0
BLOCK_RECORD
  5
48
100
AcDbSymbolTableRecord
100
AcDbBlockTableRecord
  2
MS_43
  0
BLOCK_RECORD
  5
49
100
AcDbSymbolTableRecord
100
AcDbBlockTableRecord
  2
MS_44
  0
BLOCK_RECORD
  5
4A
100
AcDbSymbolTableRecord
100
AcDbBlockTableRecord
  2
MS_45
  0
BLOCK_RECORD
  5
4B
100
AcDbSymbolTableRecord
100
AcDbBlockTableRecord
  2
MS_46
  0
BLOCK_RECORD
  5
4C
100
AcDbSymbolTableRecord
100
AcDbBlockTableRecord
  2
MS_47
  0
BLOCK_RECORD
  5
4D
100
AcDbSymbolTableRecord
100
AcDbBlockTableRecord
  2
MS_48
  0
BLOCK_RECORD
  5
4E
100
AcDbSymbolTableRecord
100
AcDbBlockTableRecord
  2
MS_49
  0
BLOCK_RECORD
  5
4F
100
AcDbSymbolTableRecord
100
AcDbBlockTableRecord
  2
MS_50
  0
BLOCK_RECORD
  5
50
100
AcDbSymbolTableRecord
100
AcDbBlockTableRecord
  2
MS_51
  0
BLOCK_RECORD
  5
51
100
AcDbSymbolTableRecord
100
AcDbBlockTableRecord
  2
MS_52
  0
BLOCK_RECORD
  5
52
100
AcDbSymbolTableRecord
100
AcDbBlockTableRecord
  2
MS_53
  0
BLOCK_RECORD
  5
53
100
AcDbSymbolTableRecord
100
AcDbBlockTableRecord
  2
MS_54
  0
BLOCK_RECORD
  5
54
100
AcDbSymbolTableRecord
100
AcDbBlockTableRecord
  2
MS_55
  0
BLOCK_RECORD
  5
55
100
AcDbSymbolTableRecord
100
AcDbBlockTableRecord
  2
MS_56
  0
ENDTAB
  0
ENDSEC
  0
SECTION
  2
BLOCKS
  0
BLOCK
  5
D
100
AcDbEntity
  8
0
100
AcDbBlockBegin
  2
*MODEL_SPACE
 70
               0
 10
0.0
 20
0.0
 30
0.0
  3
*MODEL_SPACE
  1

  0
ENDBLK
  5
E
100
AcDbEntity
  8
0
100
AcDbBlockEnd
  0
BLOCK
  5
F
100
AcDbEntity
 67
               1
  8
0
100
AcDbBlockBegin
  2
*PAPER_SPACE
 70
               0
 10
0.0
 20
0.0
 30
0.0
  3
*PAPER_SPACE
  1

  0
ENDBLK
  5
10
100
AcDbEntity
 67
               1
  8
0
100
AcDbBlockEnd
  0
BLOCK
  5
56
100
AcDbEntity
  8
0
100
AcDbBlockBegin
  2
MS_1
 70
               0
 10
0.0
 20
0.0
 30
0.0
  3
MS_1
  1

  0
ARC
  5
57
100
AcDbEntity
  8
0
  6
CONTINUOUS
 62
               7
100
AcDbCircle
 10
-0.0185413389176909
 20
4.426985750121891
 30
0.0
 40
4.7714066387101575
100
AcDbArc
 50
72.200697040304334
 51
84.9676239108814
  0
ARC
  5
58
100
AcDbEntity
  8
0
  6
CONTINUOUS
 62
               7
100
AcDbCircle
 10
2.1575695167572477
 20
8.4802275093873583
 30
0.0
 40
1.2802298164942694
100
AcDbArc
 50
235.90957879303028
 51
270.10877462299629
  0
ARC
  5
59
100
AcDbEntity
  8
0
  6
CONTINUOUS
 62
               7
100
AcDbCircle
 10
-2.1575695167572477
 20
8.4802275093873583
 30
0.0
 40
1.2802298164942694
100
AcDbArc
 50
269.89122537700251
 51
304.09042120696847
  0
ARC
  5
5A
100
AcDbEntity
  8
0
  6
CONTINUOUS
 62
               7
100
AcDbCircle
 10
0.0
 20
11.976719856262212
 30
0.0
 40
4.7788383367147205
100
AcDbArc
 50
252.46258896879414
 51
287.53741103120467
  0
ARC
  5
5B
100
AcDbEntity
  8
0
  6
CONTINUOUS
 62
               7
100
AcDbCircle
 10
2.170895959029405
 20
7.9239343891253338
 30
0.0
 40
1.2761121287645945
100
AcDbArc
 50
90.489220373281853
 51
124.94236503947135
  0
ARC
  5
5C
100
AcDbEntity
  8
0
  6
CONTINUOUS
 62
               7
100
AcDbCircle
 10
0.0185413389176909
 20
4.426985750121891
 30
0.0
 40
4.7714066387101575
100
AcDbArc
 50
95.032376089118216
 51
107.79930295969528
  0
ARC
  5
5D
100
AcDbEntity
  8
0
  6
CONTINUOUS
 62
               7
100
AcDbCircle
 10
-2.170895959029405
 20
7.9239343891253338
 30
0.0
 40
1.2761121287645945
100
AcDbArc
 50
55.057634960528254
 51
89.510779626717763
  0
LINE
  5
5E
100
AcDbEntity
  8
0
  6
CONTINUOUS
 62
               7
100
AcDbLine
 10
6.5
 20
4.9000000000000004
 30
0.0
 11
6.5
 21
3.2999999999999998
 31
0.0
  0
LINE
  5
5F
100
AcDbEntity
  8
0
  6
CONTINUOUS
 62
               7
100
AcDbLine
 10
5.25
 20
5.0999999999999996
 30
0.0
 11
6.5
 21
4.9000000000000004
 31
0.0
  0
LINE
  5
60
100
AcDbEntity
  8
0
  6
CONTINUOUS
 62
               7
100
AcDbLine
 10
5.25
 20
5.0999999999999996
 30
0.0
 11
5.25
 21
3.1000000000000001
 31
0.0
  0
LINE
  5
61
100
AcDbEntity
  8
0
  6
CONTINUOUS
 62
               7
100
AcDbLine
 10
5.25
 20
3.1000000000000001
 30
0.0
 11
6.5
 21
3.2999999999999998
 31
0.0
  0
LINE
  5
62
100
AcDbEntity
  8
0
  6
CONTINUOUS
 62
               7
100
AcDbLine
 10
2.5
 20
3.2999999999999998
 30
0.0
 11
4.0
 21
3.2999999999999998
 31
0.0
  0
LINE
  5
63
100
AcDbEntity
  8
0
  6
CONTINUOUS
 62
               7
100
AcDbLine
 10
4.0
 20
3.1000000000000001
 30
0.0
 11
5.25
 21
3.2999999999999998
 31
0.0
  0
LINE
  5
64
100
AcDbEntity
  8
0
  6
CONTINUOUS
 62
               7
100
AcDbLine
 10
4.0
 20
5.0999999999999996
 30
0.0
 11
4.0
 21
3.1000000000000001
 31
0.0
  0
LINE
  5
65
100
AcDbEntity
  8
0
  6
CONTINUOUS
 62
               7
100
AcDbLine
 10
4.0
 20
5.0999999999999996
 30
0.0
 11
5.25
 21
4.9000000000000004
 31
0.0
  0
LINE
  5
66
100
AcDbEntity
  8
0
  6
CONTINUOUS
 62
               7
100
AcDbLine
 10
2.5
 20
4.9000000000000004
 30
0.0
 11
4.0
 21
4.9000000000000004
 31
0.0
  0
LINE
  5
67
100
AcDbEntity
  8
0
  6
CONTINUOUS
 62
               7
100
AcDbLine
 10
-2.5
 20
1.6000000000000001
 30
0.0
 11
-1.1399999999999999
 21
1.6000000000000001
 31
0.0
  0
LINE
  5
68
100
AcDbEntity
  8
0
  6
CONTINUOUS
 62
               7
100
AcDbLine
 10
-1.1399999999999999
 20
1.6000000000000001
 30
0.0
 11
-1.1399999999999999
 21
0.6
 31
0.0
  0
LINE
  5
69
100
AcDbEntity
  8
0
  6
CONTINUOUS
 62
               7
100
AcDbLine
 10
1.1399999999999999
 20
1.6000000000000001
 30
0.0
 11
1.1399999999999999
 21
0.6
 31
0.0
  0
LINE
  5
6A
100
AcDbEntity
  8
0
  6
CONTINUOUS
 62
               7
100
AcDbLine
 10
1.1399999999999999
 20
1.6000000000000001
 30
0.0
 11
2.5
 21
1.6000000000000001
 31
0.0
  0
LINE
  5
6B
100
AcDbEntity
  8
0
  6
CONTINUOUS
 62
               7
100
AcDbLine
 10
2.5
 20
9.1999999999999993
 30
0.0
 11
0.4
 21
9.1999999999999993
 31
0.0
  0
LINE
  5
6C
100
AcDbEntity
  8
0
  6
CONTINUOUS
 62
               7
100
AcDbLine
 10
0.4
 20
8.0
 30
0.0
 11
0.4
 21
9.1999999999999993
 31
0.0
  0
LINE
  5
6D
100
AcDbEntity
  8
0
  6
CONTINUOUS
 62
               7
100
AcDbLine
 10
-0.4
 20
8.0
 30
0.0
 11
-0.4
 21
9.1999999999999993
 31
0.0
  0
LINE
  5
6E
100
AcDbEntity
  8
0
  6
CONTINUOUS
 62
               7
100
AcDbLine
 10
-0.4
 20
8.0
 30
0.0
 11
0.4
 21
8.0
 31
0.0
  0
LINE
  5
70
100
AcDbEntity
  8
0
  6
CENTER
 62
               2
100
AcDbLine
 10
-3.25
 20
4.0999999999999996
 30
0.0
 11
7.5499999999999998
 21
4.0999999999999996
 31
0.0
  0
LINE
  5
71
100
AcDbEntity
  8
0
  6
CONTINUOUS
 62
               7
100
AcDbLine
 10
2.5
 20
0.0
 30
0.0
 11
2.5
 21
7.2000000000000002
 31
0.0
  0
LINE
  5
72
100
AcDbEntity
  8
0
  6
CONTINUOUS
 62
               7
100
AcDbLine
 10
-2.5
 20
0.0
 30
0.0
 11
-2.5
 21
7.2000000000000002
 31
0.0
  0
LINE
  5
73
100
AcDbEntity
  8
0
  6
CONTINUOUS
 62
               7
100
AcDbLine
 10
-2.5
 20
0.0
 30
0.0
 11
2.5
 21
0.0
 31
0.0
  0
LINE
  5
74
100
AcDbEntity
  8
0
  6
CONTINUOUS
 62
               7
100
AcDbLine
 10
-2.5
 20
0.6
 30
0.0
 11
2.5
 21
0.6
 31
0.0
  0
LINE
  5
75
100
AcDbEntity
  8
0
  6
CONTINUOUS
 62
               7
100
AcDbLine
 10
2.8799999999999999
 20
7.4199999999999999
 30
0.0
 11
2.8799999999999999
 21
8.9700000000000006
 31
0.0
  0
LINE
  5
76
100
AcDbEntity
  8
0
  6
CONTINUOUS
 62
               7
100
AcDbLine
 10
2.8799999999999999
 20
7.4199999999999999
 30
0.0
 11
2.5
 21
7.2000000000000002
 31
0.0
  0
LINE
  5
77
100
AcDbEntity
  8
0
  6
CONTINUOUS
 62
               7
100
AcDbLine
 10
-2.8799999999999999
 20
7.4199999999999999
 30
0.0
 11
-2.5
 21
7.2000000000000002
 31
0.0
  0
LINE
  5
78
100
AcDbEntity
  8
0
  6
CONTINUOUS
 62
               7
100
AcDbLine
 10
2.8799999999999999
 20
8.9700000000000006
 30
0.0
 11
2.5
 21
9.1999999999999993
 31
0.0
  0
LINE
  5
79
100
AcDbEntity
  8
0
  6
CONTINUOUS
 62
               7
100
AcDbLine
 10
-2.8799999999999999
 20
8.9700000000000006
 30
0.0
 11
-2.5
 21
9.1999999999999993
 31
0.0
  0
LINE
  5
7A
100
AcDbEntity
  8
0
  6
CONTINUOUS
 62
               7
100
AcDbLine
 10
1.4399999999999999
 20
7.4199999999999999
 30
0.0
 11
1.4399999999999999
 21
8.9700000000000006
 31
0.0
  0
LINE
  5
7B
100
AcDbEntity
  8
0
  6
CONTINUOUS
 62
               7
100
AcDbLine
 10
-1.4399999999999999
 20
7.4199999999999999
 30
0.0
 11
-1.4399999999999999
 21
8.9700000000000006
 31
0.0
  0
LINE
  5
7C
100
AcDbEntity
  8
0
  6
CONTINUOUS
 62
               7
100
AcDbLine
 10
-2.8799999999999999
 20
7.4199999999999999
 30
0.0
 11
-2.8799999999999999
 21
8.9700000000000006
 31
0.0
  0
LINE
  5
7D
100
AcDbEntity
  8
0
  6
CONTINUOUS
 62
               7
100
AcDbLine
 10
-2.5
 20
9.1999999999999993
 30
0.0
 11
-0.4
 21
9.1999999999999993
 31
0.0
  0
LINE
  5
7E
100
AcDbEntity
  8
0
  6
CONTINUOUS
 62
               7
100
AcDbLine
 10
-2.5
 20
7.2000000000000002
 30
0.0
 11
2.5
 21
7.2000000000000002
 31
0.0
  0
LINE
  5
7F
100
AcDbEntity
  8
0
  6
CONTINUOUS
 62
               7
100
AcDbLine
 10
-2.5
 20
6.5999999999999996
 30
0.0
 11
2.5
 21
6.5999999999999996
 31
0.0
  0
LINE
  5
80
100
AcDbEntity
  8
0
  6
CONTINUOUS
 62
               2
100
AcDbLine
 10
1.22
 20
-2.1000000000000001
 30
0.0
 11
1.22
 21
0.0
 31
0.0
  0
LINE
  5
81
100
AcDbEntity
  8
0
  6
CONTINUOUS
 62
               2
100
AcDbLine
 10
-1.22
 20
-2.1000000000000001
 30
0.0
 11
-1.22
 21
0.0
 31
0.0
  0
LINE
  5
82
100
AcDbEntity
  8
0
  6
CONTINUOUS
 62
               7
100
AcDbLine
 10
-1.5
 20
-2.1000000000000001
 30
0.0
 11
-1.5
 21
0.0
 31
0.0
  0
LINE
  5
83
100
AcDbEntity
  8
0
  6
CONTINUOUS
 62
               7
100
AcDbLine
 10
1.5
 20
-2.1000000000000001
 30
0.0
 11
1.5
 21
0.0
 31
0.0
  0
LINE
  5
84
100
AcDbEntity
  8
0
  6
CONTINUOUS
 62
               7
100
AcDbLine
 10
-1.5
 20
-2.1000000000000001
 30
0.0
 11
1.5
 21
-2.1000000000000001
 31
0.0
  0
LINE
  5
85
100
AcDbEntity
  8
0
  6
CENTER
 62
               2
100
AcDbLine
 10
0.0
 20
-2.6800000000000002
 30
0.0
 11
0.0
 21
10.210000000000001
 31
0.0
  0
ENDBLK
  5
86
100
AcDbEntity
  8
0
100
AcDbBlockEnd
  0
BLOCK
  5
87
100
AcDbEntity
  8
0
100
AcDbBlockBegin
  2
MS_2
 70
               0
 10
0.0
 20
0.0
 30
0.0
  3
MS_2
  1

  0
ARC
  5
88
100
AcDbEntity
  8
0
  6
CONTINUOUS
 62
               7
100
AcDbCircle
 10
0.0000000000000013
 20
0.0
 30
0.0
 40
2.4923081671414553
100
AcDbArc
 50
99.235559093165733
 51
260.7644409068335
  0
ARC
  5
89
100
AcDbEntity
  8
0
  6
CONTINUOUS
 62
               7
100
AcDbCircle
 10
-0.0000000000000013
 20
0.0
 30
0.0
 40
2.4923081671414553
100
AcDbArc
 50
279.23555909316531
 51
80.764440906833883
  0
LINE
  5
8A
100
AcDbEntity
  8
0
  6
CONTINUOUS
 62
               7
100
AcDbLine
 10
-2.5
 20
-0.67
 30
0.0
 11
-2.5
 21
-2.5
 31
0.0
  0
LINE
  5
8B
100
AcDbEntity
  8
0
  6
CONTINUOUS
 62
               7
100
AcDbLine
 10
-2.5
 20
0.67
 30
0.0
 11
-2.5
 21
2.5
 31
0.0
  0
LINE
  5
8C
100
AcDbEntity
  8
0
  6
CONTINUOUS
 62
               7
100
AcDbLine
 10
2.5
 20
-0.67
 30
0.0
 11
2.5
 21
-2.5
 31
0.0
  0
LINE
  5
8D
100
AcDbEntity
  8
0
  6
CONTINUOUS
 62
               7
100
AcDbLine
 10
2.5
 20
0.67
 30
0.0
 11
2.5
 21
2.5
 31
0.0
  0
LINE
  5
8E
100
AcDbEntity
  8
0
  6
CONTINUOUS
 62
               7
100
AcDbLine
 10
-0.4
 20
-2.5
 30
0.0
 11
-0.4
 21
2.5
 31
0.0
  0
LINE
  5
8F
100
AcDbEntity
  8
0
  6
CONTINUOUS
 62
               7
100
AcDbLine
 10
0.4
 20
-2.5
 30
0.0
 11
0.4
 21
2.5
 31
0.0
  0
LINE
  5
90
100
AcDbEntity
  8
0
  6
CONTINUOUS
 62
               7
100
AcDbLine
 10
2.5
 20
-0.8
 30
0.0
 11
4.0
 21
-0.8
 31
0.0
  0
LINE
  5
91
100
AcDbEntity
  8
0
  6
CONTINUOUS
 62
               7
100
AcDbLine
 10
2.5
 20
0.8
 30
0.0
 11
4.0
 21
0.8
 31
0.0
  0
LINE
  5
92
100
AcDbEntity
  8
0
  6
CONTINUOUS
 62
               7
100
AcDbLine
 10
5.25
 20
-1.0
 30
0.0
 11
6.5
 21
-0.8
 31
0.0
  0
LINE
  5
93
100
AcDbEntity
  8
0
  6
CONTINUOUS
 62
               7
100
AcDbLine
 10
5.25
 20
1.0
 30
0.0
 11
6.5
 21
0.8
 31
0.0
  0
LINE
  5
94
100
AcDbEntity
  8
0
  6
CONTINUOUS
 62
               7
100
AcDbLine
 10
4.0
 20
-1.0
 30
0.0
 11
5.25
 21
-0.8
 31
0.0
  0
LINE
  5
95
100
AcDbEntity
  8
0
  6
CONTINUOUS
 62
               7
100
AcDbLine
 10
4.0
 20
1.0
 30
0.0
 11
5.25
 21
0.8
 31
0.0
  0
LINE
  5
96
100
AcDbEntity
  8
0
  6
CONTINUOUS
 62
               7
100
AcDbLine
 10
5.25
 20
1.0
 30
0.0
 11
5.25
 21
-1.0
 31
0.0
  0
LINE
  5
97
100
AcDbEntity
  8
0
  6
CONTINUOUS
 62
               7
100
AcDbLine
 10
4.0
 20
1.0
 30
0.0
 11
4.0
 21
-1.0
 31
0.0
  0
LINE
  5
98
100
AcDbEntity
  8
0
  6
CONTINUOUS
 62
               7
100
AcDbLine
 10
6.5
 20
0.8
 30
0.0
 11
6.5
 21
-0.8
 31
0.0
  0
LINE
  5
99
100
AcDbEntity
  8
0
  6
CENTER
 62
               2
100
AcDbLine
 10
-3.5
 20
0.0
 30
0.0
 11
7.5499999999999998
 21
0.0
 31
0.0
  0
LINE
  5
9A
100
AcDbEntity
  8
0
  6
CENTER
 62
               2
100
AcDbLine
 10
0.0
 20
-3.5
 30
0.0
 11
0.0
 21
3.5
 31
0.0
  0
LINE
  5
9B
100
AcDbEntity
  8
0
  6
CONTINUOUS
 62
               7
100
AcDbLine
 10
-2.5
 20
2.5
 30
0.0
 11
2.5
 21
2.5
 31
0.0
  0
LINE
  5
9C
100
AcDbEntity
  8
0
  6
CONTINUOUS
 62
               7
100
AcDbLine
 10
1.4399999999999999
 20
2.5
 30
0.0
 11
2.8799999999999999
 21
0.0
 31
0.0
  0
LINE
  5
9D
100
AcDbEntity
  8
0
  6
CONTINUOUS
 62
               7
100
AcDbLine
 10
2.8799999999999999
 20
0.0
 30
0.0
 11
1.4399999999999999
 21
-2.5
 31
0.0
  0
LINE
  5
9E
100
AcDbEntity
  8
0
  6
CONTINUOUS
 62
               7
100
AcDbLine
 10
2.5
 20
-2.5
 30
0.0
 11
-2.5
 21
-2.5
 31
0.0
  0
LINE
  5
9F
100
AcDbEntity
  8
0
  6
CONTINUOUS
 62
               7
100
AcDbLine
 10
-1.4399999999999999
 20
-2.5
 30
0.0
 11
-2.8799999999999999
 21
0.0
 31
0.0
  0
LINE
  5
A0
100
AcDbEntity
  8
0
  6
CONTINUOUS
 62
               7
100
AcDbLine
 10
-2.8799999999999999
 20
0.0
 30
0.0
 11
-1.4399999999999999
 21
2.5
 31
0.0
  0
ENDBLK
  5
A1
100
AcDbEntity
  8
0
100
AcDbBlockEnd
  0
BLOCK
  5
A2
100
AcDbEntity
  8
0
100
AcDbBlockBegin
  2
MS_3
 70
               0
 10
0.0
 20
0.0
 30
0.0
  3
MS_3
  1

  0
ARC
  5
A3
100
AcDbEntity
  8
0
  6
CONTINUOUS
 62
               7
100
AcDbCircle
 10
-1.25
 20
10.810444831848145
 30
0.0
 40
3.6135323656784637
100
AcDbArc
 50
249.76191756579149
 51
290.23808243420729
  0
ARC
  5
A4
100
AcDbEntity
  8
0
  6
CONTINUOUS
 62
               7
100
AcDbCircle
 10
-1.25
 20
5.5895557403564453
 30
0.0
 40
3.6041508559655302
100
AcDbArc
 50
69.706922635946938
 51
110.29307736405268
  0
ARC
  5
A5
100
AcDbEntity
  8
0
  6
CONTINUOUS
 62
               7
100
AcDbCircle
 10
1.25
 20
10.810444831848145
 30
0.0
 40
3.6135323656784637
100
AcDbArc
 50
249.76191756579149
 51
290.23808243420729
  0
ARC
  5
A6
100
AcDbEntity
  8
0
  6
CONTINUOUS
 62
               7
100
AcDbCircle
 10
1.25
 20
5.5895557403564453
 30
0.0
 40
3.6041508559655302
100
AcDbArc
 50
69.706922635946938
 51
110.29307736405268
  0
LINE
  5
A7
100
AcDbEntity
  8
0
  6
CONTINUOUS
 62
               7
100
AcDbLine
 10
-2.5
 20
1.6000000000000001
 30
0.0
 11
-1.1399999999999999
 21
1.6000000000000001
 31
0.0
  0
LINE
  5
A8
100
AcDbEntity
  8
0
  6
CONTINUOUS
 62
               7
100
AcDbLine
 10
-1.1399999999999999
 20
1.6000000000000001
 30
0.0
 11
-1.1399999999999999
 21
0.6
 31
0.0
  0
LINE
  5
A9
100
AcDbEntity
  8
0
  6
CONTINUOUS
 62
               7
100
AcDbLine
 10
1.1399999999999999
 20
1.6000000000000001
 30
0.0
 11
1.1399999999999999
 21
0.6
 31
0.0
  0
LINE
  5
AA
100
AcDbEntity
  8
0
  6
CONTINUOUS
 62
               7
100
AcDbLine
 10
1.1399999999999999
 20
1.6000000000000001
 30
0.0
 11
2.5
 21
1.6000000000000001
 31
0.0
  0
LINE
  5
AB
100
AcDbEntity
  8
0
  6
CONTINUOUS
 62
               7
100
AcDbLine
 10
-2.5
 20
0.0
 30
0.0
 11
2.5
 21
0.0
 31
0.0
  0
LINE
  5
AC
100
AcDbEntity
  8
0
  6
CONTINUOUS
 62
               7
100
AcDbLine
 10
-2.5
 20
0.0
 30
0.0
 11
-2.5
 21
9.1999999999999993
 31
0.0
  0
LINE
  5
AD
100
AcDbEntity
  8
0
  6
CONTINUOUS
 62
               7
100
AcDbLine
 10
-2.5
 20
0.6
 30
0.0
 11
2.5
 21
0.6
 31
0.0
  0
LINE
  5
AE
100
AcDbEntity
  8
0
  6
CONTINUOUS
 62
               7
100
AcDbLine
 10
0.0
 20
7.4199999999999999
 30
0.0
 11
0.0
 21
8.9700000000000006
 31
0.0
  0
LINE
  5
AF
100
AcDbEntity
  8
0
  6
CONTINUOUS
 62
               7
100
AcDbLine
 10
2.5
 20
0.0
 30
0.0
 11
2.5
 21
9.1999999999999993
 31
0.0
  0
LINE
  5
B0
100
AcDbEntity
  8
0
  6
CONTINUOUS
 62
               7
100
AcDbLine
 10
-2.5
 20
9.1999999999999993
 30
0.0
 11
2.5
 21
9.1999999999999993
 31
0.0
  0
LINE
  5
B1
100
AcDbEntity
  8
0
  6
CONTINUOUS
 62
               7
100
AcDbLine
 10
-2.5
 20
7.2000000000000002
 30
0.0
 11
2.5
 21
7.2000000000000002
 31
0.0
  0
LINE
  5
B2
100
AcDbEntity
  8
0
  6
CONTINUOUS
 62
               7
100
AcDbLine
 10
-2.5
 20
6.5999999999999996
 30
0.0
 11
2.5
 21
6.5999999999999996
 31
0.0
  0
LINE
  5
B3
100
AcDbEntity
  8
0
  6
CONTINUOUS
 62
               2
100
AcDbLine
 10
1.22
 20
-2.1000000000000001
 30
0.0
 11
1.22
 21
0.0
 31
0.0
  0
LINE
  5
B4
100
AcDbEntity
  8
0
  6
CONTINUOUS
 62
               2
100
AcDbLine
 10
-1.22
 20
-2.1000000000000001
 30
0.0
 11
-1.22
 21
0.0
 31
0.0
  0
LINE
  5
B5
100
AcDbEntity
  8
0
  6
CONTINUOUS
 62
               7
100
AcDbLine
 10
-1.5
 20
-2.1000000000000001
 30
0.0
 11
-1.5
 21
0.0
 31
0.0
  0
LINE
  5
B6
100
AcDbEntity
  8
0
  6
CONTINUOUS
 62
               7
100
AcDbLine
 10
1.5
 20
-2.1000000000000001
 30
0.0
 11
1.5
 21
0.0
 31
0.0
  0
LINE
  5
B7
100
AcDbEntity
  8
0
  6
CONTINUOUS
 62
               7
100
AcDbLine
 10
-1.5
 20
-2.1000000000000001
 30
0.0
 11
1.5
 21
-2.1000000000000001
 31
0.0
  0
LINE
  5
B8
100
AcDbEntity
  8
0
  6
CENTER
 62
               2
100
AcDbLine
 10
0.0
 20
-2.6800000000000002
 30
0.0
 11
0.0
 21
10.210000000000001
 31
0.0
  0
ENDBLK
  5
B9
100
AcDbEntity
  8
0
100
AcDbBlockEnd
  0
BLOCK
  5
BA
100
AcDbEntity
  8
0
100
AcDbBlockBegin
  2
MS_4
 70
               0
 10
0.0
 20
0.0
 30
0.0
  3
MS_4
  1

  0
CIRCLE
  5
BB
100
AcDbEntity
  8
0
  6
CONTINUOUS
 62
               7
100
AcDbCircle
 10
0.0
 20
4.0999994277954102
 30
0.0
 40
0.6000000238418579
  0
CIRCLE
  5
BC
100
AcDbEntity
  8
0
  6
CONTINUOUS
 62
               7
100
AcDbCircle
 10
0.0
 20
4.0999994277954102
 30
0.0
 40
1.0
  0
ARC
  5
BD
100
AcDbEntity
  8
0
  6
CONTINUOUS
 62
               7
100
AcDbCircle
 10
1.25
 20
10.810444831848145
 30
0.0
 40
3.6135323656784637
100
AcDbArc
 50
249.76191756579149
 51
290.23808243420729
  0
ARC
  5
BE
100
AcDbEntity
  8
0
  6
CONTINUOUS
 62
               7
100
AcDbCircle
 10
1.25
 20
5.5895557403564453
 30
0.0
 40
3.6041508559655302
100
AcDbArc
 50
69.706922635946938
 51
110.29307736405268
  0
ARC
  5
BF
100
AcDbEntity
  8
0
  6
CONTINUOUS
 62
               7
100
AcDbCircle
 10
-1.25
 20
10.810444831848145
 30
0.0
 40
3.6135323656784637
100
AcDbArc
 50
249.76191756579149
 51
290.23808243420729
  0
ARC
  5
C0
100
AcDbEntity
  8
0
  6
CONTINUOUS
 62
               7
100
AcDbCircle
 10
-1.25
 20
5.5895557403564453
 30
0.0
 40
3.6041508559655302
100
AcDbArc
 50
69.706922635946938
 51
110.29307736405268
  0
LINE
  5
C1
100
AcDbEntity
  8
0
  6
CONTINUOUS
 62
               7
100
AcDbLine
 10
1.1399999999999999
 20
1.6000000000000001
 30
0.0
 11
2.5
 21
1.6000000000000001
 31
0.0
  0
LINE
  5
C2
100
AcDbEntity
  8
0
  6
CONTINUOUS
 62
               7
100
AcDbLine
 10
-2.5
 20
1.6000000000000001
 30
0.0
 11
-1.1399999999999999
 21
1.6000000000000001
 31
0.0
  0
LINE
  5
C3
100
AcDbEntity
  8
0
  6
CONTINUOUS
 62
               7
100
AcDbLine
 10
-1.1399999999999999
 20
1.6000000000000001
 30
0.0
 11
-1.1399999999999999
 21
0.6
 31
0.0
  0
LINE
  5
C4
100
AcDbEntity
  8
0
  6
CONTINUOUS
 62
               7
100
AcDbLine
 10
1.1399999999999999
 20
1.6000000000000001
 30
0.0
 11
1.1399999999999999
 21
0.6
 31
0.0
  0
LINE
  5
C5
100
AcDbEntity
  8
0
  6
CENTER
 62
               2
100
AcDbLine
 10
-3.0
 20
4.0999999999999996
 30
0.0
 11
3.0
 21
4.0999999999999996
 31
0.0
  0
LINE
  5
C6
100
AcDbEntity
  8
0
  6
CONTINUOUS
 62
               7
100
AcDbLine
 10
2.5
 20
0.0
 30
0.0
 11
-2.5
 21
0.0
 31
0.0
  0
LINE
  5
C7
100
AcDbEntity
  8
0
  6
CONTINUOUS
 62
               7
100
AcDbLine
 10
2.5
 20
0.0
 30
0.0
 11
2.5
 21
9.1999999999999993
 31
0.0
  0
LINE
  5
C8
100
AcDbEntity
  8
0
  6
CONTINUOUS
 62
               7
100
AcDbLine
 10
2.5
 20
0.6
 30
0.0
 11
-2.5
 21
0.6
 31
0.0
  0
LINE
  5
C9
100
AcDbEntity
  8
0
  6
CONTINUOUS
 62
               7
100
AcDbLine
 10
0.0
 20
7.4199999999999999
 30
0.0
 11
0.0
 21
8.9700000000000006
 31
0.0
  0
LINE
  5
CA
100
AcDbEntity
  8
0
  6
CONTINUOUS
 62
               7
100
AcDbLine
 10
-2.5
 20
0.0
 30
0.0
 11
-2.5
 21
9.1999999999999993
 31
0.0
  0
LINE
  5
CB
100
AcDbEntity
  8
0
  6
CONTINUOUS
 62
               7
100
AcDbLine
 10
2.5
 20
9.1999999999999993
 30
0.0
 11
-2.5
 21
9.1999999999999993
 31
0.0
  0
LINE
  5
CC
100
AcDbEntity
  8
0
  6
CONTINUOUS
 62
               7
100
AcDbLine
 10
2.5
 20
7.2000000000000002
 30
0.0
 11
-2.5
 21
7.2000000000000002
 31
0.0
  0
LINE
  5
CD
100
AcDbEntity
  8
0
  6
CONTINUOUS
 62
               7
100
AcDbLine
 10
2.5
 20
6.5999999999999996
 30
0.0
 11
-2.5
 21
6.5999999999999996
 31
0.0
  0
LINE
  5
CE
100
AcDbEntity
  8
0
  6
CONTINUOUS
 62
               2
100
AcDbLine
 10
-1.22
 20
-2.1000000000000001
 30
0.0
 11
-1.22
 21
0.0
 31
0.0
  0
LINE
  5
CF
100
AcDbEntity
  8
0
  6
CONTINUOUS
 62
               2
100
AcDbLine
 10
1.22
 20
-2.1000000000000001
 30
0.0
 11
1.22
 21
0.0
 31
0.0
  0
LINE
  5
D0
100
AcDbEntity
  8
0
  6
CONTINUOUS
 62
               7
100
AcDbLine
 10
1.5
 20
-2.1000000000000001
 30
0.0
 11
1.5
 21
0.0
 31
0.0
  0
LINE
  5
D1
100
AcDbEntity
  8
0
  6
CONTINUOUS
 62
               7
100
AcDbLine
 10
-1.5
 20
-2.1000000000000001
 30
0.0
 11
-1.5
 21
0.0
 31
0.0
  0
LINE
  5
D2
100
AcDbEntity
  8
0
  6
CONTINUOUS
 62
               7
100
AcDbLine
 10
1.5
 20
-2.1000000000000001
 30
0.0
 11
-1.5
 21
-2.1000000000000001
 31
0.0
  0
LINE
  5
D3
100
AcDbEntity
  8
0
  6
CENTER
 62
               2
100
AcDbLine
 10
0.0
 20
-2.6800000000000002
 30
0.0
 11
0.0
 21
10.210000000000001
 31
0.0
  0
ENDBLK
  5
D4
100
AcDbEntity
  8
0
100
AcDbBlockEnd
  0
BLOCK
  5
D5
100
AcDbEntity
  8
0
100
AcDbBlockBegin
  2
MS_5
 70
               0
 10
0.0
 20
0.0
 30
0.0
  3
MS_5
  1

  0
ARC
  5
D6
100
AcDbEntity
  8
0
  6
CONTINUOUS
 62
               7
100
AcDbCircle
 10
-0.0185413389176909
 20
4.426985750121891
 30
0.0
 40
4.7714066387101575
100
AcDbArc
 50
72.200697040304334
 51
84.9676239108814
  0
ARC
  5
D7
100
AcDbEntity
  8
0
  6
CONTINUOUS
 62
               7
100
AcDbCircle
 10
2.1575695167572477
 20
8.4802275093873583
 30
0.0
 40
1.2802298164942694
100
AcDbArc
 50
235.90957879303028
 51
270.10877462299629
  0
ARC
  5
D8
100
AcDbEntity
  8
0
  6
CONTINUOUS
 62
               7
100
AcDbCircle
 10
-2.1575695167572477
 20
8.4802275093873583
 30
0.0
 40
1.2802298164942694
100
AcDbArc
 50
269.89122537700251
 51
304.09042120696847
  0
ARC
  5
D9
100
AcDbEntity
  8
0
  6
CONTINUOUS
 62
               7
100
AcDbCircle
 10
0.0
 20
11.976719856262212
 30
0.0
 40
4.7788383367147205
100
AcDbArc
 50
252.46258896879414
 51
287.53741103120467
  0
ARC
  5
DA
100
AcDbEntity
  8
0
  6
CONTINUOUS
 62
               7
100
AcDbCircle
 10
2.170895959029405
 20
7.9239343891253338
 30
0.0
 40
1.2761121287645945
100
AcDbArc
 50
90.489220373281853
 51
124.94236503947135
  0
ARC
  5
DB
100
AcDbEntity
  8
0
  6
CONTINUOUS
 62
               7
100
AcDbCircle
 10
0.0185413389176909
 20
4.426985750121891
 30
0.0
 40
4.7714066387101575
100
AcDbArc
 50
95.032376089118216
 51
107.79930295969528
  0
ARC
  5
DC
100
AcDbEntity
  8
0
  6
CONTINUOUS
 62
               7
100
AcDbCircle
 10
-2.170895959029405
 20
7.9239343891253338
 30
0.0
 40
1.2761121287645945
100
AcDbArc
 50
55.057634960528254
 51
89.510779626717763
  0
LINE
  5
DD
100
AcDbEntity
  8
0
  6
CONTINUOUS
 62
               7
100
AcDbLine
 10
7.5
 20
5.0499999999999998
 30
0.0
 11
7.5
 21
3.1499999999999999
 31
0.0
  0
LINE
  5
DE
100
AcDbEntity
  8
0
  6
CONTINUOUS
 62
               7
100
AcDbLine
 10
6.0
 20
2.7999999999999998
 30
0.0
 11
7.5
 21
3.1499999999999999
 31
0.0
  0
LINE
  5
DF
100
AcDbEntity
  8
0
  6
CONTINUOUS
 62
               7
100
AcDbLine
 10
6.0
 20
5.4000000000000004
 30
0.0
 11
7.5
 21
5.0499999999999998
 31
0.0
  0
LINE
  5
E0
100
AcDbEntity
  8
0
  6
CONTINUOUS
 62
               7
100
AcDbLine
 10
6.0
 20
5.4000000000000004
 30
0.0
 11
6.0
 21
2.7999999999999998
 31
0.0
  0
LINE
  5
E1
100
AcDbEntity
  8
0
  6
CONTINUOUS
 62
               7
100
AcDbLine
 10
4.5
 20
5.4000000000000004
 30
0.0
 11
6.0
 21
5.0499999999999998
 31
0.0
  0
LINE
  5
E2
100
AcDbEntity
  8
0
  6
CONTINUOUS
 62
               7
100
AcDbLine
 10
4.5
 20
5.4000000000000004
 30
0.0
 11
4.5
 21
2.7999999999999998
 31
0.0
  0
LINE
  5
E3
100
AcDbEntity
  8
0
  6
CONTINUOUS
 62
               7
100
AcDbLine
 10
4.5
 20
2.7999999999999998
 30
0.0
 11
6.0
 21
3.1499999999999999
 31
0.0
  0
LINE
  5
E4
100
AcDbEntity
  8
0
  6
CONTINUOUS
 62
               7
100
AcDbLine
 10
4.5
 20
3.1499999999999999
 30
0.0
 11
2.5
 21
3.1499999999999999
 31
0.0
  0
LINE
  5
E5
100
AcDbEntity
  8
0
  6
CONTINUOUS
 62
               7
100
AcDbLine
 10
4.5
 20
5.0499999999999998
 30
0.0
 11
2.5
 21
5.0499999999999998
 31
0.0
  0
LINE
  5
E6
100
AcDbEntity
  8
0
  6
CONTINUOUS
 62
               7
100
AcDbLine
 10
-2.5
 20
1.6000000000000001
 30
0.0
 11
-1.1399999999999999
 21
1.6000000000000001
 31
0.0
  0
LINE
  5
E7
100
AcDbEntity
  8
0
  6
CONTINUOUS
 62
               7
100
AcDbLine
 10
-1.1399999999999999
 20
1.6000000000000001
 30
0.0
 11
-1.1399999999999999
 21
0.6
 31
0.0
  0
LINE
  5
E8
100
AcDbEntity
  8
0
  6
CONTINUOUS
 62
               7
100
AcDbLine
 10
1.1399999999999999
 20
1.6000000000000001
 30
0.0
 11
1.1399999999999999
 21
0.6
 31
0.0
  0
LINE
  5
E9
100
AcDbEntity
  8
0
  6
CONTINUOUS
 62
               7
100
AcDbLine
 10
1.1399999999999999
 20
1.6000000000000001
 30
0.0
 11
2.5
 21
1.6000000000000001
 31
0.0
  0
LINE
  5
EA
100
AcDbEntity
  8
0
  6
CONTINUOUS
 62
               7
100
AcDbLine
 10
2.5
 20
9.1999999999999993
 30
0.0
 11
0.4
 21
9.1999999999999993
 31
0.0
  0
LINE
  5
EB
100
AcDbEntity
  8
0
  6
CONTINUOUS
 62
               7
100
AcDbLine
 10
0.4
 20
8.0
 30
0.0
 11
0.4
 21
9.1999999999999993
 31
0.0
  0
LINE
  5
EC
100
AcDbEntity
  8
0
  6
CONTINUOUS
 62
               7
100
AcDbLine
 10
-0.4
 20
8.0
 30
0.0
 11
-0.4
 21
9.1999999999999993
 31
0.0
  0
LINE
  5
ED
100
AcDbEntity
  8
0
  6
CONTINUOUS
 62
               7
100
AcDbLine
 10
-0.4
 20
8.0
 30
0.0
 11
0.4
 21
8.0
 31
0.0
  0
LINE
  5
EE
100
AcDbEntity
  8
0
  6
CENTER
 62
               2
100
AcDbLine
 10
-3.25
 20
4.0999999999999996
 30
0.0
 11
9.25
 21
4.0999999999999996
 31
0.0
  0
LINE
  5
EF
100
AcDbEntity
  8
0
  6
CONTINUOUS
 62
               7
100
AcDbLine
 10
2.5
 20
0.0
 30
0.0
 11
2.5
 21
7.2000000000000002
 31
0.0
  0
LINE
  5
F0
100
AcDbEntity
  8
0
  6
CONTINUOUS
 62
               7
100
AcDbLine
 10
-2.5
 20
0.0
 30
0.0
 11
-2.5
 21
7.2000000000000002
 31
0.0
  0
LINE
  5
F1
100
AcDbEntity
  8
0
  6
CONTINUOUS
 62
               7
100
AcDbLine
 10
-2.5
 20
0.0
 30
0.0
 11
2.5
 21
0.0
 31
0.0
  0
LINE
  5
F2
100
AcDbEntity
  8
0
  6
CONTINUOUS
 62
               7
100
AcDbLine
 10
-2.5
 20
0.6
 30
0.0
 11
2.5
 21
0.6
 31
0.0
  0
LINE
  5
F3
100
AcDbEntity
  8
0
  6
CONTINUOUS
 62
               7
100
AcDbLine
 10
2.8799999999999999
 20
7.4199999999999999
 30
0.0
 11
2.8799999999999999
 21
8.9700000000000006
 31
0.0
  0
LINE
  5
F4
100
AcDbEntity
  8
0
  6
CONTINUOUS
 62
               7
100
AcDbLine
 10
2.8799999999999999
 20
7.4199999999999999
 30
0.0
 11
2.5
 21
7.2000000000000002
 31
0.0
  0
LINE
  5
F5
100
AcDbEntity
  8
0
  6
CONTINUOUS
 62
               7
100
AcDbLine
 10
-2.8799999999999999
 20
7.4199999999999999
 30
0.0
 11
-2.5
 21
7.2000000000000002
 31
0.0
  0
LINE
  5
F6
100
AcDbEntity
  8
0
  6
CONTINUOUS
 62
               7
100
AcDbLine
 10
2.8799999999999999
 20
8.9700000000000006
 30
0.0
 11
2.5
 21
9.1999999999999993
 31
0.0
  0
LINE
  5
F7
100
AcDbEntity
  8
0
  6
CONTINUOUS
 62
               7
100
AcDbLine
 10
-2.8799999999999999
 20
8.9700000000000006
 30
0.0
 11
-2.5
 21
9.1999999999999993
 31
0.0
  0
LINE
  5
F8
100
AcDbEntity
  8
0
  6
CONTINUOUS
 62
               7
100
AcDbLine
 10
1.4399999999999999
 20
7.4199999999999999
 30
0.0
 11
1.4399999999999999
 21
8.9700000000000006
 31
0.0
  0
LINE
  5
F9
100
AcDbEntity
  8
0
  6
CONTINUOUS
 62
               7
100
AcDbLine
 10
-1.4399999999999999
 20
7.4199999999999999
 30
0.0
 11
-1.4399999999999999
 21
8.9700000000000006
 31
0.0
  0
LINE
  5
FA
100
AcDbEntity
  8
0
  6
CONTINUOUS
 62
               7
100
AcDbLine
 10
-2.8799999999999999
 20
7.4199999999999999
 30
0.0
 11
-2.8799999999999999
 21
8.9700000000000006
 31
0.0
  0
LINE
  5
FB
100
AcDbEntity
  8
0
  6
CONTINUOUS
 62
               7
100
AcDbLine
 10
-2.5
 20
9.1999999999999993
 30
0.0
 11
-0.4
 21
9.1999999999999993
 31
0.0
  0
LINE
  5
FC
100
AcDbEntity
  8
0
  6
CONTINUOUS
 62
               7
100
AcDbLine
 10
-2.5
 20
7.2000000000000002
 30
0.0
 11
2.5
 21
7.2000000000000002
 31
0.0
  0
LINE
  5
FD
100
AcDbEntity
  8
0
  6
CONTINUOUS
 62
               7
100
AcDbLine
 10
-2.5
 20
6.5999999999999996
 30
0.0
 11
2.5
 21
6.5999999999999996
 31
0.0
  0
LINE
  5
FE
100
AcDbEntity
  8
0
  6
CONTINUOUS
 62
               2
100
AcDbLine
 10
1.22
 20
-2.1000000000000001
 30
0.0
 11
1.22
 21
0.0
 31
0.0
  0
LINE
  5
FF
100
AcDbEntity
  8
0
  6
CONTINUOUS
 62
               2
100
AcDbLine
 10
-1.22
 20
-2.1000000000000001
 30
0.0
 11
-1.22
 21
0.0
 31
0.0
  0
LINE
  5
100
100
AcDbEntity
  8
0
  6
CONTINUOUS
 62
               7
100
AcDbLine
 10
-1.5
 20
-2.1000000000000001
 30
0.0
 11
-1.5
 21
0.0
 31
0.0
  0
LINE
  5
101
100
AcDbEntity
  8
0
  6
CONTINUOUS
 62
               7
100
AcDbLine
 10
1.5
 20
-2.1000000000000001
 30
0.0
 11
1.5
 21
0.0
 31
0.0
  0
LINE
  5
102
100
AcDbEntity
  8
0
  6
CONTINUOUS
 62
               7
100
AcDbLine
 10
-1.5
 20
-2.1000000000000001
 30
0.0
 11
1.5
 21
-2.1000000000000001
 31
0.0
  0
LINE
  5
103
100
AcDbEntity
  8
0
  6
CENTER
 62
               2
100
AcDbLine
 10
0.0
 20
-2.6800000000000002
 30
0.0
 11
0.0
 21
10.210000000000001
 31
0.0
  0
ENDBLK
  5
104
100
AcDbEntity
  8
0
100
AcDbBlockEnd
  0
BLOCK
  5
105
100
AcDbEntity
  8
0
100
AcDbBlockBegin
  2
MS_6
 70
               0
 10
0.0
 20
0.0
 30
0.0
  3
MS_6
  1

  0
ARC
  5
106
100
AcDbEntity
  8
0
  6
CONTINUOUS
 62
               7
100
AcDbCircle
 10
0.0000000000000013
 20
0.0
 30
0.0
 40
2.4923081671414553
100
AcDbArc
 50
99.235559093165733
 51
260.7644409068335
  0
ARC
  5
107
100
AcDbEntity
  8
0
  6
CONTINUOUS
 62
               7
100
AcDbCircle
 10
-0.0000000000000013
 20
0.0
 30
0.0
 40
2.4923081671414553
100
AcDbArc
 50
279.23555909316531
 51
80.764440906833883
  0
LINE
  5
108
100
AcDbEntity
  8
0
  6
CONTINUOUS
 62
               7
100
AcDbLine
 10
7.5
 20
0.95
 30
0.0
 11
7.5
 21
-0.95
 31
0.0
  0
LINE
  5
109
100
AcDbEntity
  8
0
  6
CONTINUOUS
 62
               7
100
AcDbLine
 10
6.0
 20
-1.3
 30
0.0
 11
7.5
 21
-0.95
 31
0.0
  0
LINE
  5
10A
100
AcDbEntity
  8
0
  6
CONTINUOUS
 62
               7
100
AcDbLine
 10
6.0
 20
1.3
 30
0.0
 11
7.5
 21
0.95
 31
0.0
  0
LINE
  5
10B
100
AcDbEntity
  8
0
  6
CONTINUOUS
 62
               7
100
AcDbLine
 10
6.0
 20
1.3
 30
0.0
 11
6.0
 21
-1.3
 31
0.0
  0
LINE
  5
10C
100
AcDbEntity
  8
0
  6
CONTINUOUS
 62
               7
100
AcDbLine
 10
4.5
 20
1.3
 30
0.0
 11
6.0
 21
0.95
 31
0.0
  0
LINE
  5
10D
100
AcDbEntity
  8
0
  6
CONTINUOUS
 62
               7
100
AcDbLine
 10
4.5
 20
-1.3
 30
0.0
 11
6.0
 21
-0.95
 31
0.0
  0
LINE
  5
10E
100
AcDbEntity
  8
0
  6
CONTINUOUS
 62
               7
100
AcDbLine
 10
4.5
 20
-0.95
 30
0.0
 11
2.5
 21
-0.95
 31
0.0
  0
LINE
  5
10F
100
AcDbEntity
  8
0
  6
CONTINUOUS
 62
               7
100
AcDbLine
 10
4.5
 20
1.3
 30
0.0
 11
4.5
 21
-1.3
 31
0.0
  0
LINE
  5
110
100
AcDbEntity
  8
0
  6
CONTINUOUS
 62
               7
100
AcDbLine
 10
4.5
 20
0.95
 30
0.0
 11
2.5
 21
0.95
 31
0.0
  0
LINE
  5
111
100
AcDbEntity
  8
0
  6
CONTINUOUS
 62
               7
100
AcDbLine
 10
-2.5
 20
-0.67
 30
0.0
 11
-2.5
 21
-2.5
 31
0.0
  0
LINE
  5
112
100
AcDbEntity
  8
0
  6
CONTINUOUS
 62
               7
100
AcDbLine
 10
-2.5
 20
0.67
 30
0.0
 11
-2.5
 21
2.5
 31
0.0
  0
LINE
  5
113
100
AcDbEntity
  8
0
  6
CONTINUOUS
 62
               7
100
AcDbLine
 10
2.5
 20
-0.67
 30
0.0
 11
2.5
 21
-2.5
 31
0.0
  0
LINE
  5
114
100
AcDbEntity
  8
0
  6
CONTINUOUS
 62
               7
100
AcDbLine
 10
2.5
 20
0.67
 30
0.0
 11
2.5
 21
2.5
 31
0.0
  0
LINE
  5
115
100
AcDbEntity
  8
0
  6
CONTINUOUS
 62
               7
100
AcDbLine
 10
-0.4
 20
-2.5
 30
0.0
 11
-0.4
 21
2.5
 31
0.0
  0
LINE
  5
116
100
AcDbEntity
  8
0
  6
CONTINUOUS
 62
               7
100
AcDbLine
 10
0.4
 20
-2.5
 30
0.0
 11
0.4
 21
2.5
 31
0.0
  0
LINE
  5
117
100
AcDbEntity
  8
0
  6
CENTER
 62
               2
100
AcDbLine
 10
-3.5
 20
0.0
 30
0.0
 11
9.1500000000000004
 21
0.0
 31
0.0
  0
LINE
  5
118
100
AcDbEntity
  8
0
  6
CENTER
 62
               2
100
AcDbLine
 10
0.0
 20
-3.5
 30
0.0
 11
0.0
 21
3.5
 31
0.0
  0
LINE
  5
119
100
AcDbEntity
  8
0
  6
CONTINUOUS
 62
               7
100
AcDbLine
 10
-2.5
 20
2.5
 30
0.0
 11
2.5
 21
2.5
 31
0.0
  0
LINE
  5
11A
100
AcDbEntity
  8
0
  6
CONTINUOUS
 62
               7
100
AcDbLine
 10
1.4399999999999999
 20
2.5
 30
0.0
 11
2.8799999999999999
 21
0.0
 31
0.0
  0
LINE
  5
11B
100
AcDbEntity
  8
0
  6
CONTINUOUS
 62
               7
100
AcDbLine
 10
2.8799999999999999
 20
0.0
 30
0.0
 11
1.4399999999999999
 21
-2.5
 31
0.0
  0
LINE
  5
11C
100
AcDbEntity
  8
0
  6
CONTINUOUS
 62
               7
100
AcDbLine
 10
2.5
 20
-2.5
 30
0.0
 11
-2.5
 21
-2.5
 31
0.0
  0
LINE
  5
11D
100
AcDbEntity
  8
0
  6
CONTINUOUS
 62
               7
100
AcDbLine
 10
-1.4399999999999999
 20
-2.5
 30
0.0
 11
-2.8799999999999999
 21
0.0
 31
0.0
  0
LINE
  5
11E
100
AcDbEntity
  8
0
  6
CONTINUOUS
 62
               7
100
AcDbLine
 10
-2.8799999999999999
 20
0.0
 30
0.0
 11
-1.4399999999999999
 21
2.5
 31
0.0
  0
ENDBLK
  5
11F
100
AcDbEntity
  8
0
100
AcDbBlockEnd
  0
BLOCK
  5
120
100
AcDbEntity
  8
0
100
AcDbBlockBegin
  2
MS_7
 70
               0
 10
0.0
 20
0.0
 30
0.0
  3
MS_7
  1

  0
ARC
  5
121
100
AcDbEntity
  8
0
  6
CONTINUOUS
 62
               7
100
AcDbCircle
 10
-1.25
 20
10.810444831848145
 30
0.0
 40
3.6135323656784637
100
AcDbArc
 50
249.76191756579149
 51
290.23808243420729
  0
ARC
  5
122
100
AcDbEntity
  8
0
  6
CONTINUOUS
 62
               7
100
AcDbCircle
 10
-1.25
 20
5.5895557403564453
 30
0.0
 40
3.6041508559655302
100
AcDbArc
 50
69.706922635946938
 51
110.29307736405268
  0
ARC
  5
123
100
AcDbEntity
  8
0
  6
CONTINUOUS
 62
               7
100
AcDbCircle
 10
1.25
 20
10.810444831848145
 30
0.0
 40
3.6135323656784637
100
AcDbArc
 50
249.76191756579149
 51
290.23808243420729
  0
ARC
  5
124
100
AcDbEntity
  8
0
  6
CONTINUOUS
 62
               7
100
AcDbCircle
 10
1.25
 20
5.5895557403564453
 30
0.0
 40
3.6041508559655302
100
AcDbArc
 50
69.706922635946938
 51
110.29307736405268
  0
LINE
  5
125
100
AcDbEntity
  8
0
  6
CONTINUOUS
 62
               7
100
AcDbLine
 10
-2.5
 20
1.6000000000000001
 30
0.0
 11
-1.1399999999999999
 21
1.6000000000000001
 31
0.0
  0
LINE
  5
126
100
AcDbEntity
  8
0
  6
CONTINUOUS
 62
               7
100
AcDbLine
 10
-1.1399999999999999
 20
1.6000000000000001
 30
0.0
 11
-1.1399999999999999
 21
0.6
 31
0.0
  0
LINE
  5
127
100
AcDbEntity
  8
0
  6
CONTINUOUS
 62
               7
100
AcDbLine
 10
1.1399999999999999
 20
1.6000000000000001
 30
0.0
 11
1.1399999999999999
 21
0.6
 31
0.0
  0
LINE
  5
128
100
AcDbEntity
  8
0
  6
CONTINUOUS
 62
               7
100
AcDbLine
 10
1.1399999999999999
 20
1.6000000000000001
 30
0.0
 11
2.5
 21
1.6000000000000001
 31
0.0
  0
LINE
  5
129
100
AcDbEntity
  8
0
  6
CONTINUOUS
 62
               7
100
AcDbLine
 10
-2.5
 20
0.0
 30
0.0
 11
2.5
 21
0.0
 31
0.0
  0
LINE
  5
12A
100
AcDbEntity
  8
0
  6
CONTINUOUS
 62
               7
100
AcDbLine
 10
-2.5
 20
0.0
 30
0.0
 11
-2.5
 21
9.1999999999999993
 31
0.0
  0
LINE
  5
12B
100
AcDbEntity
  8
0
  6
CONTINUOUS
 62
               7
100
AcDbLine
 10
-2.5
 20
0.6
 30
0.0
 11
2.5
 21
0.6
 31
0.0
  0
LINE
  5
12C
100
AcDbEntity
  8
0
  6
CONTINUOUS
 62
               7
100
AcDbLine
 10
0.0
 20
7.4199999999999999
 30
0.0
 11
0.0
 21
8.9700000000000006
 31
0.0
  0
LINE
  5
12D
100
AcDbEntity
  8
0
  6
CONTINUOUS
 62
               7
100
AcDbLine
 10
2.5
 20
0.0
 30
0.0
 11
2.5
 21
9.1999999999999993
 31
0.0
  0
LINE
  5
12E
100
AcDbEntity
  8
0
  6
CONTINUOUS
 62
               7
100
AcDbLine
 10
-2.5
 20
9.1999999999999993
 30
0.0
 11
2.5
 21
9.1999999999999993
 31
0.0
  0
LINE
  5
12F
100
AcDbEntity
  8
0
  6
CONTINUOUS
 62
               7
100
AcDbLine
 10
-2.5
 20
7.2000000000000002
 30
0.0
 11
2.5
 21
7.2000000000000002
 31
0.0
  0
LINE
  5
130
100
AcDbEntity
  8
0
  6
CONTINUOUS
 62
               7
100
AcDbLine
 10
-2.5
 20
6.5999999999999996
 30
0.0
 11
2.5
 21
6.5999999999999996
 31
0.0
  0
LINE
  5
131
100
AcDbEntity
  8
0
  6
CONTINUOUS
 62
               2
100
AcDbLine
 10
1.22
 20
-2.1000000000000001
 30
0.0
 11
1.22
 21
0.0
 31
0.0
  0
LINE
  5
132
100
AcDbEntity
  8
0
  6
CONTINUOUS
 62
               2
100
AcDbLine
 10
-1.22
 20
-2.1000000000000001
 30
0.0
 11
-1.22
 21
0.0
 31
0.0
  0
LINE
  5
133
100
AcDbEntity
  8
0
  6
CONTINUOUS
 62
               7
100
AcDbLine
 10
-1.5
 20
-2.1000000000000001
 30
0.0
 11
-1.5
 21
0.0
 31
0.0
  0
LINE
  5
134
100
AcDbEntity
  8
0
  6
CONTINUOUS
 62
               7
100
AcDbLine
 10
1.5
 20
-2.1000000000000001
 30
0.0
 11
1.5
 21
0.0
 31
0.0
  0
LINE
  5
135
100
AcDbEntity
  8
0
  6
CONTINUOUS
 62
               7
100
AcDbLine
 10
-1.5
 20
-2.1000000000000001
 30
0.0
 11
1.5
 21
-2.1000000000000001
 31
0.0
  0
LINE
  5
136
100
AcDbEntity
  8
0
  6
CENTER
 62
               2
100
AcDbLine
 10
0.0
 20
-2.6800000000000002
 30
0.0
 11
0.0
 21
10.210000000000001
 31
0.0
  0
ENDBLK
  5
137
100
AcDbEntity
  8
0
100
AcDbBlockEnd
  0
BLOCK
  5
138
100
AcDbEntity
  8
0
100
AcDbBlockBegin
  2
MS_8
 70
               0
 10
0.0
 20
0.0
 30
0.0
  3
MS_8
  1

  0
CIRCLE
  5
139
100
AcDbEntity
  8
0
  6
CONTINUOUS
 62
               7
100
AcDbCircle
 10
0.0
 20
4.0999994277954102
 30
0.0
 40
0.6000000238418579
  0
ARC
  5
13A
100
AcDbEntity
  8
0
  6
CONTINUOUS
 62
               7
100
AcDbCircle
 10
1.25
 20
10.810444831848145
 30
0.0
 40
3.6135323656784637
100
AcDbArc
 50
249.76191756579149
 51
290.23808243420729
  0
ARC
  5
13B
100
AcDbEntity
  8
0
  6
CONTINUOUS
 62
               7
100
AcDbCircle
 10
1.25
 20
5.5895557403564453
 30
0.0
 40
3.6041508559655302
100
AcDbArc
 50
69.706922635946938
 51
110.29307736405268
  0
ARC
  5
13C
100
AcDbEntity
  8
0
  6
CONTINUOUS
 62
               7
100
AcDbCircle
 10
-1.25
 20
10.810444831848145
 30
0.0
 40
3.6135323656784637
100
AcDbArc
 50
249.76191756579149
 51
290.23808243420729
  0
ARC
  5
13D
100
AcDbEntity
  8
0
  6
CONTINUOUS
 62
               7
100
AcDbCircle
 10
-1.25
 20
5.5895557403564453
 30
0.0
 40
3.6041508559655302
100
AcDbArc
 50
69.706922635946938
 51
110.29307736405268
  0
CIRCLE
  5
13E
100
AcDbEntity
  8
0
  6
CONTINUOUS
 62
               7
100
AcDbCircle
 10
0.0
 20
4.0999994277954102
 30
0.0
 40
1.2999992370605469
  0
LINE
  5
13F
100
AcDbEntity
  8
0
  6
CONTINUOUS
 62
               7
100
AcDbLine
 10
1.1399999999999999
 20
1.6000000000000001
 30
0.0
 11
2.5
 21
1.6000000000000001
 31
0.0
  0
LINE
  5
140
100
AcDbEntity
  8
0
  6
CONTINUOUS
 62
               7
100
AcDbLine
 10
-2.5
 20
1.6000000000000001
 30
0.0
 11
-1.1399999999999999
 21
1.6000000000000001
 31
0.0
  0
LINE
  5
141
100
AcDbEntity
  8
0
  6
CONTINUOUS
 62
               7
100
AcDbLine
 10
-1.1399999999999999
 20
1.6000000000000001
 30
0.0
 11
-1.1399999999999999
 21
0.6
 31
0.0
  0
LINE
  5
142
100
AcDbEntity
  8
0
  6
CONTINUOUS
 62
               7
100
AcDbLine
 10
1.1399999999999999
 20
1.6000000000000001
 30
0.0
 11
1.1399999999999999
 21
0.6
 31
0.0
  0
LINE
  5
143
100
AcDbEntity
  8
0
  6
CENTER
 62
               2
100
AcDbLine
 10
-3.0
 20
4.0999999999999996
 30
0.0
 11
3.0
 21
4.0999999999999996
 31
0.0
  0
LINE
  5
144
100
AcDbEntity
  8
0
  6
CONTINUOUS
 62
               7
100
AcDbLine
 10
2.5
 20
0.0
 30
0.0
 11
-2.5
 21
0.0
 31
0.0
  0
LINE
  5
145
100
AcDbEntity
  8
0
  6
CONTINUOUS
 62
               7
100
AcDbLine
 10
2.5
 20
0.0
 30
0.0
 11
2.5
 21
9.1999999999999993
 31
0.0
  0
LINE
  5
146
100
AcDbEntity
  8
0
  6
CONTINUOUS
 62
               7
100
AcDbLine
 10
2.5
 20
0.6
 30
0.0
 11
-2.5
 21
0.6
 31
0.0
  0
LINE
  5
147
100
AcDbEntity
  8
0
  6
CONTINUOUS
 62
               7
100
AcDbLine
 10
0.0
 20
7.4199999999999999
 30
0.0
 11
0.0
 21
8.9700000000000006
 31
0.0
  0
LINE
  5
148
100
AcDbEntity
  8
0
  6
CONTINUOUS
 62
               7
100
AcDbLine
 10
-2.5
 20
0.0
 30
0.0
 11
-2.5
 21
9.1999999999999993
 31
0.0
  0
LINE
  5
149
100
AcDbEntity
  8
0
  6
CONTINUOUS
 62
               7
100
AcDbLine
 10
2.5
 20
9.1999999999999993
 30
0.0
 11
-2.5
 21
9.1999999999999993
 31
0.0
  0
LINE
  5
14A
100
AcDbEntity
  8
0
  6
CONTINUOUS
 62
               7
100
AcDbLine
 10
2.5
 20
7.2000000000000002
 30
0.0
 11
-2.5
 21
7.2000000000000002
 31
0.0
  0
LINE
  5
14B
100
AcDbEntity
  8
0
  6
CONTINUOUS
 62
               7
100
AcDbLine
 10
2.5
 20
6.5999999999999996
 30
0.0
 11
-2.5
 21
6.5999999999999996
 31
0.0
  0
LINE
  5
14C
100
AcDbEntity
  8
0
  6
CONTINUOUS
 62
               2
100
AcDbLine
 10
-1.22
 20
-2.1000000000000001
 30
0.0
 11
-1.22
 21
0.0
 31
0.0
  0
LINE
  5
14D
100
AcDbEntity
  8
0
  6
CONTINUOUS
 62
               2
100
AcDbLine
 10
1.22
 20
-2.1000000000000001
 30
0.0
 11
1.22
 21
0.0
 31
0.0
  0
LINE
  5
14E
100
AcDbEntity
  8
0
  6
CONTINUOUS
 62
               7
100
AcDbLine
 10
1.5
 20
-2.1000000000000001
 30
0.0
 11
1.5
 21
0.0
 31
0.0
  0
LINE
  5
14F
100
AcDbEntity
  8
0
  6
CONTINUOUS
 62
               7
100
AcDbLine
 10
-1.5
 20
-2.1000000000000001
 30
0.0
 11
-1.5
 21
0.0
 31
0.0
  0
LINE
  5
150
100
AcDbEntity
  8
0
  6
CONTINUOUS
 62
               7
100
AcDbLine
 10
1.5
 20
-2.1000000000000001
 30
0.0
 11
-1.5
 21
-2.1000000000000001
 31
0.0
  0
LINE
  5
151
100
AcDbEntity
  8
0
  6
CENTER
 62
               2
100
AcDbLine
 10
0.0
 20
-2.6800000000000002
 30
0.0
 11
0.0
 21
10.210000000000001
 31
0.0
  0
ENDBLK
  5
152
100
AcDbEntity
  8
0
100
AcDbBlockEnd
  0
BLOCK
  5
153
100
AcDbEntity
  8
0
100
AcDbBlockBegin
  2
MS_9
 70
               0
 10
0.0
 20
0.0
 30
0.0
  3
MS_9
  1

  0
ARC
  5
154
100
AcDbEntity
  8
0
  6
CONTINUOUS
 62
               7
100
AcDbCircle
 10
-0.0185413389176909
 20
4.426985750121891
 30
0.0
 40
4.7714066387101575
100
AcDbArc
 50
72.200697040304334
 51
84.9676239108814
  0
ARC
  5
155
100
AcDbEntity
  8
0
  6
CONTINUOUS
 62
               7
100
AcDbCircle
 10
2.1575695167572477
 20
8.4802275093873583
 30
0.0
 40
1.2802298164942694
100
AcDbArc
 50
235.90957879303028
 51
270.10877462299629
  0
ARC
  5
156
100
AcDbEntity
  8
0
  6
CONTINUOUS
 62
               7
100
AcDbCircle
 10
-2.1575695167572477
 20
8.4802275093873583
 30
0.0
 40
1.2802298164942694
100
AcDbArc
 50
269.89122537700251
 51
304.09042120696847
  0
ARC
  5
157
100
AcDbEntity
  8
0
  6
CONTINUOUS
 62
               7
100
AcDbCircle
 10
0.0
 20
11.976719856262212
 30
0.0
 40
4.7788383367147205
100
AcDbArc
 50
252.46258896879414
 51
287.53741103120467
  0
ARC
  5
158
100
AcDbEntity
  8
0
  6
CONTINUOUS
 62
               7
100
AcDbCircle
 10
2.170895959029405
 20
7.9239343891253338
 30
0.0
 40
1.2761121287645945
100
AcDbArc
 50
90.489220373281853
 51
124.94236503947135
  0
ARC
  5
159
100
AcDbEntity
  8
0
  6
CONTINUOUS
 62
               7
100
AcDbCircle
 10
0.0185413389176909
 20
4.426985750121891
 30
0.0
 40
4.7714066387101575
100
AcDbArc
 50
95.032376089118216
 51
107.79930295969528
  0
ARC
  5
15A
100
AcDbEntity
  8
0
  6
CONTINUOUS
 62
               7
100
AcDbCircle
 10
-2.170895959029405
 20
7.9239343891253338
 30
0.0
 40
1.2761121287645945
100
AcDbArc
 50
55.057634960528254
 51
89.510779626717763
  0
LINE
  5
15B
100
AcDbEntity
  8
0
  6
CONTINUOUS
 62
               7
100
AcDbLine
 10
7.5
 20
5.1200000000000001
 30
0.0
 11
7.5
 21
3.0699999999999998
 31
0.0
  0
LINE
  5
15C
100
AcDbEntity
  8
0
  6
CONTINUOUS
 62
               7
100
AcDbLine
 10
7.5
 20
3.0699999999999998
 30
0.0
 11
6.0
 21
2.6499999999999999
 31
0.0
  0
LINE
  5
15D
100
AcDbEntity
  8
0
  6
CONTINUOUS
 62
               7
100
AcDbLine
 10
6.0
 20
5.5499999999999998
 30
0.0
 11
6.0
 21
2.6499999999999999
 31
0.0
  0
LINE
  5
15E
100
AcDbEntity
  8
0
  6
CONTINUOUS
 62
               7
100
AcDbLine
 10
7.5
 20
5.1200000000000001
 30
0.0
 11
6.0
 21
5.5499999999999998
 31
0.0
  0
LINE
  5
15F
100
AcDbEntity
  8
0
  6
CONTINUOUS
 62
               7
100
AcDbLine
 10
6.0
 20
5.1200000000000001
 30
0.0
 11
4.5
 21
5.5499999999999998
 31
0.0
  0
LINE
  5
160
100
AcDbEntity
  8
0
  6
CONTINUOUS
 62
               7
100
AcDbLine
 10
6.0
 20
3.0699999999999998
 30
0.0
 11
4.5
 21
2.6499999999999999
 31
0.0
  0
LINE
  5
161
100
AcDbEntity
  8
0
  6
CONTINUOUS
 62
               7
100
AcDbLine
 10
4.5
 20
5.5499999999999998
 30
0.0
 11
4.5
 21
2.6499999999999999
 31
0.0
  0
LINE
  5
162
100
AcDbEntity
  8
0
  6
CONTINUOUS
 62
               7
100
AcDbLine
 10
2.5
 20
3.0699999999999998
 30
0.0
 11
4.5
 21
3.0699999999999998
 31
0.0
  0
LINE
  5
163
100
AcDbEntity
  8
0
  6
CONTINUOUS
 62
               7
100
AcDbLine
 10
2.5
 20
5.1200000000000001
 30
0.0
 11
4.5
 21
5.1200000000000001
 31
0.0
  0
LINE
  5
164
100
AcDbEntity
  8
0
  6
CONTINUOUS
 62
               7
100
AcDbLine
 10
-2.5
 20
1.6000000000000001
 30
0.0
 11
-1.1399999999999999
 21
1.6000000000000001
 31
0.0
  0
LINE
  5
165
100
AcDbEntity
  8
0
  6
CONTINUOUS
 62
               7
100
AcDbLine
 10
-1.1399999999999999
 20
1.6000000000000001
 30
0.0
 11
-1.1399999999999999
 21
0.6
 31
0.0
  0
LINE
  5
166
100
AcDbEntity
  8
0
  6
CONTINUOUS
 62
               7
100
AcDbLine
 10
1.1399999999999999
 20
1.6000000000000001
 30
0.0
 11
1.1399999999999999
 21
0.6
 31
0.0
  0
LINE
  5
167
100
AcDbEntity
  8
0
  6
CONTINUOUS
 62
               7
100
AcDbLine
 10
1.1399999999999999
 20
1.6000000000000001
 30
0.0
 11
2.5
 21
1.6000000000000001
 31
0.0
  0
LINE
  5
168
100
AcDbEntity
  8
0
  6
CONTINUOUS
 62
               7
100
AcDbLine
 10
2.5
 20
9.1999999999999993
 30
0.0
 11
0.4
 21
9.1999999999999993
 31
0.0
  0
LINE
  5
169
100
AcDbEntity
  8
0
  6
CONTINUOUS
 62
               7
100
AcDbLine
 10
0.4
 20
8.0
 30
0.0
 11
0.4
 21
9.1999999999999993
 31
0.0
  0
LINE
  5
16A
100
AcDbEntity
  8
0
  6
CONTINUOUS
 62
               7
100
AcDbLine
 10
-0.4
 20
8.0
 30
0.0
 11
-0.4
 21
9.1999999999999993
 31
0.0
  0
LINE
  5
16B
100
AcDbEntity
  8
0
  6
CONTINUOUS
 62
               7
100
AcDbLine
 10
-0.4
 20
8.0
 30
0.0
 11
0.4
 21
8.0
 31
0.0
  0
LINE
  5
16C
100
AcDbEntity
  8
0
  6
CENTER
 62
               2
100
AcDbLine
 10
-3.25
 20
4.0999999999999996
 30
0.0
 11
9.25
 21
4.0999999999999996
 31
0.0
  0
LINE
  5
16D
100
AcDbEntity
  8
0
  6
CONTINUOUS
 62
               7
100
AcDbLine
 10
2.5
 20
0.0
 30
0.0
 11
2.5
 21
7.2000000000000002
 31
0.0
  0
LINE
  5
16E
100
AcDbEntity
  8
0
  6
CONTINUOUS
 62
               7
100
AcDbLine
 10
-2.5
 20
0.0
 30
0.0
 11
-2.5
 21
7.2000000000000002
 31
0.0
  0
LINE
  5
16F
100
AcDbEntity
  8
0
  6
CONTINUOUS
 62
               7
100
AcDbLine
 10
-2.5
 20
0.0
 30
0.0
 11
2.5
 21
0.0
 31
0.0
  0
LINE
  5
170
100
AcDbEntity
  8
0
  6
CONTINUOUS
 62
               7
100
AcDbLine
 10
-2.5
 20
0.6
 30
0.0
 11
2.5
 21
0.6
 31
0.0
  0
LINE
  5
171
100
AcDbEntity
  8
0
  6
CONTINUOUS
 62
               7
100
AcDbLine
 10
2.8799999999999999
 20
7.4199999999999999
 30
0.0
 11
2.8799999999999999
 21
8.9700000000000006
 31
0.0
  0
LINE
  5
172
100
AcDbEntity
  8
0
  6
CONTINUOUS
 62
               7
100
AcDbLine
 10
2.8799999999999999
 20
7.4199999999999999
 30
0.0
 11
2.5
 21
7.2000000000000002
 31
0.0
  0
LINE
  5
173
100
AcDbEntity
  8
0
  6
CONTINUOUS
 62
               7
100
AcDbLine
 10
-2.8799999999999999
 20
7.4199999999999999
 30
0.0
 11
-2.5
 21
7.2000000000000002
 31
0.0
  0
LINE
  5
174
100
AcDbEntity
  8
0
  6
CONTINUOUS
 62
               7
100
AcDbLine
 10
2.8799999999999999
 20
8.9700000000000006
 30
0.0
 11
2.5
 21
9.1999999999999993
 31
0.0
  0
LINE
  5
175
100
AcDbEntity
  8
0
  6
CONTINUOUS
 62
               7
100
AcDbLine
 10
-2.8799999999999999
 20
8.9700000000000006
 30
0.0
 11
-2.5
 21
9.1999999999999993
 31
0.0
  0
LINE
  5
176
100
AcDbEntity
  8
0
  6
CONTINUOUS
 62
               7
100
AcDbLine
 10
1.4399999999999999
 20
7.4199999999999999
 30
0.0
 11
1.4399999999999999
 21
8.9700000000000006
 31
0.0
  0
LINE
  5
177
100
AcDbEntity
  8
0
  6
CONTINUOUS
 62
               7
100
AcDbLine
 10
-1.4399999999999999
 20
7.4199999999999999
 30
0.0
 11
-1.4399999999999999
 21
8.9700000000000006
 31
0.0
  0
LINE
  5
178
100
AcDbEntity
  8
0
  6
CONTINUOUS
 62
               7
100
AcDbLine
 10
-2.8799999999999999
 20
7.4199999999999999
 30
0.0
 11
-2.8799999999999999
 21
8.9700000000000006
 31
0.0
  0
LINE
  5
179
100
AcDbEntity
  8
0
  6
CONTINUOUS
 62
               7
100
AcDbLine
 10
-2.5
 20
9.1999999999999993
 30
0.0
 11
-0.4
 21
9.1999999999999993
 31
0.0
  0
LINE
  5
17A
100
AcDbEntity
  8
0
  6
CONTINUOUS
 62
               7
100
AcDbLine
 10
-2.5
 20
7.2000000000000002
 30
0.0
 11
2.5
 21
7.2000000000000002
 31
0.0
  0
LINE
  5
17B
100
AcDbEntity
  8
0
  6
CONTINUOUS
 62
               7
100
AcDbLine
 10
-2.5
 20
6.5999999999999996
 30
0.0
 11
2.5
 21
6.5999999999999996
 31
0.0
  0
LINE
  5
17C
100
AcDbEntity
  8
0
  6
CONTINUOUS
 62
               2
100
AcDbLine
 10
1.22
 20
-2.1000000000000001
 30
0.0
 11
1.22
 21
0.0
 31
0.0
  0
LINE
  5
17D
100
AcDbEntity
  8
0
  6
CONTINUOUS
 62
               2
100
AcDbLine
 10
-1.22
 20
-2.1000000000000001
 30
0.0
 11
-1.22
 21
0.0
 31
0.0
  0
LINE
  5
17E
100
AcDbEntity
  8
0
  6
CONTINUOUS
 62
               7
100
AcDbLine
 10
-1.5
 20
-2.1000000000000001
 30
0.0
 11
-1.5
 21
0.0
 31
0.0
  0
LINE
  5
17F
100
AcDbEntity
  8
0
  6
CONTINUOUS
 62
               7
100
AcDbLine
 10
1.5
 20
-2.1000000000000001
 30
0.0
 11
1.5
 21
0.0
 31
0.0
  0
LINE
  5
180
100
AcDbEntity
  8
0
  6
CONTINUOUS
 62
               7
100
AcDbLine
 10
-1.5
 20
-2.1000000000000001
 30
0.0
 11
1.5
 21
-2.1000000000000001
 31
0.0
  0
LINE
  5
181
100
AcDbEntity
  8
0
  6
CENTER
 62
               2
100
AcDbLine
 10
0.0
 20
-2.6800000000000002
 30
0.0
 11
0.0
 21
10.210000000000001
 31
0.0
  0
ENDBLK
  5
182
100
AcDbEntity
  8
0
100
AcDbBlockEnd
  0
BLOCK
  5
183
100
AcDbEntity
  8
0
100
AcDbBlockBegin
  2
MS_10
 70
               0
 10
0.0
 20
0.0
 30
0.0
  3
MS_10
  1

  0
ARC
  5
184
100
AcDbEntity
  8
0
  6
CONTINUOUS
 62
               7
100
AcDbCircle
 10
0.0000000000000013
 20
0.0
 30
0.0
 40
2.4923081671414553
100
AcDbArc
 50
99.235559093165733
 51
260.7644409068335
  0
ARC
  5
185
100
AcDbEntity
  8
0
  6
CONTINUOUS
 62
               7
100
AcDbCircle
 10
-0.0000000000000013
 20
0.0
 30
0.0
 40
2.4923081671414553
100
AcDbArc
 50
279.23555909316531
 51
80.764440906833883
  0
LINE
  5
186
100
AcDbEntity
  8
0
  6
CONTINUOUS
 62
               7
100
AcDbLine
 10
2.5
 20
-1.02
 30
0.0
 11
4.5
 21
-1.02
 31
0.0
  0
LINE
  5
187
100
AcDbEntity
  8
0
  6
CONTINUOUS
 62
               7
100
AcDbLine
 10
6.0
 20
-1.02
 30
0.0
 11
4.5
 21
-1.45
 31
0.0
  0
LINE
  5
188
100
AcDbEntity
  8
0
  6
CONTINUOUS
 62
               7
100
AcDbLine
 10
7.5
 20
-1.02
 30
0.0
 11
6.0
 21
-1.45
 31
0.0
  0
LINE
  5
189
100
AcDbEntity
  8
0
  6
CONTINUOUS
 62
               7
100
AcDbLine
 10
7.5
 20
1.02
 30
0.0
 11
7.5
 21
-1.02
 31
0.0
  0
LINE
  5
18A
100
AcDbEntity
  8
0
  6
CONTINUOUS
 62
               7
100
AcDbLine
 10
6.0
 20
1.45
 30
0.0
 11
6.0
 21
-1.45
 31
0.0
  0
LINE
  5
18B
100
AcDbEntity
  8
0
  6
CONTINUOUS
 62
               7
100
AcDbLine
 10
7.5
 20
1.02
 30
0.0
 11
6.0
 21
1.45
 31
0.0
  0
LINE
  5
18C
100
AcDbEntity
  8
0
  6
CONTINUOUS
 62
               7
100
AcDbLine
 10
6.0
 20
1.02
 30
0.0
 11
4.5
 21
1.45
 31
0.0
  0
LINE
  5
18D
100
AcDbEntity
  8
0
  6
CONTINUOUS
 62
               7
100
AcDbLine
 10
4.5
 20
1.45
 30
0.0
 11
4.5
 21
-1.45
 31
0.0
  0
LINE
  5
18E
100
AcDbEntity
  8
0
  6
CONTINUOUS
 62
               7
100
AcDbLine
 10
2.5
 20
1.02
 30
0.0
 11
4.5
 21
1.02
 31
0.0
  0
LINE
  5
18F
100
AcDbEntity
  8
0
  6
CONTINUOUS
 62
               7
100
AcDbLine
 10
-2.5
 20
-0.67
 30
0.0
 11
-2.5
 21
-2.5
 31
0.0
  0
LINE
  5
190
100
AcDbEntity
  8
0
  6
CONTINUOUS
 62
               7
100
AcDbLine
 10
-2.5
 20
0.67
 30
0.0
 11
-2.5
 21
2.5
 31
0.0
  0
LINE
  5
191
100
AcDbEntity
  8
0
  6
CONTINUOUS
 62
               7
100
AcDbLine
 10
2.5
 20
-0.67
 30
0.0
 11
2.5
 21
-2.5
 31
0.0
  0
LINE
  5
192
100
AcDbEntity
  8
0
  6
CONTINUOUS
 62
               7
100
AcDbLine
 10
2.5
 20
0.67
 30
0.0
 11
2.5
 21
2.5
 31
0.0
  0
LINE
  5
193
100
AcDbEntity
  8
0
  6
CONTINUOUS
 62
               7
100
AcDbLine
 10
-0.4
 20
-2.5
 30
0.0
 11
-0.4
 21
2.5
 31
0.0
  0
LINE
  5
194
100
AcDbEntity
  8
0
  6
CONTINUOUS
 62
               7
100
AcDbLine
 10
0.4
 20
-2.5
 30
0.0
 11
0.4
 21
2.5
 31
0.0
  0
LINE
  5
195
100
AcDbEntity
  8
0
  6
CENTER
 62
               2
100
AcDbLine
 10
-3.5
 20
0.0
 30
0.0
 11
9.1500000000000004
 21
0.0
 31
0.0
  0
LINE
  5
196
100
AcDbEntity
  8
0
  6
CENTER
 62
               2
100
AcDbLine
 10
0.0
 20
-3.5
 30
0.0
 11
0.0
 21
3.5
 31
0.0
  0
LINE
  5
197
100
AcDbEntity
  8
0
  6
CONTINUOUS
 62
               7
100
AcDbLine
 10
-2.5
 20
2.5
 30
0.0
 11
2.5
 21
2.5
 31
0.0
  0
LINE
  5
198
100
AcDbEntity
  8
0
  6
CONTINUOUS
 62
               7
100
AcDbLine
 10
1.4399999999999999
 20
2.5
 30
0.0
 11
2.8799999999999999
 21
0.0
 31
0.0
  0
LINE
  5
199
100
AcDbEntity
  8
0
  6
CONTINUOUS
 62
               7
100
AcDbLine
 10
2.8799999999999999
 20
0.0
 30
0.0
 11
1.4399999999999999
 21
-2.5
 31
0.0
  0
LINE
  5
19A
100
AcDbEntity
  8
0
  6
CONTINUOUS
 62
               7
100
AcDbLine
 10
2.5
 20
-2.5
 30
0.0
 11
-2.5
 21
-2.5
 31
0.0
  0
LINE
  5
19B
100
AcDbEntity
  8
0
  6
CONTINUOUS
 62
               7
100
AcDbLine
 10
-1.4399999999999999
 20
-2.5
 30
0.0
 11
-2.8799999999999999
 21
0.0
 31
0.0
  0
LINE
  5
19C
100
AcDbEntity
  8
0
  6
CONTINUOUS
 62
               7
100
AcDbLine
 10
-2.8799999999999999
 20
0.0
 30
0.0
 11
-1.4399999999999999
 21
2.5
 31
0.0
  0
ENDBLK
  5
19D
100
AcDbEntity
  8
0
100
AcDbBlockEnd
  0
BLOCK
  5
19E
100
AcDbEntity
  8
0
100
AcDbBlockBegin
  2
MS_11
 70
               0
 10
0.0
 20
0.0
 30
0.0
  3
MS_11
  1

  0
ARC
  5
19F
100
AcDbEntity
  8
0
  6
CONTINUOUS
 62
               7
100
AcDbCircle
 10
-1.25
 20
10.810444831848145
 30
0.0
 40
3.6135323656784637
100
AcDbArc
 50
249.76191756579149
 51
290.23808243420729
  0
ARC
  5
1A0
100
AcDbEntity
  8
0
  6
CONTINUOUS
 62
               7
100
AcDbCircle
 10
-1.25
 20
5.5895557403564453
 30
0.0
 40
3.6041508559655302
100
AcDbArc
 50
69.706922635946938
 51
110.29307736405268
  0
ARC
  5
1A1
100
AcDbEntity
  8
0
  6
CONTINUOUS
 62
               7
100
AcDbCircle
 10
1.25
 20
10.810444831848145
 30
0.0
 40
3.6135323656784637
100
AcDbArc
 50
249.76191756579149
 51
290.23808243420729
  0
ARC
  5
1A2
100
AcDbEntity
  8
0
  6
CONTINUOUS
 62
               7
100
AcDbCircle
 10
1.25
 20
5.5895557403564453
 30
0.0
 40
3.6041508559655302
100
AcDbArc
 50
69.706922635946938
 51
110.29307736405268
  0
LINE
  5
1A3
100
AcDbEntity
  8
0
  6
CONTINUOUS
 62
               7
100
AcDbLine
 10
-2.5
 20
1.6000000000000001
 30
0.0
 11
-1.1399999999999999
 21
1.6000000000000001
 31
0.0
  0
LINE
  5
1A4
100
AcDbEntity
  8
0
  6
CONTINUOUS
 62
               7
100
AcDbLine
 10
-1.1399999999999999
 20
1.6000000000000001
 30
0.0
 11
-1.1399999999999999
 21
0.6
 31
0.0
  0
LINE
  5
1A5
100
AcDbEntity
  8
0
  6
CONTINUOUS
 62
               7
100
AcDbLine
 10
1.1399999999999999
 20
1.6000000000000001
 30
0.0
 11
1.1399999999999999
 21
0.6
 31
0.0
  0
LINE
  5
1A6
100
AcDbEntity
  8
0
  6
CONTINUOUS
 62
               7
100
AcDbLine
 10
1.1399999999999999
 20
1.6000000000000001
 30
0.0
 11
2.5
 21
1.6000000000000001
 31
0.0
  0
LINE
  5
1A7
100
AcDbEntity
  8
0
  6
CONTINUOUS
 62
               7
100
AcDbLine
 10
-2.5
 20
0.0
 30
0.0
 11
2.5
 21
0.0
 31
0.0
  0
LINE
  5
1A8
100
AcDbEntity
  8
0
  6
CONTINUOUS
 62
               7
100
AcDbLine
 10
-2.5
 20
0.0
 30
0.0
 11
-2.5
 21
9.1999999999999993
 31
0.0
  0
LINE
  5
1A9
100
AcDbEntity
  8
0
  6
CONTINUOUS
 62
               7
100
AcDbLine
 10
-2.5
 20
0.6
 30
0.0
 11
2.5
 21
0.6
 31
0.0
  0
LINE
  5
1AA
100
AcDbEntity
  8
0
  6
CONTINUOUS
 62
               7
100
AcDbLine
 10
0.0
 20
7.4199999999999999
 30
0.0
 11
0.0
 21
8.9700000000000006
 31
0.0
  0
LINE
  5
1AB
100
AcDbEntity
  8
0
  6
CONTINUOUS
 62
               7
100
AcDbLine
 10
2.5
 20
0.0
 30
0.0
 11
2.5
 21
9.1999999999999993
 31
0.0
  0
LINE
  5
1AC
100
AcDbEntity
  8
0
  6
CONTINUOUS
 62
               7
100
AcDbLine
 10
-2.5
 20
9.1999999999999993
 30
0.0
 11
2.5
 21
9.1999999999999993
 31
0.0
  0
LINE
  5
1AD
100
AcDbEntity
  8
0
  6
CONTINUOUS
 62
               7
100
AcDbLine
 10
-2.5
 20
7.2000000000000002
 30
0.0
 11
2.5
 21
7.2000000000000002
 31
0.0
  0
LINE
  5
1AE
100
AcDbEntity
  8
0
  6
CONTINUOUS
 62
               7
100
AcDbLine
 10
-2.5
 20
6.5999999999999996
 30
0.0
 11
2.5
 21
6.5999999999999996
 31
0.0
  0
LINE
  5
1AF
100
AcDbEntity
  8
0
  6
CONTINUOUS
 62
               2
100
AcDbLine
 10
1.22
 20
-2.1000000000000001
 30
0.0
 11
1.22
 21
0.0
 31
0.0
  0
LINE
  5
1B0
100
AcDbEntity
  8
0
  6
CONTINUOUS
 62
               2
100
AcDbLine
 10
-1.22
 20
-2.1000000000000001
 30
0.0
 11
-1.22
 21
0.0
 31
0.0
  0
LINE
  5
1B1
100
AcDbEntity
  8
0
  6
CONTINUOUS
 62
               7
100
AcDbLine
 10
-1.5
 20
-2.1000000000000001
 30
0.0
 11
-1.5
 21
0.0
 31
0.0
  0
LINE
  5
1B2
100
AcDbEntity
  8
0
  6
CONTINUOUS
 62
               7
100
AcDbLine
 10
1.5
 20
-2.1000000000000001
 30
0.0
 11
1.5
 21
0.0
 31
0.0
  0
LINE
  5
1B3
100
AcDbEntity
  8
0
  6
CONTINUOUS
 62
               7
100
AcDbLine
 10
-1.5
 20
-2.1000000000000001
 30
0.0
 11
1.5
 21
-2.1000000000000001
 31
0.0
  0
LINE
  5
1B4
100
AcDbEntity
  8
0
  6
CENTER
 62
               2
100
AcDbLine
 10
0.0
 20
-2.6800000000000002
 30
0.0
 11
0.0
 21
10.210000000000001
 31
0.0
  0
ENDBLK
  5
1B5
100
AcDbEntity
  8
0
100
AcDbBlockEnd
  0
BLOCK
  5
1B6
100
AcDbEntity
  8
0
100
AcDbBlockBegin
  2
MS_12
 70
               0
 10
0.0
 20
0.0
 30
0.0
  3
MS_12
  1

  0
CIRCLE
  5
1B7
100
AcDbEntity
  8
0
  6
CONTINUOUS
 62
               7
100
AcDbCircle
 10
0.0
 20
4.0999994277954102
 30
0.0
 40
1.4499998092651367
  0
CIRCLE
  5
1B8
100
AcDbEntity
  8
0
  6
CONTINUOUS
 62
               7
100
AcDbCircle
 10
0.0
 20
4.0999994277954102
 30
0.0
 40
0.6000000238418579
  0
ARC
  5
1B9
100
AcDbEntity
  8
0
  6
CONTINUOUS
 62
               7
100
AcDbCircle
 10
1.25
 20
10.810444831848145
 30
0.0
 40
3.6135323656784637
100
AcDbArc
 50
249.76191756579149
 51
290.23808243420729
  0
ARC
  5
1BA
100
AcDbEntity
  8
0
  6
CONTINUOUS
 62
               7
100
AcDbCircle
 10
1.25
 20
5.5895557403564453
 30
0.0
 40
3.6041508559655302
100
AcDbArc
 50
69.706922635946938
 51
110.29307736405268
  0
ARC
  5
1BB
100
AcDbEntity
  8
0
  6
CONTINUOUS
 62
               7
100
AcDbCircle
 10
-1.25
 20
10.810444831848145
 30
0.0
 40
3.6135323656784637
100
AcDbArc
 50
249.76191756579149
 51
290.23808243420729
  0
ARC
  5
1BC
100
AcDbEntity
  8
0
  6
CONTINUOUS
 62
               7
100
AcDbCircle
 10
-1.25
 20
5.5895557403564453
 30
0.0
 40
3.6041508559655302
100
AcDbArc
 50
69.706922635946938
 51
110.29307736405268
  0
LINE
  5
1BD
100
AcDbEntity
  8
0
  6
CONTINUOUS
 62
               7
100
AcDbLine
 10
1.1399999999999999
 20
1.6000000000000001
 30
0.0
 11
2.5
 21
1.6000000000000001
 31
0.0
  0
LINE
  5
1BE
100
AcDbEntity
  8
0
  6
CONTINUOUS
 62
               7
100
AcDbLine
 10
-2.5
 20
1.6000000000000001
 30
0.0
 11
-1.1399999999999999
 21
1.6000000000000001
 31
0.0
  0
LINE
  5
1BF
100
AcDbEntity
  8
0
  6
CONTINUOUS
 62
               7
100
AcDbLine
 10
-1.1399999999999999
 20
1.6000000000000001
 30
0.0
 11
-1.1399999999999999
 21
0.6
 31
0.0
  0
LINE
  5
1C0
100
AcDbEntity
  8
0
  6
CONTINUOUS
 62
               7
100
AcDbLine
 10
1.1399999999999999
 20
1.6000000000000001
 30
0.0
 11
1.1399999999999999
 21
0.6
 31
0.0
  0
LINE
  5
1C1
100
AcDbEntity
  8
0
  6
CENTER
 62
               2
100
AcDbLine
 10
-3.0
 20
4.0999999999999996
 30
0.0
 11
3.0
 21
4.0999999999999996
 31
0.0
  0
LINE
  5
1C2
100
AcDbEntity
  8
0
  6
CONTINUOUS
 62
               7
100
AcDbLine
 10
2.5
 20
0.0
 30
0.0
 11
-2.5
 21
0.0
 31
0.0
  0
LINE
  5
1C3
100
AcDbEntity
  8
0
  6
CONTINUOUS
 62
               7
100
AcDbLine
 10
2.5
 20
0.0
 30
0.0
 11
2.5
 21
9.1999999999999993
 31
0.0
  0
LINE
  5
1C4
100
AcDbEntity
  8
0
  6
CONTINUOUS
 62
               7
100
AcDbLine
 10
2.5
 20
0.6
 30
0.0
 11
-2.5
 21
0.6
 31
0.0
  0
LINE
  5
1C5
100
AcDbEntity
  8
0
  6
CONTINUOUS
 62
               7
100
AcDbLine
 10
0.0
 20
7.4199999999999999
 30
0.0
 11
0.0
 21
8.9700000000000006
 31
0.0
  0
LINE
  5
1C6
100
AcDbEntity
  8
0
  6
CONTINUOUS
 62
               7
100
AcDbLine
 10
-2.5
 20
0.0
 30
0.0
 11
-2.5
 21
9.1999999999999993
 31
0.0
  0
LINE
  5
1C7
100
AcDbEntity
  8
0
  6
CONTINUOUS
 62
               7
100
AcDbLine
 10
2.5
 20
9.1999999999999993
 30
0.0
 11
-2.5
 21
9.1999999999999993
 31
0.0
  0
LINE
  5
1C8
100
AcDbEntity
  8
0
  6
CONTINUOUS
 62
               7
100
AcDbLine
 10
2.5
 20
7.2000000000000002
 30
0.0
 11
-2.5
 21
7.2000000000000002
 31
0.0
  0
LINE
  5
1C9
100
AcDbEntity
  8
0
  6
CONTINUOUS
 62
               7
100
AcDbLine
 10
2.5
 20
6.5999999999999996
 30
0.0
 11
-2.5
 21
6.5999999999999996
 31
0.0
  0
LINE
  5
1CA
100
AcDbEntity
  8
0
  6
CONTINUOUS
 62
               2
100
AcDbLine
 10
-1.22
 20
-2.1000000000000001
 30
0.0
 11
-1.22
 21
0.0
 31
0.0
  0
LINE
  5
1CB
100
AcDbEntity
  8
0
  6
CONTINUOUS
 62
               2
100
AcDbLine
 10
1.22
 20
-2.1000000000000001
 30
0.0
 11
1.22
 21
0.0
 31
0.0
  0
LINE
  5
1CC
100
AcDbEntity
  8
0
  6
CONTINUOUS
 62
               7
100
AcDbLine
 10
1.5
 20
-2.1000000000000001
 30
0.0
 11
1.5
 21
0.0
 31
0.0
  0
LINE
  5
1CD
100
AcDbEntity
  8
0
  6
CONTINUOUS
 62
               7
100
AcDbLine
 10
-1.5
 20
-2.1000000000000001
 30
0.0
 11
-1.5
 21
0.0
 31
0.0
  0
LINE
  5
1CE
100
AcDbEntity
  8
0
  6
CONTINUOUS
 62
               7
100
AcDbLine
 10
1.5
 20
-2.1000000000000001
 30
0.0
 11
-1.5
 21
-2.1000000000000001
 31
0.0
  0
LINE
  5
1CF
100
AcDbEntity
  8
0
  6
CENTER
 62
               2
100
AcDbLine
 10
0.0
 20
-2.6800000000000002
 30
0.0
 11
0.0
 21
10.210000000000001
 31
0.0
  0
ENDBLK
  5
1D0
100
AcDbEntity
  8
0
100
AcDbBlockEnd
  0
BLOCK
  5
1D1
100
AcDbEntity
  8
0
100
AcDbBlockBegin
  2
MS_13
 70
               0
 10
0.0
 20
0.0
 30
0.0
  3
MS_13
  1

  0
ARC
  5
1D2
100
AcDbEntity
  8
0
  6
CONTINUOUS
 62
               7
100
AcDbCircle
 10
-0.0185413389176909
 20
4.426985750121891
 30
0.0
 40
4.7714066387101575
100
AcDbArc
 50
72.200697040304334
 51
84.9676239108814
  0
ARC
  5
1D3
100
AcDbEntity
  8
0
  6
CONTINUOUS
 62
               7
100
AcDbCircle
 10
2.1575695167572477
 20
8.4802275093873583
 30
0.0
 40
1.2802298164942694
100
AcDbArc
 50
235.90957879303028
 51
270.10877462299629
  0
ARC
  5
1D4
100
AcDbEntity
  8
0
  6
CONTINUOUS
 62
               7
100
AcDbCircle
 10
-2.1575695167572477
 20
8.4802275093873583
 30
0.0
 40
1.2802298164942694
100
AcDbArc
 50
269.89122537700251
 51
304.09042120696847
  0
ARC
  5
1D5
100
AcDbEntity
  8
0
  6
CONTINUOUS
 62
               7
100
AcDbCircle
 10
0.0
 20
11.976719856262212
 30
0.0
 40
4.7788383367147205
100
AcDbArc
 50
252.46258896879414
 51
287.53741103120467
  0
ARC
  5
1D6
100
AcDbEntity
  8
0
  6
CONTINUOUS
 62
               7
100
AcDbCircle
 10
2.170895959029405
 20
7.9239343891253338
 30
0.0
 40
1.2761121287645945
100
AcDbArc
 50
90.489220373281853
 51
124.94236503947135
  0
ARC
  5
1D7
100
AcDbEntity
  8
0
  6
CONTINUOUS
 62
               7
100
AcDbCircle
 10
0.0185413389176909
 20
4.426985750121891
 30
0.0
 40
4.7714066387101575
100
AcDbArc
 50
95.032376089118216
 51
107.79930295969528
  0
ARC
  5
1D8
100
AcDbEntity
  8
0
  6
CONTINUOUS
 62
               7
100
AcDbCircle
 10
-2.170895959029405
 20
7.9239343891253338
 30
0.0
 40
1.2761121287645945
100
AcDbArc
 50
55.057634960528254
 51
89.510779626717763
  0
LINE
  5
1D9
100
AcDbEntity
  8
0
  6
CONTINUOUS
 62
               7
100
AcDbLine
 10
7.5
 20
5.2000000000000002
 30
0.0
 11
7.5
 21
3.0
 31
0.0
  0
LINE
  5
1DA
100
AcDbEntity
  8
0
  6
CONTINUOUS
 62
               7
100
AcDbLine
 10
7.5
 20
3.0
 30
0.0
 11
6.0
 21
2.5
 31
0.0
  0
LINE
  5
1DB
100
AcDbEntity
  8
0
  6
CONTINUOUS
 62
               7
100
AcDbLine
 10
7.5
 20
5.2000000000000002
 30
0.0
 11
6.0
 21
5.7000000000000002
 31
0.0
  0
LINE
  5
1DC
100
AcDbEntity
  8
0
  6
CONTINUOUS
 62
               7
100
AcDbLine
 10
6.0
 20
5.7000000000000002
 30
0.0
 11
6.0
 21
2.5
 31
0.0
  0
LINE
  5
1DD
100
AcDbEntity
  8
0
  6
CONTINUOUS
 62
               7
100
AcDbLine
 10
6.0
 20
5.2000000000000002
 30
0.0
 11
4.5
 21
5.7000000000000002
 31
0.0
  0
LINE
  5
1DE
100
AcDbEntity
  8
0
  6
CONTINUOUS
 62
               7
100
AcDbLine
 10
4.5
 20
5.7000000000000002
 30
0.0
 11
4.5
 21
2.5
 31
0.0
  0
LINE
  5
1DF
100
AcDbEntity
  8
0
  6
CONTINUOUS
 62
               7
100
AcDbLine
 10
6.0
 20
3.0
 30
0.0
 11
4.5
 21
2.5
 31
0.0
  0
LINE
  5
1E0
100
AcDbEntity
  8
0
  6
CONTINUOUS
 62
               7
100
AcDbLine
 10
2.5
 20
3.0
 30
0.0
 11
4.5
 21
3.0
 31
0.0
  0
LINE
  5
1E1
100
AcDbEntity
  8
0
  6
CONTINUOUS
 62
               7
100
AcDbLine
 10
2.5
 20
5.2000000000000002
 30
0.0
 11
4.5
 21
5.2000000000000002
 31
0.0
  0
LINE
  5
1E2
100
AcDbEntity
  8
0
  6
CONTINUOUS
 62
               7
100
AcDbLine
 10
-2.5
 20
1.6000000000000001
 30
0.0
 11
-1.1399999999999999
 21
1.6000000000000001
 31
0.0
  0
LINE
  5
1E3
100
AcDbEntity
  8
0
  6
CONTINUOUS
 62
               7
100
AcDbLine
 10
-1.1399999999999999
 20
1.6000000000000001
 30
0.0
 11
-1.1399999999999999
 21
0.6
 31
0.0
  0
LINE
  5
1E4
100
AcDbEntity
  8
0
  6
CONTINUOUS
 62
               7
100
AcDbLine
 10
1.1399999999999999
 20
1.6000000000000001
 30
0.0
 11
1.1399999999999999
 21
0.6
 31
0.0
  0
LINE
  5
1E5
100
AcDbEntity
  8
0
  6
CONTINUOUS
 62
               7
100
AcDbLine
 10
1.1399999999999999
 20
1.6000000000000001
 30
0.0
 11
2.5
 21
1.6000000000000001
 31
0.0
  0
LINE
  5
1E6
100
AcDbEntity
  8
0
  6
CONTINUOUS
 62
               7
100
AcDbLine
 10
2.5
 20
9.1999999999999993
 30
0.0
 11
0.4
 21
9.1999999999999993
 31
0.0
  0
LINE
  5
1E7
100
AcDbEntity
  8
0
  6
CONTINUOUS
 62
               7
100
AcDbLine
 10
0.4
 20
8.0
 30
0.0
 11
0.4
 21
9.1999999999999993
 31
0.0
  0
LINE
  5
1E8
100
AcDbEntity
  8
0
  6
CONTINUOUS
 62
               7
100
AcDbLine
 10
-0.4
 20
8.0
 30
0.0
 11
-0.4
 21
9.1999999999999993
 31
0.0
  0
LINE
  5
1E9
100
AcDbEntity
  8
0
  6
CONTINUOUS
 62
               7
100
AcDbLine
 10
-0.4
 20
8.0
 30
0.0
 11
0.4
 21
8.0
 31
0.0
  0
LINE
  5
1EA
100
AcDbEntity
  8
0
  6
CENTER
 62
               2
100
AcDbLine
 10
-3.25
 20
4.0999999999999996
 30
0.0
 11
9.25
 21
4.0999999999999996
 31
0.0
  0
LINE
  5
1EB
100
AcDbEntity
  8
0
  6
CONTINUOUS
 62
               7
100
AcDbLine
 10
2.5
 20
0.0
 30
0.0
 11
2.5
 21
7.2000000000000002
 31
0.0
  0
LINE
  5
1EC
100
AcDbEntity
  8
0
  6
CONTINUOUS
 62
               7
100
AcDbLine
 10
-2.5
 20
0.0
 30
0.0
 11
-2.5
 21
7.2000000000000002
 31
0.0
  0
LINE
  5
1ED
100
AcDbEntity
  8
0
  6
CONTINUOUS
 62
               7
100
AcDbLine
 10
-2.5
 20
0.0
 30
0.0
 11
2.5
 21
0.0
 31
0.0
  0
LINE
  5
1EE
100
AcDbEntity
  8
0
  6
CONTINUOUS
 62
               7
100
AcDbLine
 10
-2.5
 20
0.6
 30
0.0
 11
2.5
 21
0.6
 31
0.0
  0
LINE
  5
1EF
100
AcDbEntity
  8
0
  6
CONTINUOUS
 62
               7
100
AcDbLine
 10
2.8799999999999999
 20
7.4199999999999999
 30
0.0
 11
2.8799999999999999
 21
8.9700000000000006
 31
0.0
  0
LINE
  5
1F0
100
AcDbEntity
  8
0
  6
CONTINUOUS
 62
               7
100
AcDbLine
 10
2.8799999999999999
 20
7.4199999999999999
 30
0.0
 11
2.5
 21
7.2000000000000002
 31
0.0
  0
LINE
  5
1F1
100
AcDbEntity
  8
0
  6
CONTINUOUS
 62
               7
100
AcDbLine
 10
-2.8799999999999999
 20
7.4199999999999999
 30
0.0
 11
-2.5
 21
7.2000000000000002
 31
0.0
  0
LINE
  5
1F2
100
AcDbEntity
  8
0
  6
CONTINUOUS
 62
               7
100
AcDbLine
 10
2.8799999999999999
 20
8.9700000000000006
 30
0.0
 11
2.5
 21
9.1999999999999993
 31
0.0
  0
LINE
  5
1F3
100
AcDbEntity
  8
0
  6
CONTINUOUS
 62
               7
100
AcDbLine
 10
-2.8799999999999999
 20
8.9700000000000006
 30
0.0
 11
-2.5
 21
9.1999999999999993
 31
0.0
  0
LINE
  5
1F4
100
AcDbEntity
  8
0
  6
CONTINUOUS
 62
               7
100
AcDbLine
 10
1.4399999999999999
 20
7.4199999999999999
 30
0.0
 11
1.4399999999999999
 21
8.9700000000000006
 31
0.0
  0
LINE
  5
1F5
100
AcDbEntity
  8
0
  6
CONTINUOUS
 62
               7
100
AcDbLine
 10
-1.4399999999999999
 20
7.4199999999999999
 30
0.0
 11
-1.4399999999999999
 21
8.9700000000000006
 31
0.0
  0
LINE
  5
1F6
100
AcDbEntity
  8
0
  6
CONTINUOUS
 62
               7
100
AcDbLine
 10
-2.8799999999999999
 20
7.4199999999999999
 30
0.0
 11
-2.8799999999999999
 21
8.9700000000000006
 31
0.0
  0
LINE
  5
1F7
100
AcDbEntity
  8
0
  6
CONTINUOUS
 62
               7
100
AcDbLine
 10
-2.5
 20
9.1999999999999993
 30
0.0
 11
-0.4
 21
9.1999999999999993
 31
0.0
  0
LINE
  5
1F8
100
AcDbEntity
  8
0
  6
CONTINUOUS
 62
               7
100
AcDbLine
 10
-2.5
 20
7.2000000000000002
 30
0.0
 11
2.5
 21
7.2000000000000002
 31
0.0
  0
LINE
  5
1F9
100
AcDbEntity
  8
0
  6
CONTINUOUS
 62
               7
100
AcDbLine
 10
-2.5
 20
6.5999999999999996
 30
0.0
 11
2.5
 21
6.5999999999999996
 31
0.0
  0
LINE
  5
1FA
100
AcDbEntity
  8
0
  6
CONTINUOUS
 62
               2
100
AcDbLine
 10
1.22
 20
-2.1000000000000001
 30
0.0
 11
1.22
 21
0.0
 31
0.0
  0
LINE
  5
1FB
100
AcDbEntity
  8
0
  6
CONTINUOUS
 62
               2
100
AcDbLine
 10
-1.22
 20
-2.1000000000000001
 30
0.0
 11
-1.22
 21
0.0
 31
0.0
  0
LINE
  5
1FC
100
AcDbEntity
  8
0
  6
CONTINUOUS
 62
               7
100
AcDbLine
 10
-1.5
 20
-2.1000000000000001
 30
0.0
 11
-1.5
 21
0.0
 31
0.0
  0
LINE
  5
1FD
100
AcDbEntity
  8
0
  6
CONTINUOUS
 62
               7
100
AcDbLine
 10
1.5
 20
-2.1000000000000001
 30
0.0
 11
1.5
 21
0.0
 31
0.0
  0
LINE
  5
1FE
100
AcDbEntity
  8
0
  6
CONTINUOUS
 62
               7
100
AcDbLine
 10
-1.5
 20
-2.1000000000000001
 30
0.0
 11
1.5
 21
-2.1000000000000001
 31
0.0
  0
LINE
  5
1FF
100
AcDbEntity
  8
0
  6
CENTER
 62
               2
100
AcDbLine
 10
0.0
 20
-2.6800000000000002
 30
0.0
 11
0.0
 21
10.210000000000001
 31
0.0
  0
ENDBLK
  5
200
100
AcDbEntity
  8
0
100
AcDbBlockEnd
  0
BLOCK
  5
201
100
AcDbEntity
  8
0
100
AcDbBlockBegin
  2
MS_14
 70
               0
 10
0.0
 20
0.0
 30
0.0
  3
MS_14
  1

  0
ARC
  5
202
100
AcDbEntity
  8
0
  6
CONTINUOUS
 62
               7
100
AcDbCircle
 10
0.0000000000000013
 20
0.0
 30
0.0
 40
2.4923081671414553
100
AcDbArc
 50
99.235559093165733
 51
260.7644409068335
  0
ARC
  5
203
100
AcDbEntity
  8
0
  6
CONTINUOUS
 62
               7
100
AcDbCircle
 10
-0.0000000000000013
 20
0.0
 30
0.0
 40
2.4923081671414553
100
AcDbArc
 50
279.23555909316531
 51
80.764440906833883
  0
LINE
  5
204
100
AcDbEntity
  8
0
  6
CONTINUOUS
 62
               7
100
AcDbLine
 10
7.5
 20
-1.1000000000000001
 30
0.0
 11
6.0
 21
-1.6000000000000001
 31
0.0
  0
LINE
  5
205
100
AcDbEntity
  8
0
  6
CONTINUOUS
 62
               7
100
AcDbLine
 10
7.5
 20
1.1000000000000001
 30
0.0
 11
7.5
 21
-1.1000000000000001
 31
0.0
  0
LINE
  5
206
100
AcDbEntity
  8
0
  6
CONTINUOUS
 62
               7
100
AcDbLine
 10
7.5
 20
1.1000000000000001
 30
0.0
 11
6.0
 21
1.6000000000000001
 31
0.0
  0
LINE
  5
207
100
AcDbEntity
  8
0
  6
CONTINUOUS
 62
               7
100
AcDbLine
 10
6.0
 20
1.6000000000000001
 30
0.0
 11
6.0
 21
-1.6000000000000001
 31
0.0
  0
LINE
  5
208
100
AcDbEntity
  8
0
  6
CONTINUOUS
 62
               7
100
AcDbLine
 10
6.0
 20
1.1000000000000001
 30
0.0
 11
4.5
 21
1.6000000000000001
 31
0.0
  0
LINE
  5
209
100
AcDbEntity
  8
0
  6
CONTINUOUS
 62
               7
100
AcDbLine
 10
6.0
 20
-1.1000000000000001
 30
0.0
 11
4.5
 21
-1.6000000000000001
 31
0.0
  0
LINE
  5
20A
100
AcDbEntity
  8
0
  6
CONTINUOUS
 62
               7
100
AcDbLine
 10
4.5
 20
1.6000000000000001
 30
0.0
 11
4.5
 21
-1.6000000000000001
 31
0.0
  0
LINE
  5
20B
100
AcDbEntity
  8
0
  6
CONTINUOUS
 62
               7
100
AcDbLine
 10
2.5
 20
-1.1000000000000001
 30
0.0
 11
4.5
 21
-1.1000000000000001
 31
0.0
  0
LINE
  5
20C
100
AcDbEntity
  8
0
  6
CONTINUOUS
 62
               7
100
AcDbLine
 10
2.5
 20
1.1000000000000001
 30
0.0
 11
4.5
 21
1.1000000000000001
 31
0.0
  0
LINE
  5
20D
100
AcDbEntity
  8
0
  6
CONTINUOUS
 62
               7
100
AcDbLine
 10
-2.5
 20
-0.67
 30
0.0
 11
-2.5
 21
-2.5
 31
0.0
  0
LINE
  5
20E
100
AcDbEntity
  8
0
  6
CONTINUOUS
 62
               7
100
AcDbLine
 10
-2.5
 20
0.67
 30
0.0
 11
-2.5
 21
2.5
 31
0.0
  0
LINE
  5
20F
100
AcDbEntity
  8
0
  6
CONTINUOUS
 62
               7
100
AcDbLine
 10
2.5
 20
-0.67
 30
0.0
 11
2.5
 21
-2.5
 31
0.0
  0
LINE
  5
210
100
AcDbEntity
  8
0
  6
CONTINUOUS
 62
               7
100
AcDbLine
 10
2.5
 20
0.67
 30
0.0
 11
2.5
 21
2.5
 31
0.0
  0
LINE
  5
211
100
AcDbEntity
  8
0
  6
CONTINUOUS
 62
               7
100
AcDbLine
 10
-0.4
 20
-2.5
 30
0.0
 11
-0.4
 21
2.5
 31
0.0
  0
LINE
  5
212
100
AcDbEntity
  8
0
  6
CONTINUOUS
 62
               7
100
AcDbLine
 10
0.4
 20
-2.5
 30
0.0
 11
0.4
 21
2.5
 31
0.0
  0
LINE
  5
213
100
AcDbEntity
  8
0
  6
CENTER
 62
               2
100
AcDbLine
 10
-3.5
 20
0.0
 30
0.0
 11
9.1500000000000004
 21
0.0
 31
0.0
  0
LINE
  5
214
100
AcDbEntity
  8
0
  6
CENTER
 62
               2
100
AcDbLine
 10
0.0
 20
-3.5
 30
0.0
 11
0.0
 21
3.5
 31
0.0
  0
LINE
  5
215
100
AcDbEntity
  8
0
  6
CONTINUOUS
 62
               7
100
AcDbLine
 10
-2.5
 20
2.5
 30
0.0
 11
2.5
 21
2.5
 31
0.0
  0
LINE
  5
216
100
AcDbEntity
  8
0
  6
CONTINUOUS
 62
               7
100
AcDbLine
 10
1.4399999999999999
 20
2.5
 30
0.0
 11
2.8799999999999999
 21
0.0
 31
0.0
  0
LINE
  5
217
100
AcDbEntity
  8
0
  6
CONTINUOUS
 62
               7
100
AcDbLine
 10
2.8799999999999999
 20
0.0
 30
0.0
 11
1.4399999999999999
 21
-2.5
 31
0.0
  0
LINE
  5
218
100
AcDbEntity
  8
0
  6
CONTINUOUS
 62
               7
100
AcDbLine
 10
2.5
 20
-2.5
 30
0.0
 11
-2.5
 21
-2.5
 31
0.0
  0
LINE
  5
219
100
AcDbEntity
  8
0
  6
CONTINUOUS
 62
               7
100
AcDbLine
 10
-1.4399999999999999
 20
-2.5
 30
0.0
 11
-2.8799999999999999
 21
0.0
 31
0.0
  0
LINE
  5
21A
100
AcDbEntity
  8
0
  6
CONTINUOUS
 62
               7
100
AcDbLine
 10
-2.8799999999999999
 20
0.0
 30
0.0
 11
-1.4399999999999999
 21
2.5
 31
0.0
  0
ENDBLK
  5
21B
100
AcDbEntity
  8
0
100
AcDbBlockEnd
  0
BLOCK
  5
21C
100
AcDbEntity
  8
0
100
AcDbBlockBegin
  2
MS_15
 70
               0
 10
0.0
 20
0.0
 30
0.0
  3
MS_15
  1

  0
ARC
  5
21D
100
AcDbEntity
  8
0
  6
CONTINUOUS
 62
               7
100
AcDbCircle
 10
-1.25
 20
10.810444831848145
 30
0.0
 40
3.6135323656784637
100
AcDbArc
 50
249.76191756579149
 51
290.23808243420729
  0
ARC
  5
21E
100
AcDbEntity
  8
0
  6
CONTINUOUS
 62
               7
100
AcDbCircle
 10
-1.25
 20
5.5895557403564453
 30
0.0
 40
3.6041508559655302
100
AcDbArc
 50
69.706922635946938
 51
110.29307736405268
  0
ARC
  5
21F
100
AcDbEntity
  8
0
  6
CONTINUOUS
 62
               7
100
AcDbCircle
 10
1.25
 20
10.810444831848145
 30
0.0
 40
3.6135323656784637
100
AcDbArc
 50
249.76191756579149
 51
290.23808243420729
  0
ARC
  5
220
100
AcDbEntity
  8
0
  6
CONTINUOUS
 62
               7
100
AcDbCircle
 10
1.25
 20
5.5895557403564453
 30
0.0
 40
3.6041508559655302
100
AcDbArc
 50
69.706922635946938
 51
110.29307736405268
  0
LINE
  5
221
100
AcDbEntity
  8
0
  6
CONTINUOUS
 62
               7
100
AcDbLine
 10
-2.5
 20
1.6000000000000001
 30
0.0
 11
-1.1399999999999999
 21
1.6000000000000001
 31
0.0
  0
LINE
  5
222
100
AcDbEntity
  8
0
  6
CONTINUOUS
 62
               7
100
AcDbLine
 10
-1.1399999999999999
 20
1.6000000000000001
 30
0.0
 11
-1.1399999999999999
 21
0.6
 31
0.0
  0
LINE
  5
223
100
AcDbEntity
  8
0
  6
CONTINUOUS
 62
               7
100
AcDbLine
 10
1.1399999999999999
 20
1.6000000000000001
 30
0.0
 11
1.1399999999999999
 21
0.6
 31
0.0
  0
LINE
  5
224
100
AcDbEntity
  8
0
  6
CONTINUOUS
 62
               7
100
AcDbLine
 10
1.1399999999999999
 20
1.6000000000000001
 30
0.0
 11
2.5
 21
1.6000000000000001
 31
0.0
  0
LINE
  5
225
100
AcDbEntity
  8
0
  6
CONTINUOUS
 62
               7
100
AcDbLine
 10
-2.5
 20
0.0
 30
0.0
 11
2.5
 21
0.0
 31
0.0
  0
LINE
  5
226
100
AcDbEntity
  8
0
  6
CONTINUOUS
 62
               7
100
AcDbLine
 10
-2.5
 20
0.0
 30
0.0
 11
-2.5
 21
9.1999999999999993
 31
0.0
  0
LINE
  5
227
100
AcDbEntity
  8
0
  6
CONTINUOUS
 62
               7
100
AcDbLine
 10
-2.5
 20
0.6
 30
0.0
 11
2.5
 21
0.6
 31
0.0
  0
LINE
  5
228
100
AcDbEntity
  8
0
  6
CONTINUOUS
 62
               7
100
AcDbLine
 10
0.0
 20
7.4199999999999999
 30
0.0
 11
0.0
 21
8.9700000000000006
 31
0.0
  0
LINE
  5
229
100
AcDbEntity
  8
0
  6
CONTINUOUS
 62
               7
100
AcDbLine
 10
2.5
 20
0.0
 30
0.0
 11
2.5
 21
9.1999999999999993
 31
0.0
  0
LINE
  5
22A
100
AcDbEntity
  8
0
  6
CONTINUOUS
 62
               7
100
AcDbLine
 10
-2.5
 20
9.1999999999999993
 30
0.0
 11
2.5
 21
9.1999999999999993
 31
0.0
  0
LINE
  5
22B
100
AcDbEntity
  8
0
  6
CONTINUOUS
 62
               7
100
AcDbLine
 10
-2.5
 20
7.2000000000000002
 30
0.0
 11
2.5
 21
7.2000000000000002
 31
0.0
  0
LINE
  5
22C
100
AcDbEntity
  8
0
  6
CONTINUOUS
 62
               7
100
AcDbLine
 10
-2.5
 20
6.5999999999999996
 30
0.0
 11
2.5
 21
6.5999999999999996
 31
0.0
  0
LINE
  5
22D
100
AcDbEntity
  8
0
  6
CONTINUOUS
 62
               2
100
AcDbLine
 10
1.22
 20
-2.1000000000000001
 30
0.0
 11
1.22
 21
0.0
 31
0.0
  0
LINE
  5
22E
100
AcDbEntity
  8
0
  6
CONTINUOUS
 62
               2
100
AcDbLine
 10
-1.22
 20
-2.1000000000000001
 30
0.0
 11
-1.22
 21
0.0
 31
0.0
  0
LINE
  5
22F
100
AcDbEntity
  8
0
  6
CONTINUOUS
 62
               7
100
AcDbLine
 10
-1.5
 20
-2.1000000000000001
 30
0.0
 11
-1.5
 21
0.0
 31
0.0
  0
LINE
  5
230
100
AcDbEntity
  8
0
  6
CONTINUOUS
 62
               7
100
AcDbLine
 10
1.5
 20
-2.1000000000000001
 30
0.0
 11
1.5
 21
0.0
 31
0.0
  0
LINE
  5
231
100
AcDbEntity
  8
0
  6
CONTINUOUS
 62
               7
100
AcDbLine
 10
-1.5
 20
-2.1000000000000001
 30
0.0
 11
1.5
 21
-2.1000000000000001
 31
0.0
  0
LINE
  5
232
100
AcDbEntity
  8
0
  6
CENTER
 62
               2
100
AcDbLine
 10
0.0
 20
-2.6800000000000002
 30
0.0
 11
0.0
 21
10.210000000000001
 31
0.0
  0
ENDBLK
  5
233
100
AcDbEntity
  8
0
100
AcDbBlockEnd
  0
BLOCK
  5
234
100
AcDbEntity
  8
0
100
AcDbBlockBegin
  2
MS_16
 70
               0
 10
0.0
 20
0.0
 30
0.0
  3
MS_16
  1

  0
CIRCLE
  5
235
100
AcDbEntity
  8
0
  6
CONTINUOUS
 62
               7
100
AcDbCircle
 10
0.0
 20
4.0999994277954102
 30
0.0
 40
1.5999994277954102
  0
CIRCLE
  5
236
100
AcDbEntity
  8
0
  6
CONTINUOUS
 62
               7
100
AcDbCircle
 10
0.0
 20
4.0999994277954102
 30
0.0
 40
0.6000000238418579
  0
ARC
  5
237
100
AcDbEntity
  8
0
  6
CONTINUOUS
 62
               7
100
AcDbCircle
 10
1.25
 20
10.810444831848145
 30
0.0
 40
3.6135323656784637
100
AcDbArc
 50
249.76191756579149
 51
290.23808243420729
  0
ARC
  5
238
100
AcDbEntity
  8
0
  6
CONTINUOUS
 62
               7
100
AcDbCircle
 10
1.25
 20
5.5895557403564453
 30
0.0
 40
3.6041508559655302
100
AcDbArc
 50
69.706922635946938
 51
110.29307736405268
  0
ARC
  5
239
100
AcDbEntity
  8
0
  6
CONTINUOUS
 62
               7
100
AcDbCircle
 10
-1.25
 20
10.810444831848145
 30
0.0
 40
3.6135323656784637
100
AcDbArc
 50
249.76191756579149
 51
290.23808243420729
  0
ARC
  5
23A
100
AcDbEntity
  8
0
  6
CONTINUOUS
 62
               7
100
AcDbCircle
 10
-1.25
 20
5.5895557403564453
 30
0.0
 40
3.6041508559655302
100
AcDbArc
 50
69.706922635946938
 51
110.29307736405268
  0
LINE
  5
23B
100
AcDbEntity
  8
0
  6
CONTINUOUS
 62
               7
100
AcDbLine
 10
1.1399999999999999
 20
1.6000000000000001
 30
0.0
 11
2.5
 21
1.6000000000000001
 31
0.0
  0
LINE
  5
23C
100
AcDbEntity
  8
0
  6
CONTINUOUS
 62
               7
100
AcDbLine
 10
-2.5
 20
1.6000000000000001
 30
0.0
 11
-1.1399999999999999
 21
1.6000000000000001
 31
0.0
  0
LINE
  5
23D
100
AcDbEntity
  8
0
  6
CONTINUOUS
 62
               7
100
AcDbLine
 10
-1.1399999999999999
 20
1.6000000000000001
 30
0.0
 11
-1.1399999999999999
 21
0.6
 31
0.0
  0
LINE
  5
23E
100
AcDbEntity
  8
0
  6
CONTINUOUS
 62
               7
100
AcDbLine
 10
1.1399999999999999
 20
1.6000000000000001
 30
0.0
 11
1.1399999999999999
 21
0.6
 31
0.0
  0
LINE
  5
23F
100
AcDbEntity
  8
0
  6
CENTER
 62
               2
100
AcDbLine
 10
-3.0
 20
4.0999999999999996
 30
0.0
 11
3.0
 21
4.0999999999999996
 31
0.0
  0
LINE
  5
240
100
AcDbEntity
  8
0
  6
CONTINUOUS
 62
               7
100
AcDbLine
 10
2.5
 20
0.0
 30
0.0
 11
-2.5
 21
0.0
 31
0.0
  0
LINE
  5
241
100
AcDbEntity
  8
0
  6
CONTINUOUS
 62
               7
100
AcDbLine
 10
2.5
 20
0.0
 30
0.0
 11
2.5
 21
9.1999999999999993
 31
0.0
  0
LINE
  5
242
100
AcDbEntity
  8
0
  6
CONTINUOUS
 62
               7
100
AcDbLine
 10
2.5
 20
0.6
 30
0.0
 11
-2.5
 21
0.6
 31
0.0
  0
LINE
  5
243
100
AcDbEntity
  8
0
  6
CONTINUOUS
 62
               7
100
AcDbLine
 10
0.0
 20
7.4199999999999999
 30
0.0
 11
0.0
 21
8.9700000000000006
 31
0.0
  0
LINE
  5
244
100
AcDbEntity
  8
0
  6
CONTINUOUS
 62
               7
100
AcDbLine
 10
-2.5
 20
0.0
 30
0.0
 11
-2.5
 21
9.1999999999999993
 31
0.0
  0
LINE
  5
245
100
AcDbEntity
  8
0
  6
CONTINUOUS
 62
               7
100
AcDbLine
 10
2.5
 20
9.1999999999999993
 30
0.0
 11
-2.5
 21
9.1999999999999993
 31
0.0
  0
LINE
  5
246
100
AcDbEntity
  8
0
  6
CONTINUOUS
 62
               7
100
AcDbLine
 10
2.5
 20
7.2000000000000002
 30
0.0
 11
-2.5
 21
7.2000000000000002
 31
0.0
  0
LINE
  5
247
100
AcDbEntity
  8
0
  6
CONTINUOUS
 62
               7
100
AcDbLine
 10
2.5
 20
6.5999999999999996
 30
0.0
 11
-2.5
 21
6.5999999999999996
 31
0.0
  0
LINE
  5
248
100
AcDbEntity
  8
0
  6
CONTINUOUS
 62
               2
100
AcDbLine
 10
-1.22
 20
-2.1000000000000001
 30
0.0
 11
-1.22
 21
0.0
 31
0.0
  0
LINE
  5
249
100
AcDbEntity
  8
0
  6
CONTINUOUS
 62
               2
100
AcDbLine
 10
1.22
 20
-2.1000000000000001
 30
0.0
 11
1.22
 21
0.0
 31
0.0
  0
LINE
  5
24A
100
AcDbEntity
  8
0
  6
CONTINUOUS
 62
               7
100
AcDbLine
 10
1.5
 20
-2.1000000000000001
 30
0.0
 11
1.5
 21
0.0
 31
0.0
  0
LINE
  5
24B
100
AcDbEntity
  8
0
  6
CONTINUOUS
 62
               7
100
AcDbLine
 10
-1.5
 20
-2.1000000000000001
 30
0.0
 11
-1.5
 21
0.0
 31
0.0
  0
LINE
  5
24C
100
AcDbEntity
  8
0
  6
CONTINUOUS
 62
               7
100
AcDbLine
 10
1.5
 20
-2.1000000000000001
 30
0.0
 11
-1.5
 21
-2.1000000000000001
 31
0.0
  0
LINE
  5
24D
100
AcDbEntity
  8
0
  6
CENTER
 62
               2
100
AcDbLine
 10
0.0
 20
-2.6800000000000002
 30
0.0
 11
0.0
 21
10.210000000000001
 31
0.0
  0
ENDBLK
  5
24E
100
AcDbEntity
  8
0
100
AcDbBlockEnd
  0
BLOCK
  5
24F
100
AcDbEntity
  8
0
100
AcDbBlockBegin
  2
MS_17
 70
               0
 10
0.0
 20
0.0
 30
0.0
  3
MS_17
  1

  0
ARC
  5
250
100
AcDbEntity
  8
0
  6
CONTINUOUS
 62
               7
100
AcDbCircle
 10
0.0
 20
-6.1500005722045898
 30
0.0
 40
16.250000554598294
100
AcDbArc
 50
75.749967798819682
 51
104.25003220117993
  0
ARC
  5
251
100
AcDbEntity
  8
0
  6
CONTINUOUS
 62
               7
100
AcDbCircle
 10
0.0
 20
18.349990844726562
 30
0.0
 40
16.249991126427439
100
AcDbArc
 50
255.74995935621615
 51
284.25004064378265
  0
ARC
  5
252
100
AcDbEntity
  8
0
  6
CONTINUOUS
 62
               7
100
AcDbCircle
 10
-0.0192098556067584
 20
6.5164551897875791
 30
0.0
 40
6.6822959667157207
100
AcDbArc
 50
72.231845937461529
 51
84.683102661664449
  0
ARC
  5
253
100
AcDbEntity
  8
0
  6
CONTINUOUS
 62
               7
100
AcDbCircle
 10
0.0
 20
17.387435913090087
 30
0.0
 40
6.6897002044614204
100
AcDbArc
 50
252.42483315042037
 51
287.57516684957841
  0
ARC
  5
254
100
AcDbEntity
  8
0
  6
CONTINUOUS
 62
               7
100
AcDbCircle
 10
3.0269406657391924
 20
12.490355072247043
 30
0.0
 40
1.7903576861194068
100
AcDbArc
 50
235.7763795039715
 51
270.09790614910452
  0
ARC
  5
255
100
AcDbEntity
  8
0
  6
CONTINUOUS
 62
               7
100
AcDbCircle
 10
-3.0269406657391924
 20
12.490355072247043
 30
0.0
 40
1.7903576861194068
100
AcDbArc
 50
269.90209385089423
 51
304.22362049602731
  0
ARC
  5
256
100
AcDbEntity
  8
0
  6
CONTINUOUS
 62
               7
100
AcDbCircle
 10
3.040232589132589
 20
11.413797140550258
 30
0.0
 40
1.7862321688366232
100
AcDbArc
 50
90.328225741154483
 51
124.83147711215548
  0
ARC
  5
257
100
AcDbEntity
  8
0
  6
CONTINUOUS
 62
               7
100
AcDbCircle
 10
-3.040232589132589
 20
11.413797140550258
 30
0.0
 40
1.7862321688366232
100
AcDbArc
 50
55.168522887844127
 51
89.671774258845133
  0
ARC
  5
258
100
AcDbEntity
  8
0
  6
CONTINUOUS
 62
               7
100
AcDbCircle
 10
0.0192098556067584
 20
6.5164551897875791
 30
0.0
 40
6.6822959667157207
100
AcDbArc
 50
95.316897338335167
 51
107.76815406253809
  0
LINE
  5
259
100
AcDbEntity
  8
0
  6
CONTINUOUS
 62
               7
100
AcDbLine
 10
8.0
 20
6.1500000000000004
 30
0.0
 11
8.0
 21
4.5499999999999998
 31
0.0
  0
LINE
  5
25A
100
AcDbEntity
  8
0
  6
CONTINUOUS
 62
               7
100
AcDbLine
 10
6.75
 20
6.3499999999999996
 30
0.0
 11
8.0
 21
6.1500000000000004
 31
0.0
  0
LINE
  5
25B
100
AcDbEntity
  8
0
  6
CONTINUOUS
 62
               7
100
AcDbLine
 10
6.75
 20
4.3499999999999996
 30
0.0
 11
8.0
 21
4.5499999999999998
 31
0.0
  0
LINE
  5
25C
100
AcDbEntity
  8
0
  6
CONTINUOUS
 62
               7
100
AcDbLine
 10
6.75
 20
6.3499999999999996
 30
0.0
 11
6.75
 21
4.3499999999999996
 31
0.0
  0
LINE
  5
25D
100
AcDbEntity
  8
0
  6
CONTINUOUS
 62
               7
100
AcDbLine
 10
5.5
 20
4.3499999999999996
 30
0.0
 11
6.75
 21
4.5499999999999998
 31
0.0
  0
LINE
  5
25E
100
AcDbEntity
  8
0
  6
CONTINUOUS
 62
               7
100
AcDbLine
 10
5.5
 20
6.3499999999999996
 30
0.0
 11
5.5
 21
4.3499999999999996
 31
0.0
  0
LINE
  5
25F
100
AcDbEntity
  8
0
  6
CONTINUOUS
 62
               7
100
AcDbLine
 10
5.5
 20
6.3499999999999996
 30
0.0
 11
6.75
 21
6.1500000000000004
 31
0.0
  0
LINE
  5
260
100
AcDbEntity
  8
0
  6
CONTINUOUS
 62
               7
100
AcDbLine
 10
4.0
 20
4.5499999999999998
 30
0.0
 11
5.5
 21
4.5499999999999998
 31
0.0
  0
LINE
  5
261
100
AcDbEntity
  8
0
  6
CONTINUOUS
 62
               7
100
AcDbLine
 10
4.0
 20
6.1500000000000004
 30
0.0
 11
5.5
 21
6.1500000000000004
 31
0.0
  0
LINE
  5
262
100
AcDbEntity
  8
0
  6
CENTER
 62
               2
100
AcDbLine
 10
-4.75
 20
5.3499999999999996
 30
0.0
 11
9.3499999999999996
 21
5.3499999999999996
 31
0.0
  0
LINE
  5
263
100
AcDbEntity
  8
0
  6
CONTINUOUS
 62
               7
100
AcDbLine
 10
-4.0
 20
2.1000000000000001
 30
0.0
 11
4.0
 21
2.1000000000000001
 31
0.0
  0
LINE
  5
264
100
AcDbEntity
  8
0
  6
CONTINUOUS
 62
               7
100
AcDbLine
 10
4.0
 20
10.1
 30
0.0
 11
-4.0
 21
10.1
 31
0.0
  0
LINE
  5
265
100
AcDbEntity
  8
0
  6
CONTINUOUS
 62
               7
100
AcDbLine
 10
-4.0
 20
0.6
 30
0.0
 11
4.0
 21
0.6
 31
0.0
  0
LINE
  5
266
100
AcDbEntity
  8
0
  6
CONTINUOUS
 62
               7
100
AcDbLine
 10
-4.0
 20
0.0
 30
0.0
 11
4.0
 21
0.0
 31
0.0
  0
LINE
  5
267
100
AcDbEntity
  8
0
  6
CONTINUOUS
 62
               2
100
AcDbLine
 10
2.0600000000000001
 20
-2.7999999999999998
 30
0.0
 11
2.0600000000000001
 21
0.0
 31
0.0
  0
LINE
  5
268
100
AcDbEntity
  8
0
  6
CONTINUOUS
 62
               7
100
AcDbLine
 10
2.5
 20
-2.7999999999999998
 30
0.0
 11
2.5
 21
0.0
 31
0.0
  0
LINE
  5
269
100
AcDbEntity
  8
0
  6
CONTINUOUS
 62
               7
100
AcDbLine
 10
-2.5
 20
-2.7999999999999998
 30
0.0
 11
-2.5
 21
0.0
 31
0.0
  0
LINE
  5
26A
100
AcDbEntity
  8
0
  6
CONTINUOUS
 62
               2
100
AcDbLine
 10
-2.0600000000000001
 20
-2.7999999999999998
 30
0.0
 11
-2.0600000000000001
 21
0.0
 31
0.0
  0
LINE
  5
26B
100
AcDbEntity
  8
0
  6
CONTINUOUS
 62
               7
100
AcDbLine
 10
2.5
 20
-2.7999999999999998
 30
0.0
 11
-2.5
 21
-2.7999999999999998
 31
0.0
  0
LINE
  5
26C
100
AcDbEntity
  8
0
  6
CONTINUOUS
 62
               7
100
AcDbLine
 10
-4.0
 20
0.0
 30
0.0
 11
-4.0
 21
10.699999999999999
 31
0.0
  0
LINE
  5
26D
100
AcDbEntity
  8
0
  6
CONTINUOUS
 62
               7
100
AcDbLine
 10
4.0
 20
0.0
 30
0.0
 11
4.0
 21
10.699999999999999
 31
0.0
  0
LINE
  5
26E
100
AcDbEntity
  8
0
  6
CONTINUOUS
 62
               7
100
AcDbLine
 10
0.6
 20
13.199999999999999
 30
0.0
 11
3.5
 21
13.199999999999999
 31
0.0
  0
LINE
  5
26F
100
AcDbEntity
  8
0
  6
CONTINUOUS
 62
               7
100
AcDbLine
 10
-0.6
 20
13.199999999999999
 30
0.0
 11
-0.6
 21
11.699999999999999
 31
0.0
  0
LINE
  5
270
100
AcDbEntity
  8
0
  6
CONTINUOUS
 62
               7
100
AcDbLine
 10
0.6
 20
13.199999999999999
 30
0.0
 11
0.6
 21
11.699999999999999
 31
0.0
  0
LINE
  5
271
100
AcDbEntity
  8
0
  6
CONTINUOUS
 62
               7
100
AcDbLine
 10
0.6
 20
11.699999999999999
 30
0.0
 11
-0.6
 21
11.699999999999999
 31
0.0
  0
LINE
  5
272
100
AcDbEntity
  8
0
  6
CENTER
 62
               2
100
AcDbLine
 10
0.0
 20
14.98
 30
0.0
 11
0.0
 21
-5.1600000000000001
 31
0.0
  0
LINE
  5
273
100
AcDbEntity
  8
0
  6
CONTINUOUS
 62
               7
100
AcDbLine
 10
3.5
 20
10.699999999999999
 30
0.0
 11
4.04
 21
11.01
 31
0.0
  0
LINE
  5
274
100
AcDbEntity
  8
0
  6
CONTINUOUS
 62
               7
100
AcDbLine
 10
-3.5
 20
10.699999999999999
 30
0.0
 11
-4.04
 21
11.01
 31
0.0
  0
LINE
  5
275
100
AcDbEntity
  8
0
  6
CONTINUOUS
 62
               7
100
AcDbLine
 10
3.5
 20
13.199999999999999
 30
0.0
 11
4.04
 21
12.880000000000001
 31
0.0
  0
LINE
  5
276
100
AcDbEntity
  8
0
  6
CONTINUOUS
 62
               7
100
AcDbLine
 10
-3.5
 20
13.199999999999999
 30
0.0
 11
-4.04
 21
12.880000000000001
 31
0.0
  0
LINE
  5
277
100
AcDbEntity
  8
0
  6
CONTINUOUS
 62
               7
100
AcDbLine
 10
4.04
 20
12.880000000000001
 30
0.0
 11
4.04
 21
11.01
 31
0.0
  0
LINE
  5
278
100
AcDbEntity
  8
0
  6
CONTINUOUS
 62
               7
100
AcDbLine
 10
2.02
 20
12.880000000000001
 30
0.0
 11
2.02
 21
11.01
 31
0.0
  0
LINE
  5
279
100
AcDbEntity
  8
0
  6
CONTINUOUS
 62
               7
100
AcDbLine
 10
-2.02
 20
12.880000000000001
 30
0.0
 11
-2.02
 21
11.01
 31
0.0
  0
LINE
  5
27A
100
AcDbEntity
  8
0
  6
CONTINUOUS
 62
               7
100
AcDbLine
 10
-4.04
 20
12.880000000000001
 30
0.0
 11
-4.04
 21
11.01
 31
0.0
  0
LINE
  5
27B
100
AcDbEntity
  8
0
  6
CONTINUOUS
 62
               7
100
AcDbLine
 10
4.0
 20
10.699999999999999
 30
0.0
 11
-4.0
 21
10.699999999999999
 31
0.0
  0
LINE
  5
27C
100
AcDbEntity
  8
0
  6
CONTINUOUS
 62
               7
100
AcDbLine
 10
-0.6
 20
13.199999999999999
 30
0.0
 11
-3.5
 21
13.199999999999999
 31
0.0
  0
ENDBLK
  5
27D
100
AcDbEntity
  8
0
100
AcDbBlockEnd
  0
BLOCK
  5
27E
100
AcDbEntity
  8
0
100
AcDbBlockBegin
  2
MS_18
 70
               0
 10
0.0
 20
0.0
 30
0.0
  3
MS_18
  1

  0
ARC
  5
27F
100
AcDbEntity
  8
0
  6
CONTINUOUS
 62
               7
100
AcDbCircle
 10
0.000000000000001
 20
0.0
 30
0.0
 40
3.4919335617963867
100
AcDbArc
 50
99.893920669735223
 51
260.10607933026398
  0
ARC
  5
280
100
AcDbEntity
  8
0
  6
CONTINUOUS
 62
               7
100
AcDbCircle
 10
-0.0009687532026477
 20
-0.0016806884533995
 30
0.0
 40
3.991553471691204
100
AcDbArc
 50
301.08656230114497
 51
359.01927923826821
  0
ARC
  5
281
100
AcDbEntity
  8
0
  6
CONTINUOUS
 62
               7
100
AcDbCircle
 10
-0.0009687532026477
 20
0.0016806884533995
 30
0.0
 40
3.991553471691204
100
AcDbArc
 50
0.9807207617309708
 51
58.91343769885421
  0
ARC
  5
282
100
AcDbEntity
  8
0
  6
CONTINUOUS
 62
               7
100
AcDbCircle
 10
0.0
 20
0.0
 30
0.0
 40
3.9968612685456071
100
AcDbArc
 50
61.12640262163702
 51
118.87359737836258
  0
ARC
  5
283
100
AcDbEntity
  8
0
  6
CONTINUOUS
 62
               7
100
AcDbCircle
 10
0.0009687532026477
 20
0.0016806884533995
 30
0.0
 40
3.991553471691204
100
AcDbArc
 50
121.08656230114541
 51
179.01927923826861
  0
ARC
  5
284
100
AcDbEntity
  8
0
  6
CONTINUOUS
 62
               7
100
AcDbCircle
 10
0.0009687532026477
 20
-0.0016806884533995
 30
0.0
 40
3.991553471691204
100
AcDbArc
 50
180.98072076173057
 51
238.91343769885381
  0
ARC
  5
285
100
AcDbEntity
  8
0
  6
CONTINUOUS
 62
               7
100
AcDbCircle
 10
0.0
 20
0.0
 30
0.0
 40
3.9968612685456071
100
AcDbArc
 50
241.12640262163663
 51
298.87359737836215
  0
ARC
  5
286
100
AcDbEntity
  8
0
  6
CONTINUOUS
 62
               7
100
AcDbCircle
 10
-0.000000000000001
 20
0.0
 30
0.0
 40
3.4919335617963867
100
AcDbArc
 50
279.89392066973483
 51
80.106079330264393
  0
LINE
  5
287
100
AcDbEntity
  8
0
  6
CONTINUOUS
 62
               7
100
AcDbLine
 10
4.0
 20
-0.8
 30
0.0
 11
5.5
 21
-0.8
 31
0.0
  0
LINE
  5
288
100
AcDbEntity
  8
0
  6
CONTINUOUS
 62
               7
100
AcDbLine
 10
4.0
 20
0.8
 30
0.0
 11
5.5
 21
0.8
 31
0.0
  0
LINE
  5
289
100
AcDbEntity
  8
0
  6
CONTINUOUS
 62
               7
100
AcDbLine
 10
6.75
 20
-1.0
 30
0.0
 11
8.0
 21
-0.8
 31
0.0
  0
LINE
  5
28A
100
AcDbEntity
  8
0
  6
CONTINUOUS
 62
               7
100
AcDbLine
 10
6.75
 20
1.0
 30
0.0
 11
8.0
 21
0.8
 31
0.0
  0
LINE
  5
28B
100
AcDbEntity
  8
0
  6
CONTINUOUS
 62
               7
100
AcDbLine
 10
5.5
 20
-1.0
 30
0.0
 11
6.75
 21
-0.8
 31
0.0
  0
LINE
  5
28C
100
AcDbEntity
  8
0
  6
CONTINUOUS
 62
               7
100
AcDbLine
 10
5.5
 20
1.0
 30
0.0
 11
6.75
 21
0.8
 31
0.0
  0
LINE
  5
28D
100
AcDbEntity
  8
0
  6
CONTINUOUS
 62
               7
100
AcDbLine
 10
6.75
 20
1.0
 30
0.0
 11
6.75
 21
-1.0
 31
0.0
  0
LINE
  5
28E
100
AcDbEntity
  8
0
  6
CONTINUOUS
 62
               7
100
AcDbLine
 10
5.5
 20
1.0
 30
0.0
 11
5.5
 21
-1.0
 31
0.0
  0
LINE
  5
28F
100
AcDbEntity
  8
0
  6
CONTINUOUS
 62
               7
100
AcDbLine
 10
8.0
 20
0.8
 30
0.0
 11
8.0
 21
-0.8
 31
0.0
  0
LINE
  5
290
100
AcDbEntity
  8
0
  6
CONTINUOUS
 62
               7
100
AcDbLine
 10
4.0
 20
4.0
 30
0.0
 11
4.0
 21
-4.0
 31
0.0
  0
LINE
  5
291
100
AcDbEntity
  8
0
  6
CONTINUOUS
 62
               7
100
AcDbLine
 10
4.0
 20
4.0
 30
0.0
 11
-4.0
 21
4.0
 31
0.0
  0
LINE
  5
292
100
AcDbEntity
  8
0
  6
CONTINUOUS
 62
               7
100
AcDbLine
 10
-4.0
 20
4.0
 30
0.0
 11
-4.0
 21
-4.0
 31
0.0
  0
LINE
  5
293
100
AcDbEntity
  8
0
  6
CONTINUOUS
 62
               7
100
AcDbLine
 10
4.0
 20
-4.0
 30
0.0
 11
-4.0
 21
-4.0
 31
0.0
  0
LINE
  5
294
100
AcDbEntity
  8
0
  6
CENTER
 62
               2
100
AcDbLine
 10
0.0
 20
5.8700000000000001
 30
0.0
 11
0.0
 21
-5.7400000000000002
 31
0.0
  0
LINE
  5
295
100
AcDbEntity
  8
0
  6
CENTER
 62
               2
100
AcDbLine
 10
9.3499999999999996
 20
0.0
 30
0.0
 11
-5.6200000000000001
 21
0.0
 31
0.0
  0
LINE
  5
296
100
AcDbEntity
  8
0
  6
CONTINUOUS
 62
               7
100
AcDbLine
 10
0.6
 20
-3.5
 30
0.0
 11
0.6
 21
3.5
 31
0.0
  0
LINE
  5
297
100
AcDbEntity
  8
0
  6
CONTINUOUS
 62
               7
100
AcDbLine
 10
-0.6
 20
-3.5
 30
0.0
 11
-0.6
 21
3.5
 31
0.0
  0
LINE
  5
298
100
AcDbEntity
  8
0
  6
CONTINUOUS
 62
               7
100
AcDbLine
 10
4.04
 20
0.0
 30
0.0
 11
2.02
 21
-3.5
 31
0.0
  0
LINE
  5
299
100
AcDbEntity
  8
0
  6
CONTINUOUS
 62
               7
100
AcDbLine
 10
2.02
 20
3.5
 30
0.0
 11
4.04
 21
0.0
 31
0.0
  0
LINE
  5
29A
100
AcDbEntity
  8
0
  6
CONTINUOUS
 62
               7
100
AcDbLine
 10
-2.02
 20
3.5
 30
0.0
 11
2.02
 21
3.5
 31
0.0
  0
LINE
  5
29B
100
AcDbEntity
  8
0
  6
CONTINUOUS
 62
               7
100
AcDbLine
 10
-4.04
 20
0.0
 30
0.0
 11
-2.02
 21
3.5
 31
0.0
  0
LINE
  5
29C
100
AcDbEntity
  8
0
  6
CONTINUOUS
 62
               7
100
AcDbLine
 10
-2.02
 20
-3.5
 30
0.0
 11
-4.04
 21
0.0
 31
0.0
  0
LINE
  5
29D
100
AcDbEntity
  8
0
  6
CONTINUOUS
 62
               7
100
AcDbLine
 10
2.02
 20
-3.5
 30
0.0
 11
-2.02
 21
-3.5
 31
0.0
  0
ENDBLK
  5
29E
100
AcDbEntity
  8
0
100
AcDbBlockEnd
  0
BLOCK
  5
29F
100
AcDbEntity
  8
0
100
AcDbBlockBegin
  2
MS_19
 70
               0
 10
0.0
 20
0.0
 30
0.0
  3
MS_19
  1

  0
ARC
  5
2A0
100
AcDbEntity
  8
0
  6
CONTINUOUS
 62
               7
100
AcDbCircle
 10
0.0
 20
18.349990844726562
 30
0.0
 40
16.249991126427439
100
AcDbArc
 50
255.74995935621615
 51
284.25004064378265
  0
ARC
  5
2A1
100
AcDbEntity
  8
0
  6
CONTINUOUS
 62
               7
100
AcDbCircle
 10
0.0
 20
-6.150001525878908
 30
0.0
 40
16.250001478928791
100
AcDbArc
 50
75.749968626525344
 51
104.25003137347426
  0
ARC
  5
2A2
100
AcDbEntity
  8
0
  6
CONTINUOUS
 62
               7
100
AcDbCircle
 10
1.75
 20
15.754611968994141
 30
0.0
 40
5.0570587040613297
100
AcDbArc
 50
249.75403675995838
 51
290.2459632400404
  0
ARC
  5
2A3
100
AcDbEntity
  8
0
  6
CONTINUOUS
 62
               7
100
AcDbCircle
 10
1.75
 20
8.1453857421875
 30
0.0
 40
5.0476798799330984
100
AcDbArc
 50
69.71476580140029
 51
110.28523419859933
  0
ARC
  5
2A4
100
AcDbEntity
  8
0
  6
CONTINUOUS
 62
               7
100
AcDbCircle
 10
-1.75
 20
15.754611968994141
 30
0.0
 40
5.0570587040613297
100
AcDbArc
 50
249.75403675995838
 51
290.2459632400404
  0
ARC
  5
2A5
100
AcDbEntity
  8
0
  6
CONTINUOUS
 62
               7
100
AcDbCircle
 10
-1.75
 20
8.1453857421875
 30
0.0
 40
5.0476798799330984
100
AcDbArc
 50
69.71476580140029
 51
110.28523419859933
  0
LINE
  5
2A6
100
AcDbEntity
  8
0
  6
CONTINUOUS
 62
               7
100
AcDbLine
 10
4.0
 20
2.1000000000000001
 30
0.0
 11
-4.0
 21
2.1000000000000001
 31
0.0
  0
LINE
  5
2A7
100
AcDbEntity
  8
0
  6
CONTINUOUS
 62
               7
100
AcDbLine
 10
4.0
 20
0.6
 30
0.0
 11
-4.0
 21
0.6
 31
0.0
  0
LINE
  5
2A8
100
AcDbEntity
  8
0
  6
CONTINUOUS
 62
               7
100
AcDbLine
 10
4.0
 20
0.0
 30
0.0
 11
-4.0
 21
0.0
 31
0.0
  0
LINE
  5
2A9
100
AcDbEntity
  8
0
  6
CONTINUOUS
 62
               2
100
AcDbLine
 10
-2.0600000000000001
 20
-2.7999999999999998
 30
0.0
 11
-2.0600000000000001
 21
0.0
 31
0.0
  0
LINE
  5
2AA
100
AcDbEntity
  8
0
  6
CONTINUOUS
 62
               7
100
AcDbLine
 10
-2.5
 20
-2.7999999999999998
 30
0.0
 11
-2.5
 21
0.0
 31
0.0
  0
LINE
  5
2AB
100
AcDbEntity
  8
0
  6
CONTINUOUS
 62
               7
100
AcDbLine
 10
-2.5
 20
-2.7999999999999998
 30
0.0
 11
2.5
 21
-2.7999999999999998
 31
0.0
  0
LINE
  5
2AC
100
AcDbEntity
  8
0
  6
CONTINUOUS
 62
               2
100
AcDbLine
 10
2.0600000000000001
 20
-2.7999999999999998
 30
0.0
 11
2.0600000000000001
 21
0.0
 31
0.0
  0
LINE
  5
2AD
100
AcDbEntity
  8
0
  6
CONTINUOUS
 62
               7
100
AcDbLine
 10
2.5
 20
-2.7999999999999998
 30
0.0
 11
2.5
 21
0.0
 31
0.0
  0
LINE
  5
2AE
100
AcDbEntity
  8
0
  6
CENTER
 62
               2
100
AcDbLine
 10
0.0
 20
15.07
 30
0.0
 11
0.0
 21
-5.0899999999999999
 31
0.0
  0
LINE
  5
2AF
100
AcDbEntity
  8
0
  6
CONTINUOUS
 62
               7
100
AcDbLine
 10
-4.0
 20
10.1
 30
0.0
 11
4.0
 21
10.1
 31
0.0
  0
LINE
  5
2B0
100
AcDbEntity
  8
0
  6
CONTINUOUS
 62
               7
100
AcDbLine
 10
3.5
 20
13.199999999999999
 30
0.0
 11
3.5
 21
10.699999999999999
 31
0.0
  0
LINE
  5
2B1
100
AcDbEntity
  8
0
  6
CONTINUOUS
 62
               7
100
AcDbLine
 10
0.0
 20
12.880000000000001
 30
0.0
 11
0.0
 21
11.01
 31
0.0
  0
LINE
  5
2B2
100
AcDbEntity
  8
0
  6
CONTINUOUS
 62
               7
100
AcDbLine
 10
-3.5
 20
13.199999999999999
 30
0.0
 11
3.5
 21
13.199999999999999
 31
0.0
  0
LINE
  5
2B3
100
AcDbEntity
  8
0
  6
CONTINUOUS
 62
               7
100
AcDbLine
 10
-3.5
 20
13.199999999999999
 30
0.0
 11
-3.5
 21
10.699999999999999
 31
0.0
  0
LINE
  5
2B4
100
AcDbEntity
  8
0
  6
CONTINUOUS
 62
               7
100
AcDbLine
 10
-4.0
 20
10.699999999999999
 30
0.0
 11
4.0
 21
10.699999999999999
 31
0.0
  0
LINE
  5
2B5
100
AcDbEntity
  8
0
  6
CONTINUOUS
 62
               7
100
AcDbLine
 10
4.0
 20
10.699999999999999
 30
0.0
 11
4.0
 21
0.0
 31
0.0
  0
LINE
  5
2B6
100
AcDbEntity
  8
0
  6
CONTINUOUS
 62
               7
100
AcDbLine
 10
-4.0
 20
10.699999999999999
 30
0.0
 11
-4.0
 21
0.0
 31
0.0
  0
ENDBLK
  5
2B7
100
AcDbEntity
  8
0
100
AcDbBlockEnd
  0
BLOCK
  5
2B8
100
AcDbEntity
  8
0
100
AcDbBlockBegin
  2
MS_20
 70
               0
 10
0.0
 20
0.0
 30
0.0
  3
MS_20
  1

  0
CIRCLE
  5
2B9
100
AcDbEntity
  8
0
  6
CONTINUOUS
 62
               7
100
AcDbCircle
 10
0.0
 20
5.3500003814697266
 30
0.0
 40
1.0
  0
CIRCLE
  5
2BA
100
AcDbEntity
  8
0
  6
CONTINUOUS
 62
               7
100
AcDbCircle
 10
0.0
 20
5.3500003814697266
 30
0.0
 40
0.800000011920929
  0
ARC
  5
2BB
100
AcDbEntity
  8
0
  6
CONTINUOUS
 62
               7
100
AcDbCircle
 10
0.0
 20
18.349990844726562
 30
0.0
 40
16.249991126427439
100
AcDbArc
 50
255.74995935621615
 51
284.25004064378265
  0
ARC
  5
2BC
100
AcDbEntity
  8
0
  6
CONTINUOUS
 62
               7
100
AcDbCircle
 10
0.0
 20
-6.150001525878908
 30
0.0
 40
16.250001478928791
100
AcDbArc
 50
75.749968626525344
 51
104.25003137347426
  0
ARC
  5
2BD
100
AcDbEntity
  8
0
  6
CONTINUOUS
 62
               7
100
AcDbCircle
 10
-1.75
 20
15.754611968994141
 30
0.0
 40
5.0570587040613297
100
AcDbArc
 50
249.75403675995838
 51
290.2459632400404
  0
ARC
  5
2BE
100
AcDbEntity
  8
0
  6
CONTINUOUS
 62
               7
100
AcDbCircle
 10
-1.75
 20
8.1453857421875
 30
0.0
 40
5.0476798799330984
100
AcDbArc
 50
69.71476580140029
 51
110.28523419859933
  0
ARC
  5
2BF
100
AcDbEntity
  8
0
  6
CONTINUOUS
 62
               7
100
AcDbCircle
 10
1.75
 20
15.754611968994141
 30
0.0
 40
5.0570587040613297
100
AcDbArc
 50
249.75403675995838
 51
290.2459632400404
  0
ARC
  5
2C0
100
AcDbEntity
  8
0
  6
CONTINUOUS
 62
               7
100
AcDbCircle
 10
1.75
 20
8.1453857421875
 30
0.0
 40
5.0476798799330984
100
AcDbArc
 50
69.71476580140029
 51
110.28523419859933
  0
LINE
  5
2C1
100
AcDbEntity
  8
0
  6
CENTER
 62
               2
100
AcDbLine
 10
-2.5
 20
5.3499999999999996
 30
0.0
 11
2.5
 21
5.3499999999999996
 31
0.0
  0
LINE
  5
2C2
100
AcDbEntity
  8
0
  6
CONTINUOUS
 62
               7
100
AcDbLine
 10
-4.0
 20
2.1000000000000001
 30
0.0
 11
4.0
 21
2.1000000000000001
 31
0.0
  0
LINE
  5
2C3
100
AcDbEntity
  8
0
  6
CONTINUOUS
 62
               7
100
AcDbLine
 10
-4.0
 20
0.6
 30
0.0
 11
4.0
 21
0.6
 31
0.0
  0
LINE
  5
2C4
100
AcDbEntity
  8
0
  6
CONTINUOUS
 62
               7
100
AcDbLine
 10
-4.0
 20
0.0
 30
0.0
 11
4.0
 21
0.0
 31
0.0
  0
LINE
  5
2C5
100
AcDbEntity
  8
0
  6
CONTINUOUS
 62
               2
100
AcDbLine
 10
2.0600000000000001
 20
-2.7999999999999998
 30
0.0
 11
2.0600000000000001
 21
0.0
 31
0.0
  0
LINE
  5
2C6
100
AcDbEntity
  8
0
  6
CONTINUOUS
 62
               7
100
AcDbLine
 10
2.5
 20
-2.7999999999999998
 30
0.0
 11
2.5
 21
0.0
 31
0.0
  0
LINE
  5
2C7
100
AcDbEntity
  8
0
  6
CONTINUOUS
 62
               7
100
AcDbLine
 10
2.5
 20
-2.7999999999999998
 30
0.0
 11
-2.5
 21
-2.7999999999999998
 31
0.0
  0
LINE
  5
2C8
100
AcDbEntity
  8
0
  6
CONTINUOUS
 62
               2
100
AcDbLine
 10
-2.0600000000000001
 20
-2.7999999999999998
 30
0.0
 11
-2.0600000000000001
 21
0.0
 31
0.0
  0
LINE
  5
2C9
100
AcDbEntity
  8
0
  6
CONTINUOUS
 62
               7
100
AcDbLine
 10
-2.5
 20
-2.7999999999999998
 30
0.0
 11
-2.5
 21
0.0
 31
0.0
  0
LINE
  5
2CA
100
AcDbEntity
  8
0
  6
CENTER
 62
               2
100
AcDbLine
 10
0.0
 20
15.07
 30
0.0
 11
0.0
 21
-5.0899999999999999
 31
0.0
  0
LINE
  5
2CB
100
AcDbEntity
  8
0
  6
CONTINUOUS
 62
               7
100
AcDbLine
 10
4.0
 20
10.1
 30
0.0
 11
-4.0
 21
10.1
 31
0.0
  0
LINE
  5
2CC
100
AcDbEntity
  8
0
  6
CONTINUOUS
 62
               7
100
AcDbLine
 10
-3.5
 20
13.199999999999999
 30
0.0
 11
-3.5
 21
10.699999999999999
 31
0.0
  0
LINE
  5
2CD
100
AcDbEntity
  8
0
  6
CONTINUOUS
 62
               7
100
AcDbLine
 10
0.0
 20
12.880000000000001
 30
0.0
 11
0.0
 21
11.01
 31
0.0
  0
LINE
  5
2CE
100
AcDbEntity
  8
0
  6
CONTINUOUS
 62
               7
100
AcDbLine
 10
3.5
 20
13.199999999999999
 30
0.0
 11
-3.5
 21
13.199999999999999
 31
0.0
  0
LINE
  5
2CF
100
AcDbEntity
  8
0
  6
CONTINUOUS
 62
               7
100
AcDbLine
 10
3.5
 20
13.199999999999999
 30
0.0
 11
3.5
 21
10.699999999999999
 31
0.0
  0
LINE
  5
2D0
100
AcDbEntity
  8
0
  6
CONTINUOUS
 62
               7
100
AcDbLine
 10
4.0
 20
10.699999999999999
 30
0.0
 11
-4.0
 21
10.699999999999999
 31
0.0
  0
LINE
  5
2D1
100
AcDbEntity
  8
0
  6
CONTINUOUS
 62
               7
100
AcDbLine
 10
-4.0
 20
10.699999999999999
 30
0.0
 11
-4.0
 21
0.0
 31
0.0
  0
LINE
  5
2D2
100
AcDbEntity
  8
0
  6
CONTINUOUS
 62
               7
100
AcDbLine
 10
4.0
 20
10.699999999999999
 30
0.0
 11
4.0
 21
0.0
 31
0.0
  0
ENDBLK
  5
2D3
100
AcDbEntity
  8
0
100
AcDbBlockEnd
  0
BLOCK
  5
2D4
100
AcDbEntity
  8
0
100
AcDbBlockBegin
  2
MS_21
 70
               0
 10
0.0
 20
0.0
 30
0.0
  3
MS_21
  1

  0
ARC
  5
2D5
100
AcDbEntity
  8
0
  6
CONTINUOUS
 62
               7
100
AcDbCircle
 10
0.0
 20
-6.1500005722045898
 30
0.0
 40
16.250000554598294
100
AcDbArc
 50
75.749967798819682
 51
104.25003220117993
  0
ARC
  5
2D6
100
AcDbEntity
  8
0
  6
CONTINUOUS
 62
               7
100
AcDbCircle
 10
0.0
 20
18.349990844726562
 30
0.0
 40
16.249991126427439
100
AcDbArc
 50
255.74995935621615
 51
284.25004064378265
  0
ARC
  5
2D7
100
AcDbEntity
  8
0
  6
CONTINUOUS
 62
               7
100
AcDbCircle
 10
-0.0192098556067584
 20
6.5164551897875791
 30
0.0
 40
6.6822959667157207
100
AcDbArc
 50
72.231845937461529
 51
84.683102661664449
  0
ARC
  5
2D8
100
AcDbEntity
  8
0
  6
CONTINUOUS
 62
               7
100
AcDbCircle
 10
0.0
 20
17.387435913090087
 30
0.0
 40
6.6897002044614204
100
AcDbArc
 50
252.42483315042037
 51
287.57516684957841
  0
ARC
  5
2D9
100
AcDbEntity
  8
0
  6
CONTINUOUS
 62
               7
100
AcDbCircle
 10
3.0269406657391924
 20
12.490355072247043
 30
0.0
 40
1.7903576861194068
100
AcDbArc
 50
235.7763795039715
 51
270.09790614910452
  0
ARC
  5
2DA
100
AcDbEntity
  8
0
  6
CONTINUOUS
 62
               7
100
AcDbCircle
 10
-3.0269406657391924
 20
12.490355072247043
 30
0.0
 40
1.7903576861194068
100
AcDbArc
 50
269.90209385089423
 51
304.22362049602731
  0
ARC
  5
2DB
100
AcDbEntity
  8
0
  6
CONTINUOUS
 62
               7
100
AcDbCircle
 10
3.040232589132589
 20
11.413797140550258
 30
0.0
 40
1.7862321688366232
100
AcDbArc
 50
90.328225741154483
 51
124.83147711215548
  0
ARC
  5
2DC
100
AcDbEntity
  8
0
  6
CONTINUOUS
 62
               7
100
AcDbCircle
 10
-3.040232589132589
 20
11.413797140550258
 30
0.0
 40
1.7862321688366232
100
AcDbArc
 50
55.168522887844127
 51
89.671774258845133
  0
ARC
  5
2DD
100
AcDbEntity
  8
0
  6
CONTINUOUS
 62
               7
100
AcDbCircle
 10
0.0192098556067584
 20
6.5164551897875791
 30
0.0
 40
6.6822959667157207
100
AcDbArc
 50
95.316897338335167
 51
107.76815406253809
  0
LINE
  5
2DE
100
AcDbEntity
  8
0
  6
CONTINUOUS
 62
               7
100
AcDbLine
 10
9.0
 20
6.3700000000000001
 30
0.0
 11
9.0
 21
4.3200000000000003
 31
0.0
  0
LINE
  5
2DF
100
AcDbEntity
  8
0
  6
CONTINUOUS
 62
               7
100
AcDbLine
 10
9.0
 20
4.3200000000000003
 30
0.0
 11
7.5
 21
3.8999999999999999
 31
0.0
  0
LINE
  5
2E0
100
AcDbEntity
  8
0
  6
CONTINUOUS
 62
               7
100
AcDbLine
 10
9.0
 20
6.3700000000000001
 30
0.0
 11
7.5
 21
6.7999999999999998
 31
0.0
  0
LINE
  5
2E1
100
AcDbEntity
  8
0
  6
CONTINUOUS
 62
               7
100
AcDbLine
 10
6.0
 20
6.7999999999999998
 30
0.0
 11
6.0
 21
3.8999999999999999
 31
0.0
  0
LINE
  5
2E2
100
AcDbEntity
  8
0
  6
CONTINUOUS
 62
               7
100
AcDbLine
 10
7.5
 20
6.3700000000000001
 30
0.0
 11
6.0
 21
6.7999999999999998
 31
0.0
  0
LINE
  5
2E3
100
AcDbEntity
  8
0
  6
CONTINUOUS
 62
               7
100
AcDbLine
 10
7.5
 20
6.7999999999999998
 30
0.0
 11
7.5
 21
3.8999999999999999
 31
0.0
  0
LINE
  5
2E4
100
AcDbEntity
  8
0
  6
CONTINUOUS
 62
               7
100
AcDbLine
 10
7.5
 20
4.3200000000000003
 30
0.0
 11
6.0
 21
3.8999999999999999
 31
0.0
  0
LINE
  5
2E5
100
AcDbEntity
  8
0
  6
CONTINUOUS
 62
               7
100
AcDbLine
 10
4.0
 20
4.3200000000000003
 30
0.0
 11
6.0
 21
4.3200000000000003
 31
0.0
  0
LINE
  5
2E6
100
AcDbEntity
  8
0
  6
CONTINUOUS
 62
               7
100
AcDbLine
 10
4.0
 20
6.3700000000000001
 30
0.0
 11
6.0
 21
6.3700000000000001
 31
0.0
  0
LINE
  5
2E7
100
AcDbEntity
  8
0
  6
CENTER
 62
               2
100
AcDbLine
 10
-4.75
 20
5.3499999999999996
 30
0.0
 11
10.27
 21
5.3499999999999996
 31
0.0
  0
LINE
  5
2E8
100
AcDbEntity
  8
0
  6
CONTINUOUS
 62
               7
100
AcDbLine
 10
-4.0
 20
2.1000000000000001
 30
0.0
 11
4.0
 21
2.1000000000000001
 31
0.0
  0
LINE
  5
2E9
100
AcDbEntity
  8
0
  6
CONTINUOUS
 62
               7
100
AcDbLine
 10
4.0
 20
10.1
 30
0.0
 11
-4.0
 21
10.1
 31
0.0
  0
LINE
  5
2EA
100
AcDbEntity
  8
0
  6
CONTINUOUS
 62
               7
100
AcDbLine
 10
-4.0
 20
0.6
 30
0.0
 11
4.0
 21
0.6
 31
0.0
  0
LINE
  5
2EB
100
AcDbEntity
  8
0
  6
CONTINUOUS
 62
               7
100
AcDbLine
 10
-4.0
 20
0.0
 30
0.0
 11
4.0
 21
0.0
 31
0.0
  0
LINE
  5
2EC
100
AcDbEntity
  8
0
  6
CONTINUOUS
 62
               2
100
AcDbLine
 10
2.0600000000000001
 20
-2.7999999999999998
 30
0.0
 11
2.0600000000000001
 21
0.0
 31
0.0
  0
LINE
  5
2ED
100
AcDbEntity
  8
0
  6
CONTINUOUS
 62
               7
100
AcDbLine
 10
2.5
 20
-2.7999999999999998
 30
0.0
 11
2.5
 21
0.0
 31
0.0
  0
LINE
  5
2EE
100
AcDbEntity
  8
0
  6
CONTINUOUS
 62
               7
100
AcDbLine
 10
-2.5
 20
-2.7999999999999998
 30
0.0
 11
-2.5
 21
0.0
 31
0.0
  0
LINE
  5
2EF
100
AcDbEntity
  8
0
  6
CONTINUOUS
 62
               2
100
AcDbLine
 10
-2.0600000000000001
 20
-2.7999999999999998
 30
0.0
 11
-2.0600000000000001
 21
0.0
 31
0.0
  0
LINE
  5
2F0
100
AcDbEntity
  8
0
  6
CONTINUOUS
 62
               7
100
AcDbLine
 10
2.5
 20
-2.7999999999999998
 30
0.0
 11
-2.5
 21
-2.7999999999999998
 31
0.0
  0
LINE
  5
2F1
100
AcDbEntity
  8
0
  6
CONTINUOUS
 62
               7
100
AcDbLine
 10
-4.0
 20
0.0
 30
0.0
 11
-4.0
 21
10.699999999999999
 31
0.0
  0
LINE
  5
2F2
100
AcDbEntity
  8
0
  6
CONTINUOUS
 62
               7
100
AcDbLine
 10
4.0
 20
0.0
 30
0.0
 11
4.0
 21
10.699999999999999
 31
0.0
  0
LINE
  5
2F3
100
AcDbEntity
  8
0
  6
CONTINUOUS
 62
               7
100
AcDbLine
 10
0.6
 20
13.199999999999999
 30
0.0
 11
3.5
 21
13.199999999999999
 31
0.0
  0
LINE
  5
2F4
100
AcDbEntity
  8
0
  6
CONTINUOUS
 62
               7
100
AcDbLine
 10
-0.6
 20
13.199999999999999
 30
0.0
 11
-0.6
 21
11.699999999999999
 31
0.0
  0
LINE
  5
2F5
100
AcDbEntity
  8
0
  6
CONTINUOUS
 62
               7
100
AcDbLine
 10
0.6
 20
13.199999999999999
 30
0.0
 11
0.6
 21
11.699999999999999
 31
0.0
  0
LINE
  5
2F6
100
AcDbEntity
  8
0
  6
CONTINUOUS
 62
               7
100
AcDbLine
 10
0.6
 20
11.699999999999999
 30
0.0
 11
-0.6
 21
11.699999999999999
 31
0.0
  0
LINE
  5
2F7
100
AcDbEntity
  8
0
  6
CENTER
 62
               2
100
AcDbLine
 10
0.0
 20
14.98
 30
0.0
 11
0.0
 21
-5.1600000000000001
 31
0.0
  0
LINE
  5
2F8
100
AcDbEntity
  8
0
  6
CONTINUOUS
 62
               7
100
AcDbLine
 10
3.5
 20
10.699999999999999
 30
0.0
 11
4.04
 21
11.01
 31
0.0
  0
LINE
  5
2F9
100
AcDbEntity
  8
0
  6
CONTINUOUS
 62
               7
100
AcDbLine
 10
-3.5
 20
10.699999999999999
 30
0.0
 11
-4.04
 21
11.01
 31
0.0
  0
LINE
  5
2FA
100
AcDbEntity
  8
0
  6
CONTINUOUS
 62
               7
100
AcDbLine
 10
3.5
 20
13.199999999999999
 30
0.0
 11
4.04
 21
12.880000000000001
 31
0.0
  0
LINE
  5
2FB
100
AcDbEntity
  8
0
  6
CONTINUOUS
 62
               7
100
AcDbLine
 10
-3.5
 20
13.199999999999999
 30
0.0
 11
-4.04
 21
12.880000000000001
 31
0.0
  0
LINE
  5
2FC
100
AcDbEntity
  8
0
  6
CONTINUOUS
 62
               7
100
AcDbLine
 10
4.04
 20
12.880000000000001
 30
0.0
 11
4.04
 21
11.01
 31
0.0
  0
LINE
  5
2FD
100
AcDbEntity
  8
0
  6
CONTINUOUS
 62
               7
100
AcDbLine
 10
2.02
 20
12.880000000000001
 30
0.0
 11
2.02
 21
11.01
 31
0.0
  0
LINE
  5
2FE
100
AcDbEntity
  8
0
  6
CONTINUOUS
 62
               7
100
AcDbLine
 10
-2.02
 20
12.880000000000001
 30
0.0
 11
-2.02
 21
11.01
 31
0.0
  0
LINE
  5
2FF
100
AcDbEntity
  8
0
  6
CONTINUOUS
 62
               7
100
AcDbLine
 10
-4.04
 20
12.880000000000001
 30
0.0
 11
-4.04
 21
11.01
 31
0.0
  0
LINE
  5
300
100
AcDbEntity
  8
0
  6
CONTINUOUS
 62
               7
100
AcDbLine
 10
4.0
 20
10.699999999999999
 30
0.0
 11
-4.0
 21
10.699999999999999
 31
0.0
  0
LINE
  5
301
100
AcDbEntity
  8
0
  6
CONTINUOUS
 62
               7
100
AcDbLine
 10
-0.6
 20
13.199999999999999
 30
0.0
 11
-3.5
 21
13.199999999999999
 31
0.0
  0
ENDBLK
  5
302
100
AcDbEntity
  8
0
100
AcDbBlockEnd
  0
BLOCK
  5
303
100
AcDbEntity
  8
0
100
AcDbBlockBegin
  2
MS_22
 70
               0
 10
0.0
 20
0.0
 30
0.0
  3
MS_22
  1

  0
ARC
  5
304
100
AcDbEntity
  8
0
  6
CONTINUOUS
 62
               7
100
AcDbCircle
 10
0.000000000000001
 20
0.0
 30
0.0
 40
3.4919335617963867
100
AcDbArc
 50
99.893920669735223
 51
260.10607933026398
  0
ARC
  5
305
100
AcDbEntity
  8
0
  6
CONTINUOUS
 62
               7
100
AcDbCircle
 10
-0.0009687532026477
 20
-0.0016806884533995
 30
0.0
 40
3.991553471691204
100
AcDbArc
 50
301.08656230114497
 51
359.01927923826821
  0
ARC
  5
306
100
AcDbEntity
  8
0
  6
CONTINUOUS
 62
               7
100
AcDbCircle
 10
-0.0009687532026477
 20
0.0016806884533995
 30
0.0
 40
3.991553471691204
100
AcDbArc
 50
0.9807207617309708
 51
58.91343769885421
  0
ARC
  5
307
100
AcDbEntity
  8
0
  6
CONTINUOUS
 62
               7
100
AcDbCircle
 10
0.0
 20
0.0
 30
0.0
 40
3.9968612685456071
100
AcDbArc
 50
61.12640262163702
 51
118.87359737836258
  0
ARC
  5
308
100
AcDbEntity
  8
0
  6
CONTINUOUS
 62
               7
100
AcDbCircle
 10
0.0009687532026477
 20
0.0016806884533995
 30
0.0
 40
3.991553471691204
100
AcDbArc
 50
121.08656230114541
 51
179.01927923826861
  0
ARC
  5
309
100
AcDbEntity
  8
0
  6
CONTINUOUS
 62
               7
100
AcDbCircle
 10
0.0009687532026477
 20
-0.0016806884533995
 30
0.0
 40
3.991553471691204
100
AcDbArc
 50
180.98072076173057
 51
238.91343769885381
  0
ARC
  5
30A
100
AcDbEntity
  8
0
  6
CONTINUOUS
 62
               7
100
AcDbCircle
 10
0.0
 20
0.0
 30
0.0
 40
3.9968612685456071
100
AcDbArc
 50
241.12640262163663
 51
298.87359737836215
  0
ARC
  5
30B
100
AcDbEntity
  8
0
  6
CONTINUOUS
 62
               7
100
AcDbCircle
 10
-0.000000000000001
 20
0.0
 30
0.0
 40
3.4919335617963867
100
AcDbArc
 50
279.89392066973483
 51
80.106079330264393
  0
LINE
  5
30C
100
AcDbEntity
  8
0
  6
CONTINUOUS
 62
               7
100
AcDbLine
 10
4.0
 20
-1.02
 30
0.0
 11
6.0
 21
-1.02
 31
0.0
  0
LINE
  5
30D
100
AcDbEntity
  8
0
  6
CONTINUOUS
 62
               7
100
AcDbLine
 10
7.5
 20
-1.02
 30
0.0
 11
6.0
 21
-1.45
 31
0.0
  0
LINE
  5
30E
100
AcDbEntity
  8
0
  6
CONTINUOUS
 62
               7
100
AcDbLine
 10
9.0
 20
-1.02
 30
0.0
 11
7.5
 21
-1.45
 31
0.0
  0
LINE
  5
30F
100
AcDbEntity
  8
0
  6
CONTINUOUS
 62
               7
100
AcDbLine
 10
9.0
 20
1.02
 30
0.0
 11
9.0
 21
-1.02
 31
0.0
  0
LINE
  5
310
100
AcDbEntity
  8
0
  6
CONTINUOUS
 62
               7
100
AcDbLine
 10
7.5
 20
1.45
 30
0.0
 11
7.5
 21
-1.45
 31
0.0
  0
LINE
  5
311
100
AcDbEntity
  8
0
  6
CONTINUOUS
 62
               7
100
AcDbLine
 10
9.0
 20
1.02
 30
0.0
 11
7.5
 21
1.45
 31
0.0
  0
LINE
  5
312
100
AcDbEntity
  8
0
  6
CONTINUOUS
 62
               7
100
AcDbLine
 10
7.5
 20
1.02
 30
0.0
 11
6.0
 21
1.45
 31
0.0
  0
LINE
  5
313
100
AcDbEntity
  8
0
  6
CONTINUOUS
 62
               7
100
AcDbLine
 10
6.0
 20
1.45
 30
0.0
 11
6.0
 21
-1.45
 31
0.0
  0
LINE
  5
314
100
AcDbEntity
  8
0
  6
CONTINUOUS
 62
               7
100
AcDbLine
 10
4.0
 20
1.02
 30
0.0
 11
6.0
 21
1.02
 31
0.0
  0
LINE
  5
315
100
AcDbEntity
  8
0
  6
CONTINUOUS
 62
               7
100
AcDbLine
 10
4.0
 20
4.0
 30
0.0
 11
4.0
 21
-4.0
 31
0.0
  0
LINE
  5
316
100
AcDbEntity
  8
0
  6
CONTINUOUS
 62
               7
100
AcDbLine
 10
4.0
 20
4.0
 30
0.0
 11
-4.0
 21
4.0
 31
0.0
  0
LINE
  5
317
100
AcDbEntity
  8
0
  6
CONTINUOUS
 62
               7
100
AcDbLine
 10
-4.0
 20
4.0
 30
0.0
 11
-4.0
 21
-4.0
 31
0.0
  0
LINE
  5
318
100
AcDbEntity
  8
0
  6
CONTINUOUS
 62
               7
100
AcDbLine
 10
4.0
 20
-4.0
 30
0.0
 11
-4.0
 21
-4.0
 31
0.0
  0
LINE
  5
319
100
AcDbEntity
  8
0
  6
CENTER
 62
               2
100
AcDbLine
 10
0.0
 20
5.8700000000000001
 30
0.0
 11
0.0
 21
-5.7400000000000002
 31
0.0
  0
LINE
  5
31A
100
AcDbEntity
  8
0
  6
CENTER
 62
               2
100
AcDbLine
 10
10.359999999999999
 20
0.0
 30
0.0
 11
-5.6200000000000001
 21
0.0
 31
0.0
  0
LINE
  5
31B
100
AcDbEntity
  8
0
  6
CONTINUOUS
 62
               7
100
AcDbLine
 10
0.6
 20
-3.5
 30
0.0
 11
0.6
 21
3.5
 31
0.0
  0
LINE
  5
31C
100
AcDbEntity
  8
0
  6
CONTINUOUS
 62
               7
100
AcDbLine
 10
-0.6
 20
-3.5
 30
0.0
 11
-0.6
 21
3.5
 31
0.0
  0
LINE
  5
31D
100
AcDbEntity
  8
0
  6
CONTINUOUS
 62
               7
100
AcDbLine
 10
4.04
 20
0.0
 30
0.0
 11
2.02
 21
-3.5
 31
0.0
  0
LINE
  5
31E
100
AcDbEntity
  8
0
  6
CONTINUOUS
 62
               7
100
AcDbLine
 10
2.02
 20
3.5
 30
0.0
 11
4.04
 21
0.0
 31
0.0
  0
LINE
  5
31F
100
AcDbEntity
  8
0
  6
CONTINUOUS
 62
               7
100
AcDbLine
 10
-2.02
 20
3.5
 30
0.0
 11
2.02
 21
3.5
 31
0.0
  0
LINE
  5
320
100
AcDbEntity
  8
0
  6
CONTINUOUS
 62
               7
100
AcDbLine
 10
-4.04
 20
0.0
 30
0.0
 11
-2.02
 21
3.5
 31
0.0
  0
LINE
  5
321
100
AcDbEntity
  8
0
  6
CONTINUOUS
 62
               7
100
AcDbLine
 10
-2.02
 20
-3.5
 30
0.0
 11
-4.04
 21
0.0
 31
0.0
  0
LINE
  5
322
100
AcDbEntity
  8
0
  6
CONTINUOUS
 62
               7
100
AcDbLine
 10
2.02
 20
-3.5
 30
0.0
 11
-2.02
 21
-3.5
 31
0.0
  0
ENDBLK
  5
323
100
AcDbEntity
  8
0
100
AcDbBlockEnd
  0
BLOCK
  5
324
100
AcDbEntity
  8
0
100
AcDbBlockBegin
  2
MS_23
 70
               0
 10
0.0
 20
0.0
 30
0.0
  3
MS_23
  1

  0
ARC
  5
325
100
AcDbEntity
  8
0
  6
CONTINUOUS
 62
               7
100
AcDbCircle
 10
0.0
 20
18.349990844726562
 30
0.0
 40
16.249991126427439
100
AcDbArc
 50
255.74995935621615
 51
284.25004064378265
  0
ARC
  5
326
100
AcDbEntity
  8
0
  6
CONTINUOUS
 62
               7
100
AcDbCircle
 10
0.0
 20
-6.150001525878908
 30
0.0
 40
16.250001478928791
100
AcDbArc
 50
75.749968626525344
 51
104.25003137347426
  0
ARC
  5
327
100
AcDbEntity
  8
0
  6
CONTINUOUS
 62
               7
100
AcDbCircle
 10
1.75
 20
15.754611968994141
 30
0.0
 40
5.0570587040613297
100
AcDbArc
 50
249.75403675995838
 51
290.2459632400404
  0
ARC
  5
328
100
AcDbEntity
  8
0
  6
CONTINUOUS
 62
               7
100
AcDbCircle
 10
1.75
 20
8.1453857421875
 30
0.0
 40
5.0476798799330984
100
AcDbArc
 50
69.71476580140029
 51
110.28523419859933
  0
ARC
  5
329
100
AcDbEntity
  8
0
  6
CONTINUOUS
 62
               7
100
AcDbCircle
 10
-1.75
 20
15.754611968994141
 30
0.0
 40
5.0570587040613297
100
AcDbArc
 50
249.75403675995838
 51
290.2459632400404
  0
ARC
  5
32A
100
AcDbEntity
  8
0
  6
CONTINUOUS
 62
               7
100
AcDbCircle
 10
-1.75
 20
8.1453857421875
 30
0.0
 40
5.0476798799330984
100
AcDbArc
 50
69.71476580140029
 51
110.28523419859933
  0
LINE
  5
32B
100
AcDbEntity
  8
0
  6
CONTINUOUS
 62
               7
100
AcDbLine
 10
4.0
 20
2.1000000000000001
 30
0.0
 11
-4.0
 21
2.1000000000000001
 31
0.0
  0
LINE
  5
32C
100
AcDbEntity
  8
0
  6
CONTINUOUS
 62
               7
100
AcDbLine
 10
4.0
 20
0.6
 30
0.0
 11
-4.0
 21
0.6
 31
0.0
  0
LINE
  5
32D
100
AcDbEntity
  8
0
  6
CONTINUOUS
 62
               7
100
AcDbLine
 10
4.0
 20
0.0
 30
0.0
 11
-4.0
 21
0.0
 31
0.0
  0
LINE
  5
32E
100
AcDbEntity
  8
0
  6
CONTINUOUS
 62
               2
100
AcDbLine
 10
-2.0600000000000001
 20
-2.7999999999999998
 30
0.0
 11
-2.0600000000000001
 21
0.0
 31
0.0
  0
LINE
  5
32F
100
AcDbEntity
  8
0
  6
CONTINUOUS
 62
               7
100
AcDbLine
 10
-2.5
 20
-2.7999999999999998
 30
0.0
 11
-2.5
 21
0.0
 31
0.0
  0
LINE
  5
330
100
AcDbEntity
  8
0
  6
CONTINUOUS
 62
               7
100
AcDbLine
 10
-2.5
 20
-2.7999999999999998
 30
0.0
 11
2.5
 21
-2.7999999999999998
 31
0.0
  0
LINE
  5
331
100
AcDbEntity
  8
0
  6
CONTINUOUS
 62
               2
100
AcDbLine
 10
2.0600000000000001
 20
-2.7999999999999998
 30
0.0
 11
2.0600000000000001
 21
0.0
 31
0.0
  0
LINE
  5
332
100
AcDbEntity
  8
0
  6
CONTINUOUS
 62
               7
100
AcDbLine
 10
2.5
 20
-2.7999999999999998
 30
0.0
 11
2.5
 21
0.0
 31
0.0
  0
LINE
  5
333
100
AcDbEntity
  8
0
  6
CENTER
 62
               2
100
AcDbLine
 10
0.0
 20
15.07
 30
0.0
 11
0.0
 21
-5.0899999999999999
 31
0.0
  0
LINE
  5
334
100
AcDbEntity
  8
0
  6
CONTINUOUS
 62
               7
100
AcDbLine
 10
-4.0
 20
10.1
 30
0.0
 11
4.0
 21
10.1
 31
0.0
  0
LINE
  5
335
100
AcDbEntity
  8
0
  6
CONTINUOUS
 62
               7
100
AcDbLine
 10
3.5
 20
13.199999999999999
 30
0.0
 11
3.5
 21
10.699999999999999
 31
0.0
  0
LINE
  5
336
100
AcDbEntity
  8
0
  6
CONTINUOUS
 62
               7
100
AcDbLine
 10
0.0
 20
12.880000000000001
 30
0.0
 11
0.0
 21
11.01
 31
0.0
  0
LINE
  5
337
100
AcDbEntity
  8
0
  6
CONTINUOUS
 62
               7
100
AcDbLine
 10
-3.5
 20
13.199999999999999
 30
0.0
 11
3.5
 21
13.199999999999999
 31
0.0
  0
LINE
  5
338
100
AcDbEntity
  8
0
  6
CONTINUOUS
 62
               7
100
AcDbLine
 10
-3.5
 20
13.199999999999999
 30
0.0
 11
-3.5
 21
10.699999999999999
 31
0.0
  0
LINE
  5
339
100
AcDbEntity
  8
0
  6
CONTINUOUS
 62
               7
100
AcDbLine
 10
-4.0
 20
10.699999999999999
 30
0.0
 11
4.0
 21
10.699999999999999
 31
0.0
  0
LINE
  5
33A
100
AcDbEntity
  8
0
  6
CONTINUOUS
 62
               7
100
AcDbLine
 10
4.0
 20
10.699999999999999
 30
0.0
 11
4.0
 21
0.0
 31
0.0
  0
LINE
  5
33B
100
AcDbEntity
  8
0
  6
CONTINUOUS
 62
               7
100
AcDbLine
 10
-4.0
 20
10.699999999999999
 30
0.0
 11
-4.0
 21
0.0
 31
0.0
  0
ENDBLK
  5
33C
100
AcDbEntity
  8
0
100
AcDbBlockEnd
  0
BLOCK
  5
33D
100
AcDbEntity
  8
0
100
AcDbBlockBegin
  2
MS_24
 70
               0
 10
0.0
 20
0.0
 30
0.0
  3
MS_24
  1

  0
CIRCLE
  5
33E
100
AcDbEntity
  8
0
  6
CONTINUOUS
 62
               7
100
AcDbCircle
 10
0.0
 20
5.3500003814697266
 30
0.0
 40
1.4499998092651367
  0
CIRCLE
  5
33F
100
AcDbEntity
  8
0
  6
CONTINUOUS
 62
               7
100
AcDbCircle
 10
0.0
 20
5.3500003814697266
 30
0.0
 40
0.800000011920929
  0
ARC
  5
340
100
AcDbEntity
  8
0
  6
CONTINUOUS
 62
               7
100
AcDbCircle
 10
0.0
 20
18.349990844726562
 30
0.0
 40
16.249991126427439
100
AcDbArc
 50
255.74995935621615
 51
284.25004064378265
  0
ARC
  5
341
100
AcDbEntity
  8
0
  6
CONTINUOUS
 62
               7
100
AcDbCircle
 10
0.0
 20
-6.150001525878908
 30
0.0
 40
16.250001478928791
100
AcDbArc
 50
75.749968626525344
 51
104.25003137347426
  0
ARC
  5
342
100
AcDbEntity
  8
0
  6
CONTINUOUS
 62
               7
100
AcDbCircle
 10
-1.75
 20
15.754611968994141
 30
0.0
 40
5.0570587040613297
100
AcDbArc
 50
249.75403675995838
 51
290.2459632400404
  0
ARC
  5
343
100
AcDbEntity
  8
0
  6
CONTINUOUS
 62
               7
100
AcDbCircle
 10
-1.75
 20
8.1453857421875
 30
0.0
 40
5.0476798799330984
100
AcDbArc
 50
69.71476580140029
 51
110.28523419859933
  0
ARC
  5
344
100
AcDbEntity
  8
0
  6
CONTINUOUS
 62
               7
100
AcDbCircle
 10
1.75
 20
15.754611968994141
 30
0.0
 40
5.0570587040613297
100
AcDbArc
 50
249.75403675995838
 51
290.2459632400404
  0
ARC
  5
345
100
AcDbEntity
  8
0
  6
CONTINUOUS
 62
               7
100
AcDbCircle
 10
1.75
 20
8.1453857421875
 30
0.0
 40
5.0476798799330984
100
AcDbArc
 50
69.71476580140029
 51
110.28523419859933
  0
LINE
  5
346
100
AcDbEntity
  8
0
  6
CENTER
 62
               2
100
AcDbLine
 10
-2.5
 20
5.3499999999999996
 30
0.0
 11
2.5
 21
5.3499999999999996
 31
0.0
  0
LINE
  5
347
100
AcDbEntity
  8
0
  6
CONTINUOUS
 62
               7
100
AcDbLine
 10
-4.0
 20
2.1000000000000001
 30
0.0
 11
4.0
 21
2.1000000000000001
 31
0.0
  0
LINE
  5
348
100
AcDbEntity
  8
0
  6
CONTINUOUS
 62
               7
100
AcDbLine
 10
-4.0
 20
0.6
 30
0.0
 11
4.0
 21
0.6
 31
0.0
  0
LINE
  5
349
100
AcDbEntity
  8
0
  6
CONTINUOUS
 62
               7
100
AcDbLine
 10
-4.0
 20
0.0
 30
0.0
 11
4.0
 21
0.0
 31
0.0
  0
LINE
  5
34A
100
AcDbEntity
  8
0
  6
CONTINUOUS
 62
               2
100
AcDbLine
 10
2.0600000000000001
 20
-2.7999999999999998
 30
0.0
 11
2.0600000000000001
 21
0.0
 31
0.0
  0
LINE
  5
34B
100
AcDbEntity
  8
0
  6
CONTINUOUS
 62
               7
100
AcDbLine
 10
2.5
 20
-2.7999999999999998
 30
0.0
 11
2.5
 21
0.0
 31
0.0
  0
LINE
  5
34C
100
AcDbEntity
  8
0
  6
CONTINUOUS
 62
               7
100
AcDbLine
 10
2.5
 20
-2.7999999999999998
 30
0.0
 11
-2.5
 21
-2.7999999999999998
 31
0.0
  0
LINE
  5
34D
100
AcDbEntity
  8
0
  6
CONTINUOUS
 62
               2
100
AcDbLine
 10
-2.0600000000000001
 20
-2.7999999999999998
 30
0.0
 11
-2.0600000000000001
 21
0.0
 31
0.0
  0
LINE
  5
34E
100
AcDbEntity
  8
0
  6
CONTINUOUS
 62
               7
100
AcDbLine
 10
-2.5
 20
-2.7999999999999998
 30
0.0
 11
-2.5
 21
0.0
 31
0.0
  0
LINE
  5
34F
100
AcDbEntity
  8
0
  6
CENTER
 62
               2
100
AcDbLine
 10
0.0
 20
15.07
 30
0.0
 11
0.0
 21
-5.0899999999999999
 31
0.0
  0
LINE
  5
350
100
AcDbEntity
  8
0
  6
CONTINUOUS
 62
               7
100
AcDbLine
 10
4.0
 20
10.1
 30
0.0
 11
-4.0
 21
10.1
 31
0.0
  0
LINE
  5
351
100
AcDbEntity
  8
0
  6
CONTINUOUS
 62
               7
100
AcDbLine
 10
-3.5
 20
13.199999999999999
 30
0.0
 11
-3.5
 21
10.699999999999999
 31
0.0
  0
LINE
  5
352
100
AcDbEntity
  8
0
  6
CONTINUOUS
 62
               7
100
AcDbLine
 10
0.0
 20
12.880000000000001
 30
0.0
 11
0.0
 21
11.01
 31
0.0
  0
LINE
  5
353
100
AcDbEntity
  8
0
  6
CONTINUOUS
 62
               7
100
AcDbLine
 10
3.5
 20
13.199999999999999
 30
0.0
 11
-3.5
 21
13.199999999999999
 31
0.0
  0
LINE
  5
354
100
AcDbEntity
  8
0
  6
CONTINUOUS
 62
               7
100
AcDbLine
 10
3.5
 20
13.199999999999999
 30
0.0
 11
3.5
 21
10.699999999999999
 31
0.0
  0
LINE
  5
355
100
AcDbEntity
  8
0
  6
CONTINUOUS
 62
               7
100
AcDbLine
 10
4.0
 20
10.699999999999999
 30
0.0
 11
-4.0
 21
10.699999999999999
 31
0.0
  0
LINE
  5
356
100
AcDbEntity
  8
0
  6
CONTINUOUS
 62
               7
100
AcDbLine
 10
-4.0
 20
10.699999999999999
 30
0.0
 11
-4.0
 21
0.0
 31
0.0
  0
LINE
  5
357
100
AcDbEntity
  8
0
  6
CONTINUOUS
 62
               7
100
AcDbLine
 10
4.0
 20
10.699999999999999
 30
0.0
 11
4.0
 21
0.0
 31
0.0
  0
ENDBLK
  5
358
100
AcDbEntity
  8
0
100
AcDbBlockEnd
  0
BLOCK
  5
359
100
AcDbEntity
  8
0
100
AcDbBlockBegin
  2
MS_25
 70
               0
 10
0.0
 20
0.0
 30
0.0
  3
MS_25
  1

  0
ARC
  5
35A
100
AcDbEntity
  8
0
  6
CONTINUOUS
 62
               7
100
AcDbCircle
 10
0.0
 20
-6.1500005722045898
 30
0.0
 40
16.250000554598294
100
AcDbArc
 50
75.749967798819682
 51
104.25003220117993
  0
ARC
  5
35B
100
AcDbEntity
  8
0
  6
CONTINUOUS
 62
               7
100
AcDbCircle
 10
0.0
 20
18.349990844726562
 30
0.0
 40
16.249991126427439
100
AcDbArc
 50
255.74995935621615
 51
284.25004064378265
  0
ARC
  5
35C
100
AcDbEntity
  8
0
  6
CONTINUOUS
 62
               7
100
AcDbCircle
 10
-0.0192098556067584
 20
6.5164551897875791
 30
0.0
 40
6.6822959667157207
100
AcDbArc
 50
72.231845937461529
 51
84.683102661664449
  0
ARC
  5
35D
100
AcDbEntity
  8
0
  6
CONTINUOUS
 62
               7
100
AcDbCircle
 10
0.0
 20
17.387435913090087
 30
0.0
 40
6.6897002044614204
100
AcDbArc
 50
252.42483315042037
 51
287.57516684957841
  0
ARC
  5
35E
100
AcDbEntity
  8
0
  6
CONTINUOUS
 62
               7
100
AcDbCircle
 10
3.0269406657391924
 20
12.490355072247043
 30
0.0
 40
1.7903576861194068
100
AcDbArc
 50
235.7763795039715
 51
270.09790614910452
  0
ARC
  5
35F
100
AcDbEntity
  8
0
  6
CONTINUOUS
 62
               7
100
AcDbCircle
 10
-3.0269406657391924
 20
12.490355072247043
 30
0.0
 40
1.7903576861194068
100
AcDbArc
 50
269.90209385089423
 51
304.22362049602731
  0
ARC
  5
360
100
AcDbEntity
  8
0
  6
CONTINUOUS
 62
               7
100
AcDbCircle
 10
3.040232589132589
 20
11.413797140550258
 30
0.0
 40
1.7862321688366232
100
AcDbArc
 50
90.328225741154483
 51
124.83147711215548
  0
ARC
  5
361
100
AcDbEntity
  8
0
  6
CONTINUOUS
 62
               7
100
AcDbCircle
 10
-3.040232589132589
 20
11.413797140550258
 30
0.0
 40
1.7862321688366232
100
AcDbArc
 50
55.168522887844127
 51
89.671774258845133
  0
ARC
  5
362
100
AcDbEntity
  8
0
  6
CONTINUOUS
 62
               7
100
AcDbCircle
 10
0.0192098556067584
 20
6.5164551897875791
 30
0.0
 40
6.6822959667157207
100
AcDbArc
 50
95.316897338335167
 51
107.76815406253809
  0
LINE
  5
363
100
AcDbEntity
  8
0
  6
CONTINUOUS
 62
               7
100
AcDbLine
 10
9.0
 20
6.4500000000000002
 30
0.0
 11
9.0
 21
4.25
 31
0.0
  0
LINE
  5
364
100
AcDbEntity
  8
0
  6
CONTINUOUS
 62
               7
100
AcDbLine
 10
9.0
 20
6.4500000000000002
 30
0.0
 11
7.5
 21
6.9500000000000002
 31
0.0
  0
LINE
  5
365
100
AcDbEntity
  8
0
  6
CONTINUOUS
 62
               7
100
AcDbLine
 10
9.0
 20
4.25
 30
0.0
 11
7.5
 21
3.75
 31
0.0
  0
LINE
  5
366
100
AcDbEntity
  8
0
  6
CONTINUOUS
 62
               7
100
AcDbLine
 10
7.5
 20
6.9500000000000002
 30
0.0
 11
7.5
 21
3.75
 31
0.0
  0
LINE
  5
367
100
AcDbEntity
  8
0
  6
CONTINUOUS
 62
               7
100
AcDbLine
 10
7.5
 20
4.25
 30
0.0
 11
6.0
 21
3.75
 31
0.0
  0
LINE
  5
368
100
AcDbEntity
  8
0
  6
CONTINUOUS
 62
               7
100
AcDbLine
 10
7.5
 20
6.4500000000000002
 30
0.0
 11
6.0
 21
6.9500000000000002
 31
0.0
  0
LINE
  5
369
100
AcDbEntity
  8
0
  6
CONTINUOUS
 62
               7
100
AcDbLine
 10
4.0
 20
6.4500000000000002
 30
0.0
 11
6.0
 21
6.4500000000000002
 31
0.0
  0
LINE
  5
36A
100
AcDbEntity
  8
0
  6
CONTINUOUS
 62
               7
100
AcDbLine
 10
4.0
 20
4.25
 30
0.0
 11
6.0
 21
4.25
 31
0.0
  0
LINE
  5
36B
100
AcDbEntity
  8
0
  6
CONTINUOUS
 62
               7
100
AcDbLine
 10
6.0
 20
6.9500000000000002
 30
0.0
 11
6.0
 21
3.75
 31
0.0
  0
LINE
  5
36C
100
AcDbEntity
  8
0
  6
CENTER
 62
               2
100
AcDbLine
 10
-4.75
 20
5.3499999999999996
 30
0.0
 11
10.27
 21
5.3499999999999996
 31
0.0
  0
LINE
  5
36D
100
AcDbEntity
  8
0
  6
CONTINUOUS
 62
               7
100
AcDbLine
 10
-4.0
 20
2.1000000000000001
 30
0.0
 11
4.0
 21
2.1000000000000001
 31
0.0
  0
LINE
  5
36E
100
AcDbEntity
  8
0
  6
CONTINUOUS
 62
               7
100
AcDbLine
 10
4.0
 20
10.1
 30
0.0
 11
-4.0
 21
10.1
 31
0.0
  0
LINE
  5
36F
100
AcDbEntity
  8
0
  6
CONTINUOUS
 62
               7
100
AcDbLine
 10
-4.0
 20
0.6
 30
0.0
 11
4.0
 21
0.6
 31
0.0
  0
LINE
  5
370
100
AcDbEntity
  8
0
  6
CONTINUOUS
 62
               7
100
AcDbLine
 10
-4.0
 20
0.0
 30
0.0
 11
4.0
 21
0.0
 31
0.0
  0
LINE
  5
371
100
AcDbEntity
  8
0
  6
CONTINUOUS
 62
               2
100
AcDbLine
 10
2.0600000000000001
 20
-2.7999999999999998
 30
0.0
 11
2.0600000000000001
 21
0.0
 31
0.0
  0
LINE
  5
372
100
AcDbEntity
  8
0
  6
CONTINUOUS
 62
               7
100
AcDbLine
 10
2.5
 20
-2.7999999999999998
 30
0.0
 11
2.5
 21
0.0
 31
0.0
  0
LINE
  5
373
100
AcDbEntity
  8
0
  6
CONTINUOUS
 62
               7
100
AcDbLine
 10
-2.5
 20
-2.7999999999999998
 30
0.0
 11
-2.5
 21
0.0
 31
0.0
  0
LINE
  5
374
100
AcDbEntity
  8
0
  6
CONTINUOUS
 62
               2
100
AcDbLine
 10
-2.0600000000000001
 20
-2.7999999999999998
 30
0.0
 11
-2.0600000000000001
 21
0.0
 31
0.0
  0
LINE
  5
375
100
AcDbEntity
  8
0
  6
CONTINUOUS
 62
               7
100
AcDbLine
 10
2.5
 20
-2.7999999999999998
 30
0.0
 11
-2.5
 21
-2.7999999999999998
 31
0.0
  0
LINE
  5
376
100
AcDbEntity
  8
0
  6
CONTINUOUS
 62
               7
100
AcDbLine
 10
-4.0
 20
0.0
 30
0.0
 11
-4.0
 21
10.699999999999999
 31
0.0
  0
LINE
  5
377
100
AcDbEntity
  8
0
  6
CONTINUOUS
 62
               7
100
AcDbLine
 10
4.0
 20
0.0
 30
0.0
 11
4.0
 21
10.699999999999999
 31
0.0
  0
LINE
  5
378
100
AcDbEntity
  8
0
  6
CONTINUOUS
 62
               7
100
AcDbLine
 10
0.6
 20
13.199999999999999
 30
0.0
 11
3.5
 21
13.199999999999999
 31
0.0
  0
LINE
  5
379
100
AcDbEntity
  8
0
  6
CONTINUOUS
 62
               7
100
AcDbLine
 10
-0.6
 20
13.199999999999999
 30
0.0
 11
-0.6
 21
11.699999999999999
 31
0.0
  0
LINE
  5
37A
100
AcDbEntity
  8
0
  6
CONTINUOUS
 62
               7
100
AcDbLine
 10
0.6
 20
13.199999999999999
 30
0.0
 11
0.6
 21
11.699999999999999
 31
0.0
  0
LINE
  5
37B
100
AcDbEntity
  8
0
  6
CONTINUOUS
 62
               7
100
AcDbLine
 10
0.6
 20
11.699999999999999
 30
0.0
 11
-0.6
 21
11.699999999999999
 31
0.0
  0
LINE
  5
37C
100
AcDbEntity
  8
0
  6
CENTER
 62
               2
100
AcDbLine
 10
0.0
 20
14.98
 30
0.0
 11
0.0
 21
-5.1600000000000001
 31
0.0
  0
LINE
  5
37D
100
AcDbEntity
  8
0
  6
CONTINUOUS
 62
               7
100
AcDbLine
 10
3.5
 20
10.699999999999999
 30
0.0
 11
4.04
 21
11.01
 31
0.0
  0
LINE
  5
37E
100
AcDbEntity
  8
0
  6
CONTINUOUS
 62
               7
100
AcDbLine
 10
-3.5
 20
10.699999999999999
 30
0.0
 11
-4.04
 21
11.01
 31
0.0
  0
LINE
  5
37F
100
AcDbEntity
  8
0
  6
CONTINUOUS
 62
               7
100
AcDbLine
 10
3.5
 20
13.199999999999999
 30
0.0
 11
4.04
 21
12.880000000000001
 31
0.0
  0
LINE
  5
380
100
AcDbEntity
  8
0
  6
CONTINUOUS
 62
               7
100
AcDbLine
 10
-3.5
 20
13.199999999999999
 30
0.0
 11
-4.04
 21
12.880000000000001
 31
0.0
  0
LINE
  5
381
100
AcDbEntity
  8
0
  6
CONTINUOUS
 62
               7
100
AcDbLine
 10
4.04
 20
12.880000000000001
 30
0.0
 11
4.04
 21
11.01
 31
0.0
  0
LINE
  5
382
100
AcDbEntity
  8
0
  6
CONTINUOUS
 62
               7
100
AcDbLine
 10
2.02
 20
12.880000000000001
 30
0.0
 11
2.02
 21
11.01
 31
0.0
  0
LINE
  5
383
100
AcDbEntity
  8
0
  6
CONTINUOUS
 62
               7
100
AcDbLine
 10
-2.02
 20
12.880000000000001
 30
0.0
 11
-2.02
 21
11.01
 31
0.0
  0
LINE
  5
384
100
AcDbEntity
  8
0
  6
CONTINUOUS
 62
               7
100
AcDbLine
 10
-4.04
 20
12.880000000000001
 30
0.0
 11
-4.04
 21
11.01
 31
0.0
  0
LINE
  5
385
100
AcDbEntity
  8
0
  6
CONTINUOUS
 62
               7
100
AcDbLine
 10
4.0
 20
10.699999999999999
 30
0.0
 11
-4.0
 21
10.699999999999999
 31
0.0
  0
LINE
  5
386
100
AcDbEntity
  8
0
  6
CONTINUOUS
 62
               7
100
AcDbLine
 10
-0.6
 20
13.199999999999999
 30
0.0
 11
-3.5
 21
13.199999999999999
 31
0.0
  0
ENDBLK
  5
387
100
AcDbEntity
  8
0
100
AcDbBlockEnd
  0
BLOCK
  5
388
100
AcDbEntity
  8
0
100
AcDbBlockBegin
  2
MS_26
 70
               0
 10
0.0
 20
0.0
 30
0.0
  3
MS_26
  1

  0
ARC
  5
389
100
AcDbEntity
  8
0
  6
CONTINUOUS
 62
               7
100
AcDbCircle
 10
0.000000000000001
 20
0.0
 30
0.0
 40
3.4919335617963867
100
AcDbArc
 50
99.893920669735223
 51
260.10607933026398
  0
ARC
  5
38A
100
AcDbEntity
  8
0
  6
CONTINUOUS
 62
               7
100
AcDbCircle
 10
-0.0009687532026477
 20
-0.0016806884533995
 30
0.0
 40
3.991553471691204
100
AcDbArc
 50
301.08656230114497
 51
359.01927923826821
  0
ARC
  5
38B
100
AcDbEntity
  8
0
  6
CONTINUOUS
 62
               7
100
AcDbCircle
 10
-0.0009687532026477
 20
0.0016806884533995
 30
0.0
 40
3.991553471691204
100
AcDbArc
 50
0.9807207617309708
 51
58.91343769885421
  0
ARC
  5
38C
100
AcDbEntity
  8
0
  6
CONTINUOUS
 62
               7
100
AcDbCircle
 10
0.0
 20
0.0
 30
0.0
 40
3.9968612685456071
100
AcDbArc
 50
61.12640262163702
 51
118.87359737836258
  0
ARC
  5
38D
100
AcDbEntity
  8
0
  6
CONTINUOUS
 62
               7
100
AcDbCircle
 10
0.0009687532026477
 20
0.0016806884533995
 30
0.0
 40
3.991553471691204
100
AcDbArc
 50
121.08656230114541
 51
179.01927923826861
  0
ARC
  5
38E
100
AcDbEntity
  8
0
  6
CONTINUOUS
 62
               7
100
AcDbCircle
 10
0.0009687532026477
 20
-0.0016806884533995
 30
0.0
 40
3.991553471691204
100
AcDbArc
 50
180.98072076173057
 51
238.91343769885381
  0
ARC
  5
38F
100
AcDbEntity
  8
0
  6
CONTINUOUS
 62
               7
100
AcDbCircle
 10
0.0
 20
0.0
 30
0.0
 40
3.9968612685456071
100
AcDbArc
 50
241.12640262163663
 51
298.87359737836215
  0
ARC
  5
390
100
AcDbEntity
  8
0
  6
CONTINUOUS
 62
               7
100
AcDbCircle
 10
-0.000000000000001
 20
0.0
 30
0.0
 40
3.4919335617963867
100
AcDbArc
 50
279.89392066973483
 51
80.106079330264393
  0
LINE
  5
391
100
AcDbEntity
  8
0
  6
CONTINUOUS
 62
               7
100
AcDbLine
 10
9.0
 20
-1.1000000000000001
 30
0.0
 11
7.5
 21
-1.6000000000000001
 31
0.0
  0
LINE
  5
392
100
AcDbEntity
  8
0
  6
CONTINUOUS
 62
               7
100
AcDbLine
 10
9.0
 20
1.1000000000000001
 30
0.0
 11
9.0
 21
-1.1000000000000001
 31
0.0
  0
LINE
  5
393
100
AcDbEntity
  8
0
  6
CONTINUOUS
 62
               7
100
AcDbLine
 10
9.0
 20
1.1000000000000001
 30
0.0
 11
7.5
 21
1.6000000000000001
 31
0.0
  0
LINE
  5
394
100
AcDbEntity
  8
0
  6
CONTINUOUS
 62
               7
100
AcDbLine
 10
7.5
 20
1.6000000000000001
 30
0.0
 11
7.5
 21
-1.6000000000000001
 31
0.0
  0
LINE
  5
395
100
AcDbEntity
  8
0
  6
CONTINUOUS
 62
               7
100
AcDbLine
 10
7.5
 20
1.1000000000000001
 30
0.0
 11
6.0
 21
1.6000000000000001
 31
0.0
  0
LINE
  5
396
100
AcDbEntity
  8
0
  6
CONTINUOUS
 62
               7
100
AcDbLine
 10
7.5
 20
-1.1000000000000001
 30
0.0
 11
6.0
 21
-1.6000000000000001
 31
0.0
  0
LINE
  5
397
100
AcDbEntity
  8
0
  6
CONTINUOUS
 62
               7
100
AcDbLine
 10
6.0
 20
1.6000000000000001
 30
0.0
 11
6.0
 21
-1.6000000000000001
 31
0.0
  0
LINE
  5
398
100
AcDbEntity
  8
0
  6
CONTINUOUS
 62
               7
100
AcDbLine
 10
4.0
 20
-1.1000000000000001
 30
0.0
 11
6.0
 21
-1.1000000000000001
 31
0.0
  0
LINE
  5
399
100
AcDbEntity
  8
0
  6
CONTINUOUS
 62
               7
100
AcDbLine
 10
4.0
 20
1.1000000000000001
 30
0.0
 11
6.0
 21
1.1000000000000001
 31
0.0
  0
LINE
  5
39A
100
AcDbEntity
  8
0
  6
CONTINUOUS
 62
               7
100
AcDbLine
 10
4.0
 20
4.0
 30
0.0
 11
4.0
 21
-4.0
 31
0.0
  0
LINE
  5
39B
100
AcDbEntity
  8
0
  6
CONTINUOUS
 62
               7
100
AcDbLine
 10
4.0
 20
4.0
 30
0.0
 11
-4.0
 21
4.0
 31
0.0
  0
LINE
  5
39C
100
AcDbEntity
  8
0
  6
CONTINUOUS
 62
               7
100
AcDbLine
 10
-4.0
 20
4.0
 30
0.0
 11
-4.0
 21
-4.0
 31
0.0
  0
LINE
  5
39D
100
AcDbEntity
  8
0
  6
CONTINUOUS
 62
               7
100
AcDbLine
 10
4.0
 20
-4.0
 30
0.0
 11
-4.0
 21
-4.0
 31
0.0
  0
LINE
  5
39E
100
AcDbEntity
  8
0
  6
CENTER
 62
               2
100
AcDbLine
 10
0.0
 20
5.8700000000000001
 30
0.0
 11
0.0
 21
-5.7400000000000002
 31
0.0
  0
LINE
  5
39F
100
AcDbEntity
  8
0
  6
CENTER
 62
               2
100
AcDbLine
 10
10.359999999999999
 20
0.0
 30
0.0
 11
-5.6200000000000001
 21
0.0
 31
0.0
  0
LINE
  5
3A0
100
AcDbEntity
  8
0
  6
CONTINUOUS
 62
               7
100
AcDbLine
 10
0.6
 20
-3.5
 30
0.0
 11
0.6
 21
3.5
 31
0.0
  0
LINE
  5
3A1
100
AcDbEntity
  8
0
  6
CONTINUOUS
 62
               7
100
AcDbLine
 10
-0.6
 20
-3.5
 30
0.0
 11
-0.6
 21
3.5
 31
0.0
  0
LINE
  5
3A2
100
AcDbEntity
  8
0
  6
CONTINUOUS
 62
               7
100
AcDbLine
 10
4.04
 20
0.0
 30
0.0
 11
2.02
 21
-3.5
 31
0.0
  0
LINE
  5
3A3
100
AcDbEntity
  8
0
  6
CONTINUOUS
 62
               7
100
AcDbLine
 10
2.02
 20
3.5
 30
0.0
 11
4.04
 21
0.0
 31
0.0
  0
LINE
  5
3A4
100
AcDbEntity
  8
0
  6
CONTINUOUS
 62
               7
100
AcDbLine
 10
-2.02
 20
3.5
 30
0.0
 11
2.02
 21
3.5
 31
0.0
  0
LINE
  5
3A5
100
AcDbEntity
  8
0
  6
CONTINUOUS
 62
               7
100
AcDbLine
 10
-4.04
 20
0.0
 30
0.0
 11
-2.02
 21
3.5
 31
0.0
  0
LINE
  5
3A6
100
AcDbEntity
  8
0
  6
CONTINUOUS
 62
               7
100
AcDbLine
 10
-2.02
 20
-3.5
 30
0.0
 11
-4.04
 21
0.0
 31
0.0
  0
LINE
  5
3A7
100
AcDbEntity
  8
0
  6
CONTINUOUS
 62
               7
100
AcDbLine
 10
2.02
 20
-3.5
 30
0.0
 11
-2.02
 21
-3.5
 31
0.0
  0
ENDBLK
  5
3A8
100
AcDbEntity
  8
0
100
AcDbBlockEnd
  0
BLOCK
  5
3A9
100
AcDbEntity
  8
0
100
AcDbBlockBegin
  2
MS_27
 70
               0
 10
0.0
 20
0.0
 30
0.0
  3
MS_27
  1

  0
ARC
  5
3AA
100
AcDbEntity
  8
0
  6
CONTINUOUS
 62
               7
100
AcDbCircle
 10
0.0
 20
18.349990844726562
 30
0.0
 40
16.249991126427439
100
AcDbArc
 50
255.74995935621615
 51
284.25004064378265
  0
ARC
  5
3AB
100
AcDbEntity
  8
0
  6
CONTINUOUS
 62
               7
100
AcDbCircle
 10
0.0
 20
-6.150001525878908
 30
0.0
 40
16.250001478928791
100
AcDbArc
 50
75.749968626525344
 51
104.25003137347426
  0
ARC
  5
3AC
100
AcDbEntity
  8
0
  6
CONTINUOUS
 62
               7
100
AcDbCircle
 10
1.75
 20
15.754611968994141
 30
0.0
 40
5.0570587040613297
100
AcDbArc
 50
249.75403675995838
 51
290.2459632400404
  0
ARC
  5
3AD
100
AcDbEntity
  8
0
  6
CONTINUOUS
 62
               7
100
AcDbCircle
 10
1.75
 20
8.1453857421875
 30
0.0
 40
5.0476798799330984
100
AcDbArc
 50
69.71476580140029
 51
110.28523419859933
  0
ARC
  5
3AE
100
AcDbEntity
  8
0
  6
CONTINUOUS
 62
               7
100
AcDbCircle
 10
-1.75
 20
15.754611968994141
 30
0.0
 40
5.0570587040613297
100
AcDbArc
 50
249.75403675995838
 51
290.2459632400404
  0
ARC
  5
3AF
100
AcDbEntity
  8
0
  6
CONTINUOUS
 62
               7
100
AcDbCircle
 10
-1.75
 20
8.1453857421875
 30
0.0
 40
5.0476798799330984
100
AcDbArc
 50
69.71476580140029
 51
110.28523419859933
  0
LINE
  5
3B0
100
AcDbEntity
  8
0
  6
CONTINUOUS
 62
               7
100
AcDbLine
 10
4.0
 20
2.1000000000000001
 30
0.0
 11
-4.0
 21
2.1000000000000001
 31
0.0
  0
LINE
  5
3B1
100
AcDbEntity
  8
0
  6
CONTINUOUS
 62
               7
100
AcDbLine
 10
4.0
 20
0.6
 30
0.0
 11
-4.0
 21
0.6
 31
0.0
  0
LINE
  5
3B2
100
AcDbEntity
  8
0
  6
CONTINUOUS
 62
               7
100
AcDbLine
 10
4.0
 20
0.0
 30
0.0
 11
-4.0
 21
0.0
 31
0.0
  0
LINE
  5
3B3
100
AcDbEntity
  8
0
  6
CONTINUOUS
 62
               2
100
AcDbLine
 10
-2.0600000000000001
 20
-2.7999999999999998
 30
0.0
 11
-2.0600000000000001
 21
0.0
 31
0.0
  0
LINE
  5
3B4
100
AcDbEntity
  8
0
  6
CONTINUOUS
 62
               7
100
AcDbLine
 10
-2.5
 20
-2.7999999999999998
 30
0.0
 11
-2.5
 21
0.0
 31
0.0
  0
LINE
  5
3B5
100
AcDbEntity
  8
0
  6
CONTINUOUS
 62
               7
100
AcDbLine
 10
-2.5
 20
-2.7999999999999998
 30
0.0
 11
2.5
 21
-2.7999999999999998
 31
0.0
  0
LINE
  5
3B6
100
AcDbEntity
  8
0
  6
CONTINUOUS
 62
               2
100
AcDbLine
 10
2.0600000000000001
 20
-2.7999999999999998
 30
0.0
 11
2.0600000000000001
 21
0.0
 31
0.0
  0
LINE
  5
3B7
100
AcDbEntity
  8
0
  6
CONTINUOUS
 62
               7
100
AcDbLine
 10
2.5
 20
-2.7999999999999998
 30
0.0
 11
2.5
 21
0.0
 31
0.0
  0
LINE
  5
3B8
100
AcDbEntity
  8
0
  6
CENTER
 62
               2
100
AcDbLine
 10
0.0
 20
15.07
 30
0.0
 11
0.0
 21
-5.0899999999999999
 31
0.0
  0
LINE
  5
3B9
100
AcDbEntity
  8
0
  6
CONTINUOUS
 62
               7
100
AcDbLine
 10
-4.0
 20
10.1
 30
0.0
 11
4.0
 21
10.1
 31
0.0
  0
LINE
  5
3BA
100
AcDbEntity
  8
0
  6
CONTINUOUS
 62
               7
100
AcDbLine
 10
3.5
 20
13.199999999999999
 30
0.0
 11
3.5
 21
10.699999999999999
 31
0.0
  0
LINE
  5
3BB
100
AcDbEntity
  8
0
  6
CONTINUOUS
 62
               7
100
AcDbLine
 10
0.0
 20
12.880000000000001
 30
0.0
 11
0.0
 21
11.01
 31
0.0
  0
LINE
  5
3BC
100
AcDbEntity
  8
0
  6
CONTINUOUS
 62
               7
100
AcDbLine
 10
-3.5
 20
13.199999999999999
 30
0.0
 11
3.5
 21
13.199999999999999
 31
0.0
  0
LINE
  5
3BD
100
AcDbEntity
  8
0
  6
CONTINUOUS
 62
               7
100
AcDbLine
 10
-3.5
 20
13.199999999999999
 30
0.0
 11
-3.5
 21
10.699999999999999
 31
0.0
  0
LINE
  5
3BE
100
AcDbEntity
  8
0
  6
CONTINUOUS
 62
               7
100
AcDbLine
 10
-4.0
 20
10.699999999999999
 30
0.0
 11
4.0
 21
10.699999999999999
 31
0.0
  0
LINE
  5
3BF
100
AcDbEntity
  8
0
  6
CONTINUOUS
 62
               7
100
AcDbLine
 10
4.0
 20
10.699999999999999
 30
0.0
 11
4.0
 21
0.0
 31
0.0
  0
LINE
  5
3C0
100
AcDbEntity
  8
0
  6
CONTINUOUS
 62
               7
100
AcDbLine
 10
-4.0
 20
10.699999999999999
 30
0.0
 11
-4.0
 21
0.0
 31
0.0
  0
ENDBLK
  5
3C1
100
AcDbEntity
  8
0
100
AcDbBlockEnd
  0
BLOCK
  5
3C2
100
AcDbEntity
  8
0
100
AcDbBlockBegin
  2
MS_28
 70
               0
 10
0.0
 20
0.0
 30
0.0
  3
MS_28
  1

  0
CIRCLE
  5
3C3
100
AcDbEntity
  8
0
  6
CONTINUOUS
 62
               7
100
AcDbCircle
 10
0.0
 20
5.3500003814697266
 30
0.0
 40
1.5999994277954102
  0
CIRCLE
  5
3C4
100
AcDbEntity
  8
0
  6
CONTINUOUS
 62
               7
100
AcDbCircle
 10
0.0
 20
5.3500003814697266
 30
0.0
 40
0.800000011920929
  0
ARC
  5
3C5
100
AcDbEntity
  8
0
  6
CONTINUOUS
 62
               7
100
AcDbCircle
 10
0.0
 20
18.349990844726562
 30
0.0
 40
16.249991126427439
100
AcDbArc
 50
255.74995935621615
 51
284.25004064378265
  0
ARC
  5
3C6
100
AcDbEntity
  8
0
  6
CONTINUOUS
 62
               7
100
AcDbCircle
 10
0.0
 20
-6.150001525878908
 30
0.0
 40
16.250001478928791
100
AcDbArc
 50
75.749968626525344
 51
104.25003137347426
  0
ARC
  5
3C7
100
AcDbEntity
  8
0
  6
CONTINUOUS
 62
               7
100
AcDbCircle
 10
-1.75
 20
15.754611968994141
 30
0.0
 40
5.0570587040613297
100
AcDbArc
 50
249.75403675995838
 51
290.2459632400404
  0
ARC
  5
3C8
100
AcDbEntity
  8
0
  6
CONTINUOUS
 62
               7
100
AcDbCircle
 10
-1.75
 20
8.1453857421875
 30
0.0
 40
5.0476798799330984
100
AcDbArc
 50
69.71476580140029
 51
110.28523419859933
  0
ARC
  5
3C9
100
AcDbEntity
  8
0
  6
CONTINUOUS
 62
               7
100
AcDbCircle
 10
1.75
 20
15.754611968994141
 30
0.0
 40
5.0570587040613297
100
AcDbArc
 50
249.75403675995838
 51
290.2459632400404
  0
ARC
  5
3CA
100
AcDbEntity
  8
0
  6
CONTINUOUS
 62
               7
100
AcDbCircle
 10
1.75
 20
8.1453857421875
 30
0.0
 40
5.0476798799330984
100
AcDbArc
 50
69.71476580140029
 51
110.28523419859933
  0
LINE
  5
3CB
100
AcDbEntity
  8
0
  6
CENTER
 62
               2
100
AcDbLine
 10
-2.5
 20
5.3499999999999996
 30
0.0
 11
2.5
 21
5.3499999999999996
 31
0.0
  0
LINE
  5
3CC
100
AcDbEntity
  8
0
  6
CONTINUOUS
 62
               7
100
AcDbLine
 10
-4.0
 20
2.1000000000000001
 30
0.0
 11
4.0
 21
2.1000000000000001
 31
0.0
  0
LINE
  5
3CD
100
AcDbEntity
  8
0
  6
CONTINUOUS
 62
               7
100
AcDbLine
 10
-4.0
 20
0.6
 30
0.0
 11
4.0
 21
0.6
 31
0.0
  0
LINE
  5
3CE
100
AcDbEntity
  8
0
  6
CONTINUOUS
 62
               7
100
AcDbLine
 10
-4.0
 20
0.0
 30
0.0
 11
4.0
 21
0.0
 31
0.0
  0
LINE
  5
3CF
100
AcDbEntity
  8
0
  6
CONTINUOUS
 62
               2
100
AcDbLine
 10
2.0600000000000001
 20
-2.7999999999999998
 30
0.0
 11
2.0600000000000001
 21
0.0
 31
0.0
  0
LINE
  5
3D0
100
AcDbEntity
  8
0
  6
CONTINUOUS
 62
               7
100
AcDbLine
 10
2.5
 20
-2.7999999999999998
 30
0.0
 11
2.5
 21
0.0
 31
0.0
  0
LINE
  5
3D1
100
AcDbEntity
  8
0
  6
CONTINUOUS
 62
               7
100
AcDbLine
 10
2.5
 20
-2.7999999999999998
 30
0.0
 11
-2.5
 21
-2.7999999999999998
 31
0.0
  0
LINE
  5
3D2
100
AcDbEntity
  8
0
  6
CONTINUOUS
 62
               2
100
AcDbLine
 10
-2.0600000000000001
 20
-2.7999999999999998
 30
0.0
 11
-2.0600000000000001
 21
0.0
 31
0.0
  0
LINE
  5
3D3
100
AcDbEntity
  8
0
  6
CONTINUOUS
 62
               7
100
AcDbLine
 10
-2.5
 20
-2.7999999999999998
 30
0.0
 11
-2.5
 21
0.0
 31
0.0
  0
LINE
  5
3D4
100
AcDbEntity
  8
0
  6
CENTER
 62
               2
100
AcDbLine
 10
0.0
 20
15.07
 30
0.0
 11
0.0
 21
-5.0899999999999999
 31
0.0
  0
LINE
  5
3D5
100
AcDbEntity
  8
0
  6
CONTINUOUS
 62
               7
100
AcDbLine
 10
4.0
 20
10.1
 30
0.0
 11
-4.0
 21
10.1
 31
0.0
  0
LINE
  5
3D6
100
AcDbEntity
  8
0
  6
CONTINUOUS
 62
               7
100
AcDbLine
 10
-3.5
 20
13.199999999999999
 30
0.0
 11
-3.5
 21
10.699999999999999
 31
0.0
  0
LINE
  5
3D7
100
AcDbEntity
  8
0
  6
CONTINUOUS
 62
               7
100
AcDbLine
 10
0.0
 20
12.880000000000001
 30
0.0
 11
0.0
 21
11.01
 31
0.0
  0
LINE
  5
3D8
100
AcDbEntity
  8
0
  6
CONTINUOUS
 62
               7
100
AcDbLine
 10
3.5
 20
13.199999999999999
 30
0.0
 11
-3.5
 21
13.199999999999999
 31
0.0
  0
LINE
  5
3D9
100
AcDbEntity
  8
0
  6
CONTINUOUS
 62
               7
100
AcDbLine
 10
3.5
 20
13.199999999999999
 30
0.0
 11
3.5
 21
10.699999999999999
 31
0.0
  0
LINE
  5
3DA
100
AcDbEntity
  8
0
  6
CONTINUOUS
 62
               7
100
AcDbLine
 10
4.0
 20
10.699999999999999
 30
0.0
 11
-4.0
 21
10.699999999999999
 31
0.0
  0
LINE
  5
3DB
100
AcDbEntity
  8
0
  6
CONTINUOUS
 62
               7
100
AcDbLine
 10
-4.0
 20
10.699999999999999
 30
0.0
 11
-4.0
 21
0.0
 31
0.0
  0
LINE
  5
3DC
100
AcDbEntity
  8
0
  6
CONTINUOUS
 62
               7
100
AcDbLine
 10
4.0
 20
10.699999999999999
 30
0.0
 11
4.0
 21
0.0
 31
0.0
  0
ENDBLK
  5
3DD
100
AcDbEntity
  8
0
100
AcDbBlockEnd
  0
BLOCK
  5
3DE
100
AcDbEntity
  8
0
100
AcDbBlockBegin
  2
MS_29
 70
               0
 10
0.0
 20
0.0
 30
0.0
  3
MS_29
  1

  0
ARC
  5
3DF
100
AcDbEntity
  8
0
  6
CONTINUOUS
 62
               7
100
AcDbCircle
 10
-0.0185413389176909
 20
4.426985750121891
 30
0.0
 40
4.7714066387101575
100
AcDbArc
 50
72.200697040304334
 51
84.9676239108814
  0
ARC
  5
3E0
100
AcDbEntity
  8
0
  6
CONTINUOUS
 62
               7
100
AcDbCircle
 10
2.1575695167572477
 20
8.4802275093873583
 30
0.0
 40
1.2802298164942694
100
AcDbArc
 50
235.90957879303028
 51
270.10877462299629
  0
ARC
  5
3E1
100
AcDbEntity
  8
0
  6
CONTINUOUS
 62
               7
100
AcDbCircle
 10
-2.1575695167572477
 20
8.4802275093873583
 30
0.0
 40
1.2802298164942694
100
AcDbArc
 50
269.89122537700251
 51
304.09042120696847
  0
ARC
  5
3E2
100
AcDbEntity
  8
0
  6
CONTINUOUS
 62
               7
100
AcDbCircle
 10
0.0
 20
11.976719856262212
 30
0.0
 40
4.7788383367147205
100
AcDbArc
 50
252.46258896879414
 51
287.53741103120467
  0
ARC
  5
3E3
100
AcDbEntity
  8
0
  6
CONTINUOUS
 62
               7
100
AcDbCircle
 10
2.170895959029405
 20
7.9239343891253338
 30
0.0
 40
1.2761121287645945
100
AcDbArc
 50
90.489220373281853
 51
124.94236503947135
  0
ARC
  5
3E4
100
AcDbEntity
  8
0
  6
CONTINUOUS
 62
               7
100
AcDbCircle
 10
0.0185413389176909
 20
4.426985750121891
 30
0.0
 40
4.7714066387101575
100
AcDbArc
 50
95.032376089118216
 51
107.79930295969528
  0
ARC
  5
3E5
100
AcDbEntity
  8
0
  6
CONTINUOUS
 62
               7
100
AcDbCircle
 10
-2.170895959029405
 20
7.9239343891253338
 30
0.0
 40
1.2761121287645945
100
AcDbArc
 50
55.057634960528254
 51
89.510779626717763
  0
LINE
  5
3E6
100
AcDbEntity
  8
0
  6
CONTINUOUS
 62
               7
100
AcDbLine
 10
2.5
 20
6.5999999999999996
 30
0.0
 11
2.5
 21
7.2000000000000002
 31
0.0
  0
LINE
  5
3E7
100
AcDbEntity
  8
0
  6
CONTINUOUS
 62
               7
100
AcDbLine
 10
5.0
 20
1.6000000000000001
 30
0.0
 11
5.0
 21
6.5999999999999996
 31
0.0
  0
LINE
  5
3E8
100
AcDbEntity
  8
0
  6
CONTINUOUS
 62
               7
100
AcDbLine
 10
-2.5
 20
1.6000000000000001
 30
0.0
 11
-1.1399999999999999
 21
1.6000000000000001
 31
0.0
  0
LINE
  5
3E9
100
AcDbEntity
  8
0
  6
CONTINUOUS
 62
               7
100
AcDbLine
 10
-1.1399999999999999
 20
1.6000000000000001
 30
0.0
 11
-1.1399999999999999
 21
0.6
 31
0.0
  0
LINE
  5
3EA
100
AcDbEntity
  8
0
  6
CONTINUOUS
 62
               7
100
AcDbLine
 10
1.1399999999999999
 20
1.6000000000000001
 30
0.0
 11
1.1399999999999999
 21
0.6
 31
0.0
  0
LINE
  5
3EB
100
AcDbEntity
  8
0
  6
CONTINUOUS
 62
               7
100
AcDbLine
 10
1.1399999999999999
 20
1.6000000000000001
 30
0.0
 11
5.0
 21
1.6000000000000001
 31
0.0
  0
LINE
  5
3EC
100
AcDbEntity
  8
0
  6
CONTINUOUS
 62
               7
100
AcDbLine
 10
2.5
 20
9.1999999999999993
 30
0.0
 11
0.4
 21
9.1999999999999993
 31
0.0
  0
LINE
  5
3ED
100
AcDbEntity
  8
0
  6
CONTINUOUS
 62
               7
100
AcDbLine
 10
0.4
 20
8.0
 30
0.0
 11
0.4
 21
9.1999999999999993
 31
0.0
  0
LINE
  5
3EE
100
AcDbEntity
  8
0
  6
CONTINUOUS
 62
               7
100
AcDbLine
 10
-0.4
 20
8.0
 30
0.0
 11
-0.4
 21
9.1999999999999993
 31
0.0
  0
LINE
  5
3EF
100
AcDbEntity
  8
0
  6
CONTINUOUS
 62
               7
100
AcDbLine
 10
-0.4
 20
8.0
 30
0.0
 11
0.4
 21
8.0
 31
0.0
  0
LINE
  5
3F0
100
AcDbEntity
  8
0
  6
CENTER
 62
               2
100
AcDbLine
 10
-3.25
 20
4.0999999999999996
 30
0.0
 11
5.9100000000000001
 21
4.0999999999999996
 31
0.0
  0
LINE
  5
3F1
100
AcDbEntity
  8
0
  6
CONTINUOUS
 62
               7
100
AcDbLine
 10
2.5
 20
0.0
 30
0.0
 11
2.5
 21
1.6000000000000001
 31
0.0
  0
LINE
  5
3F2
100
AcDbEntity
  8
0
  6
CONTINUOUS
 62
               7
100
AcDbLine
 10
-2.5
 20
0.0
 30
0.0
 11
-2.5
 21
7.2000000000000002
 31
0.0
  0
LINE
  5
3F3
100
AcDbEntity
  8
0
  6
CONTINUOUS
 62
               7
100
AcDbLine
 10
-2.5
 20
0.0
 30
0.0
 11
2.5
 21
0.0
 31
0.0
  0
LINE
  5
3F4
100
AcDbEntity
  8
0
  6
CONTINUOUS
 62
               7
100
AcDbLine
 10
-2.5
 20
0.6
 30
0.0
 11
2.5
 21
0.6
 31
0.0
  0
LINE
  5
3F5
100
AcDbEntity
  8
0
  6
CONTINUOUS
 62
               7
100
AcDbLine
 10
2.8799999999999999
 20
7.4199999999999999
 30
0.0
 11
2.8799999999999999
 21
8.9700000000000006
 31
0.0
  0
LINE
  5
3F6
100
AcDbEntity
  8
0
  6
CONTINUOUS
 62
               7
100
AcDbLine
 10
2.8799999999999999
 20
7.4199999999999999
 30
0.0
 11
2.5
 21
7.2000000000000002
 31
0.0
  0
LINE
  5
3F7
100
AcDbEntity
  8
0
  6
CONTINUOUS
 62
               7
100
AcDbLine
 10
-2.8799999999999999
 20
7.4199999999999999
 30
0.0
 11
-2.5
 21
7.2000000000000002
 31
0.0
  0
LINE
  5
3F8
100
AcDbEntity
  8
0
  6
CONTINUOUS
 62
               7
100
AcDbLine
 10
2.8799999999999999
 20
8.9700000000000006
 30
0.0
 11
2.5
 21
9.1999999999999993
 31
0.0
  0
LINE
  5
3F9
100
AcDbEntity
  8
0
  6
CONTINUOUS
 62
               7
100
AcDbLine
 10
-2.8799999999999999
 20
8.9700000000000006
 30
0.0
 11
-2.5
 21
9.1999999999999993
 31
0.0
  0
LINE
  5
3FA
100
AcDbEntity
  8
0
  6
CONTINUOUS
 62
               7
100
AcDbLine
 10
1.4399999999999999
 20
7.4199999999999999
 30
0.0
 11
1.4399999999999999
 21
8.9700000000000006
 31
0.0
  0
LINE
  5
3FB
100
AcDbEntity
  8
0
  6
CONTINUOUS
 62
               7
100
AcDbLine
 10
-1.4399999999999999
 20
7.4199999999999999
 30
0.0
 11
-1.4399999999999999
 21
8.9700000000000006
 31
0.0
  0
LINE
  5
3FC
100
AcDbEntity
  8
0
  6
CONTINUOUS
 62
               7
100
AcDbLine
 10
-2.8799999999999999
 20
7.4199999999999999
 30
0.0
 11
-2.8799999999999999
 21
8.9700000000000006
 31
0.0
  0
LINE
  5
3FD
100
AcDbEntity
  8
0
  6
CONTINUOUS
 62
               7
100
AcDbLine
 10
-2.5
 20
9.1999999999999993
 30
0.0
 11
-0.4
 21
9.1999999999999993
 31
0.0
  0
LINE
  5
3FE
100
AcDbEntity
  8
0
  6
CONTINUOUS
 62
               7
100
AcDbLine
 10
-2.5
 20
7.2000000000000002
 30
0.0
 11
2.5
 21
7.2000000000000002
 31
0.0
  0
LINE
  5
3FF
100
AcDbEntity
  8
0
  6
CONTINUOUS
 62
               7
100
AcDbLine
 10
-2.5
 20
6.5999999999999996
 30
0.0
 11
5.0
 21
6.5999999999999996
 31
0.0
  0
LINE
  5
400
100
AcDbEntity
  8
0
  6
CONTINUOUS
 62
               2
100
AcDbLine
 10
1.22
 20
-2.1000000000000001
 30
0.0
 11
1.22
 21
0.0
 31
0.0
  0
LINE
  5
401
100
AcDbEntity
  8
0
  6
CONTINUOUS
 62
               2
100
AcDbLine
 10
-1.22
 20
-2.1000000000000001
 30
0.0
 11
-1.22
 21
0.0
 31
0.0
  0
LINE
  5
402
100
AcDbEntity
  8
0
  6
CONTINUOUS
 62
               7
100
AcDbLine
 10
-1.5
 20
-2.1000000000000001
 30
0.0
 11
-1.5
 21
0.0
 31
0.0
  0
LINE
  5
403
100
AcDbEntity
  8
0
  6
CONTINUOUS
 62
               7
100
AcDbLine
 10
1.5
 20
-2.1000000000000001
 30
0.0
 11
1.5
 21
0.0
 31
0.0
  0
LINE
  5
404
100
AcDbEntity
  8
0
  6
CONTINUOUS
 62
               7
100
AcDbLine
 10
-1.5
 20
-2.1000000000000001
 30
0.0
 11
1.5
 21
-2.1000000000000001
 31
0.0
  0
LINE
  5
405
100
AcDbEntity
  8
0
  6
CENTER
 62
               2
100
AcDbLine
 10
0.0
 20
-2.6800000000000002
 30
0.0
 11
0.0
 21
10.210000000000001
 31
0.0
  0
ENDBLK
  5
406
100
AcDbEntity
  8
0
100
AcDbBlockEnd
  0
BLOCK
  5
407
100
AcDbEntity
  8
0
100
AcDbBlockBegin
  2
MS_30
 70
               0
 10
0.0
 20
0.0
 30
0.0
  3
MS_30
  1

  0
ARC
  5
408
100
AcDbEntity
  8
0
  6
CONTINUOUS
 62
               7
100
AcDbCircle
 10
0.0000000000000013
 20
0.0
 30
0.0
 40
2.4923081671414553
100
AcDbArc
 50
99.235559093165733
 51
260.7644409068335
  0
ARC
  5
409
100
AcDbEntity
  8
0
  6
CONTINUOUS
 62
               7
100
AcDbCircle
 10
-0.0000000000000013
 20
0.0
 30
0.0
 40
2.4923081671414553
100
AcDbArc
 50
279.23555909316531
 51
80.764440906833883
  0
LINE
  5
40A
100
AcDbEntity
  8
0
  6
CONTINUOUS
 62
               7
100
AcDbLine
 10
5.0
 20
-2.5
 30
0.0
 11
5.0
 21
2.5
 31
0.0
  0
LINE
  5
40B
100
AcDbEntity
  8
0
  6
CONTINUOUS
 62
               7
100
AcDbLine
 10
-2.5
 20
-0.67
 30
0.0
 11
-2.5
 21
-2.5
 31
0.0
  0
LINE
  5
40C
100
AcDbEntity
  8
0
  6
CONTINUOUS
 62
               7
100
AcDbLine
 10
-2.5
 20
0.67
 30
0.0
 11
-2.5
 21
2.5
 31
0.0
  0
LINE
  5
40D
100
AcDbEntity
  8
0
  6
CONTINUOUS
 62
               7
100
AcDbLine
 10
-0.4
 20
-2.5
 30
0.0
 11
-0.4
 21
2.5
 31
0.0
  0
LINE
  5
40E
100
AcDbEntity
  8
0
  6
CONTINUOUS
 62
               7
100
AcDbLine
 10
0.4
 20
-2.5
 30
0.0
 11
0.4
 21
2.5
 31
0.0
  0
LINE
  5
40F
100
AcDbEntity
  8
0
  6
CENTER
 62
               2
100
AcDbLine
 10
-3.5
 20
0.0
 30
0.0
 11
5.9100000000000001
 21
0.0
 31
0.0
  0
LINE
  5
410
100
AcDbEntity
  8
0
  6
CENTER
 62
               2
100
AcDbLine
 10
0.0
 20
-3.5
 30
0.0
 11
0.0
 21
3.5
 31
0.0
  0
LINE
  5
411
100
AcDbEntity
  8
0
  6
CONTINUOUS
 62
               7
100
AcDbLine
 10
-2.5
 20
2.5
 30
0.0
 11
5.0
 21
2.5
 31
0.0
  0
LINE
  5
412
100
AcDbEntity
  8
0
  6
CONTINUOUS
 62
               7
100
AcDbLine
 10
1.4399999999999999
 20
2.5
 30
0.0
 11
2.8799999999999999
 21
0.0
 31
0.0
  0
LINE
  5
413
100
AcDbEntity
  8
0
  6
CONTINUOUS
 62
               7
100
AcDbLine
 10
2.8799999999999999
 20
0.0
 30
0.0
 11
1.4399999999999999
 21
-2.5
 31
0.0
  0
LINE
  5
414
100
AcDbEntity
  8
0
  6
CONTINUOUS
 62
               7
100
AcDbLine
 10
5.0
 20
-2.5
 30
0.0
 11
-2.5
 21
-2.5
 31
0.0
  0
LINE
  5
415
100
AcDbEntity
  8
0
  6
CONTINUOUS
 62
               7
100
AcDbLine
 10
-1.4399999999999999
 20
-2.5
 30
0.0
 11
-2.8799999999999999
 21
0.0
 31
0.0
  0
LINE
  5
416
100
AcDbEntity
  8
0
  6
CONTINUOUS
 62
               7
100
AcDbLine
 10
-2.8799999999999999
 20
0.0
 30
0.0
 11
-1.4399999999999999
 21
2.5
 31
0.0
  0
ENDBLK
  5
417
100
AcDbEntity
  8
0
100
AcDbBlockEnd
  0
BLOCK
  5
418
100
AcDbEntity
  8
0
100
AcDbBlockBegin
  2
MS_31
 70
               0
 10
0.0
 20
0.0
 30
0.0
  3
MS_31
  1

  0
ARC
  5
419
100
AcDbEntity
  8
0
  6
CONTINUOUS
 62
               7
100
AcDbCircle
 10
-1.25
 20
10.810444831848145
 30
0.0
 40
3.6135323656784637
100
AcDbArc
 50
249.76191756579149
 51
290.23808243420729
  0
ARC
  5
41A
100
AcDbEntity
  8
0
  6
CONTINUOUS
 62
               7
100
AcDbCircle
 10
-1.25
 20
5.5895557403564453
 30
0.0
 40
3.6041508559655302
100
AcDbArc
 50
69.706922635946938
 51
110.29307736405268
  0
ARC
  5
41B
100
AcDbEntity
  8
0
  6
CONTINUOUS
 62
               7
100
AcDbCircle
 10
1.25
 20
10.810444831848145
 30
0.0
 40
3.6135323656784637
100
AcDbArc
 50
249.76191756579149
 51
290.23808243420729
  0
ARC
  5
41C
100
AcDbEntity
  8
0
  6
CONTINUOUS
 62
               7
100
AcDbCircle
 10
1.25
 20
5.5895557403564453
 30
0.0
 40
3.6041508559655302
100
AcDbArc
 50
69.706922635946938
 51
110.29307736405268
  0
LINE
  5
41D
100
AcDbEntity
  8
0
  6
CONTINUOUS
 62
               7
100
AcDbLine
 10
-2.5
 20
1.6000000000000001
 30
0.0
 11
-1.1399999999999999
 21
1.6000000000000001
 31
0.0
  0
LINE
  5
41E
100
AcDbEntity
  8
0
  6
CONTINUOUS
 62
               7
100
AcDbLine
 10
-1.1399999999999999
 20
1.6000000000000001
 30
0.0
 11
-1.1399999999999999
 21
0.6
 31
0.0
  0
LINE
  5
41F
100
AcDbEntity
  8
0
  6
CONTINUOUS
 62
               7
100
AcDbLine
 10
1.1399999999999999
 20
1.6000000000000001
 30
0.0
 11
1.1399999999999999
 21
0.6
 31
0.0
  0
LINE
  5
420
100
AcDbEntity
  8
0
  6
CONTINUOUS
 62
               7
100
AcDbLine
 10
1.1399999999999999
 20
1.6000000000000001
 30
0.0
 11
2.5
 21
1.6000000000000001
 31
0.0
  0
LINE
  5
421
100
AcDbEntity
  8
0
  6
CONTINUOUS
 62
               7
100
AcDbLine
 10
-2.5
 20
0.0
 30
0.0
 11
2.5
 21
0.0
 31
0.0
  0
LINE
  5
422
100
AcDbEntity
  8
0
  6
CONTINUOUS
 62
               7
100
AcDbLine
 10
-2.5
 20
0.0
 30
0.0
 11
-2.5
 21
9.1999999999999993
 31
0.0
  0
LINE
  5
423
100
AcDbEntity
  8
0
  6
CONTINUOUS
 62
               7
100
AcDbLine
 10
-2.5
 20
0.6
 30
0.0
 11
2.5
 21
0.6
 31
0.0
  0
LINE
  5
424
100
AcDbEntity
  8
0
  6
CONTINUOUS
 62
               7
100
AcDbLine
 10
0.0
 20
7.4199999999999999
 30
0.0
 11
0.0
 21
8.9700000000000006
 31
0.0
  0
LINE
  5
425
100
AcDbEntity
  8
0
  6
CONTINUOUS
 62
               7
100
AcDbLine
 10
2.5
 20
0.0
 30
0.0
 11
2.5
 21
9.1999999999999993
 31
0.0
  0
LINE
  5
426
100
AcDbEntity
  8
0
  6
CONTINUOUS
 62
               7
100
AcDbLine
 10
-2.5
 20
9.1999999999999993
 30
0.0
 11
2.5
 21
9.1999999999999993
 31
0.0
  0
LINE
  5
427
100
AcDbEntity
  8
0
  6
CONTINUOUS
 62
               7
100
AcDbLine
 10
-2.5
 20
7.2000000000000002
 30
0.0
 11
2.5
 21
7.2000000000000002
 31
0.0
  0
LINE
  5
428
100
AcDbEntity
  8
0
  6
CONTINUOUS
 62
               7
100
AcDbLine
 10
-2.5
 20
6.5999999999999996
 30
0.0
 11
2.5
 21
6.5999999999999996
 31
0.0
  0
LINE
  5
429
100
AcDbEntity
  8
0
  6
CONTINUOUS
 62
               2
100
AcDbLine
 10
1.22
 20
-2.1000000000000001
 30
0.0
 11
1.22
 21
0.0
 31
0.0
  0
LINE
  5
42A
100
AcDbEntity
  8
0
  6
CONTINUOUS
 62
               2
100
AcDbLine
 10
-1.22
 20
-2.1000000000000001
 30
0.0
 11
-1.22
 21
0.0
 31
0.0
  0
LINE
  5
42B
100
AcDbEntity
  8
0
  6
CONTINUOUS
 62
               7
100
AcDbLine
 10
-1.5
 20
-2.1000000000000001
 30
0.0
 11
-1.5
 21
0.0
 31
0.0
  0
LINE
  5
42C
100
AcDbEntity
  8
0
  6
CONTINUOUS
 62
               7
100
AcDbLine
 10
1.5
 20
-2.1000000000000001
 30
0.0
 11
1.5
 21
0.0
 31
0.0
  0
LINE
  5
42D
100
AcDbEntity
  8
0
  6
CONTINUOUS
 62
               7
100
AcDbLine
 10
-1.5
 20
-2.1000000000000001
 30
0.0
 11
1.5
 21
-2.1000000000000001
 31
0.0
  0
LINE
  5
42E
100
AcDbEntity
  8
0
  6
CENTER
 62
               2
100
AcDbLine
 10
0.0
 20
-2.6800000000000002
 30
0.0
 11
0.0
 21
10.210000000000001
 31
0.0
  0
ENDBLK
  5
42F
100
AcDbEntity
  8
0
100
AcDbBlockEnd
  0
BLOCK
  5
430
100
AcDbEntity
  8
0
100
AcDbBlockBegin
  2
MS_32
 70
               0
 10
0.0
 20
0.0
 30
0.0
  3
MS_32
  1

  0
ARC
  5
431
100
AcDbEntity
  8
0
  6
CONTINUOUS
 62
               7
100
AcDbCircle
 10
1.25
 20
5.5895557403564453
 30
0.0
 40
3.6041508559655302
100
AcDbArc
 50
69.706922635946938
 51
110.29307736405268
  0
ARC
  5
432
100
AcDbEntity
  8
0
  6
CONTINUOUS
 62
               7
100
AcDbCircle
 10
-1.25
 20
5.5895557403564453
 30
0.0
 40
3.6041508559655302
100
AcDbArc
 50
69.706922635946938
 51
110.29307736405268
  0
CIRCLE
  5
433
100
AcDbEntity
  8
0
  6
CONTINUOUS
 62
               7
100
AcDbCircle
 10
0.0
 20
4.0999994277954102
 30
0.0
 40
1.2294998168945312
  0
CIRCLE
  5
434
100
AcDbEntity
  8
0
  6
CONTINUOUS
 62
               2
100
AcDbCircle
 10
0.0
 20
4.0999994277954102
 30
0.0
 40
1.5
  0
ARC
  5
435
100
AcDbEntity
  8
0
  6
CONTINUOUS
 62
               7
100
AcDbCircle
 10
1.25
 20
10.810444831848145
 30
0.0
 40
3.6135323656784637
100
AcDbArc
 50
249.76191756579149
 51
290.23808243420729
  0
ARC
  5
436
100
AcDbEntity
  8
0
  6
CONTINUOUS
 62
               7
100
AcDbCircle
 10
-1.25
 20
10.810444831848145
 30
0.0
 40
3.6135323656784637
100
AcDbArc
 50
249.76191756579149
 51
290.23808243420729
  0
LINE
  5
437
100
AcDbEntity
  8
0
  6
CONTINUOUS
 62
               7
100
AcDbLine
 10
2.5
 20
9.1999999999999993
 30
0.0
 11
-2.5
 21
9.1999999999999993
 31
0.0
  0
LINE
  5
438
100
AcDbEntity
  8
0
  6
CONTINUOUS
 62
               7
100
AcDbLine
 10
-2.5
 20
1.6000000000000001
 30
0.0
 11
2.5
 21
1.6000000000000001
 31
0.0
  0
LINE
  5
439
100
AcDbEntity
  8
0
  6
CENTER
 62
               2
100
AcDbLine
 10
-3.0
 20
4.0999999999999996
 30
0.0
 11
3.0
 21
4.0999999999999996
 31
0.0
  0
LINE
  5
43A
100
AcDbEntity
  8
0
  6
CONTINUOUS
 62
               7
100
AcDbLine
 10
2.5
 20
0.0
 30
0.0
 11
-2.5
 21
0.0
 31
0.0
  0
LINE
  5
43B
100
AcDbEntity
  8
0
  6
CONTINUOUS
 62
               7
100
AcDbLine
 10
2.5
 20
0.0
 30
0.0
 11
2.5
 21
9.1999999999999993
 31
0.0
  0
LINE
  5
43C
100
AcDbEntity
  8
0
  6
CONTINUOUS
 62
               7
100
AcDbLine
 10
2.5
 20
0.6
 30
0.0
 11
-2.5
 21
0.6
 31
0.0
  0
LINE
  5
43D
100
AcDbEntity
  8
0
  6
CONTINUOUS
 62
               7
100
AcDbLine
 10
0.0
 20
7.4199999999999999
 30
0.0
 11
0.0
 21
8.9700000000000006
 31
0.0
  0
LINE
  5
43E
100
AcDbEntity
  8
0
  6
CONTINUOUS
 62
               7
100
AcDbLine
 10
-2.5
 20
0.0
 30
0.0
 11
-2.5
 21
9.1999999999999993
 31
0.0
  0
LINE
  5
43F
100
AcDbEntity
  8
0
  6
CONTINUOUS
 62
               7
100
AcDbLine
 10
2.5
 20
7.2000000000000002
 30
0.0
 11
-2.5
 21
7.2000000000000002
 31
0.0
  0
LINE
  5
440
100
AcDbEntity
  8
0
  6
CONTINUOUS
 62
               7
100
AcDbLine
 10
2.5
 20
6.5999999999999996
 30
0.0
 11
-2.5
 21
6.5999999999999996
 31
0.0
  0
LINE
  5
441
100
AcDbEntity
  8
0
  6
CONTINUOUS
 62
               2
100
AcDbLine
 10
-1.22
 20
-2.1000000000000001
 30
0.0
 11
-1.22
 21
0.0
 31
0.0
  0
LINE
  5
442
100
AcDbEntity
  8
0
  6
CONTINUOUS
 62
               2
100
AcDbLine
 10
1.22
 20
-2.1000000000000001
 30
0.0
 11
1.22
 21
0.0
 31
0.0
  0
LINE
  5
443
100
AcDbEntity
  8
0
  6
CONTINUOUS
 62
               7
100
AcDbLine
 10
1.5
 20
-2.1000000000000001
 30
0.0
 11
1.5
 21
0.0
 31
0.0
  0
LINE
  5
444
100
AcDbEntity
  8
0
  6
CONTINUOUS
 62
               7
100
AcDbLine
 10
-1.5
 20
-2.1000000000000001
 30
0.0
 11
-1.5
 21
0.0
 31
0.0
  0
LINE
  5
445
100
AcDbEntity
  8
0
  6
CONTINUOUS
 62
               7
100
AcDbLine
 10
1.5
 20
-2.1000000000000001
 30
0.0
 11
-1.5
 21
-2.1000000000000001
 31
0.0
  0
LINE
  5
446
100
AcDbEntity
  8
0
  6
CENTER
 62
               2
100
AcDbLine
 10
0.0
 20
-2.6800000000000002
 30
0.0
 11
0.0
 21
10.210000000000001
 31
0.0
  0
ENDBLK
  5
447
100
AcDbEntity
  8
0
100
AcDbBlockEnd
  0
BLOCK
  5
448
100
AcDbEntity
  8
0
100
AcDbBlockBegin
  2
MS_33
 70
               0
 10
0.0
 20
0.0
 30
0.0
  3
MS_33
  1

  0
ARC
  5
449
100
AcDbEntity
  8
0
  6
CONTINUOUS
 62
               7
100
AcDbCircle
 10
0.0192098556067584
 20
6.5164551897875791
 30
0.0
 40
6.6822959667157207
100
AcDbArc
 50
95.316897338335167
 51
107.76815406253809
  0
ARC
  5
44A
100
AcDbEntity
  8
0
  6
CONTINUOUS
 62
               7
100
AcDbCircle
 10
0.0
 20
17.387435913090087
 30
0.0
 40
6.6897002044614204
100
AcDbArc
 50
252.42483315042037
 51
287.57516684957841
  0
ARC
  5
44B
100
AcDbEntity
  8
0
  6
CONTINUOUS
 62
               7
100
AcDbCircle
 10
-3.0269406657391924
 20
12.490355072247043
 30
0.0
 40
1.7903576861194068
100
AcDbArc
 50
269.90209385089423
 51
304.22362049602731
  0
ARC
  5
44C
100
AcDbEntity
  8
0
  6
CONTINUOUS
 62
               7
100
AcDbCircle
 10
3.0269406657391924
 20
12.490355072247043
 30
0.0
 40
1.7903576861194068
100
AcDbArc
 50
235.7763795039715
 51
270.09790614910452
  0
ARC
  5
44D
100
AcDbEntity
  8
0
  6
CONTINUOUS
 62
               7
100
AcDbCircle
 10
-3.040232589132589
 20
11.413797140550258
 30
0.0
 40
1.7862321688366232
100
AcDbArc
 50
55.168522887844127
 51
89.671774258845133
  0
ARC
  5
44E
100
AcDbEntity
  8
0
  6
CONTINUOUS
 62
               7
100
AcDbCircle
 10
3.040232589132589
 20
11.413797140550258
 30
0.0
 40
1.7862321688366232
100
AcDbArc
 50
90.328225741154483
 51
124.83147711215548
  0
ARC
  5
44F
100
AcDbEntity
  8
0
  6
CONTINUOUS
 62
               7
100
AcDbCircle
 10
-0.0192098556067584
 20
6.5164551897875791
 30
0.0
 40
6.6822959667157207
100
AcDbArc
 50
72.231845937461529
 51
84.683102661664449
  0
LINE
  5
450
100
AcDbEntity
  8
0
  6
CONTINUOUS
 62
               7
100
AcDbLine
 10
-4.0
 20
0.0
 30
0.0
 11
4.0
 21
0.0
 31
0.0
  0
LINE
  5
451
100
AcDbEntity
  8
0
  6
CONTINUOUS
 62
               7
100
AcDbLine
 10
-0.6
 20
13.199999999999999
 30
0.0
 11
-3.5
 21
13.199999999999999
 31
0.0
  0
LINE
  5
452
100
AcDbEntity
  8
0
  6
CONTINUOUS
 62
               7
100
AcDbLine
 10
0.6
 20
13.199999999999999
 30
0.0
 11
0.6
 21
11.699999999999999
 31
0.0
  0
LINE
  5
453
100
AcDbEntity
  8
0
  6
CONTINUOUS
 62
               7
100
AcDbLine
 10
-0.6
 20
13.199999999999999
 30
0.0
 11
-0.6
 21
11.699999999999999
 31
0.0
  0
LINE
  5
454
100
AcDbEntity
  8
0
  6
CONTINUOUS
 62
               7
100
AcDbLine
 10
-0.6
 20
11.699999999999999
 30
0.0
 11
0.6
 21
11.699999999999999
 31
0.0
  0
LINE
  5
455
100
AcDbEntity
  8
0
  6
CONTINUOUS
 62
               7
100
AcDbLine
 10
-4.4299999999999997
 20
2.1000000000000001
 30
0.0
 11
-6.5
 21
4.0300000000000002
 31
0.0
  0
LINE
  5
456
100
AcDbEntity
  8
0
  6
CONTINUOUS
 62
               7
100
AcDbLine
 10
4.4299999999999997
 20
2.1000000000000001
 30
0.0
 11
6.5
 21
4.0300000000000002
 31
0.0
  0
LINE
  5
457
100
AcDbEntity
  8
0
  6
CONTINUOUS
 62
               7
100
AcDbLine
 10
4.4299999999999997
 20
10.1
 30
0.0
 11
6.5
 21
8.1600000000000001
 31
0.0
  0
LINE
  5
458
100
AcDbEntity
  8
0
  6
CONTINUOUS
 62
               7
100
AcDbLine
 10
-4.4299999999999997
 20
10.1
 30
0.0
 11
-6.5
 21
8.1600000000000001
 31
0.0
  0
LINE
  5
459
100
AcDbEntity
  8
0
  6
CENTER
 62
               2
100
AcDbLine
 10
0.7
 20
6.0999999999999996
 30
0.0
 11
8.4399999999999995
 21
6.0999999999999996
 31
0.0
  0
LINE
  5
45A
100
AcDbEntity
  8
0
  6
CENTER
 62
               2
100
AcDbLine
 10
0.0
 20
14.98
 30
0.0
 11
0.0
 21
-4.7300000000000004
 31
0.0
  0
LINE
  5
45B
100
AcDbEntity
  8
0
  6
CONTINUOUS
 62
               7
100
AcDbLine
 10
2.5
 20
-2.7999999999999998
 30
0.0
 11
2.5
 21
0.0
 31
0.0
  0
LINE
  5
45C
100
AcDbEntity
  8
0
  6
CONTINUOUS
 62
               2
100
AcDbLine
 10
2.0600000000000001
 20
-2.7999999999999998
 30
0.0
 11
2.0600000000000001
 21
0.0
 31
0.0
  0
LINE
  5
45D
100
AcDbEntity
  8
0
  6
CONTINUOUS
 62
               7
100
AcDbLine
 10
-2.5
 20
-2.7999999999999998
 30
0.0
 11
2.5
 21
-2.7999999999999998
 31
0.0
  0
LINE
  5
45E
100
AcDbEntity
  8
0
  6
CONTINUOUS
 62
               2
100
AcDbLine
 10
-2.0600000000000001
 20
-2.7999999999999998
 30
0.0
 11
-2.0600000000000001
 21
0.0
 31
0.0
  0
LINE
  5
45F
100
AcDbEntity
  8
0
  6
CONTINUOUS
 62
               7
100
AcDbLine
 10
-2.5
 20
-2.7999999999999998
 30
0.0
 11
-2.5
 21
0.0
 31
0.0
  0
LINE
  5
460
100
AcDbEntity
  8
0
  6
CONTINUOUS
 62
               7
100
AcDbLine
 10
-4.0
 20
2.1000000000000001
 30
0.0
 11
-4.0
 21
0.0
 31
0.0
  0
LINE
  5
461
100
AcDbEntity
  8
0
  6
CONTINUOUS
 62
               7
100
AcDbLine
 10
4.0
 20
2.1000000000000001
 30
0.0
 11
4.0
 21
0.0
 31
0.0
  0
LINE
  5
462
100
AcDbEntity
  8
0
  6
CONTINUOUS
 62
               7
100
AcDbLine
 10
4.0
 20
10.699999999999999
 30
0.0
 11
4.0
 21
10.1
 31
0.0
  0
LINE
  5
463
100
AcDbEntity
  8
0
  6
CONTINUOUS
 62
               7
100
AcDbLine
 10
-4.0
 20
10.699999999999999
 30
0.0
 11
-4.0
 21
10.1
 31
0.0
  0
LINE
  5
464
100
AcDbEntity
  8
0
  6
CONTINUOUS
 62
               7
100
AcDbLine
 10
-3.5
 20
10.699999999999999
 30
0.0
 11
-4.04
 21
11.01
 31
0.0
  0
LINE
  5
465
100
AcDbEntity
  8
0
  6
CONTINUOUS
 62
               7
100
AcDbLine
 10
3.5
 20
10.699999999999999
 30
0.0
 11
4.04
 21
11.01
 31
0.0
  0
LINE
  5
466
100
AcDbEntity
  8
0
  6
CONTINUOUS
 62
               7
100
AcDbLine
 10
-3.5
 20
13.199999999999999
 30
0.0
 11
-4.04
 21
12.880000000000001
 31
0.0
  0
LINE
  5
467
100
AcDbEntity
  8
0
  6
CONTINUOUS
 62
               7
100
AcDbLine
 10
3.5
 20
13.199999999999999
 30
0.0
 11
4.04
 21
12.880000000000001
 31
0.0
  0
LINE
  5
468
100
AcDbEntity
  8
0
  6
CONTINUOUS
 62
               7
100
AcDbLine
 10
-4.04
 20
12.880000000000001
 30
0.0
 11
-4.04
 21
11.01
 31
0.0
  0
LINE
  5
469
100
AcDbEntity
  8
0
  6
CONTINUOUS
 62
               7
100
AcDbLine
 10
-2.02
 20
12.880000000000001
 30
0.0
 11
-2.02
 21
11.01
 31
0.0
  0
LINE
  5
46A
100
AcDbEntity
  8
0
  6
CONTINUOUS
 62
               7
100
AcDbLine
 10
2.02
 20
12.880000000000001
 30
0.0
 11
2.02
 21
11.01
 31
0.0
  0
LINE
  5
46B
100
AcDbEntity
  8
0
  6
CONTINUOUS
 62
               7
100
AcDbLine
 10
4.04
 20
12.880000000000001
 30
0.0
 11
4.04
 21
11.01
 31
0.0
  0
LINE
  5
46C
100
AcDbEntity
  8
0
  6
CONTINUOUS
 62
               7
100
AcDbLine
 10
-4.0
 20
10.699999999999999
 30
0.0
 11
4.0
 21
10.699999999999999
 31
0.0
  0
LINE
  5
46D
100
AcDbEntity
  8
0
  6
CONTINUOUS
 62
               7
100
AcDbLine
 10
0.6
 20
13.199999999999999
 30
0.0
 11
3.5
 21
13.199999999999999
 31
0.0
  0
LINE
  5
46E
100
AcDbEntity
  8
0
  6
CONTINUOUS
 62
               7
100
AcDbLine
 10
-4.0
 20
0.6
 30
0.0
 11
4.0
 21
0.6
 31
0.0
  0
LINE
  5
46F
100
AcDbEntity
  8
0
  6
CONTINUOUS
 62
               7
100
AcDbLine
 10
-6.5
 20
10.1
 30
0.0
 11
6.5
 21
10.1
 31
0.0
  0
LINE
  5
470
100
AcDbEntity
  8
0
  6
CONTINUOUS
 62
               7
100
AcDbLine
 10
6.5
 20
10.1
 30
0.0
 11
6.5
 21
2.1000000000000001
 31
0.0
  0
LINE
  5
471
100
AcDbEntity
  8
0
  6
CONTINUOUS
 62
               7
100
AcDbLine
 10
-6.5
 20
10.1
 30
0.0
 11
-6.5
 21
2.1000000000000001
 31
0.0
  0
LINE
  5
472
100
AcDbEntity
  8
0
  6
CONTINUOUS
 62
               7
100
AcDbLine
 10
-6.5
 20
2.1000000000000001
 30
0.0
 11
6.5
 21
2.1000000000000001
 31
0.0
  0
ENDBLK
  5
473
100
AcDbEntity
  8
0
100
AcDbBlockEnd
  0
BLOCK
  5
474
100
AcDbEntity
  8
0
100
AcDbBlockBegin
  2
MS_34
 70
               0
 10
0.0
 20
0.0
 30
0.0
  3
MS_34
  1

  0
ARC
  5
475
100
AcDbEntity
  8
0
  6
CONTINUOUS
 62
               7
100
AcDbCircle
 10
-0.000000000000001
 20
0.0
 30
0.0
 40
3.4919335617963867
100
AcDbArc
 50
279.89392066973483
 51
80.106079330264393
  0
ARC
  5
476
100
AcDbEntity
  8
0
  6
CONTINUOUS
 62
               7
100
AcDbCircle
 10
0.0009687532026477
 20
-0.0016806884533995
 30
0.0
 40
3.991553471691204
100
AcDbArc
 50
180.98072076173057
 51
238.91343769885381
  0
ARC
  5
477
100
AcDbEntity
  8
0
  6
CONTINUOUS
 62
               7
100
AcDbCircle
 10
0.0009687532026477
 20
0.0016806884533995
 30
0.0
 40
3.991553471691204
100
AcDbArc
 50
121.08656230114541
 51
179.01927923826861
  0
ARC
  5
478
100
AcDbEntity
  8
0
  6
CONTINUOUS
 62
               7
100
AcDbCircle
 10
0.0
 20
0.0
 30
0.0
 40
3.9968612685456071
100
AcDbArc
 50
61.12640262163702
 51
118.87359737836258
  0
ARC
  5
479
100
AcDbEntity
  8
0
  6
CONTINUOUS
 62
               7
100
AcDbCircle
 10
-0.0009687532026477
 20
0.0016806884533995
 30
0.0
 40
3.991553471691204
100
AcDbArc
 50
0.9807207617309708
 51
58.91343769885421
  0
ARC
  5
47A
100
AcDbEntity
  8
0
  6
CONTINUOUS
 62
               7
100
AcDbCircle
 10
-0.0009687532026477
 20
-0.0016806884533995
 30
0.0
 40
3.991553471691204
100
AcDbArc
 50
301.08656230114497
 51
359.01927923826821
  0
ARC
  5
47B
100
AcDbEntity
  8
0
  6
CONTINUOUS
 62
               7
100
AcDbCircle
 10
0.0
 20
0.0
 30
0.0
 40
3.9968612685456071
100
AcDbArc
 50
241.12640262163663
 51
298.87359737836215
  0
ARC
  5
47C
100
AcDbEntity
  8
0
  6
CONTINUOUS
 62
               7
100
AcDbCircle
 10
0.000000000000001
 20
0.0
 30
0.0
 40
3.4919335617963867
100
AcDbArc
 50
99.893920669735223
 51
260.10607933026398
  0
LINE
  5
47D
100
AcDbEntity
  8
0
  6
CONTINUOUS
 62
               7
100
AcDbLine
 10
-0.6
 20
-3.5
 30
0.0
 11
-0.6
 21
3.5
 31
0.0
  0
LINE
  5
47E
100
AcDbEntity
  8
0
  6
CONTINUOUS
 62
               7
100
AcDbLine
 10
0.6
 20
-3.5
 30
0.0
 11
0.6
 21
3.5
 31
0.0
  0
LINE
  5
47F
100
AcDbEntity
  8
0
  6
CONTINUOUS
 62
               7
100
AcDbLine
 10
-4.4299999999999997
 20
-4.0
 30
0.0
 11
-6.5
 21
-2.0600000000000001
 31
0.0
  0
LINE
  5
480
100
AcDbEntity
  8
0
  6
CONTINUOUS
 62
               7
100
AcDbLine
 10
-4.4299999999999997
 20
4.0
 30
0.0
 11
-6.5
 21
2.0600000000000001
 31
0.0
  0
LINE
  5
481
100
AcDbEntity
  8
0
  6
CONTINUOUS
 62
               7
100
AcDbLine
 10
4.4299999999999997
 20
-4.0
 30
0.0
 11
6.5
 21
-2.0600000000000001
 31
0.0
  0
LINE
  5
482
100
AcDbEntity
  8
0
  6
CONTINUOUS
 62
               7
100
AcDbLine
 10
4.4299999999999997
 20
4.0
 30
0.0
 11
6.5
 21
2.0600000000000001
 31
0.0
  0
LINE
  5
483
100
AcDbEntity
  8
0
  6
CENTER
 62
               2
100
AcDbLine
 10
0.0
 20
5.0
 30
0.0
 11
0.0
 21
-5.0
 31
0.0
  0
LINE
  5
484
100
AcDbEntity
  8
0
  6
CONTINUOUS
 62
               7
100
AcDbLine
 10
-6.5
 20
4.0
 30
0.0
 11
-6.5
 21
-4.0
 31
0.0
  0
LINE
  5
485
100
AcDbEntity
  8
0
  6
CONTINUOUS
 62
               7
100
AcDbLine
 10
6.5
 20
4.0
 30
0.0
 11
6.5
 21
-4.0
 31
0.0
  0
LINE
  5
486
100
AcDbEntity
  8
0
  6
CONTINUOUS
 62
               7
100
AcDbLine
 10
-6.5
 20
4.0
 30
0.0
 11
6.5
 21
4.0
 31
0.0
  0
LINE
  5
487
100
AcDbEntity
  8
0
  6
CONTINUOUS
 62
               7
100
AcDbLine
 10
-6.5
 20
-4.0
 30
0.0
 11
6.5
 21
-4.0
 31
0.0
  0
LINE
  5
488
100
AcDbEntity
  8
0
  6
CENTER
 62
               2
100
AcDbLine
 10
-7.5
 20
0.0
 30
0.0
 11
7.5
 21
0.0
 31
0.0
  0
LINE
  5
489
100
AcDbEntity
  8
0
  6
CONTINUOUS
 62
               7
100
AcDbLine
 10
-4.04
 20
0.0
 30
0.0
 11
-2.02
 21
-3.5
 31
0.0
  0
LINE
  5
48A
100
AcDbEntity
  8
0
  6
CONTINUOUS
 62
               7
100
AcDbLine
 10
-2.02
 20
3.5
 30
0.0
 11
-4.04
 21
0.0
 31
0.0
  0
LINE
  5
48B
100
AcDbEntity
  8
0
  6
CONTINUOUS
 62
               7
100
AcDbLine
 10
2.02
 20
3.5
 30
0.0
 11
-2.02
 21
3.5
 31
0.0
  0
LINE
  5
48C
100
AcDbEntity
  8
0
  6
CONTINUOUS
 62
               7
100
AcDbLine
 10
4.04
 20
0.0
 30
0.0
 11
2.02
 21
3.5
 31
0.0
  0
LINE
  5
48D
100
AcDbEntity
  8
0
  6
CONTINUOUS
 62
               7
100
AcDbLine
 10
2.02
 20
-3.5
 30
0.0
 11
4.04
 21
0.0
 31
0.0
  0
LINE
  5
48E
100
AcDbEntity
  8
0
  6
CONTINUOUS
 62
               7
100
AcDbLine
 10
-2.02
 20
-3.5
 30
0.0
 11
2.02
 21
-3.5
 31
0.0
  0
ENDBLK
  5
48F
100
AcDbEntity
  8
0
100
AcDbBlockEnd
  0
BLOCK
  5
490
100
AcDbEntity
  8
0
100
AcDbBlockBegin
  2
MS_35
 70
               0
 10
0.0
 20
0.0
 30
0.0
  3
MS_35
  1

  0
ARC
  5
491
100
AcDbEntity
  8
0
  6
CONTINUOUS
 62
               7
100
AcDbCircle
 10
-0.000000190734859
 20
6.1000001907348569
 30
0.0
 40
4.4992885757965775
100
AcDbArc
 50
117.24846637935508
 51
152.7515336206443
  0
ARC
  5
492
100
AcDbEntity
  8
0
  6
CONTINUOUS
 62
               7
100
AcDbCircle
 10
-0.0053452293379537
 20
6.1053265570385342
 30
0.0
 40
4.5015827277883567
100
AcDbArc
 50
207.45304463736912
 51
242.84305692331858
  0
ARC
  5
493
100
AcDbEntity
  8
0
  6
CONTINUOUS
 62
               7
100
AcDbCircle
 10
0.000000190734859
 20
6.1000001907348569
 30
0.0
 40
4.4992885757965775
100
AcDbArc
 50
27.24846637935531
 51
62.75153362064453
  0
ARC
  5
494
100
AcDbEntity
  8
0
  6
CONTINUOUS
 62
               7
100
AcDbCircle
 10
0.0053452293379537
 20
6.1053265570385342
 30
0.0
 40
4.5015827277883567
100
AcDbArc
 50
297.15694307668019
 51
332.54695536262966
  0
ARC
  5
495
100
AcDbEntity
  8
0
  6
CONTINUOUS
 62
               7
100
AcDbCircle
 10
-1.75
 20
15.754612922668457
 30
0.0
 40
5.0570595988135754
100
AcDbArc
 50
249.75404049903793
 51
290.24595950096085
  0
ARC
  5
496
100
AcDbEntity
  8
0
  6
CONTINUOUS
 62
               7
100
AcDbCircle
 10
-1.75
 20
8.1453857421875
 30
0.0
 40
5.0476798799330984
100
AcDbArc
 50
69.71476580140029
 51
110.28523419859933
  0
ARC
  5
497
100
AcDbEntity
  8
0
  6
CONTINUOUS
 62
               7
100
AcDbCircle
 10
1.75
 20
15.754612922668457
 30
0.0
 40
5.0570595988135754
100
AcDbArc
 50
249.75404049903793
 51
290.24595950096085
  0
ARC
  5
498
100
AcDbEntity
  8
0
  6
CONTINUOUS
 62
               7
100
AcDbCircle
 10
1.75
 20
8.1453857421875
 30
0.0
 40
5.0476798799330984
100
AcDbArc
 50
69.71476580140029
 51
110.28523419859933
  0
LINE
  5
499
100
AcDbEntity
  8
0
  6
CONTINUOUS
 62
               7
100
AcDbLine
 10
4.0
 20
0.0
 30
0.0
 11
-4.0
 21
0.0
 31
0.0
  0
LINE
  5
49A
100
AcDbEntity
  8
0
  6
CONTINUOUS
 62
               7
100
AcDbLine
 10
-3.5
 20
13.199999999999999
 30
0.0
 11
-3.5
 21
10.699999999999999
 31
0.0
  0
LINE
  5
49B
100
AcDbEntity
  8
0
  6
CONTINUOUS
 62
               7
100
AcDbLine
 10
0.0
 20
12.880000000000001
 30
0.0
 11
0.0
 21
11.01
 31
0.0
  0
LINE
  5
49C
100
AcDbEntity
  8
0
  6
CONTINUOUS
 62
               7
100
AcDbLine
 10
3.5
 20
13.199999999999999
 30
0.0
 11
-3.5
 21
13.199999999999999
 31
0.0
  0
LINE
  5
49D
100
AcDbEntity
  8
0
  6
CONTINUOUS
 62
               7
100
AcDbLine
 10
3.5
 20
13.199999999999999
 30
0.0
 11
3.5
 21
10.699999999999999
 31
0.0
  0
LINE
  5
49E
100
AcDbEntity
  8
0
  6
CONTINUOUS
 62
               7
100
AcDbLine
 10
4.0
 20
10.699999999999999
 30
0.0
 11
-4.0
 21
10.699999999999999
 31
0.0
  0
LINE
  5
49F
100
AcDbEntity
  8
0
  6
CONTINUOUS
 62
               7
100
AcDbLine
 10
4.0
 20
0.6
 30
0.0
 11
-4.0
 21
0.6
 31
0.0
  0
LINE
  5
4A0
100
AcDbEntity
  8
0
  6
CONTINUOUS
 62
               7
100
AcDbLine
 10
4.0
 20
10.1
 30
0.0
 11
-4.0
 21
10.1
 31
0.0
  0
LINE
  5
4A1
100
AcDbEntity
  8
0
  6
CONTINUOUS
 62
               7
100
AcDbLine
 10
4.0
 20
2.1000000000000001
 30
0.0
 11
-4.0
 21
2.1000000000000001
 31
0.0
  0
LINE
  5
4A2
100
AcDbEntity
  8
0
  6
CONTINUOUS
 62
               7
100
AcDbLine
 10
2.5
 20
-2.7999999999999998
 30
0.0
 11
-2.5
 21
-2.7999999999999998
 31
0.0
  0
LINE
  5
4A3
100
AcDbEntity
  8
0
  6
CONTINUOUS
 62
               2
100
AcDbLine
 10
2.0600000000000001
 20
-2.7999999999999998
 30
0.0
 11
2.0600000000000001
 21
0.0
 31
0.0
  0
LINE
  5
4A4
100
AcDbEntity
  8
0
  6
CONTINUOUS
 62
               2
100
AcDbLine
 10
-2.0600000000000001
 20
-2.7999999999999998
 30
0.0
 11
-2.0600000000000001
 21
0.0
 31
0.0
  0
LINE
  5
4A5
100
AcDbEntity
  8
0
  6
CONTINUOUS
 62
               7
100
AcDbLine
 10
2.5
 20
-2.7999999999999998
 30
0.0
 11
2.5
 21
0.0
 31
0.0
  0
LINE
  5
4A6
100
AcDbEntity
  8
0
  6
CONTINUOUS
 62
               7
100
AcDbLine
 10
-2.5
 20
-2.7999999999999998
 30
0.0
 11
-2.5
 21
0.0
 31
0.0
  0
LINE
  5
4A7
100
AcDbEntity
  8
0
  6
CONTINUOUS
 62
               7
100
AcDbLine
 10
-4.0
 20
10.699999999999999
 30
0.0
 11
-4.0
 21
0.0
 31
0.0
  0
LINE
  5
4A8
100
AcDbEntity
  8
0
  6
CONTINUOUS
 62
               7
100
AcDbLine
 10
4.0
 20
10.699999999999999
 30
0.0
 11
4.0
 21
0.0
 31
0.0
  0
LINE
  5
4A9
100
AcDbEntity
  8
0
  6
CENTER
 62
               2
100
AcDbLine
 10
0.0
 20
15.07
 30
0.0
 11
0.0
 21
-4.7300000000000004
 31
0.0
  0
ENDBLK
  5
4AA
100
AcDbEntity
  8
0
100
AcDbBlockEnd
  0
BLOCK
  5
4AB
100
AcDbEntity
  8
0
100
AcDbBlockBegin
  2
MS_36
 70
               0
 10
0.0
 20
0.0
 30
0.0
  3
MS_36
  1

  0
ARC
  5
4AC
100
AcDbEntity
  8
0
  6
CONTINUOUS
 62
               7
100
AcDbCircle
 10
0.000000190734859
 20
6.1000001907348569
 30
0.0
 40
4.4992885757965775
100
AcDbArc
 50
27.24846637935531
 51
62.75153362064453
  0
ARC
  5
4AD
100
AcDbEntity
  8
0
  6
CONTINUOUS
 62
               7
100
AcDbCircle
 10
0.0053452293379537
 20
6.1053265570385342
 30
0.0
 40
4.5015827277883567
100
AcDbArc
 50
297.15694307668019
 51
332.54695536262966
  0
ARC
  5
4AE
100
AcDbEntity
  8
0
  6
CONTINUOUS
 62
               7
100
AcDbCircle
 10
-0.000000190734859
 20
6.1000001907348569
 30
0.0
 40
4.4992885757965775
100
AcDbArc
 50
117.24846637935508
 51
152.7515336206443
  0
ARC
  5
4AF
100
AcDbEntity
  8
0
  6
CONTINUOUS
 62
               7
100
AcDbCircle
 10
-0.0053452293379537
 20
6.1053265570385342
 30
0.0
 40
4.5015827277883567
100
AcDbArc
 50
207.45304463736912
 51
242.84305692331858
  0
CIRCLE
  5
4B0
100
AcDbEntity
  8
0
  6
CONTINUOUS
 62
               7
100
AcDbCircle
 10
0.0
 20
6.1000003814697266
 30
0.0
 40
2.0669994354248047
  0
CIRCLE
  5
4B1
100
AcDbEntity
  8
0
  6
CONTINUOUS
 62
               2
100
AcDbCircle
 10
0.0
 20
6.1000003814697266
 30
0.0
 40
2.5
  0
ARC
  5
4B2
100
AcDbEntity
  8
0
  6
CONTINUOUS
 62
               7
100
AcDbCircle
 10
1.75
 20
15.754612922668457
 30
0.0
 40
5.0570595988135754
100
AcDbArc
 50
249.75404049903793
 51
290.24595950096085
  0
ARC
  5
4B3
100
AcDbEntity
  8
0
  6
CONTINUOUS
 62
               7
100
AcDbCircle
 10
1.75
 20
8.1453857421875
 30
0.0
 40
5.0476798799330984
100
AcDbArc
 50
69.71476580140029
 51
110.28523419859933
  0
ARC
  5
4B4
100
AcDbEntity
  8
0
  6
CONTINUOUS
 62
               7
100
AcDbCircle
 10
-1.75
 20
15.754612922668457
 30
0.0
 40
5.0570595988135754
100
AcDbArc
 50
249.75404049903793
 51
290.24595950096085
  0
ARC
  5
4B5
100
AcDbEntity
  8
0
  6
CONTINUOUS
 62
               7
100
AcDbCircle
 10
-1.75
 20
8.1453857421875
 30
0.0
 40
5.0476798799330984
100
AcDbArc
 50
69.71476580140029
 51
110.28523419859933
  0
LINE
  5
4B6
100
AcDbEntity
  8
0
  6
CONTINUOUS
 62
               7
100
AcDbLine
 10
-4.0
 20
0.0
 30
0.0
 11
4.0
 21
0.0
 31
0.0
  0
LINE
  5
4B7
100
AcDbEntity
  8
0
  6
CENTER
 62
               2
100
AcDbLine
 10
-3.5
 20
6.0999999999999996
 30
0.0
 11
3.5
 21
6.0999999999999996
 31
0.0
  0
LINE
  5
4B8
100
AcDbEntity
  8
0
  6
CONTINUOUS
 62
               7
100
AcDbLine
 10
3.5
 20
13.199999999999999
 30
0.0
 11
3.5
 21
10.699999999999999
 31
0.0
  0
LINE
  5
4B9
100
AcDbEntity
  8
0
  6
CONTINUOUS
 62
               7
100
AcDbLine
 10
0.0
 20
12.880000000000001
 30
0.0
 11
0.0
 21
11.01
 31
0.0
  0
LINE
  5
4BA
100
AcDbEntity
  8
0
  6
CONTINUOUS
 62
               7
100
AcDbLine
 10
-3.5
 20
13.199999999999999
 30
0.0
 11
3.5
 21
13.199999999999999
 31
0.0
  0
LINE
  5
4BB
100
AcDbEntity
  8
0
  6
CONTINUOUS
 62
               7
100
AcDbLine
 10
-3.5
 20
13.199999999999999
 30
0.0
 11
-3.5
 21
10.699999999999999
 31
0.0
  0
LINE
  5
4BC
100
AcDbEntity
  8
0
  6
CONTINUOUS
 62
               7
100
AcDbLine
 10
-4.0
 20
10.699999999999999
 30
0.0
 11
4.0
 21
10.699999999999999
 31
0.0
  0
LINE
  5
4BD
100
AcDbEntity
  8
0
  6
CONTINUOUS
 62
               7
100
AcDbLine
 10
-4.0
 20
0.6
 30
0.0
 11
4.0
 21
0.6
 31
0.0
  0
LINE
  5
4BE
100
AcDbEntity
  8
0
  6
CONTINUOUS
 62
               7
100
AcDbLine
 10
-4.0
 20
10.1
 30
0.0
 11
4.0
 21
10.1
 31
0.0
  0
LINE
  5
4BF
100
AcDbEntity
  8
0
  6
CONTINUOUS
 62
               7
100
AcDbLine
 10
-4.0
 20
2.1000000000000001
 30
0.0
 11
4.0
 21
2.1000000000000001
 31
0.0
  0
LINE
  5
4C0
100
AcDbEntity
  8
0
  6
CONTINUOUS
 62
               7
100
AcDbLine
 10
-2.5
 20
-2.7999999999999998
 30
0.0
 11
2.5
 21
-2.7999999999999998
 31
0.0
  0
LINE
  5
4C1
100
AcDbEntity
  8
0
  6
CONTINUOUS
 62
               2
100
AcDbLine
 10
-2.0600000000000001
 20
-2.7999999999999998
 30
0.0
 11
-2.0600000000000001
 21
0.0
 31
0.0
  0
LINE
  5
4C2
100
AcDbEntity
  8
0
  6
CONTINUOUS
 62
               2
100
AcDbLine
 10
2.0600000000000001
 20
-2.7999999999999998
 30
0.0
 11
2.0600000000000001
 21
0.0
 31
0.0
  0
LINE
  5
4C3
100
AcDbEntity
  8
0
  6
CONTINUOUS
 62
               7
100
AcDbLine
 10
-2.5
 20
-2.7999999999999998
 30
0.0
 11
-2.5
 21
0.0
 31
0.0
  0
LINE
  5
4C4
100
AcDbEntity
  8
0
  6
CONTINUOUS
 62
               7
100
AcDbLine
 10
2.5
 20
-2.7999999999999998
 30
0.0
 11
2.5
 21
0.0
 31
0.0
  0
LINE
  5
4C5
100
AcDbEntity
  8
0
  6
CONTINUOUS
 62
               7
100
AcDbLine
 10
4.0
 20
10.699999999999999
 30
0.0
 11
4.0
 21
0.0
 31
0.0
  0
LINE
  5
4C6
100
AcDbEntity
  8
0
  6
CONTINUOUS
 62
               7
100
AcDbLine
 10
-4.0
 20
10.699999999999999
 30
0.0
 11
-4.0
 21
0.0
 31
0.0
  0
LINE
  5
4C7
100
AcDbEntity
  8
0
  6
CENTER
 62
               2
100
AcDbLine
 10
0.0
 20
15.07
 30
0.0
 11
0.0
 21
-4.7300000000000004
 31
0.0
  0
ENDBLK
  5
4C8
100
AcDbEntity
  8
0
100
AcDbBlockEnd
  0
BLOCK
  5
4C9
100
AcDbEntity
  8
0
100
AcDbBlockBegin
  2
MS_37
 70
               0
 10
0.0
 20
0.0
 30
0.0
  3
MS_37
  1

  0
ARC
  5
4CA
100
AcDbEntity
  8
0
  6
CONTINUOUS
 62
               7
100
AcDbCircle
 10
0.0
 20
2.5999994277954119
 30
0.0
 40
10.992911861912029
100
AcDbArc
 50
62.945453801813649
 51
117.05454619818596
  0
ARC
  5
4CB
100
AcDbEntity
  8
0
  6
CONTINUOUS
 62
               7
100
AcDbCircle
 10
0.0034038621736117
 20
13.359922430739076
 30
0.0
 40
11.00020238964013
100
AcDbArc
 50
281.99747309644971
 51
297.01525120914442
  0
ARC
  5
4CC
100
AcDbEntity
  8
0
  6
CONTINUOUS
 62
               7
100
AcDbCircle
 10
-0.0034038621736117
 20
13.359922430739076
 30
0.0
 40
11.00020238964013
100
AcDbArc
 50
242.98474879085435
 51
258.00252690354904
  0
ARC
  5
4CD
100
AcDbEntity
  8
0
  6
CONTINUOUS
 62
               7
100
AcDbCircle
 10
-0.0192098556067741
 20
10.016455189787578
 30
0.0
 40
6.6822959667157216
100
AcDbArc
 50
72.231845937461401
 51
84.683102661664321
  0
ARC
  5
4CE
100
AcDbEntity
  8
0
  6
CONTINUOUS
 62
               7
100
AcDbCircle
 10
0.0
 20
20.887435913090087
 30
0.0
 40
6.6897002044614204
100
AcDbArc
 50
252.42483315042037
 51
287.57516684957841
  0
ARC
  5
4CF
100
AcDbEntity
  8
0
  6
CONTINUOUS
 62
               7
100
AcDbCircle
 10
3.0269406657391924
 20
15.990355072247043
 30
0.0
 40
1.7903576861194068
100
AcDbArc
 50
235.7763795039715
 51
270.09790614910452
  0
ARC
  5
4D0
100
AcDbEntity
  8
0
  6
CONTINUOUS
 62
               7
100
AcDbCircle
 10
-3.0269406657391924
 20
15.990355072247043
 30
0.0
 40
1.7903576861194068
100
AcDbArc
 50
269.90209385089423
 51
304.22362049602731
  0
ARC
  5
4D1
100
AcDbEntity
  8
0
  6
CONTINUOUS
 62
               7
100
AcDbCircle
 10
3.0402325891325912
 20
14.91379714055026
 30
0.0
 40
1.7862321688366225
100
AcDbArc
 50
90.32822574115454
 51
124.83147711215561
  0
ARC
  5
4D2
100
AcDbEntity
  8
0
  6
CONTINUOUS
 62
               7
100
AcDbCircle
 10
-3.0402325891325912
 20
14.91379714055026
 30
0.0
 40
1.7862321688366225
100
AcDbArc
 50
55.168522887843999
 51
89.671774258845062
  0
ARC
  5
4D3
100
AcDbEntity
  8
0
  6
CONTINUOUS
 62
               7
100
AcDbCircle
 10
0.0192098556067741
 20
10.016455189787578
 30
0.0
 40
6.6822959667157216
100
AcDbArc
 50
95.316897338335295
 51
107.76815406253822
  0
LINE
  5
4D4
100
AcDbEntity
  8
0
  6
CONTINUOUS
 62
               2
100
AcDbLine
 10
5.0
 20
3.7000000000000002
 30
0.0
 11
12.5
 21
3.7000000000000002
 31
0.0
  0
LINE
  5
4D5
100
AcDbEntity
  8
0
  6
CONTINUOUS
 62
               2
100
AcDbLine
 10
5.0
 20
4.7000000000000002
 30
0.0
 11
12.5
 21
4.7000000000000002
 31
0.0
  0
LINE
  5
4D6
100
AcDbEntity
  8
0
  6
CONTINUOUS
 62
               2
100
AcDbLine
 10
5.0
 20
5.7000000000000002
 30
0.0
 11
12.5
 21
5.7000000000000002
 31
0.0
  0
LINE
  5
4D7
100
AcDbEntity
  8
0
  6
CONTINUOUS
 62
               2
100
AcDbLine
 10
5.0
 20
6.7000000000000002
 30
0.0
 11
12.5
 21
6.7000000000000002
 31
0.0
  0
LINE
  5
4D8
100
AcDbEntity
  8
0
  6
CONTINUOUS
 62
               7
100
AcDbLine
 10
5.0
 20
2.7000000000000002
 30
0.0
 11
12.5
 21
2.7000000000000002
 31
0.0
  0
LINE
  5
4D9
100
AcDbEntity
  8
0
  6
CONTINUOUS
 62
               7
100
AcDbLine
 10
12.5
 20
5.7000000000000002
 30
0.0
 11
14.0
 21
5.96
 31
0.0
  0
LINE
  5
4DA
100
AcDbEntity
  8
0
  6
CONTINUOUS
 62
               7
100
AcDbLine
 10
14.0
 20
8.4299999999999997
 30
0.0
 11
14.0
 21
5.96
 31
0.0
  0
LINE
  5
4DB
100
AcDbEntity
  8
0
  6
CONTINUOUS
 62
               7
100
AcDbLine
 10
12.5
 20
8.6999999999999993
 30
0.0
 11
14.0
 21
8.4299999999999997
 31
0.0
  0
LINE
  5
4DC
100
AcDbEntity
  8
0
  6
CONTINUOUS
 62
               7
100
AcDbLine
 10
12.5
 20
11.699999999999999
 30
0.0
 11
12.5
 21
2.7000000000000002
 31
0.0
  0
LINE
  5
4DD
100
AcDbEntity
  8
0
  6
CONTINUOUS
 62
               7
100
AcDbLine
 10
5.0
 20
11.699999999999999
 30
0.0
 11
12.5
 21
11.699999999999999
 31
0.0
  0
LINE
  5
4DE
100
AcDbEntity
  8
0
  6
CONTINUOUS
 62
               7
100
AcDbLine
 10
4.0
 20
14.199999999999999
 30
0.0
 11
4.0
 21
13.6
 31
0.0
  0
LINE
  5
4DF
100
AcDbEntity
  8
0
  6
CONTINUOUS
 62
               7
100
AcDbLine
 10
-4.0
 20
14.199999999999999
 30
0.0
 11
-4.0
 21
13.6
 31
0.0
  0
LINE
  5
4E0
100
AcDbEntity
  8
0
  6
CONTINUOUS
 62
               7
100
AcDbLine
 10
5.0
 20
13.6
 30
0.0
 11
5.0
 21
2.6000000000000001
 31
0.0
  0
LINE
  5
4E1
100
AcDbEntity
  8
0
  6
CONTINUOUS
 62
               7
100
AcDbLine
 10
-5.0
 20
13.6
 30
0.0
 11
-5.0
 21
2.6000000000000001
 31
0.0
  0
LINE
  5
4E2
100
AcDbEntity
  8
0
  6
CONTINUOUS
 62
               7
100
AcDbLine
 10
5.0
 20
2.6000000000000001
 30
0.0
 11
-5.0
 21
2.6000000000000001
 31
0.0
  0
LINE
  5
4E3
100
AcDbEntity
  8
0
  6
CONTINUOUS
 62
               7
100
AcDbLine
 10
-4.0
 20
0.0
 30
0.0
 11
-4.0
 21
2.6000000000000001
 31
0.0
  0
LINE
  5
4E4
100
AcDbEntity
  8
0
  6
CONTINUOUS
 62
               7
100
AcDbLine
 10
-4.0
 20
0.6
 30
0.0
 11
4.0
 21
0.6
 31
0.0
  0
LINE
  5
4E5
100
AcDbEntity
  8
0
  6
CONTINUOUS
 62
               7
100
AcDbLine
 10
4.0
 20
0.0
 30
0.0
 11
4.0
 21
2.6000000000000001
 31
0.0
  0
LINE
  5
4E6
100
AcDbEntity
  8
0
  6
CONTINUOUS
 62
               7
100
AcDbLine
 10
-4.0
 20
0.0
 30
0.0
 11
4.0
 21
0.0
 31
0.0
  0
LINE
  5
4E7
100
AcDbEntity
  8
0
  6
CONTINUOUS
 62
               2
100
AcDbLine
 10
2.0600000000000001
 20
-2.7999999999999998
 30
0.0
 11
2.0600000000000001
 21
0.0
 31
0.0
  0
LINE
  5
4E8
100
AcDbEntity
  8
0
  6
CONTINUOUS
 62
               7
100
AcDbLine
 10
2.5
 20
-2.7999999999999998
 30
0.0
 11
2.5
 21
0.0
 31
0.0
  0
LINE
  5
4E9
100
AcDbEntity
  8
0
  6
CONTINUOUS
 62
               7
100
AcDbLine
 10
2.5
 20
-2.7999999999999998
 30
0.0
 11
-2.5
 21
-2.7999999999999998
 31
0.0
  0
LINE
  5
4EA
100
AcDbEntity
  8
0
  6
CONTINUOUS
 62
               2
100
AcDbLine
 10
-2.0600000000000001
 20
-2.7999999999999998
 30
0.0
 11
-2.0600000000000001
 21
0.0
 31
0.0
  0
LINE
  5
4EB
100
AcDbEntity
  8
0
  6
CONTINUOUS
 62
               7
100
AcDbLine
 10
-2.5
 20
-2.7999999999999998
 30
0.0
 11
-2.5
 21
0.0
 31
0.0
  0
LINE
  5
4EC
100
AcDbEntity
  8
0
  6
CONTINUOUS
 62
               7
100
AcDbLine
 10
5.0
 20
13.6
 30
0.0
 11
-5.0
 21
13.6
 31
0.0
  0
LINE
  5
4ED
100
AcDbEntity
  8
0
  6
CENTER
 62
               2
100
AcDbLine
 10
15.51
 20
7.2000000000000002
 30
0.0
 11
-6.5800000000000001
 21
7.2000000000000002
 31
0.0
  0
LINE
  5
4EE
100
AcDbEntity
  8
0
  6
CONTINUOUS
 62
               7
100
AcDbLine
 10
0.6
 20
16.699999999999999
 30
0.0
 11
3.5
 21
16.699999999999999
 31
0.0
  0
LINE
  5
4EF
100
AcDbEntity
  8
0
  6
CONTINUOUS
 62
               7
100
AcDbLine
 10
-0.6
 20
16.699999999999999
 30
0.0
 11
-0.6
 21
15.199999999999999
 31
0.0
  0
LINE
  5
4F0
100
AcDbEntity
  8
0
  6
CONTINUOUS
 62
               7
100
AcDbLine
 10
0.6
 20
16.699999999999999
 30
0.0
 11
0.6
 21
15.199999999999999
 31
0.0
  0
LINE
  5
4F1
100
AcDbEntity
  8
0
  6
CONTINUOUS
 62
               7
100
AcDbLine
 10
0.6
 20
15.199999999999999
 30
0.0
 11
-0.6
 21
15.199999999999999
 31
0.0
  0
LINE
  5
4F2
100
AcDbEntity
  8
0
  6
CENTER
 62
               2
100
AcDbLine
 10
0.0
 20
18.48
 30
0.0
 11
0.0
 21
-4.5099999999999998
 31
0.0
  0
LINE
  5
4F3
100
AcDbEntity
  8
0
  6
CONTINUOUS
 62
               7
100
AcDbLine
 10
3.5
 20
14.199999999999999
 30
0.0
 11
4.04
 21
14.51
 31
0.0
  0
LINE
  5
4F4
100
AcDbEntity
  8
0
  6
CONTINUOUS
 62
               7
100
AcDbLine
 10
-3.5
 20
14.199999999999999
 30
0.0
 11
-4.04
 21
14.51
 31
0.0
  0
LINE
  5
4F5
100
AcDbEntity
  8
0
  6
CONTINUOUS
 62
               7
100
AcDbLine
 10
3.5
 20
16.699999999999999
 30
0.0
 11
4.04
 21
16.379999999999999
 31
0.0
  0
LINE
  5
4F6
100
AcDbEntity
  8
0
  6
CONTINUOUS
 62
               7
100
AcDbLine
 10
-3.5
 20
16.699999999999999
 30
0.0
 11
-4.04
 21
16.379999999999999
 31
0.0
  0
LINE
  5
4F7
100
AcDbEntity
  8
0
  6
CONTINUOUS
 62
               7
100
AcDbLine
 10
4.04
 20
16.379999999999999
 30
0.0
 11
4.04
 21
14.51
 31
0.0
  0
LINE
  5
4F8
100
AcDbEntity
  8
0
  6
CONTINUOUS
 62
               7
100
AcDbLine
 10
2.02
 20
16.379999999999999
 30
0.0
 11
2.02
 21
14.51
 31
0.0
  0
LINE
  5
4F9
100
AcDbEntity
  8
0
  6
CONTINUOUS
 62
               7
100
AcDbLine
 10
-2.02
 20
16.379999999999999
 30
0.0
 11
-2.02
 21
14.51
 31
0.0
  0
LINE
  5
4FA
100
AcDbEntity
  8
0
  6
CONTINUOUS
 62
               7
100
AcDbLine
 10
-4.04
 20
16.379999999999999
 30
0.0
 11
-4.04
 21
14.51
 31
0.0
  0
LINE
  5
4FB
100
AcDbEntity
  8
0
  6
CONTINUOUS
 62
               7
100
AcDbLine
 10
4.0
 20
14.199999999999999
 30
0.0
 11
-4.0
 21
14.199999999999999
 31
0.0
  0
LINE
  5
4FC
100
AcDbEntity
  8
0
  6
CONTINUOUS
 62
               7
100
AcDbLine
 10
-0.6
 20
16.699999999999999
 30
0.0
 11
-3.5
 21
16.699999999999999
 31
0.0
  0
ENDBLK
  5
4FD
100
AcDbEntity
  8
0
100
AcDbBlockEnd
  0
BLOCK
  5
4FE
100
AcDbEntity
  8
0
100
AcDbBlockBegin
  2
MS_38
 70
               0
 10
0.0
 20
0.0
 30
0.0
  3
MS_38
  1

  0
CIRCLE
  5
4FF
100
AcDbEntity
  8
0
  6
CONTINUOUS
 62
               7
100
AcDbCircle
 10
0.0
 20
0.0
 30
0.0
 40
5.0
  0
ARC
  5
500
100
AcDbEntity
  8
0
  6
CONTINUOUS
 62
               7
100
AcDbCircle
 10
0.000000000000001
 20
0.0
 30
0.0
 40
3.4919335617963867
100
AcDbArc
 50
99.893920669735223
 51
260.10607933026398
  0
ARC
  5
501
100
AcDbEntity
  8
0
  6
CONTINUOUS
 62
               7
100
AcDbCircle
 10
-0.0009687532026477
 20
-0.0016806884533995
 30
0.0
 40
3.991553471691204
100
AcDbArc
 50
301.08656230114497
 51
359.01927923826821
  0
ARC
  5
502
100
AcDbEntity
  8
0
  6
CONTINUOUS
 62
               7
100
AcDbCircle
 10
-0.0009687532026477
 20
0.0016806884533995
 30
0.0
 40
3.991553471691204
100
AcDbArc
 50
0.9807207617309708
 51
58.91343769885421
  0
ARC
  5
503
100
AcDbEntity
  8
0
  6
CONTINUOUS
 62
               7
100
AcDbCircle
 10
0.0
 20
0.0
 30
0.0
 40
3.9968612685456071
100
AcDbArc
 50
61.12640262163702
 51
118.87359737836258
  0
ARC
  5
504
100
AcDbEntity
  8
0
  6
CONTINUOUS
 62
               7
100
AcDbCircle
 10
0.0009687532026477
 20
0.0016806884533995
 30
0.0
 40
3.991553471691204
100
AcDbArc
 50
121.08656230114541
 51
179.01927923826861
  0
ARC
  5
505
100
AcDbEntity
  8
0
  6
CONTINUOUS
 62
               7
100
AcDbCircle
 10
0.0009687532026477
 20
-0.0016806884533995
 30
0.0
 40
3.991553471691204
100
AcDbArc
 50
180.98072076173057
 51
238.91343769885381
  0
ARC
  5
506
100
AcDbEntity
  8
0
  6
CONTINUOUS
 62
               7
100
AcDbCircle
 10
0.0
 20
0.0
 30
0.0
 40
3.9968612685456071
100
AcDbArc
 50
241.12640262163663
 51
298.87359737836215
  0
ARC
  5
507
100
AcDbEntity
  8
0
  6
CONTINUOUS
 62
               7
100
AcDbCircle
 10
-0.000000000000001
 20
0.0
 30
0.0
 40
3.4919335617963867
100
AcDbArc
 50
279.89392066973483
 51
80.106079330264393
  0
LINE
  5
508
100
AcDbEntity
  8
0
  6
CONTINUOUS
 62
               2
100
AcDbLine
 10
5.0
 20
-3.5
 30
0.0
 11
12.5
 21
-3.5
 31
0.0
  0
LINE
  5
509
100
AcDbEntity
  8
0
  6
CONTINUOUS
 62
               2
100
AcDbLine
 10
5.0
 20
-2.5
 30
0.0
 11
12.5
 21
-2.5
 31
0.0
  0
LINE
  5
50A
100
AcDbEntity
  8
0
  6
CONTINUOUS
 62
               2
100
AcDbLine
 10
5.0
 20
-1.5
 30
0.0
 11
12.5
 21
-1.5
 31
0.0
  0
LINE
  5
50B
100
AcDbEntity
  8
0
  6
CONTINUOUS
 62
               2
100
AcDbLine
 10
5.0
 20
-0.5
 30
0.0
 11
12.5
 21
-0.5
 31
0.0
  0
LINE
  5
50C
100
AcDbEntity
  8
0
  6
CONTINUOUS
 62
               7
100
AcDbLine
 10
5.0
 20
5.0
 30
0.0
 11
5.0
 21
-5.0
 31
0.0
  0
LINE
  5
50D
100
AcDbEntity
  8
0
  6
CONTINUOUS
 62
               7
100
AcDbLine
 10
5.0
 20
5.0
 30
0.0
 11
-5.0
 21
5.0
 31
0.0
  0
LINE
  5
50E
100
AcDbEntity
  8
0
  6
CENTER
 62
               2
100
AcDbLine
 10
0.0
 20
7.5
 30
0.0
 11
0.0
 21
-7.5
 31
0.0
  0
LINE
  5
50F
100
AcDbEntity
  8
0
  6
CENTER
 62
               2
100
AcDbLine
 10
15.539999999999999
 20
0.0
 30
0.0
 11
-7.5
 21
0.0
 31
0.0
  0
LINE
  5
510
100
AcDbEntity
  8
0
  6
CONTINUOUS
 62
               7
100
AcDbLine
 10
-5.0
 20
5.0
 30
0.0
 11
-5.0
 21
-5.0
 31
0.0
  0
LINE
  5
511
100
AcDbEntity
  8
0
  6
CONTINUOUS
 62
               7
100
AcDbLine
 10
5.0
 20
-5.0
 30
0.0
 11
-5.0
 21
-5.0
 31
0.0
  0
LINE
  5
512
100
AcDbEntity
  8
0
  6
CONTINUOUS
 62
               7
100
AcDbLine
 10
12.5
 20
1.5
 30
0.0
 11
14.0
 21
1.23
 31
0.0
  0
LINE
  5
513
100
AcDbEntity
  8
0
  6
CONTINUOUS
 62
               7
100
AcDbLine
 10
12.5
 20
-1.5
 30
0.0
 11
14.0
 21
-1.23
 31
0.0
  0
LINE
  5
514
100
AcDbEntity
  8
0
  6
CONTINUOUS
 62
               7
100
AcDbLine
 10
5.0
 20
-4.5
 30
0.0
 11
12.5
 21
-4.5
 31
0.0
  0
LINE
  5
515
100
AcDbEntity
  8
0
  6
CONTINUOUS
 62
               7
100
AcDbLine
 10
5.0
 20
4.5
 30
0.0
 11
12.5
 21
4.5
 31
0.0
  0
LINE
  5
516
100
AcDbEntity
  8
0
  6
CONTINUOUS
 62
               7
100
AcDbLine
 10
12.5
 20
4.5
 30
0.0
 11
12.5
 21
-4.5
 31
0.0
  0
LINE
  5
517
100
AcDbEntity
  8
0
  6
CONTINUOUS
 62
               7
100
AcDbLine
 10
14.0
 20
1.23
 30
0.0
 11
14.0
 21
-1.23
 31
0.0
  0
LINE
  5
518
100
AcDbEntity
  8
0
  6
CONTINUOUS
 62
               7
100
AcDbLine
 10
0.6
 20
-3.5
 30
0.0
 11
0.6
 21
3.5
 31
0.0
  0
LINE
  5
519
100
AcDbEntity
  8
0
  6
CONTINUOUS
 62
               7
100
AcDbLine
 10
-0.6
 20
-3.5
 30
0.0
 11
-0.6
 21
3.5
 31
0.0
  0
LINE
  5
51A
100
AcDbEntity
  8
0
  6
CONTINUOUS
 62
               7
100
AcDbLine
 10
4.04
 20
0.0
 30
0.0
 11
2.02
 21
-3.5
 31
0.0
  0
LINE
  5
51B
100
AcDbEntity
  8
0
  6
CONTINUOUS
 62
               7
100
AcDbLine
 10
2.02
 20
3.5
 30
0.0
 11
4.04
 21
0.0
 31
0.0
  0
LINE
  5
51C
100
AcDbEntity
  8
0
  6
CONTINUOUS
 62
               7
100
AcDbLine
 10
-2.02
 20
3.5
 30
0.0
 11
2.02
 21
3.5
 31
0.0
  0
LINE
  5
51D
100
AcDbEntity
  8
0
  6
CONTINUOUS
 62
               7
100
AcDbLine
 10
-4.04
 20
0.0
 30
0.0
 11
-2.02
 21
3.5
 31
0.0
  0
LINE
  5
51E
100
AcDbEntity
  8
0
  6
CONTINUOUS
 62
               7
100
AcDbLine
 10
-2.02
 20
-3.5
 30
0.0
 11
-4.04
 21
0.0
 31
0.0
  0
LINE
  5
51F
100
AcDbEntity
  8
0
  6
CONTINUOUS
 62
               7
100
AcDbLine
 10
2.02
 20
-3.5
 30
0.0
 11
-2.02
 21
-3.5
 31
0.0
  0
ENDBLK
  5
520
100
AcDbEntity
  8
0
100
AcDbBlockEnd
  0
BLOCK
  5
521
100
AcDbEntity
  8
0
100
AcDbBlockBegin
  2
MS_39
 70
               0
 10
0.0
 20
0.0
 30
0.0
  3
MS_39
  1

  0
ARC
  5
522
100
AcDbEntity
  8
0
  6
CONTINUOUS
 62
               7
100
AcDbCircle
 10
0.0
 20
2.5999984741210937
 30
0.0
 40
10.99291271122951
100
AcDbArc
 50
62.945456062639956
 51
117.05454393735965
  0
ARC
  5
523
100
AcDbEntity
  8
0
  6
CONTINUOUS
 62
               7
100
AcDbCircle
 10
0.0034038621736117
 20
13.359922430739076
 30
0.0
 40
11.00020238964013
100
AcDbArc
 50
281.99747309644971
 51
297.01525120914442
  0
ARC
  5
524
100
AcDbEntity
  8
0
  6
CONTINUOUS
 62
               7
100
AcDbCircle
 10
-0.0034038621736117
 20
13.359922430739076
 30
0.0
 40
11.00020238964013
100
AcDbArc
 50
242.98474879085435
 51
258.00252690354904
  0
ARC
  5
525
100
AcDbEntity
  8
0
  6
CONTINUOUS
 62
               7
100
AcDbCircle
 10
-1.75
 20
19.254608154296875
 30
0.0
 40
5.0570551250525639
100
AcDbArc
 50
249.75402180362707
 51
290.24597819637165
  0
ARC
  5
526
100
AcDbEntity
  8
0
  6
CONTINUOUS
 62
               7
100
AcDbCircle
 10
-1.75
 20
11.6453857421875
 30
0.0
 40
5.0476798799330966
100
AcDbArc
 50
69.714765801400276
 51
110.28523419859933
  0
ARC
  5
527
100
AcDbEntity
  8
0
  6
CONTINUOUS
 62
               7
100
AcDbCircle
 10
1.75
 20
19.254608154296875
 30
0.0
 40
5.0570551250525639
100
AcDbArc
 50
249.75402180362707
 51
290.24597819637165
  0
ARC
  5
528
100
AcDbEntity
  8
0
  6
CONTINUOUS
 62
               7
100
AcDbCircle
 10
1.75
 20
11.6453857421875
 30
0.0
 40
5.0476798799330966
100
AcDbArc
 50
69.714765801400276
 51
110.28523419859933
  0
LINE
  5
529
100
AcDbEntity
  8
0
  6
CENTER
 62
               2
100
AcDbLine
 10
0.0
 20
18.57
 30
0.0
 11
0.0
 21
-4.4199999999999999
 31
0.0
  0
LINE
  5
52A
100
AcDbEntity
  8
0
  6
CONTINUOUS
 62
               7
100
AcDbLine
 10
-5.0
 20
13.6
 30
0.0
 11
-5.0
 21
2.6000000000000001
 31
0.0
  0
LINE
  5
52B
100
AcDbEntity
  8
0
  6
CONTINUOUS
 62
               7
100
AcDbLine
 10
5.0
 20
13.6
 30
0.0
 11
5.0
 21
2.6000000000000001
 31
0.0
  0
LINE
  5
52C
100
AcDbEntity
  8
0
  6
CONTINUOUS
 62
               7
100
AcDbLine
 10
-4.0
 20
0.0
 30
0.0
 11
-4.0
 21
2.6000000000000001
 31
0.0
  0
LINE
  5
52D
100
AcDbEntity
  8
0
  6
CONTINUOUS
 62
               7
100
AcDbLine
 10
4.0
 20
0.0
 30
0.0
 11
4.0
 21
2.6000000000000001
 31
0.0
  0
LINE
  5
52E
100
AcDbEntity
  8
0
  6
CONTINUOUS
 62
               7
100
AcDbLine
 10
5.0
 20
2.6000000000000001
 30
0.0
 11
-5.0
 21
2.6000000000000001
 31
0.0
  0
LINE
  5
52F
100
AcDbEntity
  8
0
  6
CONTINUOUS
 62
               7
100
AcDbLine
 10
-4.0
 20
0.6
 30
0.0
 11
4.0
 21
0.6
 31
0.0
  0
LINE
  5
530
100
AcDbEntity
  8
0
  6
CONTINUOUS
 62
               7
100
AcDbLine
 10
-4.0
 20
0.0
 30
0.0
 11
4.0
 21
0.0
 31
0.0
  0
LINE
  5
531
100
AcDbEntity
  8
0
  6
CONTINUOUS
 62
               7
100
AcDbLine
 10
5.0
 20
13.6
 30
0.0
 11
-5.0
 21
13.6
 31
0.0
  0
LINE
  5
532
100
AcDbEntity
  8
0
  6
CONTINUOUS
 62
               7
100
AcDbLine
 10
-3.5
 20
16.699999999999999
 30
0.0
 11
-3.5
 21
14.199999999999999
 31
0.0
  0
LINE
  5
533
100
AcDbEntity
  8
0
  6
CONTINUOUS
 62
               7
100
AcDbLine
 10
0.0
 20
16.379999999999999
 30
0.0
 11
0.0
 21
14.51
 31
0.0
  0
LINE
  5
534
100
AcDbEntity
  8
0
  6
CONTINUOUS
 62
               7
100
AcDbLine
 10
3.5
 20
16.699999999999999
 30
0.0
 11
-3.5
 21
16.699999999999999
 31
0.0
  0
LINE
  5
535
100
AcDbEntity
  8
0
  6
CONTINUOUS
 62
               7
100
AcDbLine
 10
3.5
 20
16.699999999999999
 30
0.0
 11
3.5
 21
14.199999999999999
 31
0.0
  0
LINE
  5
536
100
AcDbEntity
  8
0
  6
CONTINUOUS
 62
               7
100
AcDbLine
 10
-2.5
 20
-2.7999999999999998
 30
0.0
 11
-2.5
 21
0.0
 31
0.0
  0
LINE
  5
537
100
AcDbEntity
  8
0
  6
CONTINUOUS
 62
               2
100
AcDbLine
 10
-2.0600000000000001
 20
-2.7999999999999998
 30
0.0
 11
-2.0600000000000001
 21
0.0
 31
0.0
  0
LINE
  5
538
100
AcDbEntity
  8
0
  6
CONTINUOUS
 62
               7
100
AcDbLine
 10
2.5
 20
-2.7999999999999998
 30
0.0
 11
-2.5
 21
-2.7999999999999998
 31
0.0
  0
LINE
  5
539
100
AcDbEntity
  8
0
  6
CONTINUOUS
 62
               2
100
AcDbLine
 10
2.0600000000000001
 20
-2.7999999999999998
 30
0.0
 11
2.0600000000000001
 21
0.0
 31
0.0
  0
LINE
  5
53A
100
AcDbEntity
  8
0
  6
CONTINUOUS
 62
               7
100
AcDbLine
 10
2.5
 20
-2.7999999999999998
 30
0.0
 11
2.5
 21
0.0
 31
0.0
  0
LINE
  5
53B
100
AcDbEntity
  8
0
  6
CONTINUOUS
 62
               7
100
AcDbLine
 10
4.0
 20
14.199999999999999
 30
0.0
 11
-4.0
 21
14.199999999999999
 31
0.0
  0
LINE
  5
53C
100
AcDbEntity
  8
0
  6
CONTINUOUS
 62
               7
100
AcDbLine
 10
-4.0
 20
14.199999999999999
 30
0.0
 11
-4.0
 21
13.6
 31
0.0
  0
LINE
  5
53D
100
AcDbEntity
  8
0
  6
CONTINUOUS
 62
               7
100
AcDbLine
 10
4.0
 20
14.199999999999999
 30
0.0
 11
4.0
 21
13.6
 31
0.0
  0
ENDBLK
  5
53E
100
AcDbEntity
  8
0
100
AcDbBlockEnd
  0
BLOCK
  5
53F
100
AcDbEntity
  8
0
100
AcDbBlockBegin
  2
MS_40
 70
               0
 10
0.0
 20
0.0
 30
0.0
  3
MS_40
  1

  0
ARC
  5
540
100
AcDbEntity
  8
0
  6
CONTINUOUS
 62
               7
100
AcDbCircle
 10
0.0034038621736117
 20
13.359922430739076
 30
0.0
 40
11.00020238964013
100
AcDbArc
 50
281.99747309644971
 51
297.01525120914442
  0
ARC
  5
541
100
AcDbEntity
  8
0
  6
CONTINUOUS
 62
               7
100
AcDbCircle
 10
-0.0034038621736117
 20
13.359922430739076
 30
0.0
 40
11.00020238964013
100
AcDbArc
 50
242.98474879085435
 51
258.00252690354904
  0
ARC
  5
542
100
AcDbEntity
  8
0
  6
CONTINUOUS
 62
               7
100
AcDbCircle
 10
0.0
 20
2.5999984741210937
 30
0.0
 40
10.99291271122951
100
AcDbArc
 50
62.945456062639956
 51
117.05454393735965
  0
CIRCLE
  5
543
100
AcDbEntity
  8
0
  6
CONTINUOUS
 62
               7
100
AcDbCircle
 10
0.0
 20
7.2000007629394531
 30
0.0
 40
2.0499992370605469
  0
CIRCLE
  5
544
100
AcDbEntity
  8
0
  6
CONTINUOUS
 62
               7
100
AcDbCircle
 10
0.0
 20
7.2000007629394531
 30
0.0
 40
0.8999999761581421
  0
CIRCLE
  5
545
100
AcDbEntity
  8
0
  6
CONTINUOUS
 62
               7
100
AcDbCircle
 10
0.0
 20
7.2000007629394531
 30
0.0
 40
1.5
  0
CIRCLE
  5
546
100
AcDbEntity
  8
0
  6
CONTINUOUS
 62
               7
100
AcDbCircle
 10
0.0
 20
7.2000007629394531
 30
0.0
 40
4.5
  0
ARC
  5
547
100
AcDbEntity
  8
0
  6
CONTINUOUS
 62
               7
100
AcDbCircle
 10
-1.75
 20
19.254608154296875
 30
0.0
 40
5.0570551250525639
100
AcDbArc
 50
249.75402180362707
 51
290.24597819637165
  0
ARC
  5
548
100
AcDbEntity
  8
0
  6
CONTINUOUS
 62
               7
100
AcDbCircle
 10
-1.75
 20
11.6453857421875
 30
0.0
 40
5.0476798799330966
100
AcDbArc
 50
69.714765801400276
 51
110.28523419859933
  0
ARC
  5
549
100
AcDbEntity
  8
0
  6
CONTINUOUS
 62
               7
100
AcDbCircle
 10
1.75
 20
19.254608154296875
 30
0.0
 40
5.0570551250525639
100
AcDbArc
 50
249.75402180362707
 51
290.24597819637165
  0
ARC
  5
54A
100
AcDbEntity
  8
0
  6
CONTINUOUS
 62
               7
100
AcDbCircle
 10
1.75
 20
11.6453857421875
 30
0.0
 40
5.0476798799330966
100
AcDbArc
 50
69.714765801400276
 51
110.28523419859933
  0
LINE
  5
54B
100
AcDbEntity
  8
0
  6
CENTER
 62
               2
100
AcDbLine
 10
0.0
 20
18.57
 30
0.0
 11
0.0
 21
-4.4199999999999999
 31
0.0
  0
LINE
  5
54C
100
AcDbEntity
  8
0
  6
CENTER
 62
               2
100
AcDbLine
 10
-6.5
 20
7.2000000000000002
 30
0.0
 11
6.5
 21
7.2000000000000002
 31
0.0
  0
LINE
  5
54D
100
AcDbEntity
  8
0
  6
CONTINUOUS
 62
               7
100
AcDbLine
 10
-5.0
 20
13.6
 30
0.0
 11
-5.0
 21
2.6000000000000001
 31
0.0
  0
LINE
  5
54E
100
AcDbEntity
  8
0
  6
CONTINUOUS
 62
               7
100
AcDbLine
 10
5.0
 20
13.6
 30
0.0
 11
5.0
 21
2.6000000000000001
 31
0.0
  0
LINE
  5
54F
100
AcDbEntity
  8
0
  6
CONTINUOUS
 62
               7
100
AcDbLine
 10
-4.0
 20
0.0
 30
0.0
 11
-4.0
 21
2.6000000000000001
 31
0.0
  0
LINE
  5
550
100
AcDbEntity
  8
0
  6
CONTINUOUS
 62
               7
100
AcDbLine
 10
4.0
 20
0.0
 30
0.0
 11
4.0
 21
2.6000000000000001
 31
0.0
  0
LINE
  5
551
100
AcDbEntity
  8
0
  6
CONTINUOUS
 62
               7
100
AcDbLine
 10
5.0
 20
2.6000000000000001
 30
0.0
 11
-5.0
 21
2.6000000000000001
 31
0.0
  0
LINE
  5
552
100
AcDbEntity
  8
0
  6
CONTINUOUS
 62
               7
100
AcDbLine
 10
-4.0
 20
0.6
 30
0.0
 11
4.0
 21
0.6
 31
0.0
  0
LINE
  5
553
100
AcDbEntity
  8
0
  6
CONTINUOUS
 62
               7
100
AcDbLine
 10
-4.0
 20
0.0
 30
0.0
 11
4.0
 21
0.0
 31
0.0
  0
LINE
  5
554
100
AcDbEntity
  8
0
  6
CONTINUOUS
 62
               7
100
AcDbLine
 10
5.0
 20
13.6
 30
0.0
 11
-5.0
 21
13.6
 31
0.0
  0
LINE
  5
555
100
AcDbEntity
  8
0
  6
CONTINUOUS
 62
               7
100
AcDbLine
 10
-3.5
 20
16.699999999999999
 30
0.0
 11
-3.5
 21
14.199999999999999
 31
0.0
  0
LINE
  5
556
100
AcDbEntity
  8
0
  6
CONTINUOUS
 62
               7
100
AcDbLine
 10
0.0
 20
16.379999999999999
 30
0.0
 11
0.0
 21
14.51
 31
0.0
  0
LINE
  5
557
100
AcDbEntity
  8
0
  6
CONTINUOUS
 62
               7
100
AcDbLine
 10
3.5
 20
16.699999999999999
 30
0.0
 11
-3.5
 21
16.699999999999999
 31
0.0
  0
LINE
  5
558
100
AcDbEntity
  8
0
  6
CONTINUOUS
 62
               7
100
AcDbLine
 10
3.5
 20
16.699999999999999
 30
0.0
 11
3.5
 21
14.199999999999999
 31
0.0
  0
LINE
  5
559
100
AcDbEntity
  8
0
  6
CONTINUOUS
 62
               7
100
AcDbLine
 10
-2.5
 20
-2.7999999999999998
 30
0.0
 11
-2.5
 21
0.0
 31
0.0
  0
LINE
  5
55A
100
AcDbEntity
  8
0
  6
CONTINUOUS
 62
               2
100
AcDbLine
 10
-2.0600000000000001
 20
-2.7999999999999998
 30
0.0
 11
-2.0600000000000001
 21
0.0
 31
0.0
  0
LINE
  5
55B
100
AcDbEntity
  8
0
  6
CONTINUOUS
 62
               7
100
AcDbLine
 10
2.5
 20
-2.7999999999999998
 30
0.0
 11
-2.5
 21
-2.7999999999999998
 31
0.0
  0
LINE
  5
55C
100
AcDbEntity
  8
0
  6
CONTINUOUS
 62
               2
100
AcDbLine
 10
2.0600000000000001
 20
-2.7999999999999998
 30
0.0
 11
2.0600000000000001
 21
0.0
 31
0.0
  0
LINE
  5
55D
100
AcDbEntity
  8
0
  6
CONTINUOUS
 62
               7
100
AcDbLine
 10
2.5
 20
-2.7999999999999998
 30
0.0
 11
2.5
 21
0.0
 31
0.0
  0
LINE
  5
55E
100
AcDbEntity
  8
0
  6
CONTINUOUS
 62
               7
100
AcDbLine
 10
4.0
 20
14.199999999999999
 30
0.0
 11
-4.0
 21
14.199999999999999
 31
0.0
  0
LINE
  5
55F
100
AcDbEntity
  8
0
  6
CONTINUOUS
 62
               7
100
AcDbLine
 10
-4.0
 20
14.199999999999999
 30
0.0
 11
-4.0
 21
13.6
 31
0.0
  0
LINE
  5
560
100
AcDbEntity
  8
0
  6
CONTINUOUS
 62
               7
100
AcDbLine
 10
4.0
 20
14.199999999999999
 30
0.0
 11
4.0
 21
13.6
 31
0.0
  0
ENDBLK
  5
561
100
AcDbEntity
  8
0
100
AcDbBlockEnd
  0
BLOCK
  5
562
100
AcDbEntity
  8
0
100
AcDbBlockBegin
  2
MS_41
 70
               0
 10
0.0
 20
0.0
 30
0.0
  3
MS_41
  1

  0
ARC
  5
563
100
AcDbEntity
  8
0
  6
CONTINUOUS
 62
               7
100
AcDbCircle
 10
0.0
 20
2.5999994277954119
 30
0.0
 40
10.992911861912029
100
AcDbArc
 50
62.945453801813649
 51
117.05454619818596
  0
ARC
  5
564
100
AcDbEntity
  8
0
  6
CONTINUOUS
 62
               7
100
AcDbCircle
 10
0.0034038621736117
 20
13.359922430739076
 30
0.0
 40
11.00020238964013
100
AcDbArc
 50
281.99747309644971
 51
297.01525120914442
  0
ARC
  5
565
100
AcDbEntity
  8
0
  6
CONTINUOUS
 62
               7
100
AcDbCircle
 10
-0.0034038621736117
 20
13.359922430739076
 30
0.0
 40
11.00020238964013
100
AcDbArc
 50
242.98474879085435
 51
258.00252690354904
  0
ARC
  5
566
100
AcDbEntity
  8
0
  6
CONTINUOUS
 62
               7
100
AcDbCircle
 10
-0.0192098556067741
 20
10.016455189787578
 30
0.0
 40
6.6822959667157216
100
AcDbArc
 50
72.231845937461401
 51
84.683102661664321
  0
ARC
  5
567
100
AcDbEntity
  8
0
  6
CONTINUOUS
 62
               7
100
AcDbCircle
 10
0.0
 20
20.887435913090087
 30
0.0
 40
6.6897002044614204
100
AcDbArc
 50
252.42483315042037
 51
287.57516684957841
  0
ARC
  5
568
100
AcDbEntity
  8
0
  6
CONTINUOUS
 62
               7
100
AcDbCircle
 10
3.0269406657391924
 20
15.990355072247043
 30
0.0
 40
1.7903576861194068
100
AcDbArc
 50
235.7763795039715
 51
270.09790614910452
  0
ARC
  5
569
100
AcDbEntity
  8
0
  6
CONTINUOUS
 62
               7
100
AcDbCircle
 10
-3.0269406657391924
 20
15.990355072247043
 30
0.0
 40
1.7903576861194068
100
AcDbArc
 50
269.90209385089423
 51
304.22362049602731
  0
ARC
  5
56A
100
AcDbEntity
  8
0
  6
CONTINUOUS
 62
               7
100
AcDbCircle
 10
3.0402325891325912
 20
14.91379714055026
 30
0.0
 40
1.7862321688366225
100
AcDbArc
 50
90.32822574115454
 51
124.83147711215561
  0
ARC
  5
56B
100
AcDbEntity
  8
0
  6
CONTINUOUS
 62
               7
100
AcDbCircle
 10
-3.0402325891325912
 20
14.91379714055026
 30
0.0
 40
1.7862321688366225
100
AcDbArc
 50
55.168522887843999
 51
89.671774258845062
  0
ARC
  5
56C
100
AcDbEntity
  8
0
  6
CONTINUOUS
 62
               7
100
AcDbCircle
 10
0.0192098556067741
 20
10.016455189787578
 30
0.0
 40
6.6822959667157216
100
AcDbArc
 50
95.316897338335295
 51
107.76815406253822
  0
LINE
  5
56D
100
AcDbEntity
  8
0
  6
CONTINUOUS
 62
               2
100
AcDbLine
 10
5.0
 20
3.7000000000000002
 30
0.0
 11
12.5
 21
3.7000000000000002
 31
0.0
  0
LINE
  5
56E
100
AcDbEntity
  8
0
  6
CONTINUOUS
 62
               2
100
AcDbLine
 10
5.0
 20
4.7000000000000002
 30
0.0
 11
12.5
 21
4.7000000000000002
 31
0.0
  0
LINE
  5
56F
100
AcDbEntity
  8
0
  6
CONTINUOUS
 62
               2
100
AcDbLine
 10
5.0
 20
5.7000000000000002
 30
0.0
 11
12.5
 21
5.7000000000000002
 31
0.0
  0
LINE
  5
570
100
AcDbEntity
  8
0
  6
CONTINUOUS
 62
               2
100
AcDbLine
 10
5.0
 20
6.7000000000000002
 30
0.0
 11
12.5
 21
6.7000000000000002
 31
0.0
  0
LINE
  5
571
100
AcDbEntity
  8
0
  6
CONTINUOUS
 62
               7
100
AcDbLine
 10
12.5
 20
5.4500000000000002
 30
0.0
 11
14.0
 21
5.71
 31
0.0
  0
LINE
  5
572
100
AcDbEntity
  8
0
  6
CONTINUOUS
 62
               7
100
AcDbLine
 10
14.0
 20
8.6799999999999997
 30
0.0
 11
14.0
 21
5.71
 31
0.0
  0
LINE
  5
573
100
AcDbEntity
  8
0
  6
CONTINUOUS
 62
               7
100
AcDbLine
 10
12.5
 20
8.9499999999999993
 30
0.0
 11
14.0
 21
8.6799999999999997
 31
0.0
  0
LINE
  5
574
100
AcDbEntity
  8
0
  6
CONTINUOUS
 62
               7
100
AcDbLine
 10
5.0
 20
2.7000000000000002
 30
0.0
 11
12.5
 21
2.7000000000000002
 31
0.0
  0
LINE
  5
575
100
AcDbEntity
  8
0
  6
CONTINUOUS
 62
               7
100
AcDbLine
 10
12.5
 20
11.699999999999999
 30
0.0
 11
12.5
 21
2.7000000000000002
 31
0.0
  0
LINE
  5
576
100
AcDbEntity
  8
0
  6
CONTINUOUS
 62
               7
100
AcDbLine
 10
5.0
 20
11.699999999999999
 30
0.0
 11
12.5
 21
11.699999999999999
 31
0.0
  0
LINE
  5
577
100
AcDbEntity
  8
0
  6
CONTINUOUS
 62
               7
100
AcDbLine
 10
4.0
 20
14.199999999999999
 30
0.0
 11
4.0
 21
13.6
 31
0.0
  0
LINE
  5
578
100
AcDbEntity
  8
0
  6
CONTINUOUS
 62
               7
100
AcDbLine
 10
-4.0
 20
14.199999999999999
 30
0.0
 11
-4.0
 21
13.6
 31
0.0
  0
LINE
  5
579
100
AcDbEntity
  8
0
  6
CONTINUOUS
 62
               7
100
AcDbLine
 10
5.0
 20
13.6
 30
0.0
 11
5.0
 21
2.6000000000000001
 31
0.0
  0
LINE
  5
57A
100
AcDbEntity
  8
0
  6
CONTINUOUS
 62
               7
100
AcDbLine
 10
-5.0
 20
13.6
 30
0.0
 11
-5.0
 21
2.6000000000000001
 31
0.0
  0
LINE
  5
57B
100
AcDbEntity
  8
0
  6
CONTINUOUS
 62
               7
100
AcDbLine
 10
5.0
 20
2.6000000000000001
 30
0.0
 11
-5.0
 21
2.6000000000000001
 31
0.0
  0
LINE
  5
57C
100
AcDbEntity
  8
0
  6
CONTINUOUS
 62
               7
100
AcDbLine
 10
-4.0
 20
0.0
 30
0.0
 11
-4.0
 21
2.6000000000000001
 31
0.0
  0
LINE
  5
57D
100
AcDbEntity
  8
0
  6
CONTINUOUS
 62
               7
100
AcDbLine
 10
-4.0
 20
0.6
 30
0.0
 11
4.0
 21
0.6
 31
0.0
  0
LINE
  5
57E
100
AcDbEntity
  8
0
  6
CONTINUOUS
 62
               7
100
AcDbLine
 10
4.0
 20
0.0
 30
0.0
 11
4.0
 21
2.6000000000000001
 31
0.0
  0
LINE
  5
57F
100
AcDbEntity
  8
0
  6
CONTINUOUS
 62
               7
100
AcDbLine
 10
-4.0
 20
0.0
 30
0.0
 11
4.0
 21
0.0
 31
0.0
  0
LINE
  5
580
100
AcDbEntity
  8
0
  6
CONTINUOUS
 62
               2
100
AcDbLine
 10
2.0600000000000001
 20
-2.7999999999999998
 30
0.0
 11
2.0600000000000001
 21
0.0
 31
0.0
  0
LINE
  5
581
100
AcDbEntity
  8
0
  6
CONTINUOUS
 62
               7
100
AcDbLine
 10
2.5
 20
-2.7999999999999998
 30
0.0
 11
2.5
 21
0.0
 31
0.0
  0
LINE
  5
582
100
AcDbEntity
  8
0
  6
CONTINUOUS
 62
               7
100
AcDbLine
 10
2.5
 20
-2.7999999999999998
 30
0.0
 11
-2.5
 21
-2.7999999999999998
 31
0.0
  0
LINE
  5
583
100
AcDbEntity
  8
0
  6
CONTINUOUS
 62
               2
100
AcDbLine
 10
-2.0600000000000001
 20
-2.7999999999999998
 30
0.0
 11
-2.0600000000000001
 21
0.0
 31
0.0
  0
LINE
  5
584
100
AcDbEntity
  8
0
  6
CONTINUOUS
 62
               7
100
AcDbLine
 10
-2.5
 20
-2.7999999999999998
 30
0.0
 11
-2.5
 21
0.0
 31
0.0
  0
LINE
  5
585
100
AcDbEntity
  8
0
  6
CONTINUOUS
 62
               7
100
AcDbLine
 10
5.0
 20
13.6
 30
0.0
 11
-5.0
 21
13.6
 31
0.0
  0
LINE
  5
586
100
AcDbEntity
  8
0
  6
CENTER
 62
               2
100
AcDbLine
 10
15.51
 20
7.2000000000000002
 30
0.0
 11
-6.5800000000000001
 21
7.2000000000000002
 31
0.0
  0
LINE
  5
587
100
AcDbEntity
  8
0
  6
CONTINUOUS
 62
               7
100
AcDbLine
 10
0.6
 20
16.699999999999999
 30
0.0
 11
3.5
 21
16.699999999999999
 31
0.0
  0
LINE
  5
588
100
AcDbEntity
  8
0
  6
CONTINUOUS
 62
               7
100
AcDbLine
 10
-0.6
 20
16.699999999999999
 30
0.0
 11
-0.6
 21
15.199999999999999
 31
0.0
  0
LINE
  5
589
100
AcDbEntity
  8
0
  6
CONTINUOUS
 62
               7
100
AcDbLine
 10
0.6
 20
16.699999999999999
 30
0.0
 11
0.6
 21
15.199999999999999
 31
0.0
  0
LINE
  5
58A
100
AcDbEntity
  8
0
  6
CONTINUOUS
 62
               7
100
AcDbLine
 10
0.6
 20
15.199999999999999
 30
0.0
 11
-0.6
 21
15.199999999999999
 31
0.0
  0
LINE
  5
58B
100
AcDbEntity
  8
0
  6
CENTER
 62
               2
100
AcDbLine
 10
0.0
 20
18.48
 30
0.0
 11
0.0
 21
-4.5099999999999998
 31
0.0
  0
LINE
  5
58C
100
AcDbEntity
  8
0
  6
CONTINUOUS
 62
               7
100
AcDbLine
 10
3.5
 20
14.199999999999999
 30
0.0
 11
4.04
 21
14.51
 31
0.0
  0
LINE
  5
58D
100
AcDbEntity
  8
0
  6
CONTINUOUS
 62
               7
100
AcDbLine
 10
-3.5
 20
14.199999999999999
 30
0.0
 11
-4.04
 21
14.51
 31
0.0
  0
LINE
  5
58E
100
AcDbEntity
  8
0
  6
CONTINUOUS
 62
               7
100
AcDbLine
 10
3.5
 20
16.699999999999999
 30
0.0
 11
4.04
 21
16.379999999999999
 31
0.0
  0
LINE
  5
58F
100
AcDbEntity
  8
0
  6
CONTINUOUS
 62
               7
100
AcDbLine
 10
-3.5
 20
16.699999999999999
 30
0.0
 11
-4.04
 21
16.379999999999999
 31
0.0
  0
LINE
  5
590
100
AcDbEntity
  8
0
  6
CONTINUOUS
 62
               7
100
AcDbLine
 10
4.04
 20
16.379999999999999
 30
0.0
 11
4.04
 21
14.51
 31
0.0
  0
LINE
  5
591
100
AcDbEntity
  8
0
  6
CONTINUOUS
 62
               7
100
AcDbLine
 10
2.02
 20
16.379999999999999
 30
0.0
 11
2.02
 21
14.51
 31
0.0
  0
LINE
  5
592
100
AcDbEntity
  8
0
  6
CONTINUOUS
 62
               7
100
AcDbLine
 10
-2.02
 20
16.379999999999999
 30
0.0
 11
-2.02
 21
14.51
 31
0.0
  0
LINE
  5
593
100
AcDbEntity
  8
0
  6
CONTINUOUS
 62
               7
100
AcDbLine
 10
-4.04
 20
16.379999999999999
 30
0.0
 11
-4.04
 21
14.51
 31
0.0
  0
LINE
  5
594
100
AcDbEntity
  8
0
  6
CONTINUOUS
 62
               7
100
AcDbLine
 10
4.0
 20
14.199999999999999
 30
0.0
 11
-4.0
 21
14.199999999999999
 31
0.0
  0
LINE
  5
595
100
AcDbEntity
  8
0
  6
CONTINUOUS
 62
               7
100
AcDbLine
 10
-0.6
 20
16.699999999999999
 30
0.0
 11
-3.5
 21
16.699999999999999
 31
0.0
  0
ENDBLK
  5
596
100
AcDbEntity
  8
0
100
AcDbBlockEnd
  0
BLOCK
  5
597
100
AcDbEntity
  8
0
100
AcDbBlockBegin
  2
MS_42
 70
               0
 10
0.0
 20
0.0
 30
0.0
  3
MS_42
  1

  0
CIRCLE
  5
598
100
AcDbEntity
  8
0
  6
CONTINUOUS
 62
               7
100
AcDbCircle
 10
0.0
 20
0.0
 30
0.0
 40
5.0
  0
ARC
  5
599
100
AcDbEntity
  8
0
  6
CONTINUOUS
 62
               7
100
AcDbCircle
 10
0.000000000000001
 20
0.0
 30
0.0
 40
3.4919335617963867
100
AcDbArc
 50
99.893920669735223
 51
260.10607933026398
  0
ARC
  5
59A
100
AcDbEntity
  8
0
  6
CONTINUOUS
 62
               7
100
AcDbCircle
 10
-0.0009687532026477
 20
-0.0016806884533995
 30
0.0
 40
3.991553471691204
100
AcDbArc
 50
301.08656230114497
 51
359.01927923826821
  0
ARC
  5
59B
100
AcDbEntity
  8
0
  6
CONTINUOUS
 62
               7
100
AcDbCircle
 10
-0.0009687532026477
 20
0.0016806884533995
 30
0.0
 40
3.991553471691204
100
AcDbArc
 50
0.9807207617309708
 51
58.91343769885421
  0
ARC
  5
59C
100
AcDbEntity
  8
0
  6
CONTINUOUS
 62
               7
100
AcDbCircle
 10
0.0
 20
0.0
 30
0.0
 40
3.9968612685456071
100
AcDbArc
 50
61.12640262163702
 51
118.87359737836258
  0
ARC
  5
59D
100
AcDbEntity
  8
0
  6
CONTINUOUS
 62
               7
100
AcDbCircle
 10
0.0009687532026477
 20
0.0016806884533995
 30
0.0
 40
3.991553471691204
100
AcDbArc
 50
121.08656230114541
 51
179.01927923826861
  0
ARC
  5
59E
100
AcDbEntity
  8
0
  6
CONTINUOUS
 62
               7
100
AcDbCircle
 10
0.0009687532026477
 20
-0.0016806884533995
 30
0.0
 40
3.991553471691204
100
AcDbArc
 50
180.98072076173057
 51
238.91343769885381
  0
ARC
  5
59F
100
AcDbEntity
  8
0
  6
CONTINUOUS
 62
               7
100
AcDbCircle
 10
0.0
 20
0.0
 30
0.0
 40
3.9968612685456071
100
AcDbArc
 50
241.12640262163663
 51
298.87359737836215
  0
ARC
  5
5A0
100
AcDbEntity
  8
0
  6
CONTINUOUS
 62
               7
100
AcDbCircle
 10
-0.000000000000001
 20
0.0
 30
0.0
 40
3.4919335617963867
100
AcDbArc
 50
279.89392066973483
 51
80.106079330264393
  0
LINE
  5
5A1
100
AcDbEntity
  8
0
  6
CONTINUOUS
 62
               2
100
AcDbLine
 10
5.0
 20
-3.5
 30
0.0
 11
12.5
 21
-3.5
 31
0.0
  0
LINE
  5
5A2
100
AcDbEntity
  8
0
  6
CONTINUOUS
 62
               2
100
AcDbLine
 10
5.0
 20
-2.5
 30
0.0
 11
12.5
 21
-2.5
 31
0.0
  0
LINE
  5
5A3
100
AcDbEntity
  8
0
  6
CONTINUOUS
 62
               2
100
AcDbLine
 10
5.0
 20
-1.5
 30
0.0
 11
12.5
 21
-1.5
 31
0.0
  0
LINE
  5
5A4
100
AcDbEntity
  8
0
  6
CONTINUOUS
 62
               2
100
AcDbLine
 10
5.0
 20
-0.5
 30
0.0
 11
12.5
 21
-0.5
 31
0.0
  0
LINE
  5
5A5
100
AcDbEntity
  8
0
  6
CONTINUOUS
 62
               7
100
AcDbLine
 10
12.5
 20
1.75
 30
0.0
 11
14.0
 21
1.48
 31
0.0
  0
LINE
  5
5A6
100
AcDbEntity
  8
0
  6
CONTINUOUS
 62
               7
100
AcDbLine
 10
14.0
 20
1.48
 30
0.0
 11
14.0
 21
-1.48
 31
0.0
  0
LINE
  5
5A7
100
AcDbEntity
  8
0
  6
CONTINUOUS
 62
               7
100
AcDbLine
 10
12.5
 20
-1.75
 30
0.0
 11
14.0
 21
-1.48
 31
0.0
  0
LINE
  5
5A8
100
AcDbEntity
  8
0
  6
CONTINUOUS
 62
               7
100
AcDbLine
 10
5.0
 20
5.0
 30
0.0
 11
5.0
 21
-5.0
 31
0.0
  0
LINE
  5
5A9
100
AcDbEntity
  8
0
  6
CONTINUOUS
 62
               7
100
AcDbLine
 10
5.0
 20
5.0
 30
0.0
 11
-5.0
 21
5.0
 31
0.0
  0
LINE
  5
5AA
100
AcDbEntity
  8
0
  6
CENTER
 62
               2
100
AcDbLine
 10
0.0
 20
7.5
 30
0.0
 11
0.0
 21
-7.5
 31
0.0
  0
LINE
  5
5AB
100
AcDbEntity
  8
0
  6
CENTER
 62
               2
100
AcDbLine
 10
15.539999999999999
 20
0.0
 30
0.0
 11
-7.5
 21
0.0
 31
0.0
  0
LINE
  5
5AC
100
AcDbEntity
  8
0
  6
CONTINUOUS
 62
               7
100
AcDbLine
 10
-5.0
 20
5.0
 30
0.0
 11
-5.0
 21
-5.0
 31
0.0
  0
LINE
  5
5AD
100
AcDbEntity
  8
0
  6
CONTINUOUS
 62
               7
100
AcDbLine
 10
5.0
 20
-5.0
 30
0.0
 11
-5.0
 21
-5.0
 31
0.0
  0
LINE
  5
5AE
100
AcDbEntity
  8
0
  6
CONTINUOUS
 62
               7
100
AcDbLine
 10
5.0
 20
-4.5
 30
0.0
 11
12.5
 21
-4.5
 31
0.0
  0
LINE
  5
5AF
100
AcDbEntity
  8
0
  6
CONTINUOUS
 62
               7
100
AcDbLine
 10
5.0
 20
4.5
 30
0.0
 11
12.5
 21
4.5
 31
0.0
  0
LINE
  5
5B0
100
AcDbEntity
  8
0
  6
CONTINUOUS
 62
               7
100
AcDbLine
 10
12.5
 20
4.5
 30
0.0
 11
12.5
 21
-4.5
 31
0.0
  0
LINE
  5
5B1
100
AcDbEntity
  8
0
  6
CONTINUOUS
 62
               7
100
AcDbLine
 10
0.6
 20
-3.5
 30
0.0
 11
0.6
 21
3.5
 31
0.0
  0
LINE
  5
5B2
100
AcDbEntity
  8
0
  6
CONTINUOUS
 62
               7
100
AcDbLine
 10
-0.6
 20
-3.5
 30
0.0
 11
-0.6
 21
3.5
 31
0.0
  0
LINE
  5
5B3
100
AcDbEntity
  8
0
  6
CONTINUOUS
 62
               7
100
AcDbLine
 10
4.04
 20
0.0
 30
0.0
 11
2.02
 21
-3.5
 31
0.0
  0
LINE
  5
5B4
100
AcDbEntity
  8
0
  6
CONTINUOUS
 62
               7
100
AcDbLine
 10
2.02
 20
3.5
 30
0.0
 11
4.04
 21
0.0
 31
0.0
  0
LINE
  5
5B5
100
AcDbEntity
  8
0
  6
CONTINUOUS
 62
               7
100
AcDbLine
 10
-2.02
 20
3.5
 30
0.0
 11
2.02
 21
3.5
 31
0.0
  0
LINE
  5
5B6
100
AcDbEntity
  8
0
  6
CONTINUOUS
 62
               7
100
AcDbLine
 10
-4.04
 20
0.0
 30
0.0
 11
-2.02
 21
3.5
 31
0.0
  0
LINE
  5
5B7
100
AcDbEntity
  8
0
  6
CONTINUOUS
 62
               7
100
AcDbLine
 10
-2.02
 20
-3.5
 30
0.0
 11
-4.04
 21
0.0
 31
0.0
  0
LINE
  5
5B8
100
AcDbEntity
  8
0
  6
CONTINUOUS
 62
               7
100
AcDbLine
 10
2.02
 20
-3.5
 30
0.0
 11
-2.02
 21
-3.5
 31
0.0
  0
ENDBLK
  5
5B9
100
AcDbEntity
  8
0
100
AcDbBlockEnd
  0
BLOCK
  5
5BA
100
AcDbEntity
  8
0
100
AcDbBlockBegin
  2
MS_43
 70
               0
 10
0.0
 20
0.0
 30
0.0
  3
MS_43
  1

  0
ARC
  5
5BB
100
AcDbEntity
  8
0
  6
CONTINUOUS
 62
               7
100
AcDbCircle
 10
0.0
 20
2.5999984741210937
 30
0.0
 40
10.99291271122951
100
AcDbArc
 50
62.945456062639956
 51
117.05454393735965
  0
ARC
  5
5BC
100
AcDbEntity
  8
0
  6
CONTINUOUS
 62
               7
100
AcDbCircle
 10
0.0034038621736117
 20
13.359922430739076
 30
0.0
 40
11.00020238964013
100
AcDbArc
 50
281.99747309644971
 51
297.01525120914442
  0
ARC
  5
5BD
100
AcDbEntity
  8
0
  6
CONTINUOUS
 62
               7
100
AcDbCircle
 10
-0.0034038621736117
 20
13.359922430739076
 30
0.0
 40
11.00020238964013
100
AcDbArc
 50
242.98474879085435
 51
258.00252690354904
  0
ARC
  5
5BE
100
AcDbEntity
  8
0
  6
CONTINUOUS
 62
               7
100
AcDbCircle
 10
-1.75
 20
19.254608154296875
 30
0.0
 40
5.0570551250525639
100
AcDbArc
 50
249.75402180362707
 51
290.24597819637165
  0
ARC
  5
5BF
100
AcDbEntity
  8
0
  6
CONTINUOUS
 62
               7
100
AcDbCircle
 10
-1.75
 20
11.6453857421875
 30
0.0
 40
5.0476798799330966
100
AcDbArc
 50
69.714765801400276
 51
110.28523419859933
  0
ARC
  5
5C0
100
AcDbEntity
  8
0
  6
CONTINUOUS
 62
               7
100
AcDbCircle
 10
1.75
 20
19.254608154296875
 30
0.0
 40
5.0570551250525639
100
AcDbArc
 50
249.75402180362707
 51
290.24597819637165
  0
ARC
  5
5C1
100
AcDbEntity
  8
0
  6
CONTINUOUS
 62
               7
100
AcDbCircle
 10
1.75
 20
11.6453857421875
 30
0.0
 40
5.0476798799330966
100
AcDbArc
 50
69.714765801400276
 51
110.28523419859933
  0
LINE
  5
5C2
100
AcDbEntity
  8
0
  6
CENTER
 62
               2
100
AcDbLine
 10
0.0
 20
18.57
 30
0.0
 11
0.0
 21
-4.4199999999999999
 31
0.0
  0
LINE
  5
5C3
100
AcDbEntity
  8
0
  6
CONTINUOUS
 62
               7
100
AcDbLine
 10
-5.0
 20
13.6
 30
0.0
 11
-5.0
 21
2.6000000000000001
 31
0.0
  0
LINE
  5
5C4
100
AcDbEntity
  8
0
  6
CONTINUOUS
 62
               7
100
AcDbLine
 10
5.0
 20
13.6
 30
0.0
 11
5.0
 21
2.6000000000000001
 31
0.0
  0
LINE
  5
5C5
100
AcDbEntity
  8
0
  6
CONTINUOUS
 62
               7
100
AcDbLine
 10
-4.0
 20
0.0
 30
0.0
 11
-4.0
 21
2.6000000000000001
 31
0.0
  0
LINE
  5
5C6
100
AcDbEntity
  8
0
  6
CONTINUOUS
 62
               7
100
AcDbLine
 10
4.0
 20
0.0
 30
0.0
 11
4.0
 21
2.6000000000000001
 31
0.0
  0
LINE
  5
5C7
100
AcDbEntity
  8
0
  6
CONTINUOUS
 62
               7
100
AcDbLine
 10
5.0
 20
2.6000000000000001
 30
0.0
 11
-5.0
 21
2.6000000000000001
 31
0.0
  0
LINE
  5
5C8
100
AcDbEntity
  8
0
  6
CONTINUOUS
 62
               7
100
AcDbLine
 10
-4.0
 20
0.6
 30
0.0
 11
4.0
 21
0.6
 31
0.0
  0
LINE
  5
5C9
100
AcDbEntity
  8
0
  6
CONTINUOUS
 62
               7
100
AcDbLine
 10
-4.0
 20
0.0
 30
0.0
 11
4.0
 21
0.0
 31
0.0
  0
LINE
  5
5CA
100
AcDbEntity
  8
0
  6
CONTINUOUS
 62
               7
100
AcDbLine
 10
5.0
 20
13.6
 30
0.0
 11
-5.0
 21
13.6
 31
0.0
  0
LINE
  5
5CB
100
AcDbEntity
  8
0
  6
CONTINUOUS
 62
               7
100
AcDbLine
 10
-3.5
 20
16.699999999999999
 30
0.0
 11
-3.5
 21
14.199999999999999
 31
0.0
  0
LINE
  5
5CC
100
AcDbEntity
  8
0
  6
CONTINUOUS
 62
               7
100
AcDbLine
 10
0.0
 20
16.379999999999999
 30
0.0
 11
0.0
 21
14.51
 31
0.0
  0
LINE
  5
5CD
100
AcDbEntity
  8
0
  6
CONTINUOUS
 62
               7
100
AcDbLine
 10
3.5
 20
16.699999999999999
 30
0.0
 11
-3.5
 21
16.699999999999999
 31
0.0
  0
LINE
  5
5CE
100
AcDbEntity
  8
0
  6
CONTINUOUS
 62
               7
100
AcDbLine
 10
3.5
 20
16.699999999999999
 30
0.0
 11
3.5
 21
14.199999999999999
 31
0.0
  0
LINE
  5
5CF
100
AcDbEntity
  8
0
  6
CONTINUOUS
 62
               7
100
AcDbLine
 10
-2.5
 20
-2.7999999999999998
 30
0.0
 11
-2.5
 21
0.0
 31
0.0
  0
LINE
  5
5D0
100
AcDbEntity
  8
0
  6
CONTINUOUS
 62
               2
100
AcDbLine
 10
-2.0600000000000001
 20
-2.7999999999999998
 30
0.0
 11
-2.0600000000000001
 21
0.0
 31
0.0
  0
LINE
  5
5D1
100
AcDbEntity
  8
0
  6
CONTINUOUS
 62
               7
100
AcDbLine
 10
2.5
 20
-2.7999999999999998
 30
0.0
 11
-2.5
 21
-2.7999999999999998
 31
0.0
  0
LINE
  5
5D2
100
AcDbEntity
  8
0
  6
CONTINUOUS
 62
               2
100
AcDbLine
 10
2.0600000000000001
 20
-2.7999999999999998
 30
0.0
 11
2.0600000000000001
 21
0.0
 31
0.0
  0
LINE
  5
5D3
100
AcDbEntity
  8
0
  6
CONTINUOUS
 62
               7
100
AcDbLine
 10
2.5
 20
-2.7999999999999998
 30
0.0
 11
2.5
 21
0.0
 31
0.0
  0
LINE
  5
5D4
100
AcDbEntity
  8
0
  6
CONTINUOUS
 62
               7
100
AcDbLine
 10
4.0
 20
14.199999999999999
 30
0.0
 11
-4.0
 21
14.199999999999999
 31
0.0
  0
LINE
  5
5D5
100
AcDbEntity
  8
0
  6
CONTINUOUS
 62
               7
100
AcDbLine
 10
-4.0
 20
14.199999999999999
 30
0.0
 11
-4.0
 21
13.6
 31
0.0
  0
LINE
  5
5D6
100
AcDbEntity
  8
0
  6
CONTINUOUS
 62
               7
100
AcDbLine
 10
4.0
 20
14.199999999999999
 30
0.0
 11
4.0
 21
13.6
 31
0.0
  0
ENDBLK
  5
5D7
100
AcDbEntity
  8
0
100
AcDbBlockEnd
  0
BLOCK
  5
5D8
100
AcDbEntity
  8
0
100
AcDbBlockBegin
  2
MS_44
 70
               0
 10
0.0
 20
0.0
 30
0.0
  3
MS_44
  1

  0
CIRCLE
  5
5D9
100
AcDbEntity
  8
0
  6
CONTINUOUS
 62
               7
100
AcDbCircle
 10
0.0
 20
7.2000007629394531
 30
0.0
 40
2.5499992370605469
  0
CIRCLE
  5
5DA
100
AcDbEntity
  8
0
  6
CONTINUOUS
 62
               7
100
AcDbCircle
 10
0.0
 20
7.2000007629394531
 30
0.0
 40
1.0499992370605469
  0
CIRCLE
  5
5DB
100
AcDbEntity
  8
0
  6
CONTINUOUS
 62
               7
100
AcDbCircle
 10
0.0
 20
7.2000007629394531
 30
0.0
 40
1.75
  0
ARC
  5
5DC
100
AcDbEntity
  8
0
  6
CONTINUOUS
 62
               7
100
AcDbCircle
 10
0.0034038621736117
 20
13.359922430739076
 30
0.0
 40
11.00020238964013
100
AcDbArc
 50
281.99747309644971
 51
297.01525120914442
  0
ARC
  5
5DD
100
AcDbEntity
  8
0
  6
CONTINUOUS
 62
               7
100
AcDbCircle
 10
-0.0034038621736117
 20
13.359922430739076
 30
0.0
 40
11.00020238964013
100
AcDbArc
 50
242.98474879085435
 51
258.00252690354904
  0
ARC
  5
5DE
100
AcDbEntity
  8
0
  6
CONTINUOUS
 62
               7
100
AcDbCircle
 10
0.0
 20
2.5999984741210937
 30
0.0
 40
10.99291271122951
100
AcDbArc
 50
62.945456062639956
 51
117.05454393735965
  0
CIRCLE
  5
5DF
100
AcDbEntity
  8
0
  6
CONTINUOUS
 62
               7
100
AcDbCircle
 10
0.0
 20
7.2000007629394531
 30
0.0
 40
4.5
  0
ARC
  5
5E0
100
AcDbEntity
  8
0
  6
CONTINUOUS
 62
               7
100
AcDbCircle
 10
-1.75
 20
19.254608154296875
 30
0.0
 40
5.0570551250525639
100
AcDbArc
 50
249.75402180362707
 51
290.24597819637165
  0
ARC
  5
5E1
100
AcDbEntity
  8
0
  6
CONTINUOUS
 62
               7
100
AcDbCircle
 10
-1.75
 20
11.6453857421875
 30
0.0
 40
5.0476798799330966
100
AcDbArc
 50
69.714765801400276
 51
110.28523419859933
  0
ARC
  5
5E2
100
AcDbEntity
  8
0
  6
CONTINUOUS
 62
               7
100
AcDbCircle
 10
1.75
 20
19.254608154296875
 30
0.0
 40
5.0570551250525639
100
AcDbArc
 50
249.75402180362707
 51
290.24597819637165
  0
ARC
  5
5E3
100
AcDbEntity
  8
0
  6
CONTINUOUS
 62
               7
100
AcDbCircle
 10
1.75
 20
11.6453857421875
 30
0.0
 40
5.0476798799330966
100
AcDbArc
 50
69.714765801400276
 51
110.28523419859933
  0
LINE
  5
5E4
100
AcDbEntity
  8
0
  6
CENTER
 62
               2
100
AcDbLine
 10
0.0
 20
18.57
 30
0.0
 11
0.0
 21
-4.4199999999999999
 31
0.0
  0
LINE
  5
5E5
100
AcDbEntity
  8
0
  6
CENTER
 62
               2
100
AcDbLine
 10
-6.5
 20
7.2000000000000002
 30
0.0
 11
6.5
 21
7.2000000000000002
 31
0.0
  0
LINE
  5
5E6
100
AcDbEntity
  8
0
  6
CONTINUOUS
 62
               7
100
AcDbLine
 10
-5.0
 20
13.6
 30
0.0
 11
-5.0
 21
2.6000000000000001
 31
0.0
  0
LINE
  5
5E7
100
AcDbEntity
  8
0
  6
CONTINUOUS
 62
               7
100
AcDbLine
 10
5.0
 20
13.6
 30
0.0
 11
5.0
 21
2.6000000000000001
 31
0.0
  0
LINE
  5
5E8
100
AcDbEntity
  8
0
  6
CONTINUOUS
 62
               7
100
AcDbLine
 10
-4.0
 20
0.0
 30
0.0
 11
-4.0
 21
2.6000000000000001
 31
0.0
  0
LINE
  5
5E9
100
AcDbEntity
  8
0
  6
CONTINUOUS
 62
               7
100
AcDbLine
 10
4.0
 20
0.0
 30
0.0
 11
4.0
 21
2.6000000000000001
 31
0.0
  0
LINE
  5
5EA
100
AcDbEntity
  8
0
  6
CONTINUOUS
 62
               7
100
AcDbLine
 10
5.0
 20
2.6000000000000001
 30
0.0
 11
-5.0
 21
2.6000000000000001
 31
0.0
  0
LINE
  5
5EB
100
AcDbEntity
  8
0
  6
CONTINUOUS
 62
               7
100
AcDbLine
 10
-4.0
 20
0.6
 30
0.0
 11
4.0
 21
0.6
 31
0.0
  0
LINE
  5
5EC
100
AcDbEntity
  8
0
  6
CONTINUOUS
 62
               7
100
AcDbLine
 10
-4.0
 20
0.0
 30
0.0
 11
4.0
 21
0.0
 31
0.0
  0
LINE
  5
5ED
100
AcDbEntity
  8
0
  6
CONTINUOUS
 62
               7
100
AcDbLine
 10
5.0
 20
13.6
 30
0.0
 11
-5.0
 21
13.6
 31
0.0
  0
LINE
  5
5EE
100
AcDbEntity
  8
0
  6
CONTINUOUS
 62
               7
100
AcDbLine
 10
-3.5
 20
16.699999999999999
 30
0.0
 11
-3.5
 21
14.199999999999999
 31
0.0
  0
LINE
  5
5EF
100
AcDbEntity
  8
0
  6
CONTINUOUS
 62
               7
100
AcDbLine
 10
0.0
 20
16.379999999999999
 30
0.0
 11
0.0
 21
14.51
 31
0.0
  0
LINE
  5
5F0
100
AcDbEntity
  8
0
  6
CONTINUOUS
 62
               7
100
AcDbLine
 10
3.5
 20
16.699999999999999
 30
0.0
 11
-3.5
 21
16.699999999999999
 31
0.0
  0
LINE
  5
5F1
100
AcDbEntity
  8
0
  6
CONTINUOUS
 62
               7
100
AcDbLine
 10
3.5
 20
16.699999999999999
 30
0.0
 11
3.5
 21
14.199999999999999
 31
0.0
  0
LINE
  5
5F2
100
AcDbEntity
  8
0
  6
CONTINUOUS
 62
               7
100
AcDbLine
 10
-2.5
 20
-2.7999999999999998
 30
0.0
 11
-2.5
 21
0.0
 31
0.0
  0
LINE
  5
5F3
100
AcDbEntity
  8
0
  6
CONTINUOUS
 62
               2
100
AcDbLine
 10
-2.0600000000000001
 20
-2.7999999999999998
 30
0.0
 11
-2.0600000000000001
 21
0.0
 31
0.0
  0
LINE
  5
5F4
100
AcDbEntity
  8
0
  6
CONTINUOUS
 62
               7
100
AcDbLine
 10
2.5
 20
-2.7999999999999998
 30
0.0
 11
-2.5
 21
-2.7999999999999998
 31
0.0
  0
LINE
  5
5F5
100
AcDbEntity
  8
0
  6
CONTINUOUS
 62
               2
100
AcDbLine
 10
2.0600000000000001
 20
-2.7999999999999998
 30
0.0
 11
2.0600000000000001
 21
0.0
 31
0.0
  0
LINE
  5
5F6
100
AcDbEntity
  8
0
  6
CONTINUOUS
 62
               7
100
AcDbLine
 10
2.5
 20
-2.7999999999999998
 30
0.0
 11
2.5
 21
0.0
 31
0.0
  0
LINE
  5
5F7
100
AcDbEntity
  8
0
  6
CONTINUOUS
 62
               7
100
AcDbLine
 10
4.0
 20
14.199999999999999
 30
0.0
 11
-4.0
 21
14.199999999999999
 31
0.0
  0
LINE
  5
5F8
100
AcDbEntity
  8
0
  6
CONTINUOUS
 62
               7
100
AcDbLine
 10
-4.0
 20
14.199999999999999
 30
0.0
 11
-4.0
 21
13.6
 31
0.0
  0
LINE
  5
5F9
100
AcDbEntity
  8
0
  6
CONTINUOUS
 62
               7
100
AcDbLine
 10
4.0
 20
14.199999999999999
 30
0.0
 11
4.0
 21
13.6
 31
0.0
  0
ENDBLK
  5
5FA
100
AcDbEntity
  8
0
100
AcDbBlockEnd
  0
BLOCK
  5
5FB
100
AcDbEntity
  8
0
100
AcDbBlockBegin
  2
MS_45
 70
               0
 10
0.0
 20
0.0
 30
0.0
  3
MS_45
  1

  0
ARC
  5
5FC
100
AcDbEntity
  8
0
  6
CONTINUOUS
 62
               7
100
AcDbCircle
 10
0.0
 20
2.5999994277954119
 30
0.0
 40
10.992911861912029
100
AcDbArc
 50
62.945453801813649
 51
117.05454619818596
  0
ARC
  5
5FD
100
AcDbEntity
  8
0
  6
CONTINUOUS
 62
               7
100
AcDbCircle
 10
0.0034038621736117
 20
13.359922430739076
 30
0.0
 40
11.00020238964013
100
AcDbArc
 50
281.99747309644971
 51
297.01525120914442
  0
ARC
  5
5FE
100
AcDbEntity
  8
0
  6
CONTINUOUS
 62
               7
100
AcDbCircle
 10
-0.0034038621736117
 20
13.359922430739076
 30
0.0
 40
11.00020238964013
100
AcDbArc
 50
242.98474879085435
 51
258.00252690354904
  0
ARC
  5
5FF
100
AcDbEntity
  8
0
  6
CONTINUOUS
 62
               7
100
AcDbCircle
 10
-0.0192098556067741
 20
10.016455189787578
 30
0.0
 40
6.6822959667157216
100
AcDbArc
 50
72.231845937461401
 51
84.683102661664321
  0
ARC
  5
600
100
AcDbEntity
  8
0
  6
CONTINUOUS
 62
               7
100
AcDbCircle
 10
0.0
 20
20.887435913090087
 30
0.0
 40
6.6897002044614204
100
AcDbArc
 50
252.42483315042037
 51
287.57516684957841
  0
ARC
  5
601
100
AcDbEntity
  8
0
  6
CONTINUOUS
 62
               7
100
AcDbCircle
 10
3.0269406657391924
 20
15.990355072247043
 30
0.0
 40
1.7903576861194068
100
AcDbArc
 50
235.7763795039715
 51
270.09790614910452
  0
ARC
  5
602
100
AcDbEntity
  8
0
  6
CONTINUOUS
 62
               7
100
AcDbCircle
 10
-3.0269406657391924
 20
15.990355072247043
 30
0.0
 40
1.7903576861194068
100
AcDbArc
 50
269.90209385089423
 51
304.22362049602731
  0
ARC
  5
603
100
AcDbEntity
  8
0
  6
CONTINUOUS
 62
               7
100
AcDbCircle
 10
3.0402325891325912
 20
14.91379714055026
 30
0.0
 40
1.7862321688366225
100
AcDbArc
 50
90.32822574115454
 51
124.83147711215561
  0
ARC
  5
604
100
AcDbEntity
  8
0
  6
CONTINUOUS
 62
               7
100
AcDbCircle
 10
-3.0402325891325912
 20
14.91379714055026
 30
0.0
 40
1.7862321688366225
100
AcDbArc
 50
55.168522887843999
 51
89.671774258845062
  0
ARC
  5
605
100
AcDbEntity
  8
0
  6
CONTINUOUS
 62
               7
100
AcDbCircle
 10
0.0192098556067741
 20
10.016455189787578
 30
0.0
 40
6.6822959667157216
100
AcDbArc
 50
95.316897338335295
 51
107.76815406253822
  0
LINE
  5
606
100
AcDbEntity
  8
0
  6
CONTINUOUS
 62
               2
100
AcDbLine
 10
5.0
 20
3.7000000000000002
 30
0.0
 11
12.5
 21
3.7000000000000002
 31
0.0
  0
LINE
  5
607
100
AcDbEntity
  8
0
  6
CONTINUOUS
 62
               2
100
AcDbLine
 10
5.0
 20
4.7000000000000002
 30
0.0
 11
12.5
 21
4.7000000000000002
 31
0.0
  0
LINE
  5
608
100
AcDbEntity
  8
0
  6
CONTINUOUS
 62
               2
100
AcDbLine
 10
5.0
 20
5.7000000000000002
 30
0.0
 11
12.5
 21
5.7000000000000002
 31
0.0
  0
LINE
  5
609
100
AcDbEntity
  8
0
  6
CONTINUOUS
 62
               2
100
AcDbLine
 10
5.0
 20
6.7000000000000002
 30
0.0
 11
12.5
 21
6.7000000000000002
 31
0.0
  0
LINE
  5
60A
100
AcDbEntity
  8
0
  6
CONTINUOUS
 62
               7
100
AcDbLine
 10
12.5
 20
5.0
 30
0.0
 11
14.0
 21
5.2599999999999998
 31
0.0
  0
LINE
  5
60B
100
AcDbEntity
  8
0
  6
CONTINUOUS
 62
               7
100
AcDbLine
 10
14.0
 20
9.1300000000000008
 30
0.0
 11
14.0
 21
5.2599999999999998
 31
0.0
  0
LINE
  5
60C
100
AcDbEntity
  8
0
  6
CONTINUOUS
 62
               7
100
AcDbLine
 10
12.5
 20
9.4000000000000004
 30
0.0
 11
14.0
 21
9.1300000000000008
 31
0.0
  0
LINE
  5
60D
100
AcDbEntity
  8
0
  6
CONTINUOUS
 62
               7
100
AcDbLine
 10
5.0
 20
2.7000000000000002
 30
0.0
 11
12.5
 21
2.7000000000000002
 31
0.0
  0
LINE
  5
60E
100
AcDbEntity
  8
0
  6
CONTINUOUS
 62
               7
100
AcDbLine
 10
12.5
 20
11.699999999999999
 30
0.0
 11
12.5
 21
2.7000000000000002
 31
0.0
  0
LINE
  5
60F
100
AcDbEntity
  8
0
  6
CONTINUOUS
 62
               7
100
AcDbLine
 10
5.0
 20
11.699999999999999
 30
0.0
 11
12.5
 21
11.699999999999999
 31
0.0
  0
LINE
  5
610
100
AcDbEntity
  8
0
  6
CONTINUOUS
 62
               7
100
AcDbLine
 10
4.0
 20
14.199999999999999
 30
0.0
 11
4.0
 21
13.6
 31
0.0
  0
LINE
  5
611
100
AcDbEntity
  8
0
  6
CONTINUOUS
 62
               7
100
AcDbLine
 10
-4.0
 20
14.199999999999999
 30
0.0
 11
-4.0
 21
13.6
 31
0.0
  0
LINE
  5
612
100
AcDbEntity
  8
0
  6
CONTINUOUS
 62
               7
100
AcDbLine
 10
5.0
 20
13.6
 30
0.0
 11
5.0
 21
2.6000000000000001
 31
0.0
  0
LINE
  5
613
100
AcDbEntity
  8
0
  6
CONTINUOUS
 62
               7
100
AcDbLine
 10
-5.0
 20
13.6
 30
0.0
 11
-5.0
 21
2.6000000000000001
 31
0.0
  0
LINE
  5
614
100
AcDbEntity
  8
0
  6
CONTINUOUS
 62
               7
100
AcDbLine
 10
5.0
 20
2.6000000000000001
 30
0.0
 11
-5.0
 21
2.6000000000000001
 31
0.0
  0
LINE
  5
615
100
AcDbEntity
  8
0
  6
CONTINUOUS
 62
               7
100
AcDbLine
 10
-4.0
 20
0.0
 30
0.0
 11
-4.0
 21
2.6000000000000001
 31
0.0
  0
LINE
  5
616
100
AcDbEntity
  8
0
  6
CONTINUOUS
 62
               7
100
AcDbLine
 10
-4.0
 20
0.6
 30
0.0
 11
4.0
 21
0.6
 31
0.0
  0
LINE
  5
617
100
AcDbEntity
  8
0
  6
CONTINUOUS
 62
               7
100
AcDbLine
 10
4.0
 20
0.0
 30
0.0
 11
4.0
 21
2.6000000000000001
 31
0.0
  0
LINE
  5
618
100
AcDbEntity
  8
0
  6
CONTINUOUS
 62
               7
100
AcDbLine
 10
-4.0
 20
0.0
 30
0.0
 11
4.0
 21
0.0
 31
0.0
  0
LINE
  5
619
100
AcDbEntity
  8
0
  6
CONTINUOUS
 62
               2
100
AcDbLine
 10
2.0600000000000001
 20
-2.7999999999999998
 30
0.0
 11
2.0600000000000001
 21
0.0
 31
0.0
  0
LINE
  5
61A
100
AcDbEntity
  8
0
  6
CONTINUOUS
 62
               7
100
AcDbLine
 10
2.5
 20
-2.7999999999999998
 30
0.0
 11
2.5
 21
0.0
 31
0.0
  0
LINE
  5
61B
100
AcDbEntity
  8
0
  6
CONTINUOUS
 62
               7
100
AcDbLine
 10
2.5
 20
-2.7999999999999998
 30
0.0
 11
-2.5
 21
-2.7999999999999998
 31
0.0
  0
LINE
  5
61C
100
AcDbEntity
  8
0
  6
CONTINUOUS
 62
               2
100
AcDbLine
 10
-2.0600000000000001
 20
-2.7999999999999998
 30
0.0
 11
-2.0600000000000001
 21
0.0
 31
0.0
  0
LINE
  5
61D
100
AcDbEntity
  8
0
  6
CONTINUOUS
 62
               7
100
AcDbLine
 10
-2.5
 20
-2.7999999999999998
 30
0.0
 11
-2.5
 21
0.0
 31
0.0
  0
LINE
  5
61E
100
AcDbEntity
  8
0
  6
CONTINUOUS
 62
               7
100
AcDbLine
 10
5.0
 20
13.6
 30
0.0
 11
-5.0
 21
13.6
 31
0.0
  0
LINE
  5
61F
100
AcDbEntity
  8
0
  6
CENTER
 62
               2
100
AcDbLine
 10
15.51
 20
7.2000000000000002
 30
0.0
 11
-6.5800000000000001
 21
7.2000000000000002
 31
0.0
  0
LINE
  5
620
100
AcDbEntity
  8
0
  6
CONTINUOUS
 62
               7
100
AcDbLine
 10
0.6
 20
16.699999999999999
 30
0.0
 11
3.5
 21
16.699999999999999
 31
0.0
  0
LINE
  5
621
100
AcDbEntity
  8
0
  6
CONTINUOUS
 62
               7
100
AcDbLine
 10
-0.6
 20
16.699999999999999
 30
0.0
 11
-0.6
 21
15.199999999999999
 31
0.0
  0
LINE
  5
622
100
AcDbEntity
  8
0
  6
CONTINUOUS
 62
               7
100
AcDbLine
 10
0.6
 20
16.699999999999999
 30
0.0
 11
0.6
 21
15.199999999999999
 31
0.0
  0
LINE
  5
623
100
AcDbEntity
  8
0
  6
CONTINUOUS
 62
               7
100
AcDbLine
 10
0.6
 20
15.199999999999999
 30
0.0
 11
-0.6
 21
15.199999999999999
 31
0.0
  0
LINE
  5
624
100
AcDbEntity
  8
0
  6
CENTER
 62
               2
100
AcDbLine
 10
0.0
 20
18.48
 30
0.0
 11
0.0
 21
-4.5099999999999998
 31
0.0
  0
LINE
  5
625
100
AcDbEntity
  8
0
  6
CONTINUOUS
 62
               7
100
AcDbLine
 10
3.5
 20
14.199999999999999
 30
0.0
 11
4.04
 21
14.51
 31
0.0
  0
LINE
  5
626
100
AcDbEntity
  8
0
  6
CONTINUOUS
 62
               7
100
AcDbLine
 10
-3.5
 20
14.199999999999999
 30
0.0
 11
-4.04
 21
14.51
 31
0.0
  0
LINE
  5
627
100
AcDbEntity
  8
0
  6
CONTINUOUS
 62
               7
100
AcDbLine
 10
3.5
 20
16.699999999999999
 30
0.0
 11
4.04
 21
16.379999999999999
 31
0.0
  0
LINE
  5
628
100
AcDbEntity
  8
0
  6
CONTINUOUS
 62
               7
100
AcDbLine
 10
-3.5
 20
16.699999999999999
 30
0.0
 11
-4.04
 21
16.379999999999999
 31
0.0
  0
LINE
  5
629
100
AcDbEntity
  8
0
  6
CONTINUOUS
 62
               7
100
AcDbLine
 10
4.04
 20
16.379999999999999
 30
0.0
 11
4.04
 21
14.51
 31
0.0
  0
LINE
  5
62A
100
AcDbEntity
  8
0
  6
CONTINUOUS
 62
               7
100
AcDbLine
 10
2.02
 20
16.379999999999999
 30
0.0
 11
2.02
 21
14.51
 31
0.0
  0
LINE
  5
62B
100
AcDbEntity
  8
0
  6
CONTINUOUS
 62
               7
100
AcDbLine
 10
-2.02
 20
16.379999999999999
 30
0.0
 11
-2.02
 21
14.51
 31
0.0
  0
LINE
  5
62C
100
AcDbEntity
  8
0
  6
CONTINUOUS
 62
               7
100
AcDbLine
 10
-4.04
 20
16.379999999999999
 30
0.0
 11
-4.04
 21
14.51
 31
0.0
  0
LINE
  5
62D
100
AcDbEntity
  8
0
  6
CONTINUOUS
 62
               7
100
AcDbLine
 10
4.0
 20
14.199999999999999
 30
0.0
 11
-4.0
 21
14.199999999999999
 31
0.0
  0
LINE
  5
62E
100
AcDbEntity
  8
0
  6
CONTINUOUS
 62
               7
100
AcDbLine
 10
-0.6
 20
16.699999999999999
 30
0.0
 11
-3.5
 21
16.699999999999999
 31
0.0
  0
ENDBLK
  5
62F
100
AcDbEntity
  8
0
100
AcDbBlockEnd
  0
BLOCK
  5
630
100
AcDbEntity
  8
0
100
AcDbBlockBegin
  2
MS_46
 70
               0
 10
0.0
 20
0.0
 30
0.0
  3
MS_46
  1

  0
CIRCLE
  5
631
100
AcDbEntity
  8
0
  6
CONTINUOUS
 62
               7
100
AcDbCircle
 10
0.0
 20
0.0
 30
0.0
 40
5.0
  0
ARC
  5
632
100
AcDbEntity
  8
0
  6
CONTINUOUS
 62
               7
100
AcDbCircle
 10
0.000000000000001
 20
0.0
 30
0.0
 40
3.4919335617963867
100
AcDbArc
 50
99.893920669735223
 51
260.10607933026398
  0
ARC
  5
633
100
AcDbEntity
  8
0
  6
CONTINUOUS
 62
               7
100
AcDbCircle
 10
-0.0009687532026477
 20
-0.0016806884533995
 30
0.0
 40
3.991553471691204
100
AcDbArc
 50
301.08656230114497
 51
359.01927923826821
  0
ARC
  5
634
100
AcDbEntity
  8
0
  6
CONTINUOUS
 62
               7
100
AcDbCircle
 10
-0.0009687532026477
 20
0.0016806884533995
 30
0.0
 40
3.991553471691204
100
AcDbArc
 50
0.9807207617309708
 51
58.91343769885421
  0
ARC
  5
635
100
AcDbEntity
  8
0
  6
CONTINUOUS
 62
               7
100
AcDbCircle
 10
0.0
 20
0.0
 30
0.0
 40
3.9968612685456071
100
AcDbArc
 50
61.12640262163702
 51
118.87359737836258
  0
ARC
  5
636
100
AcDbEntity
  8
0
  6
CONTINUOUS
 62
               7
100
AcDbCircle
 10
0.0009687532026477
 20
0.0016806884533995
 30
0.0
 40
3.991553471691204
100
AcDbArc
 50
121.08656230114541
 51
179.01927923826861
  0
ARC
  5
637
100
AcDbEntity
  8
0
  6
CONTINUOUS
 62
               7
100
AcDbCircle
 10
0.0009687532026477
 20
-0.0016806884533995
 30
0.0
 40
3.991553471691204
100
AcDbArc
 50
180.98072076173057
 51
238.91343769885381
  0
ARC
  5
638
100
AcDbEntity
  8
0
  6
CONTINUOUS
 62
               7
100
AcDbCircle
 10
0.0
 20
0.0
 30
0.0
 40
3.9968612685456071
100
AcDbArc
 50
241.12640262163663
 51
298.87359737836215
  0
ARC
  5
639
100
AcDbEntity
  8
0
  6
CONTINUOUS
 62
               7
100
AcDbCircle
 10
-0.000000000000001
 20
0.0
 30
0.0
 40
3.4919335617963867
100
AcDbArc
 50
279.89392066973483
 51
80.106079330264393
  0
LINE
  5
63A
100
AcDbEntity
  8
0
  6
CONTINUOUS
 62
               2
100
AcDbLine
 10
5.0
 20
-3.5
 30
0.0
 11
12.5
 21
-3.5
 31
0.0
  0
LINE
  5
63B
100
AcDbEntity
  8
0
  6
CONTINUOUS
 62
               2
100
AcDbLine
 10
5.0
 20
-2.5
 30
0.0
 11
12.5
 21
-2.5
 31
0.0
  0
LINE
  5
63C
100
AcDbEntity
  8
0
  6
CONTINUOUS
 62
               2
100
AcDbLine
 10
5.0
 20
-1.5
 30
0.0
 11
12.5
 21
-1.5
 31
0.0
  0
LINE
  5
63D
100
AcDbEntity
  8
0
  6
CONTINUOUS
 62
               2
100
AcDbLine
 10
5.0
 20
-0.5
 30
0.0
 11
12.5
 21
-0.5
 31
0.0
  0
LINE
  5
63E
100
AcDbEntity
  8
0
  6
CONTINUOUS
 62
               7
100
AcDbLine
 10
12.5
 20
-2.2000000000000002
 30
0.0
 11
14.0
 21
-1.9299999999999999
 31
0.0
  0
LINE
  5
63F
100
AcDbEntity
  8
0
  6
CONTINUOUS
 62
               7
100
AcDbLine
 10
14.0
 20
1.9299999999999999
 30
0.0
 11
14.0
 21
-1.9299999999999999
 31
0.0
  0
LINE
  5
640
100
AcDbEntity
  8
0
  6
CONTINUOUS
 62
               7
100
AcDbLine
 10
12.5
 20
2.2000000000000002
 30
0.0
 11
14.0
 21
1.9299999999999999
 31
0.0
  0
LINE
  5
641
100
AcDbEntity
  8
0
  6
CONTINUOUS
 62
               7
100
AcDbLine
 10
5.0
 20
5.0
 30
0.0
 11
5.0
 21
-5.0
 31
0.0
  0
LINE
  5
642
100
AcDbEntity
  8
0
  6
CONTINUOUS
 62
               7
100
AcDbLine
 10
5.0
 20
5.0
 30
0.0
 11
-5.0
 21
5.0
 31
0.0
  0
LINE
  5
643
100
AcDbEntity
  8
0
  6
CENTER
 62
               2
100
AcDbLine
 10
0.0
 20
7.5
 30
0.0
 11
0.0
 21
-7.5
 31
0.0
  0
LINE
  5
644
100
AcDbEntity
  8
0
  6
CENTER
 62
               2
100
AcDbLine
 10
15.539999999999999
 20
0.0
 30
0.0
 11
-7.5
 21
0.0
 31
0.0
  0
LINE
  5
645
100
AcDbEntity
  8
0
  6
CONTINUOUS
 62
               7
100
AcDbLine
 10
-5.0
 20
5.0
 30
0.0
 11
-5.0
 21
-5.0
 31
0.0
  0
LINE
  5
646
100
AcDbEntity
  8
0
  6
CONTINUOUS
 62
               7
100
AcDbLine
 10
5.0
 20
-5.0
 30
0.0
 11
-5.0
 21
-5.0
 31
0.0
  0
LINE
  5
647
100
AcDbEntity
  8
0
  6
CONTINUOUS
 62
               7
100
AcDbLine
 10
5.0
 20
-4.5
 30
0.0
 11
12.5
 21
-4.5
 31
0.0
  0
LINE
  5
648
100
AcDbEntity
  8
0
  6
CONTINUOUS
 62
               7
100
AcDbLine
 10
5.0
 20
4.5
 30
0.0
 11
12.5
 21
4.5
 31
0.0
  0
LINE
  5
649
100
AcDbEntity
  8
0
  6
CONTINUOUS
 62
               7
100
AcDbLine
 10
12.5
 20
4.5
 30
0.0
 11
12.5
 21
-4.5
 31
0.0
  0
LINE
  5
64A
100
AcDbEntity
  8
0
  6
CONTINUOUS
 62
               7
100
AcDbLine
 10
0.6
 20
-3.5
 30
0.0
 11
0.6
 21
3.5
 31
0.0
  0
LINE
  5
64B
100
AcDbEntity
  8
0
  6
CONTINUOUS
 62
               7
100
AcDbLine
 10
-0.6
 20
-3.5
 30
0.0
 11
-0.6
 21
3.5
 31
0.0
  0
LINE
  5
64C
100
AcDbEntity
  8
0
  6
CONTINUOUS
 62
               7
100
AcDbLine
 10
4.04
 20
0.0
 30
0.0
 11
2.02
 21
-3.5
 31
0.0
  0
LINE
  5
64D
100
AcDbEntity
  8
0
  6
CONTINUOUS
 62
               7
100
AcDbLine
 10
2.02
 20
3.5
 30
0.0
 11
4.04
 21
0.0
 31
0.0
  0
LINE
  5
64E
100
AcDbEntity
  8
0
  6
CONTINUOUS
 62
               7
100
AcDbLine
 10
-2.02
 20
3.5
 30
0.0
 11
2.02
 21
3.5
 31
0.0
  0
LINE
  5
64F
100
AcDbEntity
  8
0
  6
CONTINUOUS
 62
               7
100
AcDbLine
 10
-4.04
 20
0.0
 30
0.0
 11
-2.02
 21
3.5
 31
0.0
  0
LINE
  5
650
100
AcDbEntity
  8
0
  6
CONTINUOUS
 62
               7
100
AcDbLine
 10
-2.02
 20
-3.5
 30
0.0
 11
-4.04
 21
0.0
 31
0.0
  0
LINE
  5
651
100
AcDbEntity
  8
0
  6
CONTINUOUS
 62
               7
100
AcDbLine
 10
2.02
 20
-3.5
 30
0.0
 11
-2.02
 21
-3.5
 31
0.0
  0
ENDBLK
  5
652
100
AcDbEntity
  8
0
100
AcDbBlockEnd
  0
BLOCK
  5
653
100
AcDbEntity
  8
0
100
AcDbBlockBegin
  2
MS_47
 70
               0
 10
0.0
 20
0.0
 30
0.0
  3
MS_47
  1

  0
ARC
  5
654
100
AcDbEntity
  8
0
  6
CONTINUOUS
 62
               7
100
AcDbCircle
 10
0.0
 20
2.5999984741210937
 30
0.0
 40
10.99291271122951
100
AcDbArc
 50
62.945456062639956
 51
117.05454393735965
  0
ARC
  5
655
100
AcDbEntity
  8
0
  6
CONTINUOUS
 62
               7
100
AcDbCircle
 10
0.0034038621736117
 20
13.359922430739076
 30
0.0
 40
11.00020238964013
100
AcDbArc
 50
281.99747309644971
 51
297.01525120914442
  0
ARC
  5
656
100
AcDbEntity
  8
0
  6
CONTINUOUS
 62
               7
100
AcDbCircle
 10
-0.0034038621736117
 20
13.359922430739076
 30
0.0
 40
11.00020238964013
100
AcDbArc
 50
242.98474879085435
 51
258.00252690354904
  0
ARC
  5
657
100
AcDbEntity
  8
0
  6
CONTINUOUS
 62
               7
100
AcDbCircle
 10
-1.75
 20
19.254608154296875
 30
0.0
 40
5.0570551250525639
100
AcDbArc
 50
249.75402180362707
 51
290.24597819637165
  0
ARC
  5
658
100
AcDbEntity
  8
0
  6
CONTINUOUS
 62
               7
100
AcDbCircle
 10
-1.75
 20
11.6453857421875
 30
0.0
 40
5.0476798799330966
100
AcDbArc
 50
69.714765801400276
 51
110.28523419859933
  0
ARC
  5
659
100
AcDbEntity
  8
0
  6
CONTINUOUS
 62
               7
100
AcDbCircle
 10
1.75
 20
19.254608154296875
 30
0.0
 40
5.0570551250525639
100
AcDbArc
 50
249.75402180362707
 51
290.24597819637165
  0
ARC
  5
65A
100
AcDbEntity
  8
0
  6
CONTINUOUS
 62
               7
100
AcDbCircle
 10
1.75
 20
11.6453857421875
 30
0.0
 40
5.0476798799330966
100
AcDbArc
 50
69.714765801400276
 51
110.28523419859933
  0
LINE
  5
65B
100
AcDbEntity
  8
0
  6
CENTER
 62
               2
100
AcDbLine
 10
0.0
 20
18.57
 30
0.0
 11
0.0
 21
-4.4199999999999999
 31
0.0
  0
LINE
  5
65C
100
AcDbEntity
  8
0
  6
CONTINUOUS
 62
               7
100
AcDbLine
 10
-5.0
 20
13.6
 30
0.0
 11
-5.0
 21
2.6000000000000001
 31
0.0
  0
LINE
  5
65D
100
AcDbEntity
  8
0
  6
CONTINUOUS
 62
               7
100
AcDbLine
 10
5.0
 20
13.6
 30
0.0
 11
5.0
 21
2.6000000000000001
 31
0.0
  0
LINE
  5
65E
100
AcDbEntity
  8
0
  6
CONTINUOUS
 62
               7
100
AcDbLine
 10
-4.0
 20
0.0
 30
0.0
 11
-4.0
 21
2.6000000000000001
 31
0.0
  0
LINE
  5
65F
100
AcDbEntity
  8
0
  6
CONTINUOUS
 62
               7
100
AcDbLine
 10
4.0
 20
0.0
 30
0.0
 11
4.0
 21
2.6000000000000001
 31
0.0
  0
LINE
  5
660
100
AcDbEntity
  8
0
  6
CONTINUOUS
 62
               7
100
AcDbLine
 10
5.0
 20
2.6000000000000001
 30
0.0
 11
-5.0
 21
2.6000000000000001
 31
0.0
  0
LINE
  5
661
100
AcDbEntity
  8
0
  6
CONTINUOUS
 62
               7
100
AcDbLine
 10
-4.0
 20
0.6
 30
0.0
 11
4.0
 21
0.6
 31
0.0
  0
LINE
  5
662
100
AcDbEntity
  8
0
  6
CONTINUOUS
 62
               7
100
AcDbLine
 10
-4.0
 20
0.0
 30
0.0
 11
4.0
 21
0.0
 31
0.0
  0
LINE
  5
663
100
AcDbEntity
  8
0
  6
CONTINUOUS
 62
               7
100
AcDbLine
 10
5.0
 20
13.6
 30
0.0
 11
-5.0
 21
13.6
 31
0.0
  0
LINE
  5
664
100
AcDbEntity
  8
0
  6
CONTINUOUS
 62
               7
100
AcDbLine
 10
-3.5
 20
16.699999999999999
 30
0.0
 11
-3.5
 21
14.199999999999999
 31
0.0
  0
LINE
  5
665
100
AcDbEntity
  8
0
  6
CONTINUOUS
 62
               7
100
AcDbLine
 10
0.0
 20
16.379999999999999
 30
0.0
 11
0.0
 21
14.51
 31
0.0
  0
LINE
  5
666
100
AcDbEntity
  8
0
  6
CONTINUOUS
 62
               7
100
AcDbLine
 10
3.5
 20
16.699999999999999
 30
0.0
 11
-3.5
 21
16.699999999999999
 31
0.0
  0
LINE
  5
667
100
AcDbEntity
  8
0
  6
CONTINUOUS
 62
               7
100
AcDbLine
 10
3.5
 20
16.699999999999999
 30
0.0
 11
3.5
 21
14.199999999999999
 31
0.0
  0
LINE
  5
668
100
AcDbEntity
  8
0
  6
CONTINUOUS
 62
               7
100
AcDbLine
 10
-2.5
 20
-2.7999999999999998
 30
0.0
 11
-2.5
 21
0.0
 31
0.0
  0
LINE
  5
669
100
AcDbEntity
  8
0
  6
CONTINUOUS
 62
               2
100
AcDbLine
 10
-2.0600000000000001
 20
-2.7999999999999998
 30
0.0
 11
-2.0600000000000001
 21
0.0
 31
0.0
  0
LINE
  5
66A
100
AcDbEntity
  8
0
  6
CONTINUOUS
 62
               7
100
AcDbLine
 10
2.5
 20
-2.7999999999999998
 30
0.0
 11
-2.5
 21
-2.7999999999999998
 31
0.0
  0
LINE
  5
66B
100
AcDbEntity
  8
0
  6
CONTINUOUS
 62
               2
100
AcDbLine
 10
2.0600000000000001
 20
-2.7999999999999998
 30
0.0
 11
2.0600000000000001
 21
0.0
 31
0.0
  0
LINE
  5
66C
100
AcDbEntity
  8
0
  6
CONTINUOUS
 62
               7
100
AcDbLine
 10
2.5
 20
-2.7999999999999998
 30
0.0
 11
2.5
 21
0.0
 31
0.0
  0
LINE
  5
66D
100
AcDbEntity
  8
0
  6
CONTINUOUS
 62
               7
100
AcDbLine
 10
4.0
 20
14.199999999999999
 30
0.0
 11
-4.0
 21
14.199999999999999
 31
0.0
  0
LINE
  5
66E
100
AcDbEntity
  8
0
  6
CONTINUOUS
 62
               7
100
AcDbLine
 10
-4.0
 20
14.199999999999999
 30
0.0
 11
-4.0
 21
13.6
 31
0.0
  0
LINE
  5
66F
100
AcDbEntity
  8
0
  6
CONTINUOUS
 62
               7
100
AcDbLine
 10
4.0
 20
14.199999999999999
 30
0.0
 11
4.0
 21
13.6
 31
0.0
  0
ENDBLK
  5
670
100
AcDbEntity
  8
0
100
AcDbBlockEnd
  0
BLOCK
  5
671
100
AcDbEntity
  8
0
100
AcDbBlockBegin
  2
MS_48
 70
               0
 10
0.0
 20
0.0
 30
0.0
  3
MS_48
  1

  0
CIRCLE
  5
672
100
AcDbEntity
  8
0
  6
CONTINUOUS
 62
               7
100
AcDbCircle
 10
0.0
 20
7.2000007629394531
 30
0.0
 40
3.0499992370605469
  0
CIRCLE
  5
673
100
AcDbEntity
  8
0
  6
CONTINUOUS
 62
               7
100
AcDbCircle
 10
0.0
 20
7.2000007629394531
 30
0.0
 40
1.1999998092651367
  0
CIRCLE
  5
674
100
AcDbEntity
  8
0
  6
CONTINUOUS
 62
               7
100
AcDbCircle
 10
0.0
 20
7.2000007629394531
 30
0.0
 40
2.1999998092651367
  0
ARC
  5
675
100
AcDbEntity
  8
0
  6
CONTINUOUS
 62
               7
100
AcDbCircle
 10
0.0034038621736117
 20
13.359922430739076
 30
0.0
 40
11.00020238964013
100
AcDbArc
 50
281.99747309644971
 51
297.01525120914442
  0
ARC
  5
676
100
AcDbEntity
  8
0
  6
CONTINUOUS
 62
               7
100
AcDbCircle
 10
-0.0034038621736117
 20
13.359922430739076
 30
0.0
 40
11.00020238964013
100
AcDbArc
 50
242.98474879085435
 51
258.00252690354904
  0
ARC
  5
677
100
AcDbEntity
  8
0
  6
CONTINUOUS
 62
               7
100
AcDbCircle
 10
0.0
 20
2.5999984741210937
 30
0.0
 40
10.99291271122951
100
AcDbArc
 50
62.945456062639956
 51
117.05454393735965
  0
CIRCLE
  5
678
100
AcDbEntity
  8
0
  6
CONTINUOUS
 62
               7
100
AcDbCircle
 10
0.0
 20
7.2000007629394531
 30
0.0
 40
4.5
  0
ARC
  5
679
100
AcDbEntity
  8
0
  6
CONTINUOUS
 62
               7
100
AcDbCircle
 10
-1.75
 20
19.254608154296875
 30
0.0
 40
5.0570551250525639
100
AcDbArc
 50
249.75402180362707
 51
290.24597819637165
  0
ARC
  5
67A
100
AcDbEntity
  8
0
  6
CONTINUOUS
 62
               7
100
AcDbCircle
 10
-1.75
 20
11.6453857421875
 30
0.0
 40
5.0476798799330966
100
AcDbArc
 50
69.714765801400276
 51
110.28523419859933
  0
ARC
  5
67B
100
AcDbEntity
  8
0
  6
CONTINUOUS
 62
               7
100
AcDbCircle
 10
1.75
 20
19.254608154296875
 30
0.0
 40
5.0570551250525639
100
AcDbArc
 50
249.75402180362707
 51
290.24597819637165
  0
ARC
  5
67C
100
AcDbEntity
  8
0
  6
CONTINUOUS
 62
               7
100
AcDbCircle
 10
1.75
 20
11.6453857421875
 30
0.0
 40
5.0476798799330966
100
AcDbArc
 50
69.714765801400276
 51
110.28523419859933
  0
LINE
  5
67D
100
AcDbEntity
  8
0
  6
CENTER
 62
               2
100
AcDbLine
 10
0.0
 20
18.57
 30
0.0
 11
0.0
 21
-4.4199999999999999
 31
0.0
  0
LINE
  5
67E
100
AcDbEntity
  8
0
  6
CENTER
 62
               2
100
AcDbLine
 10
-6.5
 20
7.2000000000000002
 30
0.0
 11
6.5
 21
7.2000000000000002
 31
0.0
  0
LINE
  5
67F
100
AcDbEntity
  8
0
  6
CONTINUOUS
 62
               7
100
AcDbLine
 10
-5.0
 20
13.6
 30
0.0
 11
-5.0
 21
2.6000000000000001
 31
0.0
  0
LINE
  5
680
100
AcDbEntity
  8
0
  6
CONTINUOUS
 62
               7
100
AcDbLine
 10
5.0
 20
13.6
 30
0.0
 11
5.0
 21
2.6000000000000001
 31
0.0
  0
LINE
  5
681
100
AcDbEntity
  8
0
  6
CONTINUOUS
 62
               7
100
AcDbLine
 10
-4.0
 20
0.0
 30
0.0
 11
-4.0
 21
2.6000000000000001
 31
0.0
  0
LINE
  5
682
100
AcDbEntity
  8
0
  6
CONTINUOUS
 62
               7
100
AcDbLine
 10
4.0
 20
0.0
 30
0.0
 11
4.0
 21
2.6000000000000001
 31
0.0
  0
LINE
  5
683
100
AcDbEntity
  8
0
  6
CONTINUOUS
 62
               7
100
AcDbLine
 10
5.0
 20
2.6000000000000001
 30
0.0
 11
-5.0
 21
2.6000000000000001
 31
0.0
  0
LINE
  5
684
100
AcDbEntity
  8
0
  6
CONTINUOUS
 62
               7
100
AcDbLine
 10
-4.0
 20
0.6
 30
0.0
 11
4.0
 21
0.6
 31
0.0
  0
LINE
  5
685
100
AcDbEntity
  8
0
  6
CONTINUOUS
 62
               7
100
AcDbLine
 10
-4.0
 20
0.0
 30
0.0
 11
4.0
 21
0.0
 31
0.0
  0
LINE
  5
686
100
AcDbEntity
  8
0
  6
CONTINUOUS
 62
               7
100
AcDbLine
 10
5.0
 20
13.6
 30
0.0
 11
-5.0
 21
13.6
 31
0.0
  0
LINE
  5
687
100
AcDbEntity
  8
0
  6
CONTINUOUS
 62
               7
100
AcDbLine
 10
-3.5
 20
16.699999999999999
 30
0.0
 11
-3.5
 21
14.199999999999999
 31
0.0
  0
LINE
  5
688
100
AcDbEntity
  8
0
  6
CONTINUOUS
 62
               7
100
AcDbLine
 10
0.0
 20
16.379999999999999
 30
0.0
 11
0.0
 21
14.51
 31
0.0
  0
LINE
  5
689
100
AcDbEntity
  8
0
  6
CONTINUOUS
 62
               7
100
AcDbLine
 10
3.5
 20
16.699999999999999
 30
0.0
 11
-3.5
 21
16.699999999999999
 31
0.0
  0
LINE
  5
68A
100
AcDbEntity
  8
0
  6
CONTINUOUS
 62
               7
100
AcDbLine
 10
3.5
 20
16.699999999999999
 30
0.0
 11
3.5
 21
14.199999999999999
 31
0.0
  0
LINE
  5
68B
100
AcDbEntity
  8
0
  6
CONTINUOUS
 62
               7
100
AcDbLine
 10
-2.5
 20
-2.7999999999999998
 30
0.0
 11
-2.5
 21
0.0
 31
0.0
  0
LINE
  5
68C
100
AcDbEntity
  8
0
  6
CONTINUOUS
 62
               2
100
AcDbLine
 10
-2.0600000000000001
 20
-2.7999999999999998
 30
0.0
 11
-2.0600000000000001
 21
0.0
 31
0.0
  0
LINE
  5
68D
100
AcDbEntity
  8
0
  6
CONTINUOUS
 62
               7
100
AcDbLine
 10
2.5
 20
-2.7999999999999998
 30
0.0
 11
-2.5
 21
-2.7999999999999998
 31
0.0
  0
LINE
  5
68E
100
AcDbEntity
  8
0
  6
CONTINUOUS
 62
               2
100
AcDbLine
 10
2.0600000000000001
 20
-2.7999999999999998
 30
0.0
 11
2.0600000000000001
 21
0.0
 31
0.0
  0
LINE
  5
68F
100
AcDbEntity
  8
0
  6
CONTINUOUS
 62
               7
100
AcDbLine
 10
2.5
 20
-2.7999999999999998
 30
0.0
 11
2.5
 21
0.0
 31
0.0
  0
LINE
  5
690
100
AcDbEntity
  8
0
  6
CONTINUOUS
 62
               7
100
AcDbLine
 10
4.0
 20
14.199999999999999
 30
0.0
 11
-4.0
 21
14.199999999999999
 31
0.0
  0
LINE
  5
691
100
AcDbEntity
  8
0
  6
CONTINUOUS
 62
               7
100
AcDbLine
 10
-4.0
 20
14.199999999999999
 30
0.0
 11
-4.0
 21
13.6
 31
0.0
  0
LINE
  5
692
100
AcDbEntity
  8
0
  6
CONTINUOUS
 62
               7
100
AcDbLine
 10
4.0
 20
14.199999999999999
 30
0.0
 11
4.0
 21
13.6
 31
0.0
  0
ENDBLK
  5
693
100
AcDbEntity
  8
0
100
AcDbBlockEnd
  0
BLOCK
  5
694
100
AcDbEntity
  8
0
100
AcDbBlockBegin
  2
MS_49
 70
               0
 10
0.0
 20
0.0
 30
0.0
  3
MS_49
  1

  0
ARC
  5
695
100
AcDbEntity
  8
0
  6
CONTINUOUS
 62
               7
100
AcDbCircle
 10
0.0
 20
2.5999994277954119
 30
0.0
 40
10.992911861912029
100
AcDbArc
 50
62.945453801813649
 51
117.05454619818596
  0
ARC
  5
696
100
AcDbEntity
  8
0
  6
CONTINUOUS
 62
               7
100
AcDbCircle
 10
0.0034038621736117
 20
13.359922430739076
 30
0.0
 40
11.00020238964013
100
AcDbArc
 50
281.99747309644971
 51
297.01525120914442
  0
ARC
  5
697
100
AcDbEntity
  8
0
  6
CONTINUOUS
 62
               7
100
AcDbCircle
 10
-0.0034038621736117
 20
13.359922430739076
 30
0.0
 40
11.00020238964013
100
AcDbArc
 50
242.98474879085435
 51
258.00252690354904
  0
ARC
  5
698
100
AcDbEntity
  8
0
  6
CONTINUOUS
 62
               7
100
AcDbCircle
 10
-0.0192098556067741
 20
10.016455189787578
 30
0.0
 40
6.6822959667157216
100
AcDbArc
 50
72.231845937461401
 51
84.683102661664321
  0
ARC
  5
699
100
AcDbEntity
  8
0
  6
CONTINUOUS
 62
               7
100
AcDbCircle
 10
0.0
 20
20.887435913090087
 30
0.0
 40
6.6897002044614204
100
AcDbArc
 50
252.42483315042037
 51
287.57516684957841
  0
ARC
  5
69A
100
AcDbEntity
  8
0
  6
CONTINUOUS
 62
               7
100
AcDbCircle
 10
3.0269406657391924
 20
15.990355072247043
 30
0.0
 40
1.7903576861194068
100
AcDbArc
 50
235.7763795039715
 51
270.09790614910452
  0
ARC
  5
69B
100
AcDbEntity
  8
0
  6
CONTINUOUS
 62
               7
100
AcDbCircle
 10
-3.0269406657391924
 20
15.990355072247043
 30
0.0
 40
1.7903576861194068
100
AcDbArc
 50
269.90209385089423
 51
304.22362049602731
  0
ARC
  5
69C
100
AcDbEntity
  8
0
  6
CONTINUOUS
 62
               7
100
AcDbCircle
 10
3.0402325891325912
 20
14.91379714055026
 30
0.0
 40
1.7862321688366225
100
AcDbArc
 50
90.32822574115454
 51
124.83147711215561
  0
ARC
  5
69D
100
AcDbEntity
  8
0
  6
CONTINUOUS
 62
               7
100
AcDbCircle
 10
-3.0402325891325912
 20
14.91379714055026
 30
0.0
 40
1.7862321688366225
100
AcDbArc
 50
55.168522887843999
 51
89.671774258845062
  0
ARC
  5
69E
100
AcDbEntity
  8
0
  6
CONTINUOUS
 62
               7
100
AcDbCircle
 10
0.0192098556067741
 20
10.016455189787578
 30
0.0
 40
6.6822959667157216
100
AcDbArc
 50
95.316897338335295
 51
107.76815406253822
  0
LINE
  5
69F
100
AcDbEntity
  8
0
  6
CONTINUOUS
 62
               2
100
AcDbLine
 10
5.0
 20
3.7000000000000002
 30
0.0
 11
12.5
 21
3.7000000000000002
 31
0.0
  0
LINE
  5
6A0
100
AcDbEntity
  8
0
  6
CONTINUOUS
 62
               2
100
AcDbLine
 10
5.0
 20
4.7000000000000002
 30
0.0
 11
12.5
 21
4.7000000000000002
 31
0.0
  0
LINE
  5
6A1
100
AcDbEntity
  8
0
  6
CONTINUOUS
 62
               2
100
AcDbLine
 10
5.0
 20
5.7000000000000002
 30
0.0
 11
12.5
 21
5.7000000000000002
 31
0.0
  0
LINE
  5
6A2
100
AcDbEntity
  8
0
  6
CONTINUOUS
 62
               2
100
AcDbLine
 10
5.0
 20
6.7000000000000002
 30
0.0
 11
12.5
 21
6.7000000000000002
 31
0.0
  0
LINE
  5
6A3
100
AcDbEntity
  8
0
  6
CONTINUOUS
 62
               7
100
AcDbLine
 10
12.5
 20
5.5800000000000001
 30
0.0
 11
14.0
 21
5.8499999999999996
 31
0.0
  0
LINE
  5
6A4
100
AcDbEntity
  8
0
  6
CONTINUOUS
 62
               7
100
AcDbLine
 10
14.0
 20
8.5399999999999991
 30
0.0
 11
14.0
 21
5.8499999999999996
 31
0.0
  0
LINE
  5
6A5
100
AcDbEntity
  8
0
  6
CONTINUOUS
 62
               7
100
AcDbLine
 10
12.5
 20
8.8100000000000005
 30
0.0
 11
14.0
 21
8.5399999999999991
 31
0.0
  0
LINE
  5
6A6
100
AcDbEntity
  8
0
  6
CONTINUOUS
 62
               7
100
AcDbLine
 10
5.0
 20
2.7000000000000002
 30
0.0
 11
12.5
 21
2.7000000000000002
 31
0.0
  0
LINE
  5
6A7
100
AcDbEntity
  8
0
  6
CONTINUOUS
 62
               7
100
AcDbLine
 10
12.5
 20
11.699999999999999
 30
0.0
 11
12.5
 21
2.7000000000000002
 31
0.0
  0
LINE
  5
6A8
100
AcDbEntity
  8
0
  6
CONTINUOUS
 62
               7
100
AcDbLine
 10
5.0
 20
11.699999999999999
 30
0.0
 11
12.5
 21
11.699999999999999
 31
0.0
  0
LINE
  5
6A9
100
AcDbEntity
  8
0
  6
CONTINUOUS
 62
               7
100
AcDbLine
 10
4.0
 20
14.199999999999999
 30
0.0
 11
4.0
 21
13.6
 31
0.0
  0
LINE
  5
6AA
100
AcDbEntity
  8
0
  6
CONTINUOUS
 62
               7
100
AcDbLine
 10
-4.0
 20
14.199999999999999
 30
0.0
 11
-4.0
 21
13.6
 31
0.0
  0
LINE
  5
6AB
100
AcDbEntity
  8
0
  6
CONTINUOUS
 62
               7
100
AcDbLine
 10
5.0
 20
13.6
 30
0.0
 11
5.0
 21
2.6000000000000001
 31
0.0
  0
LINE
  5
6AC
100
AcDbEntity
  8
0
  6
CONTINUOUS
 62
               7
100
AcDbLine
 10
-5.0
 20
13.6
 30
0.0
 11
-5.0
 21
2.6000000000000001
 31
0.0
  0
LINE
  5
6AD
100
AcDbEntity
  8
0
  6
CONTINUOUS
 62
               7
100
AcDbLine
 10
5.0
 20
2.6000000000000001
 30
0.0
 11
-5.0
 21
2.6000000000000001
 31
0.0
  0
LINE
  5
6AE
100
AcDbEntity
  8
0
  6
CONTINUOUS
 62
               7
100
AcDbLine
 10
-4.0
 20
0.0
 30
0.0
 11
-4.0
 21
2.6000000000000001
 31
0.0
  0
LINE
  5
6AF
100
AcDbEntity
  8
0
  6
CONTINUOUS
 62
               7
100
AcDbLine
 10
-4.0
 20
0.6
 30
0.0
 11
4.0
 21
0.6
 31
0.0
  0
LINE
  5
6B0
100
AcDbEntity
  8
0
  6
CONTINUOUS
 62
               7
100
AcDbLine
 10
4.0
 20
0.0
 30
0.0
 11
4.0
 21
2.6000000000000001
 31
0.0
  0
LINE
  5
6B1
100
AcDbEntity
  8
0
  6
CONTINUOUS
 62
               7
100
AcDbLine
 10
-4.0
 20
0.0
 30
0.0
 11
4.0
 21
0.0
 31
0.0
  0
LINE
  5
6B2
100
AcDbEntity
  8
0
  6
CONTINUOUS
 62
               2
100
AcDbLine
 10
2.0600000000000001
 20
-2.7999999999999998
 30
0.0
 11
2.0600000000000001
 21
0.0
 31
0.0
  0
LINE
  5
6B3
100
AcDbEntity
  8
0
  6
CONTINUOUS
 62
               7
100
AcDbLine
 10
2.5
 20
-2.7999999999999998
 30
0.0
 11
2.5
 21
0.0
 31
0.0
  0
LINE
  5
6B4
100
AcDbEntity
  8
0
  6
CONTINUOUS
 62
               7
100
AcDbLine
 10
2.5
 20
-2.7999999999999998
 30
0.0
 11
-2.5
 21
-2.7999999999999998
 31
0.0
  0
LINE
  5
6B5
100
AcDbEntity
  8
0
  6
CONTINUOUS
 62
               2
100
AcDbLine
 10
-2.0600000000000001
 20
-2.7999999999999998
 30
0.0
 11
-2.0600000000000001
 21
0.0
 31
0.0
  0
LINE
  5
6B6
100
AcDbEntity
  8
0
  6
CONTINUOUS
 62
               7
100
AcDbLine
 10
-2.5
 20
-2.7999999999999998
 30
0.0
 11
-2.5
 21
0.0
 31
0.0
  0
LINE
  5
6B7
100
AcDbEntity
  8
0
  6
CONTINUOUS
 62
               7
100
AcDbLine
 10
5.0
 20
13.6
 30
0.0
 11
-5.0
 21
13.6
 31
0.0
  0
LINE
  5
6B8
100
AcDbEntity
  8
0
  6
CENTER
 62
               2
100
AcDbLine
 10
15.51
 20
7.2000000000000002
 30
0.0
 11
-6.5800000000000001
 21
7.2000000000000002
 31
0.0
  0
LINE
  5
6B9
100
AcDbEntity
  8
0
  6
CONTINUOUS
 62
               7
100
AcDbLine
 10
0.6
 20
16.699999999999999
 30
0.0
 11
3.5
 21
16.699999999999999
 31
0.0
  0
LINE
  5
6BA
100
AcDbEntity
  8
0
  6
CONTINUOUS
 62
               7
100
AcDbLine
 10
-0.6
 20
16.699999999999999
 30
0.0
 11
-0.6
 21
15.199999999999999
 31
0.0
  0
LINE
  5
6BB
100
AcDbEntity
  8
0
  6
CONTINUOUS
 62
               7
100
AcDbLine
 10
0.6
 20
16.699999999999999
 30
0.0
 11
0.6
 21
15.199999999999999
 31
0.0
  0
LINE
  5
6BC
100
AcDbEntity
  8
0
  6
CONTINUOUS
 62
               7
100
AcDbLine
 10
0.6
 20
15.199999999999999
 30
0.0
 11
-0.6
 21
15.199999999999999
 31
0.0
  0
LINE
  5
6BD
100
AcDbEntity
  8
0
  6
CENTER
 62
               2
100
AcDbLine
 10
0.0
 20
18.48
 30
0.0
 11
0.0
 21
-4.5099999999999998
 31
0.0
  0
LINE
  5
6BE
100
AcDbEntity
  8
0
  6
CONTINUOUS
 62
               7
100
AcDbLine
 10
3.5
 20
14.199999999999999
 30
0.0
 11
4.04
 21
14.51
 31
0.0
  0
LINE
  5
6BF
100
AcDbEntity
  8
0
  6
CONTINUOUS
 62
               7
100
AcDbLine
 10
-3.5
 20
14.199999999999999
 30
0.0
 11
-4.04
 21
14.51
 31
0.0
  0
LINE
  5
6C0
100
AcDbEntity
  8
0
  6
CONTINUOUS
 62
               7
100
AcDbLine
 10
3.5
 20
16.699999999999999
 30
0.0
 11
4.04
 21
16.379999999999999
 31
0.0
  0
LINE
  5
6C1
100
AcDbEntity
  8
0
  6
CONTINUOUS
 62
               7
100
AcDbLine
 10
-3.5
 20
16.699999999999999
 30
0.0
 11
-4.04
 21
16.379999999999999
 31
0.0
  0
LINE
  5
6C2
100
AcDbEntity
  8
0
  6
CONTINUOUS
 62
               7
100
AcDbLine
 10
4.04
 20
16.379999999999999
 30
0.0
 11
4.04
 21
14.51
 31
0.0
  0
LINE
  5
6C3
100
AcDbEntity
  8
0
  6
CONTINUOUS
 62
               7
100
AcDbLine
 10
2.02
 20
16.379999999999999
 30
0.0
 11
2.02
 21
14.51
 31
0.0
  0
LINE
  5
6C4
100
AcDbEntity
  8
0
  6
CONTINUOUS
 62
               7
100
AcDbLine
 10
-2.02
 20
16.379999999999999
 30
0.0
 11
-2.02
 21
14.51
 31
0.0
  0
LINE
  5
6C5
100
AcDbEntity
  8
0
  6
CONTINUOUS
 62
               7
100
AcDbLine
 10
-4.04
 20
16.379999999999999
 30
0.0
 11
-4.04
 21
14.51
 31
0.0
  0
LINE
  5
6C6
100
AcDbEntity
  8
0
  6
CONTINUOUS
 62
               7
100
AcDbLine
 10
4.0
 20
14.199999999999999
 30
0.0
 11
-4.0
 21
14.199999999999999
 31
0.0
  0
LINE
  5
6C7
100
AcDbEntity
  8
0
  6
CONTINUOUS
 62
               7
100
AcDbLine
 10
-0.6
 20
16.699999999999999
 30
0.0
 11
-3.5
 21
16.699999999999999
 31
0.0
  0
ENDBLK
  5
6C8
100
AcDbEntity
  8
0
100
AcDbBlockEnd
  0
BLOCK
  5
6C9
100
AcDbEntity
  8
0
100
AcDbBlockBegin
  2
MS_50
 70
               0
 10
0.0
 20
0.0
 30
0.0
  3
MS_50
  1

  0
CIRCLE
  5
6CA
100
AcDbEntity
  8
0
  6
CONTINUOUS
 62
               7
100
AcDbCircle
 10
0.0
 20
0.0
 30
0.0
 40
5.0
  0
ARC
  5
6CB
100
AcDbEntity
  8
0
  6
CONTINUOUS
 62
               7
100
AcDbCircle
 10
0.000000000000001
 20
0.0
 30
0.0
 40
3.4919335617963867
100
AcDbArc
 50
99.893920669735223
 51
260.10607933026398
  0
ARC
  5
6CC
100
AcDbEntity
  8
0
  6
CONTINUOUS
 62
               7
100
AcDbCircle
 10
-0.0009687532026477
 20
-0.0016806884533995
 30
0.0
 40
3.991553471691204
100
AcDbArc
 50
301.08656230114497
 51
359.01927923826821
  0
ARC
  5
6CD
100
AcDbEntity
  8
0
  6
CONTINUOUS
 62
               7
100
AcDbCircle
 10
-0.0009687532026477
 20
0.0016806884533995
 30
0.0
 40
3.991553471691204
100
AcDbArc
 50
0.9807207617309708
 51
58.91343769885421
  0
ARC
  5
6CE
100
AcDbEntity
  8
0
  6
CONTINUOUS
 62
               7
100
AcDbCircle
 10
0.0
 20
0.0
 30
0.0
 40
3.9968612685456071
100
AcDbArc
 50
61.12640262163702
 51
118.87359737836258
  0
ARC
  5
6CF
100
AcDbEntity
  8
0
  6
CONTINUOUS
 62
               7
100
AcDbCircle
 10
0.0009687532026477
 20
0.0016806884533995
 30
0.0
 40
3.991553471691204
100
AcDbArc
 50
121.08656230114541
 51
179.01927923826861
  0
ARC
  5
6D0
100
AcDbEntity
  8
0
  6
CONTINUOUS
 62
               7
100
AcDbCircle
 10
0.0009687532026477
 20
-0.0016806884533995
 30
0.0
 40
3.991553471691204
100
AcDbArc
 50
180.98072076173057
 51
238.91343769885381
  0
ARC
  5
6D1
100
AcDbEntity
  8
0
  6
CONTINUOUS
 62
               7
100
AcDbCircle
 10
0.0
 20
0.0
 30
0.0
 40
3.9968612685456071
100
AcDbArc
 50
241.12640262163663
 51
298.87359737836215
  0
ARC
  5
6D2
100
AcDbEntity
  8
0
  6
CONTINUOUS
 62
               7
100
AcDbCircle
 10
-0.000000000000001
 20
0.0
 30
0.0
 40
3.4919335617963867
100
AcDbArc
 50
279.89392066973483
 51
80.106079330264393
  0
LINE
  5
6D3
100
AcDbEntity
  8
0
  6
CONTINUOUS
 62
               2
100
AcDbLine
 10
5.0
 20
-3.5
 30
0.0
 11
12.5
 21
-3.5
 31
0.0
  0
LINE
  5
6D4
100
AcDbEntity
  8
0
  6
CONTINUOUS
 62
               2
100
AcDbLine
 10
5.0
 20
-2.5
 30
0.0
 11
12.5
 21
-2.5
 31
0.0
  0
LINE
  5
6D5
100
AcDbEntity
  8
0
  6
CONTINUOUS
 62
               2
100
AcDbLine
 10
5.0
 20
-1.5
 30
0.0
 11
12.5
 21
-1.5
 31
0.0
  0
LINE
  5
6D6
100
AcDbEntity
  8
0
  6
CONTINUOUS
 62
               2
100
AcDbLine
 10
5.0
 20
-0.5
 30
0.0
 11
12.5
 21
-0.5
 31
0.0
  0
LINE
  5
6D7
100
AcDbEntity
  8
0
  6
CONTINUOUS
 62
               7
100
AcDbLine
 10
12.5
 20
-1.6100000000000001
 30
0.0
 11
14.0
 21
-1.3400000000000001
 31
0.0
  0
LINE
  5
6D8
100
AcDbEntity
  8
0
  6
CONTINUOUS
 62
               7
100
AcDbLine
 10
14.0
 20
1.3400000000000001
 30
0.0
 11
14.0
 21
-1.3400000000000001
 31
0.0
  0
LINE
  5
6D9
100
AcDbEntity
  8
0
  6
CONTINUOUS
 62
               7
100
AcDbLine
 10
12.5
 20
1.6100000000000001
 30
0.0
 11
14.0
 21
1.3400000000000001
 31
0.0
  0
LINE
  5
6DA
100
AcDbEntity
  8
0
  6
CONTINUOUS
 62
               7
100
AcDbLine
 10
5.0
 20
5.0
 30
0.0
 11
5.0
 21
-5.0
 31
0.0
  0
LINE
  5
6DB
100
AcDbEntity
  8
0
  6
CONTINUOUS
 62
               7
100
AcDbLine
 10
5.0
 20
5.0
 30
0.0
 11
-5.0
 21
5.0
 31
0.0
  0
LINE
  5
6DC
100
AcDbEntity
  8
0
  6
CENTER
 62
               2
100
AcDbLine
 10
0.0
 20
7.5
 30
0.0
 11
0.0
 21
-7.5
 31
0.0
  0
LINE
  5
6DD
100
AcDbEntity
  8
0
  6
CENTER
 62
               2
100
AcDbLine
 10
15.539999999999999
 20
0.0
 30
0.0
 11
-7.5
 21
0.0
 31
0.0
  0
LINE
  5
6DE
100
AcDbEntity
  8
0
  6
CONTINUOUS
 62
               7
100
AcDbLine
 10
-5.0
 20
5.0
 30
0.0
 11
-5.0
 21
-5.0
 31
0.0
  0
LINE
  5
6DF
100
AcDbEntity
  8
0
  6
CONTINUOUS
 62
               7
100
AcDbLine
 10
5.0
 20
-5.0
 30
0.0
 11
-5.0
 21
-5.0
 31
0.0
  0
LINE
  5
6E0
100
AcDbEntity
  8
0
  6
CONTINUOUS
 62
               7
100
AcDbLine
 10
5.0
 20
-4.5
 30
0.0
 11
12.5
 21
-4.5
 31
0.0
  0
LINE
  5
6E1
100
AcDbEntity
  8
0
  6
CONTINUOUS
 62
               7
100
AcDbLine
 10
5.0
 20
4.5
 30
0.0
 11
12.5
 21
4.5
 31
0.0
  0
LINE
  5
6E2
100
AcDbEntity
  8
0
  6
CONTINUOUS
 62
               7
100
AcDbLine
 10
12.5
 20
4.5
 30
0.0
 11
12.5
 21
-4.5
 31
0.0
  0
LINE
  5
6E3
100
AcDbEntity
  8
0
  6
CONTINUOUS
 62
               7
100
AcDbLine
 10
0.6
 20
-3.5
 30
0.0
 11
0.6
 21
3.5
 31
0.0
  0
LINE
  5
6E4
100
AcDbEntity
  8
0
  6
CONTINUOUS
 62
               7
100
AcDbLine
 10
-0.6
 20
-3.5
 30
0.0
 11
-0.6
 21
3.5
 31
0.0
  0
LINE
  5
6E5
100
AcDbEntity
  8
0
  6
CONTINUOUS
 62
               7
100
AcDbLine
 10
4.04
 20
0.0
 30
0.0
 11
2.02
 21
-3.5
 31
0.0
  0
LINE
  5
6E6
100
AcDbEntity
  8
0
  6
CONTINUOUS
 62
               7
100
AcDbLine
 10
2.02
 20
3.5
 30
0.0
 11
4.04
 21
0.0
 31
0.0
  0
LINE
  5
6E7
100
AcDbEntity
  8
0
  6
CONTINUOUS
 62
               7
100
AcDbLine
 10
-2.02
 20
3.5
 30
0.0
 11
2.02
 21
3.5
 31
0.0
  0
LINE
  5
6E8
100
AcDbEntity
  8
0
  6
CONTINUOUS
 62
               7
100
AcDbLine
 10
-4.04
 20
0.0
 30
0.0
 11
-2.02
 21
3.5
 31
0.0
  0
LINE
  5
6E9
100
AcDbEntity
  8
0
  6
CONTINUOUS
 62
               7
100
AcDbLine
 10
-2.02
 20
-3.5
 30
0.0
 11
-4.04
 21
0.0
 31
0.0
  0
LINE
  5
6EA
100
AcDbEntity
  8
0
  6
CONTINUOUS
 62
               7
100
AcDbLine
 10
2.02
 20
-3.5
 30
0.0
 11
-2.02
 21
-3.5
 31
0.0
  0
ENDBLK
  5
6EB
100
AcDbEntity
  8
0
100
AcDbBlockEnd
  0
BLOCK
  5
6EC
100
AcDbEntity
  8
0
100
AcDbBlockBegin
  2
MS_51
 70
               0
 10
0.0
 20
0.0
 30
0.0
  3
MS_51
  1

  0
ARC
  5
6ED
100
AcDbEntity
  8
0
  6
CONTINUOUS
 62
               7
100
AcDbCircle
 10
0.0
 20
2.5999984741210937
 30
0.0
 40
10.99291271122951
100
AcDbArc
 50
62.945456062639956
 51
117.05454393735965
  0
ARC
  5
6EE
100
AcDbEntity
  8
0
  6
CONTINUOUS
 62
               7
100
AcDbCircle
 10
0.0034038621736117
 20
13.359922430739076
 30
0.0
 40
11.00020238964013
100
AcDbArc
 50
281.99747309644971
 51
297.01525120914442
  0
ARC
  5
6EF
100
AcDbEntity
  8
0
  6
CONTINUOUS
 62
               7
100
AcDbCircle
 10
-0.0034038621736117
 20
13.359922430739076
 30
0.0
 40
11.00020238964013
100
AcDbArc
 50
242.98474879085435
 51
258.00252690354904
  0
ARC
  5
6F0
100
AcDbEntity
  8
0
  6
CONTINUOUS
 62
               7
100
AcDbCircle
 10
-1.75
 20
19.254608154296875
 30
0.0
 40
5.0570551250525639
100
AcDbArc
 50
249.75402180362707
 51
290.24597819637165
  0
ARC
  5
6F1
100
AcDbEntity
  8
0
  6
CONTINUOUS
 62
               7
100
AcDbCircle
 10
-1.75
 20
11.6453857421875
 30
0.0
 40
5.0476798799330966
100
AcDbArc
 50
69.714765801400276
 51
110.28523419859933
  0
ARC
  5
6F2
100
AcDbEntity
  8
0
  6
CONTINUOUS
 62
               7
100
AcDbCircle
 10
1.75
 20
19.254608154296875
 30
0.0
 40
5.0570551250525639
100
AcDbArc
 50
249.75402180362707
 51
290.24597819637165
  0
ARC
  5
6F3
100
AcDbEntity
  8
0
  6
CONTINUOUS
 62
               7
100
AcDbCircle
 10
1.75
 20
11.6453857421875
 30
0.0
 40
5.0476798799330966
100
AcDbArc
 50
69.714765801400276
 51
110.28523419859933
  0
LINE
  5
6F4
100
AcDbEntity
  8
0
  6
CENTER
 62
               2
100
AcDbLine
 10
0.0
 20
18.57
 30
0.0
 11
0.0
 21
-4.4199999999999999
 31
0.0
  0
LINE
  5
6F5
100
AcDbEntity
  8
0
  6
CONTINUOUS
 62
               7
100
AcDbLine
 10
-5.0
 20
13.6
 30
0.0
 11
-5.0
 21
2.6000000000000001
 31
0.0
  0
LINE
  5
6F6
100
AcDbEntity
  8
0
  6
CONTINUOUS
 62
               7
100
AcDbLine
 10
5.0
 20
13.6
 30
0.0
 11
5.0
 21
2.6000000000000001
 31
0.0
  0
LINE
  5
6F7
100
AcDbEntity
  8
0
  6
CONTINUOUS
 62
               7
100
AcDbLine
 10
-4.0
 20
0.0
 30
0.0
 11
-4.0
 21
2.6000000000000001
 31
0.0
  0
LINE
  5
6F8
100
AcDbEntity
  8
0
  6
CONTINUOUS
 62
               7
100
AcDbLine
 10
4.0
 20
0.0
 30
0.0
 11
4.0
 21
2.6000000000000001
 31
0.0
  0
LINE
  5
6F9
100
AcDbEntity
  8
0
  6
CONTINUOUS
 62
               7
100
AcDbLine
 10
5.0
 20
2.6000000000000001
 30
0.0
 11
-5.0
 21
2.6000000000000001
 31
0.0
  0
LINE
  5
6FA
100
AcDbEntity
  8
0
  6
CONTINUOUS
 62
               7
100
AcDbLine
 10
-4.0
 20
0.6
 30
0.0
 11
4.0
 21
0.6
 31
0.0
  0
LINE
  5
6FB
100
AcDbEntity
  8
0
  6
CONTINUOUS
 62
               7
100
AcDbLine
 10
-4.0
 20
0.0
 30
0.0
 11
4.0
 21
0.0
 31
0.0
  0
LINE
  5
6FC
100
AcDbEntity
  8
0
  6
CONTINUOUS
 62
               7
100
AcDbLine
 10
5.0
 20
13.6
 30
0.0
 11
-5.0
 21
13.6
 31
0.0
  0
LINE
  5
6FD
100
AcDbEntity
  8
0
  6
CONTINUOUS
 62
               7
100
AcDbLine
 10
-3.5
 20
16.699999999999999
 30
0.0
 11
-3.5
 21
14.199999999999999
 31
0.0
  0
LINE
  5
6FE
100
AcDbEntity
  8
0
  6
CONTINUOUS
 62
               7
100
AcDbLine
 10
0.0
 20
16.379999999999999
 30
0.0
 11
0.0
 21
14.51
 31
0.0
  0
LINE
  5
6FF
100
AcDbEntity
  8
0
  6
CONTINUOUS
 62
               7
100
AcDbLine
 10
3.5
 20
16.699999999999999
 30
0.0
 11
-3.5
 21
16.699999999999999
 31
0.0
  0
LINE
  5
700
100
AcDbEntity
  8
0
  6
CONTINUOUS
 62
               7
100
AcDbLine
 10
3.5
 20
16.699999999999999
 30
0.0
 11
3.5
 21
14.199999999999999
 31
0.0
  0
LINE
  5
701
100
AcDbEntity
  8
0
  6
CONTINUOUS
 62
               7
100
AcDbLine
 10
-2.5
 20
-2.7999999999999998
 30
0.0
 11
-2.5
 21
0.0
 31
0.0
  0
LINE
  5
702
100
AcDbEntity
  8
0
  6
CONTINUOUS
 62
               2
100
AcDbLine
 10
-2.0600000000000001
 20
-2.7999999999999998
 30
0.0
 11
-2.0600000000000001
 21
0.0
 31
0.0
  0
LINE
  5
703
100
AcDbEntity
  8
0
  6
CONTINUOUS
 62
               7
100
AcDbLine
 10
2.5
 20
-2.7999999999999998
 30
0.0
 11
-2.5
 21
-2.7999999999999998
 31
0.0
  0
LINE
  5
704
100
AcDbEntity
  8
0
  6
CONTINUOUS
 62
               2
100
AcDbLine
 10
2.0600000000000001
 20
-2.7999999999999998
 30
0.0
 11
2.0600000000000001
 21
0.0
 31
0.0
  0
LINE
  5
705
100
AcDbEntity
  8
0
  6
CONTINUOUS
 62
               7
100
AcDbLine
 10
2.5
 20
-2.7999999999999998
 30
0.0
 11
2.5
 21
0.0
 31
0.0
  0
LINE
  5
706
100
AcDbEntity
  8
0
  6
CONTINUOUS
 62
               7
100
AcDbLine
 10
4.0
 20
14.199999999999999
 30
0.0
 11
-4.0
 21
14.199999999999999
 31
0.0
  0
LINE
  5
707
100
AcDbEntity
  8
0
  6
CONTINUOUS
 62
               7
100
AcDbLine
 10
-4.0
 20
14.199999999999999
 30
0.0
 11
-4.0
 21
13.6
 31
0.0
  0
LINE
  5
708
100
AcDbEntity
  8
0
  6
CONTINUOUS
 62
               7
100
AcDbLine
 10
4.0
 20
14.199999999999999
 30
0.0
 11
4.0
 21
13.6
 31
0.0
  0
ENDBLK
  5
709
100
AcDbEntity
  8
0
100
AcDbBlockEnd
  0
BLOCK
  5
70A
100
AcDbEntity
  8
0
100
AcDbBlockBegin
  2
MS_52
 70
               0
 10
0.0
 20
0.0
 30
0.0
  3
MS_52
  1

  0
CIRCLE
  5
70B
100
AcDbEntity
  8
0
  6
CONTINUOUS
 62
               7
100
AcDbCircle
 10
0.0
 20
7.2000007629394531
 30
0.0
 40
2.0499992370605469
  0
CIRCLE
  5
70C
100
AcDbEntity
  8
0
  6
CONTINUOUS
 62
               7
100
AcDbCircle
 10
0.0
 20
7.2000007629394531
 30
0.0
 40
0.8999999761581421
  0
CIRCLE
  5
70D
100
AcDbEntity
  8
0
  6
CONTINUOUS
 62
               7
100
AcDbCircle
 10
0.0
 20
7.2000007629394531
 30
0.0
 40
1.6999998092651367
  0
ARC
  5
70E
100
AcDbEntity
  8
0
  6
CONTINUOUS
 62
               7
100
AcDbCircle
 10
0.0034038621736117
 20
13.359922430739076
 30
0.0
 40
11.00020238964013
100
AcDbArc
 50
281.99747309644971
 51
297.01525120914442
  0
ARC
  5
70F
100
AcDbEntity
  8
0
  6
CONTINUOUS
 62
               7
100
AcDbCircle
 10
-0.0034038621736117
 20
13.359922430739076
 30
0.0
 40
11.00020238964013
100
AcDbArc
 50
242.98474879085435
 51
258.00252690354904
  0
ARC
  5
710
100
AcDbEntity
  8
0
  6
CONTINUOUS
 62
               7
100
AcDbCircle
 10
0.0
 20
2.5999984741210937
 30
0.0
 40
10.99291271122951
100
AcDbArc
 50
62.945456062639956
 51
117.05454393735965
  0
CIRCLE
  5
711
100
AcDbEntity
  8
0
  6
CONTINUOUS
 62
               7
100
AcDbCircle
 10
0.0
 20
7.2000007629394531
 30
0.0
 40
4.5
  0
ARC
  5
712
100
AcDbEntity
  8
0
  6
CONTINUOUS
 62
               7
100
AcDbCircle
 10
-1.75
 20
19.254608154296875
 30
0.0
 40
5.0570551250525639
100
AcDbArc
 50
249.75402180362707
 51
290.24597819637165
  0
ARC
  5
713
100
AcDbEntity
  8
0
  6
CONTINUOUS
 62
               7
100
AcDbCircle
 10
-1.75
 20
11.6453857421875
 30
0.0
 40
5.0476798799330966
100
AcDbArc
 50
69.714765801400276
 51
110.28523419859933
  0
ARC
  5
714
100
AcDbEntity
  8
0
  6
CONTINUOUS
 62
               7
100
AcDbCircle
 10
1.75
 20
19.254608154296875
 30
0.0
 40
5.0570551250525639
100
AcDbArc
 50
249.75402180362707
 51
290.24597819637165
  0
ARC
  5
715
100
AcDbEntity
  8
0
  6
CONTINUOUS
 62
               7
100
AcDbCircle
 10
1.75
 20
11.6453857421875
 30
0.0
 40
5.0476798799330966
100
AcDbArc
 50
69.714765801400276
 51
110.28523419859933
  0
LINE
  5
716
100
AcDbEntity
  8
0
  6
CENTER
 62
               2
100
AcDbLine
 10
0.0
 20
18.57
 30
0.0
 11
0.0
 21
-4.4199999999999999
 31
0.0
  0
LINE
  5
717
100
AcDbEntity
  8
0
  6
CENTER
 62
               2
100
AcDbLine
 10
-6.5
 20
7.2000000000000002
 30
0.0
 11
6.5
 21
7.2000000000000002
 31
0.0
  0
LINE
  5
718
100
AcDbEntity
  8
0
  6
CONTINUOUS
 62
               7
100
AcDbLine
 10
-5.0
 20
13.6
 30
0.0
 11
-5.0
 21
2.6000000000000001
 31
0.0
  0
LINE
  5
719
100
AcDbEntity
  8
0
  6
CONTINUOUS
 62
               7
100
AcDbLine
 10
5.0
 20
13.6
 30
0.0
 11
5.0
 21
2.6000000000000001
 31
0.0
  0
LINE
  5
71A
100
AcDbEntity
  8
0
  6
CONTINUOUS
 62
               7
100
AcDbLine
 10
-4.0
 20
0.0
 30
0.0
 11
-4.0
 21
2.6000000000000001
 31
0.0
  0
LINE
  5
71B
100
AcDbEntity
  8
0
  6
CONTINUOUS
 62
               7
100
AcDbLine
 10
4.0
 20
0.0
 30
0.0
 11
4.0
 21
2.6000000000000001
 31
0.0
  0
LINE
  5
71C
100
AcDbEntity
  8
0
  6
CONTINUOUS
 62
               7
100
AcDbLine
 10
5.0
 20
2.6000000000000001
 30
0.0
 11
-5.0
 21
2.6000000000000001
 31
0.0
  0
LINE
  5
71D
100
AcDbEntity
  8
0
  6
CONTINUOUS
 62
               7
100
AcDbLine
 10
-4.0
 20
0.6
 30
0.0
 11
4.0
 21
0.6
 31
0.0
  0
LINE
  5
71E
100
AcDbEntity
  8
0
  6
CONTINUOUS
 62
               7
100
AcDbLine
 10
-4.0
 20
0.0
 30
0.0
 11
4.0
 21
0.0
 31
0.0
  0
LINE
  5
71F
100
AcDbEntity
  8
0
  6
CONTINUOUS
 62
               7
100
AcDbLine
 10
5.0
 20
13.6
 30
0.0
 11
-5.0
 21
13.6
 31
0.0
  0
LINE
  5
720
100
AcDbEntity
  8
0
  6
CONTINUOUS
 62
               7
100
AcDbLine
 10
-3.5
 20
16.699999999999999
 30
0.0
 11
-3.5
 21
14.199999999999999
 31
0.0
  0
LINE
  5
721
100
AcDbEntity
  8
0
  6
CONTINUOUS
 62
               7
100
AcDbLine
 10
0.0
 20
16.379999999999999
 30
0.0
 11
0.0
 21
14.51
 31
0.0
  0
LINE
  5
722
100
AcDbEntity
  8
0
  6
CONTINUOUS
 62
               7
100
AcDbLine
 10
3.5
 20
16.699999999999999
 30
0.0
 11
-3.5
 21
16.699999999999999
 31
0.0
  0
LINE
  5
723
100
AcDbEntity
  8
0
  6
CONTINUOUS
 62
               7
100
AcDbLine
 10
3.5
 20
16.699999999999999
 30
0.0
 11
3.5
 21
14.199999999999999
 31
0.0
  0
LINE
  5
724
100
AcDbEntity
  8
0
  6
CONTINUOUS
 62
               7
100
AcDbLine
 10
-2.5
 20
-2.7999999999999998
 30
0.0
 11
-2.5
 21
0.0
 31
0.0
  0
LINE
  5
725
100
AcDbEntity
  8
0
  6
CONTINUOUS
 62
               2
100
AcDbLine
 10
-2.0600000000000001
 20
-2.7999999999999998
 30
0.0
 11
-2.0600000000000001
 21
0.0
 31
0.0
  0
LINE
  5
726
100
AcDbEntity
  8
0
  6
CONTINUOUS
 62
               7
100
AcDbLine
 10
2.5
 20
-2.7999999999999998
 30
0.0
 11
-2.5
 21
-2.7999999999999998
 31
0.0
  0
LINE
  5
727
100
AcDbEntity
  8
0
  6
CONTINUOUS
 62
               2
100
AcDbLine
 10
2.0600000000000001
 20
-2.7999999999999998
 30
0.0
 11
2.0600000000000001
 21
0.0
 31
0.0
  0
LINE
  5
728
100
AcDbEntity
  8
0
  6
CONTINUOUS
 62
               7
100
AcDbLine
 10
2.5
 20
-2.7999999999999998
 30
0.0
 11
2.5
 21
0.0
 31
0.0
  0
LINE
  5
729
100
AcDbEntity
  8
0
  6
CONTINUOUS
 62
               7
100
AcDbLine
 10
4.0
 20
14.199999999999999
 30
0.0
 11
-4.0
 21
14.199999999999999
 31
0.0
  0
LINE
  5
72A
100
AcDbEntity
  8
0
  6
CONTINUOUS
 62
               7
100
AcDbLine
 10
-4.0
 20
14.199999999999999
 30
0.0
 11
-4.0
 21
13.6
 31
0.0
  0
LINE
  5
72B
100
AcDbEntity
  8
0
  6
CONTINUOUS
 62
               7
100
AcDbLine
 10
4.0
 20
14.199999999999999
 30
0.0
 11
4.0
 21
13.6
 31
0.0
  0
ENDBLK
  5
72C
100
AcDbEntity
  8
0
100
AcDbBlockEnd
  0
BLOCK
  5
72D
100
AcDbEntity
  8
0
100
AcDbBlockBegin
  2
MS_53
 70
               0
 10
0.0
 20
0.0
 30
0.0
  3
MS_53
  1

  0
ARC
  5
72E
100
AcDbEntity
  8
0
  6
CONTINUOUS
 62
               7
100
AcDbCircle
 10
0.0
 20
2.5999994277954119
 30
0.0
 40
10.992911861912029
100
AcDbArc
 50
62.945453801813649
 51
117.05454619818596
  0
ARC
  5
72F
100
AcDbEntity
  8
0
  6
CONTINUOUS
 62
               7
100
AcDbCircle
 10
0.0034038621736117
 20
13.359922430739076
 30
0.0
 40
11.00020238964013
100
AcDbArc
 50
281.99747309644971
 51
297.01525120914442
  0
ARC
  5
730
100
AcDbEntity
  8
0
  6
CONTINUOUS
 62
               7
100
AcDbCircle
 10
-0.0034038621736117
 20
13.359922430739076
 30
0.0
 40
11.00020238964013
100
AcDbArc
 50
242.98474879085435
 51
258.00252690354904
  0
ARC
  5
731
100
AcDbEntity
  8
0
  6
CONTINUOUS
 62
               7
100
AcDbCircle
 10
-0.0192098556067741
 20
10.016455189787578
 30
0.0
 40
6.6822959667157216
100
AcDbArc
 50
72.231845937461401
 51
84.683102661664321
  0
ARC
  5
732
100
AcDbEntity
  8
0
  6
CONTINUOUS
 62
               7
100
AcDbCircle
 10
0.0
 20
20.887435913090087
 30
0.0
 40
6.6897002044614204
100
AcDbArc
 50
252.42483315042037
 51
287.57516684957841
  0
ARC
  5
733
100
AcDbEntity
  8
0
  6
CONTINUOUS
 62
               7
100
AcDbCircle
 10
3.0269406657391924
 20
15.990355072247043
 30
0.0
 40
1.7903576861194068
100
AcDbArc
 50
235.7763795039715
 51
270.09790614910452
  0
ARC
  5
734
100
AcDbEntity
  8
0
  6
CONTINUOUS
 62
               7
100
AcDbCircle
 10
-3.0269406657391924
 20
15.990355072247043
 30
0.0
 40
1.7903576861194068
100
AcDbArc
 50
269.90209385089423
 51
304.22362049602731
  0
ARC
  5
735
100
AcDbEntity
  8
0
  6
CONTINUOUS
 62
               7
100
AcDbCircle
 10
3.0402325891325912
 20
14.91379714055026
 30
0.0
 40
1.7862321688366225
100
AcDbArc
 50
90.32822574115454
 51
124.83147711215561
  0
ARC
  5
736
100
AcDbEntity
  8
0
  6
CONTINUOUS
 62
               7
100
AcDbCircle
 10
-3.0402325891325912
 20
14.91379714055026
 30
0.0
 40
1.7862321688366225
100
AcDbArc
 50
55.168522887843999
 51
89.671774258845062
  0
ARC
  5
737
100
AcDbEntity
  8
0
  6
CONTINUOUS
 62
               7
100
AcDbCircle
 10
0.0192098556067741
 20
10.016455189787578
 30
0.0
 40
6.6822959667157216
100
AcDbArc
 50
95.316897338335295
 51
107.76815406253822
  0
LINE
  5
738
100
AcDbEntity
  8
0
  6
CONTINUOUS
 62
               2
100
AcDbLine
 10
5.0
 20
3.7000000000000002
 30
0.0
 11
12.5
 21
3.7000000000000002
 31
0.0
  0
LINE
  5
739
100
AcDbEntity
  8
0
  6
CONTINUOUS
 62
               2
100
AcDbLine
 10
5.0
 20
4.7000000000000002
 30
0.0
 11
12.5
 21
4.7000000000000002
 31
0.0
  0
LINE
  5
73A
100
AcDbEntity
  8
0
  6
CONTINUOUS
 62
               2
100
AcDbLine
 10
5.0
 20
5.7000000000000002
 30
0.0
 11
12.5
 21
5.7000000000000002
 31
0.0
  0
LINE
  5
73B
100
AcDbEntity
  8
0
  6
CONTINUOUS
 62
               2
100
AcDbLine
 10
5.0
 20
6.7000000000000002
 30
0.0
 11
12.5
 21
6.7000000000000002
 31
0.0
  0
LINE
  5
73C
100
AcDbEntity
  8
0
  6
CONTINUOUS
 62
               7
100
AcDbLine
 10
12.5
 20
9.4299999999999997
 30
0.0
 11
14.0
 21
9.1699999999999999
 31
0.0
  0
LINE
  5
73D
100
AcDbEntity
  8
0
  6
CONTINUOUS
 62
               7
100
AcDbLine
 10
14.0
 20
9.1699999999999999
 30
0.0
 11
14.0
 21
5.2199999999999998
 31
0.0
  0
LINE
  5
73E
100
AcDbEntity
  8
0
  6
CONTINUOUS
 62
               7
100
AcDbLine
 10
12.5
 20
4.96
 30
0.0
 11
14.0
 21
5.2199999999999998
 31
0.0
  0
LINE
  5
73F
100
AcDbEntity
  8
0
  6
CONTINUOUS
 62
               7
100
AcDbLine
 10
5.0
 20
2.7000000000000002
 30
0.0
 11
12.5
 21
2.7000000000000002
 31
0.0
  0
LINE
  5
740
100
AcDbEntity
  8
0
  6
CONTINUOUS
 62
               7
100
AcDbLine
 10
12.5
 20
11.699999999999999
 30
0.0
 11
12.5
 21
2.7000000000000002
 31
0.0
  0
LINE
  5
741
100
AcDbEntity
  8
0
  6
CONTINUOUS
 62
               7
100
AcDbLine
 10
5.0
 20
11.699999999999999
 30
0.0
 11
12.5
 21
11.699999999999999
 31
0.0
  0
LINE
  5
742
100
AcDbEntity
  8
0
  6
CONTINUOUS
 62
               7
100
AcDbLine
 10
4.0
 20
14.199999999999999
 30
0.0
 11
4.0
 21
13.6
 31
0.0
  0
LINE
  5
743
100
AcDbEntity
  8
0
  6
CONTINUOUS
 62
               7
100
AcDbLine
 10
-4.0
 20
14.199999999999999
 30
0.0
 11
-4.0
 21
13.6
 31
0.0
  0
LINE
  5
744
100
AcDbEntity
  8
0
  6
CONTINUOUS
 62
               7
100
AcDbLine
 10
5.0
 20
13.6
 30
0.0
 11
5.0
 21
2.6000000000000001
 31
0.0
  0
LINE
  5
745
100
AcDbEntity
  8
0
  6
CONTINUOUS
 62
               7
100
AcDbLine
 10
-5.0
 20
13.6
 30
0.0
 11
-5.0
 21
2.6000000000000001
 31
0.0
  0
LINE
  5
746
100
AcDbEntity
  8
0
  6
CONTINUOUS
 62
               7
100
AcDbLine
 10
5.0
 20
2.6000000000000001
 30
0.0
 11
-5.0
 21
2.6000000000000001
 31
0.0
  0
LINE
  5
747
100
AcDbEntity
  8
0
  6
CONTINUOUS
 62
               7
100
AcDbLine
 10
-4.0
 20
0.0
 30
0.0
 11
-4.0
 21
2.6000000000000001
 31
0.0
  0
LINE
  5
748
100
AcDbEntity
  8
0
  6
CONTINUOUS
 62
               7
100
AcDbLine
 10
-4.0
 20
0.6
 30
0.0
 11
4.0
 21
0.6
 31
0.0
  0
LINE
  5
749
100
AcDbEntity
  8
0
  6
CONTINUOUS
 62
               7
100
AcDbLine
 10
4.0
 20
0.0
 30
0.0
 11
4.0
 21
2.6000000000000001
 31
0.0
  0
LINE
  5
74A
100
AcDbEntity
  8
0
  6
CONTINUOUS
 62
               7
100
AcDbLine
 10
-4.0
 20
0.0
 30
0.0
 11
4.0
 21
0.0
 31
0.0
  0
LINE
  5
74B
100
AcDbEntity
  8
0
  6
CONTINUOUS
 62
               2
100
AcDbLine
 10
2.0600000000000001
 20
-2.7999999999999998
 30
0.0
 11
2.0600000000000001
 21
0.0
 31
0.0
  0
LINE
  5
74C
100
AcDbEntity
  8
0
  6
CONTINUOUS
 62
               7
100
AcDbLine
 10
2.5
 20
-2.7999999999999998
 30
0.0
 11
2.5
 21
0.0
 31
0.0
  0
LINE
  5
74D
100
AcDbEntity
  8
0
  6
CONTINUOUS
 62
               7
100
AcDbLine
 10
2.5
 20
-2.7999999999999998
 30
0.0
 11
-2.5
 21
-2.7999999999999998
 31
0.0
  0
LINE
  5
74E
100
AcDbEntity
  8
0
  6
CONTINUOUS
 62
               2
100
AcDbLine
 10
-2.0600000000000001
 20
-2.7999999999999998
 30
0.0
 11
-2.0600000000000001
 21
0.0
 31
0.0
  0
LINE
  5
74F
100
AcDbEntity
  8
0
  6
CONTINUOUS
 62
               7
100
AcDbLine
 10
-2.5
 20
-2.7999999999999998
 30
0.0
 11
-2.5
 21
0.0
 31
0.0
  0
LINE
  5
750
100
AcDbEntity
  8
0
  6
CONTINUOUS
 62
               7
100
AcDbLine
 10
5.0
 20
13.6
 30
0.0
 11
-5.0
 21
13.6
 31
0.0
  0
LINE
  5
751
100
AcDbEntity
  8
0
  6
CENTER
 62
               2
100
AcDbLine
 10
15.51
 20
7.2000000000000002
 30
0.0
 11
-6.5800000000000001
 21
7.2000000000000002
 31
0.0
  0
LINE
  5
752
100
AcDbEntity
  8
0
  6
CONTINUOUS
 62
               7
100
AcDbLine
 10
0.6
 20
16.699999999999999
 30
0.0
 11
3.5
 21
16.699999999999999
 31
0.0
  0
LINE
  5
753
100
AcDbEntity
  8
0
  6
CONTINUOUS
 62
               7
100
AcDbLine
 10
-0.6
 20
16.699999999999999
 30
0.0
 11
-0.6
 21
15.199999999999999
 31
0.0
  0
LINE
  5
754
100
AcDbEntity
  8
0
  6
CONTINUOUS
 62
               7
100
AcDbLine
 10
0.6
 20
16.699999999999999
 30
0.0
 11
0.6
 21
15.199999999999999
 31
0.0
  0
LINE
  5
755
100
AcDbEntity
  8
0
  6
CONTINUOUS
 62
               7
100
AcDbLine
 10
0.6
 20
15.199999999999999
 30
0.0
 11
-0.6
 21
15.199999999999999
 31
0.0
  0
LINE
  5
756
100
AcDbEntity
  8
0
  6
CENTER
 62
               2
100
AcDbLine
 10
0.0
 20
18.48
 30
0.0
 11
0.0
 21
-4.5099999999999998
 31
0.0
  0
LINE
  5
757
100
AcDbEntity
  8
0
  6
CONTINUOUS
 62
               7
100
AcDbLine
 10
3.5
 20
14.199999999999999
 30
0.0
 11
4.04
 21
14.51
 31
0.0
  0
LINE
  5
758
100
AcDbEntity
  8
0
  6
CONTINUOUS
 62
               7
100
AcDbLine
 10
-3.5
 20
14.199999999999999
 30
0.0
 11
-4.04
 21
14.51
 31
0.0
  0
LINE
  5
759
100
AcDbEntity
  8
0
  6
CONTINUOUS
 62
               7
100
AcDbLine
 10
3.5
 20
16.699999999999999
 30
0.0
 11
4.04
 21
16.379999999999999
 31
0.0
  0
LINE
  5
75A
100
AcDbEntity
  8
0
  6
CONTINUOUS
 62
               7
100
AcDbLine
 10
-3.5
 20
16.699999999999999
 30
0.0
 11
-4.04
 21
16.379999999999999
 31
0.0
  0
LINE
  5
75B
100
AcDbEntity
  8
0
  6
CONTINUOUS
 62
               7
100
AcDbLine
 10
4.04
 20
16.379999999999999
 30
0.0
 11
4.04
 21
14.51
 31
0.0
  0
LINE
  5
75C
100
AcDbEntity
  8
0
  6
CONTINUOUS
 62
               7
100
AcDbLine
 10
2.02
 20
16.379999999999999
 30
0.0
 11
2.02
 21
14.51
 31
0.0
  0
LINE
  5
75D
100
AcDbEntity
  8
0
  6
CONTINUOUS
 62
               7
100
AcDbLine
 10
-2.02
 20
16.379999999999999
 30
0.0
 11
-2.02
 21
14.51
 31
0.0
  0
LINE
  5
75E
100
AcDbEntity
  8
0
  6
CONTINUOUS
 62
               7
100
AcDbLine
 10
-4.04
 20
16.379999999999999
 30
0.0
 11
-4.04
 21
14.51
 31
0.0
  0
LINE
  5
75F
100
AcDbEntity
  8
0
  6
CONTINUOUS
 62
               7
100
AcDbLine
 10
4.0
 20
14.199999999999999
 30
0.0
 11
-4.0
 21
14.199999999999999
 31
0.0
  0
LINE
  5
760
100
AcDbEntity
  8
0
  6
CONTINUOUS
 62
               7
100
AcDbLine
 10
-0.6
 20
16.699999999999999
 30
0.0
 11
-3.5
 21
16.699999999999999
 31
0.0
  0
ENDBLK
  5
761
100
AcDbEntity
  8
0
100
AcDbBlockEnd
  0
BLOCK
  5
762
100
AcDbEntity
  8
0
100
AcDbBlockBegin
  2
MS_54
 70
               0
 10
0.0
 20
0.0
 30
0.0
  3
MS_54
  1

  0
CIRCLE
  5
763
100
AcDbEntity
  8
0
  6
CONTINUOUS
 62
               7
100
AcDbCircle
 10
0.0
 20
0.0
 30
0.0
 40
5.0
  0
ARC
  5
764
100
AcDbEntity
  8
0
  6
CONTINUOUS
 62
               7
100
AcDbCircle
 10
0.000000000000001
 20
0.0
 30
0.0
 40
3.4919335617963867
100
AcDbArc
 50
99.893920669735223
 51
260.10607933026398
  0
ARC
  5
765
100
AcDbEntity
  8
0
  6
CONTINUOUS
 62
               7
100
AcDbCircle
 10
-0.0009687532026477
 20
-0.0016806884533995
 30
0.0
 40
3.991553471691204
100
AcDbArc
 50
301.08656230114497
 51
359.01927923826821
  0
ARC
  5
766
100
AcDbEntity
  8
0
  6
CONTINUOUS
 62
               7
100
AcDbCircle
 10
-0.0009687532026477
 20
0.0016806884533995
 30
0.0
 40
3.991553471691204
100
AcDbArc
 50
0.9807207617309708
 51
58.91343769885421
  0
ARC
  5
767
100
AcDbEntity
  8
0
  6
CONTINUOUS
 62
               7
100
AcDbCircle
 10
0.0
 20
0.0
 30
0.0
 40
3.9968612685456071
100
AcDbArc
 50
61.12640262163702
 51
118.87359737836258
  0
ARC
  5
768
100
AcDbEntity
  8
0
  6
CONTINUOUS
 62
               7
100
AcDbCircle
 10
0.0009687532026477
 20
0.0016806884533995
 30
0.0
 40
3.991553471691204
100
AcDbArc
 50
121.08656230114541
 51
179.01927923826861
  0
ARC
  5
769
100
AcDbEntity
  8
0
  6
CONTINUOUS
 62
               7
100
AcDbCircle
 10
0.0009687532026477
 20
-0.0016806884533995
 30
0.0
 40
3.991553471691204
100
AcDbArc
 50
180.98072076173057
 51
238.91343769885381
  0
ARC
  5
76A
100
AcDbEntity
  8
0
  6
CONTINUOUS
 62
               7
100
AcDbCircle
 10
0.0
 20
0.0
 30
0.0
 40
3.9968612685456071
100
AcDbArc
 50
241.12640262163663
 51
298.87359737836215
  0
ARC
  5
76B
100
AcDbEntity
  8
0
  6
CONTINUOUS
 62
               7
100
AcDbCircle
 10
-0.000000000000001
 20
0.0
 30
0.0
 40
3.4919335617963867
100
AcDbArc
 50
279.89392066973483
 51
80.106079330264393
  0
LINE
  5
76C
100
AcDbEntity
  8
0
  6
CONTINUOUS
 62
               2
100
AcDbLine
 10
5.0
 20
-3.5
 30
0.0
 11
12.5
 21
-3.5
 31
0.0
  0
LINE
  5
76D
100
AcDbEntity
  8
0
  6
CONTINUOUS
 62
               2
100
AcDbLine
 10
5.0
 20
-2.5
 30
0.0
 11
12.5
 21
-2.5
 31
0.0
  0
LINE
  5
76E
100
AcDbEntity
  8
0
  6
CONTINUOUS
 62
               2
100
AcDbLine
 10
5.0
 20
-1.5
 30
0.0
 11
12.5
 21
-1.5
 31
0.0
  0
LINE
  5
76F
100
AcDbEntity
  8
0
  6
CONTINUOUS
 62
               2
100
AcDbLine
 10
5.0
 20
-0.5
 30
0.0
 11
12.5
 21
-0.5
 31
0.0
  0
LINE
  5
770
100
AcDbEntity
  8
0
  6
CONTINUOUS
 62
               7
100
AcDbLine
 10
12.5
 20
-2.23
 30
0.0
 11
14.0
 21
-1.97
 31
0.0
  0
LINE
  5
771
100
AcDbEntity
  8
0
  6
CONTINUOUS
 62
               7
100
AcDbLine
 10
14.0
 20
1.97
 30
0.0
 11
14.0
 21
-1.97
 31
0.0
  0
LINE
  5
772
100
AcDbEntity
  8
0
  6
CONTINUOUS
 62
               7
100
AcDbLine
 10
12.5
 20
2.23
 30
0.0
 11
14.0
 21
1.97
 31
0.0
  0
LINE
  5
773
100
AcDbEntity
  8
0
  6
CONTINUOUS
 62
               7
100
AcDbLine
 10
5.0
 20
5.0
 30
0.0
 11
5.0
 21
-5.0
 31
0.0
  0
LINE
  5
774
100
AcDbEntity
  8
0
  6
CONTINUOUS
 62
               7
100
AcDbLine
 10
5.0
 20
5.0
 30
0.0
 11
-5.0
 21
5.0
 31
0.0
  0
LINE
  5
775
100
AcDbEntity
  8
0
  6
CENTER
 62
               2
100
AcDbLine
 10
0.0
 20
7.5
 30
0.0
 11
0.0
 21
-7.5
 31
0.0
  0
LINE
  5
776
100
AcDbEntity
  8
0
  6
CENTER
 62
               2
100
AcDbLine
 10
15.539999999999999
 20
0.0
 30
0.0
 11
-7.5
 21
0.0
 31
0.0
  0
LINE
  5
777
100
AcDbEntity
  8
0
  6
CONTINUOUS
 62
               7
100
AcDbLine
 10
-5.0
 20
5.0
 30
0.0
 11
-5.0
 21
-5.0
 31
0.0
  0
LINE
  5
778
100
AcDbEntity
  8
0
  6
CONTINUOUS
 62
               7
100
AcDbLine
 10
5.0
 20
-5.0
 30
0.0
 11
-5.0
 21
-5.0
 31
0.0
  0
LINE
  5
779
100
AcDbEntity
  8
0
  6
CONTINUOUS
 62
               7
100
AcDbLine
 10
5.0
 20
-4.5
 30
0.0
 11
12.5
 21
-4.5
 31
0.0
  0
LINE
  5
77A
100
AcDbEntity
  8
0
  6
CONTINUOUS
 62
               7
100
AcDbLine
 10
5.0
 20
4.5
 30
0.0
 11
12.5
 21
4.5
 31
0.0
  0
LINE
  5
77B
100
AcDbEntity
  8
0
  6
CONTINUOUS
 62
               7
100
AcDbLine
 10
12.5
 20
4.5
 30
0.0
 11
12.5
 21
-4.5
 31
0.0
  0
LINE
  5
77C
100
AcDbEntity
  8
0
  6
CONTINUOUS
 62
               7
100
AcDbLine
 10
0.6
 20
-3.5
 30
0.0
 11
0.6
 21
3.5
 31
0.0
  0
LINE
  5
77D
100
AcDbEntity
  8
0
  6
CONTINUOUS
 62
               7
100
AcDbLine
 10
-0.6
 20
-3.5
 30
0.0
 11
-0.6
 21
3.5
 31
0.0
  0
LINE
  5
77E
100
AcDbEntity
  8
0
  6
CONTINUOUS
 62
               7
100
AcDbLine
 10
4.04
 20
0.0
 30
0.0
 11
2.02
 21
-3.5
 31
0.0
  0
LINE
  5
77F
100
AcDbEntity
  8
0
  6
CONTINUOUS
 62
               7
100
AcDbLine
 10
2.02
 20
3.5
 30
0.0
 11
4.04
 21
0.0
 31
0.0
  0
LINE
  5
780
100
AcDbEntity
  8
0
  6
CONTINUOUS
 62
               7
100
AcDbLine
 10
-2.02
 20
3.5
 30
0.0
 11
2.02
 21
3.5
 31
0.0
  0
LINE
  5
781
100
AcDbEntity
  8
0
  6
CONTINUOUS
 62
               7
100
AcDbLine
 10
-4.04
 20
0.0
 30
0.0
 11
-2.02
 21
3.5
 31
0.0
  0
LINE
  5
782
100
AcDbEntity
  8
0
  6
CONTINUOUS
 62
               7
100
AcDbLine
 10
-2.02
 20
-3.5
 30
0.0
 11
-4.04
 21
0.0
 31
0.0
  0
LINE
  5
783
100
AcDbEntity
  8
0
  6
CONTINUOUS
 62
               7
100
AcDbLine
 10
2.02
 20
-3.5
 30
0.0
 11
-2.02
 21
-3.5
 31
0.0
  0
ENDBLK
  5
784
100
AcDbEntity
  8
0
100
AcDbBlockEnd
  0
BLOCK
  5
785
100
AcDbEntity
  8
0
100
AcDbBlockBegin
  2
MS_55
 70
               0
 10
0.0
 20
0.0
 30
0.0
  3
MS_55
  1

  0
ARC
  5
786
100
AcDbEntity
  8
0
  6
CONTINUOUS
 62
               7
100
AcDbCircle
 10
0.0
 20
2.5999984741210937
 30
0.0
 40
10.99291271122951
100
AcDbArc
 50
62.945456062639956
 51
117.05454393735965
  0
ARC
  5
787
100
AcDbEntity
  8
0
  6
CONTINUOUS
 62
               7
100
AcDbCircle
 10
0.0034038621736117
 20
13.359922430739076
 30
0.0
 40
11.00020238964013
100
AcDbArc
 50
281.99747309644971
 51
297.01525120914442
  0
ARC
  5
788
100
AcDbEntity
  8
0
  6
CONTINUOUS
 62
               7
100
AcDbCircle
 10
-0.0034038621736117
 20
13.359922430739076
 30
0.0
 40
11.00020238964013
100
AcDbArc
 50
242.98474879085435
 51
258.00252690354904
  0
ARC
  5
789
100
AcDbEntity
  8
0
  6
CONTINUOUS
 62
               7
100
AcDbCircle
 10
-1.75
 20
19.254608154296875
 30
0.0
 40
5.0570551250525639
100
AcDbArc
 50
249.75402180362707
 51
290.24597819637165
  0
ARC
  5
78A
100
AcDbEntity
  8
0
  6
CONTINUOUS
 62
               7
100
AcDbCircle
 10
-1.75
 20
11.6453857421875
 30
0.0
 40
5.0476798799330966
100
AcDbArc
 50
69.714765801400276
 51
110.28523419859933
  0
ARC
  5
78B
100
AcDbEntity
  8
0
  6
CONTINUOUS
 62
               7
100
AcDbCircle
 10
1.75
 20
19.254608154296875
 30
0.0
 40
5.0570551250525639
100
AcDbArc
 50
249.75402180362707
 51
290.24597819637165
  0
ARC
  5
78C
100
AcDbEntity
  8
0
  6
CONTINUOUS
 62
               7
100
AcDbCircle
 10
1.75
 20
11.6453857421875
 30
0.0
 40
5.0476798799330966
100
AcDbArc
 50
69.714765801400276
 51
110.28523419859933
  0
LINE
  5
78D
100
AcDbEntity
  8
0
  6
CENTER
 62
               2
100
AcDbLine
 10
0.0
 20
18.57
 30
0.0
 11
0.0
 21
-4.4199999999999999
 31
0.0
  0
LINE
  5
78E
100
AcDbEntity
  8
0
  6
CONTINUOUS
 62
               7
100
AcDbLine
 10
-5.0
 20
13.6
 30
0.0
 11
-5.0
 21
2.6000000000000001
 31
0.0
  0
LINE
  5
78F
100
AcDbEntity
  8
0
  6
CONTINUOUS
 62
               7
100
AcDbLine
 10
5.0
 20
13.6
 30
0.0
 11
5.0
 21
2.6000000000000001
 31
0.0
  0
LINE
  5
790
100
AcDbEntity
  8
0
  6
CONTINUOUS
 62
               7
100
AcDbLine
 10
-4.0
 20
0.0
 30
0.0
 11
-4.0
 21
2.6000000000000001
 31
0.0
  0
LINE
  5
791
100
AcDbEntity
  8
0
  6
CONTINUOUS
 62
               7
100
AcDbLine
 10
4.0
 20
0.0
 30
0.0
 11
4.0
 21
2.6000000000000001
 31
0.0
  0
LINE
  5
792
100
AcDbEntity
  8
0
  6
CONTINUOUS
 62
               7
100
AcDbLine
 10
5.0
 20
2.6000000000000001
 30
0.0
 11
-5.0
 21
2.6000000000000001
 31
0.0
  0
LINE
  5
793
100
AcDbEntity
  8
0
  6
CONTINUOUS
 62
               7
100
AcDbLine
 10
-4.0
 20
0.6
 30
0.0
 11
4.0
 21
0.6
 31
0.0
  0
LINE
  5
794
100
AcDbEntity
  8
0
  6
CONTINUOUS
 62
               7
100
AcDbLine
 10
-4.0
 20
0.0
 30
0.0
 11
4.0
 21
0.0
 31
0.0
  0
LINE
  5
795
100
AcDbEntity
  8
0
  6
CONTINUOUS
 62
               7
100
AcDbLine
 10
5.0
 20
13.6
 30
0.0
 11
-5.0
 21
13.6
 31
0.0
  0
LINE
  5
796
100
AcDbEntity
  8
0
  6
CONTINUOUS
 62
               7
100
AcDbLine
 10
-3.5
 20
16.699999999999999
 30
0.0
 11
-3.5
 21
14.199999999999999
 31
0.0
  0
LINE
  5
797
100
AcDbEntity
  8
0
  6
CONTINUOUS
 62
               7
100
AcDbLine
 10
0.0
 20
16.379999999999999
 30
0.0
 11
0.0
 21
14.51
 31
0.0
  0
LINE
  5
798
100
AcDbEntity
  8
0
  6
CONTINUOUS
 62
               7
100
AcDbLine
 10
3.5
 20
16.699999999999999
 30
0.0
 11
-3.5
 21
16.699999999999999
 31
0.0
  0
LINE
  5
799
100
AcDbEntity
  8
0
  6
CONTINUOUS
 62
               7
100
AcDbLine
 10
3.5
 20
16.699999999999999
 30
0.0
 11
3.5
 21
14.199999999999999
 31
0.0
  0
LINE
  5
79A
100
AcDbEntity
  8
0
  6
CONTINUOUS
 62
               7
100
AcDbLine
 10
-2.5
 20
-2.7999999999999998
 30
0.0
 11
-2.5
 21
0.0
 31
0.0
  0
LINE
  5
79B
100
AcDbEntity
  8
0
  6
CONTINUOUS
 62
               2
100
AcDbLine
 10
-2.0600000000000001
 20
-2.7999999999999998
 30
0.0
 11
-2.0600000000000001
 21
0.0
 31
0.0
  0
LINE
  5
79C
100
AcDbEntity
  8
0
  6
CONTINUOUS
 62
               7
100
AcDbLine
 10
2.5
 20
-2.7999999999999998
 30
0.0
 11
-2.5
 21
-2.7999999999999998
 31
0.0
  0
LINE
  5
79D
100
AcDbEntity
  8
0
  6
CONTINUOUS
 62
               2
100
AcDbLine
 10
2.0600000000000001
 20
-2.7999999999999998
 30
0.0
 11
2.0600000000000001
 21
0.0
 31
0.0
  0
LINE
  5
79E
100
AcDbEntity
  8
0
  6
CONTINUOUS
 62
               7
100
AcDbLine
 10
2.5
 20
-2.7999999999999998
 30
0.0
 11
2.5
 21
0.0
 31
0.0
  0
LINE
  5
79F
100
AcDbEntity
  8
0
  6
CONTINUOUS
 62
               7
100
AcDbLine
 10
4.0
 20
14.199999999999999
 30
0.0
 11
-4.0
 21
14.199999999999999
 31
0.0
  0
LINE
  5
7A0
100
AcDbEntity
  8
0
  6
CONTINUOUS
 62
               7
100
AcDbLine
 10
-4.0
 20
14.199999999999999
 30
0.0
 11
-4.0
 21
13.6
 31
0.0
  0
LINE
  5
7A1
100
AcDbEntity
  8
0
  6
CONTINUOUS
 62
               7
100
AcDbLine
 10
4.0
 20
14.199999999999999
 30
0.0
 11
4.0
 21
13.6
 31
0.0
  0
ENDBLK
  5
7A2
100
AcDbEntity
  8
0
100
AcDbBlockEnd
  0
BLOCK
  5
7A3
100
AcDbEntity
  8
0
100
AcDbBlockBegin
  2
MS_56
 70
               0
 10
0.0
 20
0.0
 30
0.0
  3
MS_56
  1

  0
CIRCLE
  5
7A4
100
AcDbEntity
  8
0
  6
CONTINUOUS
 62
               7
100
AcDbCircle
 10
0.0
 20
7.2000007629394531
 30
0.0
 40
2.5
  0
CIRCLE
  5
7A5
100
AcDbEntity
  8
0
  6
CONTINUOUS
 62
               7
100
AcDbCircle
 10
0.0
 20
7.2000007629394531
 30
0.0
 40
3.0499992370605469
  0
CIRCLE
  5
7A6
100
AcDbEntity
  8
0
  6
CONTINUOUS
 62
               7
100
AcDbCircle
 10
0.0
 20
7.2000007629394531
 30
0.0
 40
1.1999998092651367
  0
ARC
  5
7A7
100
AcDbEntity
  8
0
  6
CONTINUOUS
 62
               7
100
AcDbCircle
 10
0.0034038621736117
 20
13.359922430739076
 30
0.0
 40
11.00020238964013
100
AcDbArc
 50
281.99747309644971
 51
297.01525120914442
  0
ARC
  5
7A8
100
AcDbEntity
  8
0
  6
CONTINUOUS
 62
               7
100
AcDbCircle
 10
-0.0034038621736117
 20
13.359922430739076
 30
0.0
 40
11.00020238964013
100
AcDbArc
 50
242.98474879085435
 51
258.00252690354904
  0
ARC
  5
7A9
100
AcDbEntity
  8
0
  6
CONTINUOUS
 62
               7
100
AcDbCircle
 10
0.0
 20
2.5999984741210937
 30
0.0
 40
10.99291271122951
100
AcDbArc
 50
62.945456062639956
 51
117.05454393735965
  0
CIRCLE
  5
7AA
100
AcDbEntity
  8
0
  6
CONTINUOUS
 62
               7
100
AcDbCircle
 10
0.0
 20
7.2000007629394531
 30
0.0
 40
4.5
  0
ARC
  5
7AB
100
AcDbEntity
  8
0
  6
CONTINUOUS
 62
               7
100
AcDbCircle
 10
-1.75
 20
19.254608154296875
 30
0.0
 40
5.0570551250525639
100
AcDbArc
 50
249.75402180362707
 51
290.24597819637165
  0
ARC
  5
7AC
100
AcDbEntity
  8
0
  6
CONTINUOUS
 62
               7
100
AcDbCircle
 10
-1.75
 20
11.6453857421875
 30
0.0
 40
5.0476798799330966
100
AcDbArc
 50
69.714765801400276
 51
110.28523419859933
  0
ARC
  5
7AD
100
AcDbEntity
  8
0
  6
CONTINUOUS
 62
               7
100
AcDbCircle
 10
1.75
 20
19.254608154296875
 30
0.0
 40
5.0570551250525639
100
AcDbArc
 50
249.75402180362707
 51
290.24597819637165
  0
ARC
  5
7AE
100
AcDbEntity
  8
0
  6
CONTINUOUS
 62
               7
100
AcDbCircle
 10
1.75
 20
11.6453857421875
 30
0.0
 40
5.0476798799330966
100
AcDbArc
 50
69.714765801400276
 51
110.28523419859933
  0
LINE
  5
7AF
100
AcDbEntity
  8
0
  6
CENTER
 62
               2
100
AcDbLine
 10
0.0
 20
18.57
 30
0.0
 11
0.0
 21
-4.4199999999999999
 31
0.0
  0
LINE
  5
7B0
100
AcDbEntity
  8
0
  6
CENTER
 62
               2
100
AcDbLine
 10
-6.5
 20
7.2000000000000002
 30
0.0
 11
6.5
 21
7.2000000000000002
 31
0.0
  0
LINE
  5
7B1
100
AcDbEntity
  8
0
  6
CONTINUOUS
 62
               7
100
AcDbLine
 10
-5.0
 20
13.6
 30
0.0
 11
-5.0
 21
2.6000000000000001
 31
0.0
  0
LINE
  5
7B2
100
AcDbEntity
  8
0
  6
CONTINUOUS
 62
               7
100
AcDbLine
 10
5.0
 20
13.6
 30
0.0
 11
5.0
 21
2.6000000000000001
 31
0.0
  0
LINE
  5
7B3
100
AcDbEntity
  8
0
  6
CONTINUOUS
 62
               7
100
AcDbLine
 10
-4.0
 20
0.0
 30
0.0
 11
-4.0
 21
2.6000000000000001
 31
0.0
  0
LINE
  5
7B4
100
AcDbEntity
  8
0
  6
CONTINUOUS
 62
               7
100
AcDbLine
 10
4.0
 20
0.0
 30
0.0
 11
4.0
 21
2.6000000000000001
 31
0.0
  0
LINE
  5
7B5
100
AcDbEntity
  8
0
  6
CONTINUOUS
 62
               7
100
AcDbLine
 10
5.0
 20
2.6000000000000001
 30
0.0
 11
-5.0
 21
2.6000000000000001
 31
0.0
  0
LINE
  5
7B6
100
AcDbEntity
  8
0
  6
CONTINUOUS
 62
               7
100
AcDbLine
 10
-4.0
 20
0.6
 30
0.0
 11
4.0
 21
0.6
 31
0.0
  0
LINE
  5
7B7
100
AcDbEntity
  8
0
  6
CONTINUOUS
 62
               7
100
AcDbLine
 10
-4.0
 20
0.0
 30
0.0
 11
4.0
 21
0.0
 31
0.0
  0
LINE
  5
7B8
100
AcDbEntity
  8
0
  6
CONTINUOUS
 62
               7
100
AcDbLine
 10
5.0
 20
13.6
 30
0.0
 11
-5.0
 21
13.6
 31
0.0
  0
LINE
  5
7B9
100
AcDbEntity
  8
0
  6
CONTINUOUS
 62
               7
100
AcDbLine
 10
-3.5
 20
16.699999999999999
 30
0.0
 11
-3.5
 21
14.199999999999999
 31
0.0
  0
LINE
  5
7BA
100
AcDbEntity
  8
0
  6
CONTINUOUS
 62
               7
100
AcDbLine
 10
0.0
 20
16.379999999999999
 30
0.0
 11
0.0
 21
14.51
 31
0.0
  0
LINE
  5
7BB
100
AcDbEntity
  8
0
  6
CONTINUOUS
 62
               7
100
AcDbLine
 10
3.5
 20
16.699999999999999
 30
0.0
 11
-3.5
 21
16.699999999999999
 31
0.0
  0
LINE
  5
7BC
100
AcDbEntity
  8
0
  6
CONTINUOUS
 62
               7
100
AcDbLine
 10
3.5
 20
16.699999999999999
 30
0.0
 11
3.5
 21
14.199999999999999
 31
0.0
  0
LINE
  5
7BD
100
AcDbEntity
  8
0
  6
CONTINUOUS
 62
               7
100
AcDbLine
 10
-2.5
 20
-2.7999999999999998
 30
0.0
 11
-2.5
 21
0.0
 31
0.0
  0
LINE
  5
7BE
100
AcDbEntity
  8
0
  6
CONTINUOUS
 62
               2
100
AcDbLine
 10
-2.0600000000000001
 20
-2.7999999999999998
 30
0.0
 11
-2.0600000000000001
 21
0.0
 31
0.0
  0
LINE
  5
7BF
100
AcDbEntity
  8
0
  6
CONTINUOUS
 62
               7
100
AcDbLine
 10
2.5
 20
-2.7999999999999998
 30
0.0
 11
-2.5
 21
-2.7999999999999998
 31
0.0
  0
LINE
  5
7C0
100
AcDbEntity
  8
0
  6
CONTINUOUS
 62
               2
100
AcDbLine
 10
2.0600000000000001
 20
-2.7999999999999998
 30
0.0
 11
2.0600000000000001
 21
0.0
 31
0.0
  0
LINE
  5
7C1
100
AcDbEntity
  8
0
  6
CONTINUOUS
 62
               7
100
AcDbLine
 10
2.5
 20
-2.7999999999999998
 30
0.0
 11
2.5
 21
0.0
 31
0.0
  0
LINE
  5
7C2
100
AcDbEntity
  8
0
  6
CONTINUOUS
 62
               7
100
AcDbLine
 10
4.0
 20
14.199999999999999
 30
0.0
 11
-4.0
 21
14.199999999999999
 31
0.0
  0
LINE
  5
7C3
100
AcDbEntity
  8
0
  6
CONTINUOUS
 62
               7
100
AcDbLine
 10
-4.0
 20
14.199999999999999
 30
0.0
 11
-4.0
 21
13.6
 31
0.0
  0
LINE
  5
7C4
100
AcDbEntity
  8
0
  6
CONTINUOUS
 62
               7
100
AcDbLine
 10
4.0
 20
14.199999999999999
 30
0.0
 11
4.0
 21
13.6
 31
0.0
  0
ENDBLK
  5
7C5
100
AcDbEntity
  8
0
100
AcDbBlockEnd
  0
ENDSEC
  0
SECTION
  2
ENTITIES
  0
LINE
  5
7C6
100
AcDbEntity
  8
0
  6
CONTINUOUS
 62
               7
100
AcDbLine
 10
-135.47999999999999
 20
159.77000000000001
 30
0.0
 11
-135.47999999999999
 21
180.0
 31
0.0
  0
MTEXT
  5
7C7
100
AcDbEntity
  8
0
  6
CONTINUOUS
 62
               7
100
AcDbMText
 10
-254.50609834481961
 20
169.88499999999999
 30
0.0
 40
6.3000001907348633
 41
0.0
 71
               4
 72
               1
  1
\W1.004;\A1;CS-UNIVERSAL ELBOW
  7
MX_NOTE_STANDARD
  0
MTEXT
  5
7C8
100
AcDbEntity
  8
0
  6
CONTINUOUS
 62
               7
100
AcDbMText
 10
168.53672293075698
 20
-169.88499999999999
 30
0.0
 40
6.3000001907348633
 41
0.0
 71
               4
 72
               1
  1
\W1.121;\A1;KOGANEI CORP.
  7
MX_NOTE_STANDARD
  0
INSERT
  5
7C9
100
AcDbEntity
  8
0
100
AcDbBlockReference
  2
MS_56
 10
250.79855346679687
 20
-134.28202819824219
 30
0.0
  0
INSERT
  5
7CA
100
AcDbEntity
  8
0
100
AcDbBlockReference
  2
MS_55
 10
166.55133056640625
 20
-134.28201293945313
 30
0.0
  0
INSERT
  5
7CB
100
AcDbEntity
  8
0
100
AcDbBlockReference
  2
MS_54
 10
208.67503356933594
 20
-99.281982421875
 30
0.0
  0
INSERT
  5
7CC
100
AcDbEntity
  8
0
100
AcDbBlockReference
  2
MS_53
 10
208.67494201660156
 20
-134.28202819824219
 30
0.0
  0
INSERT
  5
7CD
100
AcDbEntity
  8
0
100
AcDbBlockReference
  2
MS_52
 10
250.79855346679687
 20
-14.281997680664063
 30
0.0
  0
INSERT
  5
7CE
100
AcDbEntity
  8
0
100
AcDbBlockReference
  2
MS_51
 10
166.55133056640625
 20
-14.281982421875
 30
0.0
  0
INSERT
  5
7CF
100
AcDbEntity
  8
0
100
AcDbBlockReference
  2
MS_50
 10
208.67503356933594
 20
20.718032836914062
 30
0.0
  0
INSERT
  5
7D0
100
AcDbEntity
  8
0
100
AcDbBlockReference
  2
MS_49
 10
208.67494201660156
 20
-14.281997680664063
 30
0.0
  0
INSERT
  5
7D1
100
AcDbEntity
  8
0
100
AcDbBlockReference
  2
MS_48
 10
250.79855346679687
 20
85.4932861328125
 30
0.0
  0
INSERT
  5
7D2
100
AcDbEntity
  8
0
100
AcDbBlockReference
  2
MS_47
 10
166.55133056640625
 20
85.493301391601562
 30
0.0
  0
INSERT
  5
7D3
100
AcDbEntity
  8
0
100
AcDbBlockReference
  2
MS_46
 10
208.67501831054687
 20
120.49331665039062
 30
0.0
  0
INSERT
  5
7D4
100
AcDbEntity
  8
0
100
AcDbBlockReference
  2
MS_45
 10
208.67494201660156
 20
85.4932861328125
 30
0.0
  0
INSERT
  5
7D5
100
AcDbEntity
  8
0
100
AcDbBlockReference
  2
MS_44
 10
119.67494201660156
 20
-134.28202819824219
 30
0.0
  0
INSERT
  5
7D6
100
AcDbEntity
  8
0
100
AcDbBlockReference
  2
MS_43
 10
35.427719116210937
 20
-134.28201293945313
 30
0.0
  0
INSERT
  5
7D7
100
AcDbEntity
  8
0
100
AcDbBlockReference
  2
MS_42
 10
77.5513916015625
 20
-99.282012939453125
 30
0.0
  0
INSERT
  5
7D8
100
AcDbEntity
  8
0
100
AcDbBlockReference
  2
MS_41
 10
77.55133056640625
 20
-134.28202819824219
 30
0.0
  0
INSERT
  5
7D9
100
AcDbEntity
  8
0
100
AcDbBlockReference
  2
MS_40
 10
119.67494201660156
 20
-14.281997680664063
 30
0.0
  0
INSERT
  5
7DA
100
AcDbEntity
  8
0
100
AcDbBlockReference
  2
MS_39
 10
35.427719116210937
 20
-14.281982421875
 30
0.0
  0
INSERT
  5
7DB
100
AcDbEntity
  8
0
100
AcDbBlockReference
  2
MS_38
 10
77.5513916015625
 20
20.718017578125
 30
0.0
  0
INSERT
  5
7DC
100
AcDbEntity
  8
0
100
AcDbBlockReference
  2
MS_37
 10
77.55133056640625
 20
-14.281997680664063
 30
0.0
  0
INSERT
  5
7DD
100
AcDbEntity
  8
0
100
AcDbBlockReference
  2
MS_36
 10
119.67494201660156
 20
85.4932861328125
 30
0.0
  0
INSERT
  5
7DE
100
AcDbEntity
  8
0
100
AcDbBlockReference
  2
MS_35
 10
35.427719116210937
 20
85.493301391601562
 30
0.0
  0
INSERT
  5
7DF
100
AcDbEntity
  8
0
100
AcDbBlockReference
  2
MS_34
 10
77.551376342773437
 20
120.4932861328125
 30
0.0
  0
INSERT
  5
7E0
100
AcDbEntity
  8
0
100
AcDbBlockReference
  2
MS_33
 10
77.55133056640625
 20
85.4932861328125
 30
0.0
  0
INSERT
  5
7E1
100
AcDbEntity
  8
0
100
AcDbBlockReference
  2
MS_32
 10
-12.448652267456055
 20
-154.28204345703125
 30
0.0
  0
INSERT
  5
7E2
100
AcDbEntity
  8
0
100
AcDbBlockReference
  2
MS_31
 10
-96.695877075195313
 20
-154.28202819824219
 30
0.0
  0
INSERT
  5
7E3
100
AcDbEntity
  8
0
100
AcDbBlockReference
  2
MS_30
 10
-54.572219848632812
 20
-124.28202819824219
 30
0.0
  0
INSERT
  5
7E4
100
AcDbEntity
  8
0
100
AcDbBlockReference
  2
MS_29
 10
-54.572265625
 20
-154.28204345703125
 30
0.0
  0
INSERT
  5
7E5
100
AcDbEntity
  8
0
100
AcDbBlockReference
  2
MS_28
 10
-12.448657989501953
 20
-64.282012939453125
 30
0.0
  0
INSERT
  5
7E6
100
AcDbEntity
  8
0
100
AcDbBlockReference
  2
MS_27
 10
-96.695877075195313
 20
-64.281997680664063
 30
0.0
  0
INSERT
  5
7E7
100
AcDbEntity
  8
0
100
AcDbBlockReference
  2
MS_26
 10
-54.572235107421875
 20
-34.281997680664063
 30
0.0
  0
INSERT
  5
7E8
100
AcDbEntity
  8
0
100
AcDbBlockReference
  2
MS_25
 10
-54.572265625
 20
-64.282012939453125
 30
0.0
  0
INSERT
  5
7E9
100
AcDbEntity
  8
0
100
AcDbBlockReference
  2
MS_24
 10
-12.44865894317627
 20
25.718002319335938
 30
0.0
  0
INSERT
  5
7EA
100
AcDbEntity
  8
0
100
AcDbBlockReference
  2
MS_23
 10
-96.695892333984375
 20
25.718017578125
 30
0.0
  0
INSERT
  5
7EB
100
AcDbEntity
  8
0
100
AcDbBlockReference
  2
MS_22
 10
-54.572235107421875
 20
55.718017578125
 30
0.0
  0
INSERT
  5
7EC
100
AcDbEntity
  8
0
100
AcDbBlockReference
  2
MS_21
 10
-54.572280883789063
 20
25.718002319335938
 30
0.0
  0
INSERT
  5
7ED
100
AcDbEntity
  8
0
100
AcDbBlockReference
  2
MS_20
 10
-12.448662757873535
 20
102.49330139160156
 30
0.0
  0
INSERT
  5
7EE
100
AcDbEntity
  8
0
100
AcDbBlockReference
  2
MS_19
 10
-96.695892333984375
 20
102.49330139160156
 30
0.0
  0
INSERT
  5
7EF
100
AcDbEntity
  8
0
100
AcDbBlockReference
  2
MS_18
 10
-54.572235107421875
 20
132.49330139160156
 30
0.0
  0
INSERT
  5
7F0
100
AcDbEntity
  8
0
100
AcDbBlockReference
  2
MS_17
 10
-54.572280883789063
 20
102.4932861328125
 30
0.0
  0
INSERT
  5
7F1
100
AcDbEntity
  8
0
100
AcDbBlockReference
  2
MS_16
 10
-143.572265625
 20
-154.28202819824219
 30
0.0
  0
INSERT
  5
7F2
100
AcDbEntity
  8
0
100
AcDbBlockReference
  2
MS_15
 10
-227.81948852539062
 20
-154.28202819824219
 30
0.0
  0
INSERT
  5
7F3
100
AcDbEntity
  8
0
100
AcDbBlockReference
  2
MS_14
 10
-185.69584655761719
 20
-124.28202819824219
 30
0.0
  0
INSERT
  5
7F4
100
AcDbEntity
  8
0
100
AcDbBlockReference
  2
MS_13
 10
-185.69589233398437
 20
-154.28202819824219
 30
0.0
  0
INSERT
  5
7F5
100
AcDbEntity
  8
0
100
AcDbBlockReference
  2
MS_12
 10
-143.57225036621094
 20
-64.282012939453125
 30
0.0
  0
INSERT
  5
7F6
100
AcDbEntity
  8
0
100
AcDbBlockReference
  2
MS_11
 10
-227.81948852539062
 20
-64.281982421875
 30
0.0
  0
INSERT
  5
7F7
100
AcDbEntity
  8
0
100
AcDbBlockReference
  2
MS_10
 10
-185.69583129882812
 20
-34.281997680664063
 30
0.0
  0
INSERT
  5
7F8
100
AcDbEntity
  8
0
100
AcDbBlockReference
  2
MS_9
 10
-185.69587707519531
 20
-64.281982421875
 30
0.0
  0
INSERT
  5
7F9
100
AcDbEntity
  8
0
100
AcDbBlockReference
  2
MS_8
 10
-143.57225036621094
 20
25.718002319335938
 30
0.0
  0
INSERT
  5
7FA
100
AcDbEntity
  8
0
100
AcDbBlockReference
  2
MS_7
 10
-227.81948852539062
 20
25.718032836914062
 30
0.0
  0
INSERT
  5
7FB
100
AcDbEntity
  8
0
100
AcDbBlockReference
  2
MS_6
 10
-185.69583129882812
 20
55.718017578125
 30
0.0
  0
INSERT
  5
7FC
100
AcDbEntity
  8
0
100
AcDbBlockReference
  2
MS_5
 10
-185.69587707519531
 20
25.718017578125
 30
0.0
  0
INSERT
  5
7FD
100
AcDbEntity
  8
0
100
AcDbBlockReference
  2
MS_4
 10
-143.57223510742187
 20
102.49333190917969
 30
0.0
  0
INSERT
  5
7FE
100
AcDbEntity
  8
0
100
AcDbBlockReference
  2
MS_3
 10
-227.81942749023437
 20
102.49333190917969
 30
0.0
  0
INSERT
  5
7FF
100
AcDbEntity
  8
0
100
AcDbBlockReference
  2
MS_2
 10
-185.69583129882812
 20
132.49333190917969
 30
0.0
  0
INSERT
  5
800
100
AcDbEntity
  8
0
100
AcDbBlockReference
  2
MS_1
 10
-185.69583129882812
 20
102.49331665039062
 30
0.0
  0
MTEXT
  5
801
100
AcDbEntity
  8
0
  6
CONTINUOUS
 62
               7
100
AcDbMText
 10
139.21250305117107
 20
51.510009765625
 30
0.0
 40
4.5
 41
0.0
 71
               1
 72
               1
  1
\W1.050;\A1;MODEL:CS-UEF4U
  7
MX_NOTE_STANDARD
  0
MTEXT
  5
802
100
AcDbEntity
  8
0
  6
CONTINUOUS
 62
               7
100
AcDbMText
 10
139.21250305117107
 20
151.28529357910156
 30
0.0
 40
4.5
 41
0.0
 71
               1
 72
               1
  1
\W1.050;\A1;MODEL:CS-UEF6N
  7
MX_NOTE_STANDARD
  0
MTEXT
  5
803
100
AcDbEntity
  8
0
  6
CONTINUOUS
 62
               7
100
AcDbMText
 10
8.0888916009757672
 20
-68.490020751953125
 30
0.0
 40
4.5
 41
0.0
 71
               1
 72
               1
  1
\W1.050;\A1;MODEL:CS-UEF5N
  7
MX_NOTE_STANDARD
  0
MTEXT
  5
804
100
AcDbEntity
  8
0
  6
CONTINUOUS
 62
               7
100
AcDbMText
 10
8.0888916009757672
 20
51.510009765625
 30
0.0
 40
4.5
 41
0.0
 71
               1
 72
               1
  1
\W1.050;\A1;MODEL:CS-UEF4N
  7
MX_NOTE_STANDARD
  0
MTEXT
  5
805
100
AcDbEntity
  8
0
  6
CONTINUOUS
 62
               7
100
AcDbMText
 10
8.0955092479252482
 20
151.28529357910156
 30
0.0
 40
4.5
 41
0.0
 71
               1
 72
               1
  1
\W1.059;\A1;MODEL:CS-UEF
  7
MX_NOTE_STANDARD
  0
MTEXT
  5
806
100
AcDbEntity
  8
0
  6
CONTINUOUS
 62
               7
100
AcDbMText
 10
139.21250305117107
 20
-68.490020751953125
 30
0.0
 40
4.5
 41
0.0
 71
               1
 72
               1
  1
\W1.050;\A1;MODEL:CS-UEF6U
  7
MX_NOTE_STANDARD
  0
MTEXT
  5
807
100
AcDbEntity
  8
0
  6
CONTINUOUS
 62
               7
100
AcDbMText
 10
-123.03167930872903
 20
81.510009765625
 30
0.0
 40
4.5
 41
0.0
 71
               1
 72
               1
  1
\W1.054;\A1;MODEL:CS-UEF4
  7
MX_NOTE_STANDARD
  0
MTEXT
  5
808
100
AcDbEntity
  8
0
  6
CONTINUOUS
 62
               7
100
AcDbMText
 10
-123.03733612824657
 20
-8.4900054931640625
 30
0.0
 40
4.5
 41
0.0
 71
               1
 72
               1
  1
\W1.047;\A1;MODEL:CS-UEF4BU
  7
MX_NOTE_STANDARD
  0
MTEXT
  5
809
100
AcDbEntity
  8
0
  6
CONTINUOUS
 62
               7
100
AcDbMText
 10
-123.03733612824657
 20
-98.490020751953125
 30
0.0
 40
4.5
 41
0.0
 71
               1
 72
               1
  1
\W1.047;\A1;MODEL:CS-UEF-M3
  7
MX_NOTE_STANDARD
  0
MTEXT
  5
80A
100
AcDbEntity
  8
0
  6
CONTINUOUS
 62
               7
100
AcDbMText
 10
-254.16698514542836
 20
-98.490020751953125
 30
0.0
 40
4.5
 41
0.0
 71
               1
 72
               1
  1
\W1.038;\A1;MODEL:CS-UEF4BU-M3
  7
MX_NOTE_STANDARD
  0
MTEXT
  5
80B
100
AcDbEntity
  8
0
  6
CONTINUOUS
 62
               7
100
AcDbMText
 10
-254.16322260368298
 20
-8.4900054931640625
 30
0.0
 40
4.5
 41
0.0
 71
               1
 72
               1
  1
\W1.043;\A1;MODEL:CS-UEF4-M3
  7
MX_NOTE_STANDARD
  0
MTEXT
  5
80C
100
AcDbEntity
  8
0
  6
CONTINUOUS
 62
               7
100
AcDbMText
 10
-254.13583129979372
 20
81.510009765625
 30
0.0
 40
4.5
 41
0.0
 71
               1
 72
               1
  1
\W1.080;\A1;MODEL:CS-UEF3.2-M3
  7
MX_NOTE_STANDARD
  0
MTEXT
  5
80D
100
AcDbEntity
  8
0
  6
CONTINUOUS
 62
               7
100
AcDbMText
 10
-254.16698514542836
 20
156.28529357910156
 30
0.0
 40
4.5
 41
0.0
 71
               1
 72
               1
  1
\W1.038;\A1;MODEL:CS-UEF3BU-M3
  7
MX_NOTE_STANDARD
  0
MTEXT
  5
80E
100
AcDbEntity
  8
0
  6
CONTINUOUS
 62
               7
100
AcDbMText
 10
-123.03733612824657
 20
156.28530883789063
 30
0.0
 40
4.5
 41
0.0
 71
               1
 72
               1
  1
\W1.047;\A1;MODEL:CS-UEF3BU
  7
MX_NOTE_STANDARD
  0
MTEXT
  5
80F
100
AcDbEntity
  8
0
  6
CONTINUOUS
 62
               7
100
AcDbMText
 10
185.62147900326516
 20
169.88499999999999
 30
0.0
 40
6.0
 41
0.0
 71
               4
 72
               1
  1
\W1.311;\A1;Ver. 1.0
  7
MX_NOTE_STANDARD
  0
LINE
  5
810
100
AcDbEntity
  8
0
  6
CONTINUOUS
 62
               7
100
AcDbLine
 10
0.0
 20
-60.0
 30
0.0
 11
262.24000000000001
 21
-60.0
 31
0.0
  0
LINE
  5
811
100
AcDbEntity
  8
0
  6
CONTINUOUS
 62
               7
100
AcDbLine
 10
-262.24000000000001
 20
-90.0
 30
0.0
 11
0.0
 21
-90.0
 31
0.0
  0
LINE
  5
812
100
AcDbEntity
  8
0
  6
CONTINUOUS
 62
               7
100
AcDbLine
 10
-262.24000000000001
 20
0.0
 30
0.0
 11
0.0
 21
0.0
 31
0.0
  0
LINE
  5
813
100
AcDbEntity
  8
0
  6
CONTINUOUS
 62
               7
100
AcDbLine
 10
-262.24000000000001
 20
90.0
 30
0.0
 11
0.0
 21
90.0
 31
0.0
  0
LINE
  5
814
100
AcDbEntity
  8
0
  6
CONTINUOUS
 62
               7
100
AcDbLine
 10
131.12
 20
180.0
 30
0.0
 11
131.12
 21
-180.0
 31
0.0
  0
LINE
  5
815
100
AcDbEntity
  8
0
  6
CONTINUOUS
 62
               7
100
AcDbLine
 10
0.0
 20
180.0
 30
0.0
 11
0.0
 21
-180.0
 31
0.0
  0
LINE
  5
816
100
AcDbEntity
  8
0
  6
CONTINUOUS
 62
               7
100
AcDbLine
 10
-131.12
 20
180.0
 30
0.0
 11
-131.12
 21
-180.0
 31
0.0
  0
LINE
  5
817
100
AcDbEntity
  8
0
  6
CONTINUOUS
 62
               7
100
AcDbLine
 10
0.0
 20
60.0
 30
0.0
 11
262.24000000000001
 21
60.0
 31
0.0
  0
LINE
  5
818
100
AcDbEntity
  8
0
  6
CONTINUOUS
 62
               7
100
AcDbLine
 10
154.38
 20
-159.77000000000001
 30
0.0
 11
154.38
 21
-180.0
 31
0.0
  0
LINE
  5
819
100
AcDbEntity
  8
0
  6
CONTINUOUS
 62
               7
100
AcDbLine
 10
154.38
 20
180.0
 30
0.0
 11
154.38
 21
159.77000000000001
 31
0.0
  0
LINE
  5
81A
100
AcDbEntity
  8
0
  6
CONTINUOUS
 62
               7
100
AcDbLine
 10
154.38
 20
159.77000000000001
 30
0.0
 11
262.24000000000001
 21
159.77000000000001
 31
0.0
  0
LINE
  5
81B
100
AcDbEntity
  8
0
  6
CONTINUOUS
 62
               7
100
AcDbLine
 10
154.38
 20
-159.77000000000001
 30
0.0
 11
262.24000000000001
 21
-159.77000000000001
 31
0.0
  0
LINE
  5
81C
100
AcDbEntity
  8
0
  6
CONTINUOUS
 62
               7
100
AcDbLine
 10
-262.24000000000001
 20
159.77000000000001
 30
0.0
 11
-135.47999999999999
 21
159.77000000000001
 31
0.0
  0
LINE
  5
81D
100
AcDbEntity
  8
0
  6
CONTINUOUS
 62
               7
100
AcDbLine
 10
-262.24000000000001
 20
180.0
 30
0.0
 11
262.24000000000001
 21
180.0
 31
0.0
  0
LINE
  5
81E
100
AcDbEntity
  8
0
  6
CONTINUOUS
 62
               7
100
AcDbLine
 10
-262.24000000000001
 20
-180.0
 30
0.0
 11
262.24000000000001
 21
-180.0
 31
0.0
  0
LINE
  5
81F
100
AcDbEntity
  8
0
  6
CONTINUOUS
 62
               7
100
AcDbLine
 10
262.24000000000001
 20
180.0
 30
0.0
 11
262.24000000000001
 21
-180.0
 31
0.0
  0
LINE
  5
820
100
AcDbEntity
  8
0
  6
CONTINUOUS
 62
               7
100
AcDbLine
 10
-262.24000000000001
 20
-180.0
 30
0.0
 11
-262.24000000000001
 21
180.0
 31
0.0
  0
ENDSEC
  0
SECTION
  2
OBJECTS
  0
DICTIONARY
  5
19
100
AcDbDictionary
  3
ACAD_GROUP
350
1A
  3
ACAD_MLINESTYLE
350
1B
  0
DICTIONARY
  5
1A
102
{ACAD_REACTORS
330
19
102
}
100
AcDbDictionary
  0
DICTIONARY
  5
1B
102
{ACAD_REACTORS
330
19
102
}
100
AcDbDictionary
  3
STANDARD
350
1C
  0
MLINESTYLE
  5
1C
102
{ACAD_REACTORS
330
1B
102
}
100
AcDbMlineStyle
  2
Standard
 70
               0
  3

 62
               0
 51
90.0
 52
90.0
 71
               2
 49
0.5
 62
             256
  6
ByLayer
 49
-0.5
 62
             256
  6
ByLayer
  0
ENDSEC
  0
EOF
