  0
SECTION
  2
HEADER
  9
$ACADVER
  1
AC1009
  9
$DWGCODEPAGE
  3
dos932
  9
$INSBASE
 10
0.0
 20
0.0
 30
0.0
  9
$EXTMIN
 10
-138.3999939
 20
-94.80000305
 30
0.0
  9
$EXTMAX
 10
138.3500061
 20
94.5
 30
0.0
  9
$LIMMIN
 10
-148.5
 20
-105.0
  9
$LIMMAX
 10
148.5
 20
105.0
  9
$ORTHOMODE
 70
       0
  9
$REGENMODE
 70
       1
  9
$FILLMODE
 70
       1
  9
$QTEXTMODE
 70
       0
  9
$MIRRTEXT
 70
       1
  9
$DRAGMODE
 70
       2
  9
$LTSCALE
 40
1.0
  9
$OSMODE
 70
       0
  9
$ATTMODE
 70
       1
  9
$TEXTSIZE
 40
3.20000005
  9
$TRACEWID
 40
0.05
  9
$TEXTSTYLE
  7
MX_NOTE_STANDARD
  9
$CLAYER
  8
0
  9
$CELTYPE
  6
CONTINUOUS
  9
$CECOLOR
 62
     256
  9
$DIMSCALE
 40
1.0
  9
$DIMASZ
 40
2.5
  9
$DIMEXO
 40
1.5
  9
$DIMDLI
 40
3.75
  9
$DIMRND
 40
0.0
  9
$DIMDLE
 40
0.0
  9
$DIMEXE
 40
1.5
  9
$DIMTP
 40
0.0
  9
$DIMTM
 40
0.0
  9
$DIMTXT
 40
3.20000005
  9
$DIMCEN
 40
2.5
  9
$DIMTSZ
 40
0.0
  9
$DIMTOL
 70
       0
  9
$DIMLIM
 70
       0
  9
$DIMTIH
 70
       0
  9
$DIMTOH
 70
       0
  9
$DIMSE1
 70
       0
  9
$DIMSE2
 70
       0
  9
$DIMTAD
 70
       1
  9
$DIMZIN
 70
       8
  9
$DIMBLK
  1

  9
$DIMASO
 70
       1
  9
$DIMSHO
 70
       1
  9
$DIMPOST
  1

  9
$DIMAPOST
  1

  9
$DIMALT
 70
       0
  9
$DIMALTD
 70
       4
  9
$DIMALTF
 40
0.03937008
  9
$DIMLFAC
 40
1.0
  9
$DIMTOFL
 70
       1
  9
$DIMTVP
 40
0.0
  9
$DIMTIX
 70
       0
  9
$DIMSOXD
 70
       0
  9
$DIMSAH
 70
       1
  9
$DIMBLK1
  1
_OPEN30
  9
$DIMBLK2
  1
_OPEN30
  9
$DIMSTYLE
  2
MXDIMSTYLE
  9
$DIMCLRD
 70
       0
  9
$DIMCLRE
 70
       0
  9
$DIMCLRT
 70
       0
  9
$DIMTFAC
 40
1.0
  9
$DIMGAP
 40
1.0
  9
$LUNITS
 70
       2
  9
$LUPREC
 70
       4
  9
$AXISMODE
 70
       0
  9
$AXISUNIT
 10
0.0
 20
0.0
  9
$SKETCHINC
 40
0.1
  9
$FILLETRAD
 40
0.0
  9
$AUNITS
 70
       0
  9
$AUPREC
 70
       0
  9
$MENU
  1
acad
  9
$ELEVATION
 40
0.0
  9
$PELEVATION
 40
0.0
  9
$THICKNESS
 40
0.0
  9
$LIMCHECK
 70
       0
  9
$BLIPMODE
 70
       1
  9
$CHAMFERA
 40
0.0
  9
$CHAMFERB
 40
0.0
  9
$SKPOLY
 70
       0
  9
$TDCREATE
 40
2453921.688043981
  9
$TDUPDATE
 40
2453921.688043981
  9
$TDINDWG
 40
0.0000000000
  9
$TDUSRTIMER
 40
0.0000000000
  9
$USRTIMER
 70
       1
  9
$ANGBASE
 50
0.0
  9
$ANGDIR
 70
       0
  9
$PDMODE
 70
       0
  9
$PDSIZE
 40
0.0
  9
$PLINEWID
 40
0.0
  9
$COORDS
 70
       1
  9
$SPLFRAME
 70
       0
  9
$SPLINETYPE
 70
       6
  9
$SPLINESEGS
 70
       8
  9
$ATTDIA
 70
       0
  9
$ATTREQ
 70
       1
  9
$HANDLING
 70
       1
  9
$HANDSEED
  5
87
  9
$SURFTAB1
 70
       6
  9
$SURFTAB2
 70
       6
  9
$SURFTYPE
 70
       6
  9
$SURFU
 70
       6
  9
$SURFV
 70
       6
  9
$UCSNAME
  2

  9
$UCSORG
 10
0.0
 20
0.0
 30
0.0
  9
$UCSXDIR
 10
1.0
 20
0.0
 30
0.0
  9
$UCSYDIR
 10
0.0
 20
1.0
 30
0.0
  9
$PUCSNAME
  2

  9
$PUCSORG
 10
0.0
 20
0.0
 30
0.0
  9
$PUCSXDIR
 10
1.0
 20
0.0
 30
0.0
  9
$PUCSYDIR
 10
0.0
 20
1.0
 30
0.0
  9
$USERI1
 70
       0
  9
$USERI2
 70
       0
  9
$USERI3
 70
       0
  9
$USERI4
 70
       0
  9
$USERI5
 70
       0
  9
$USERR1
 40
0.0
  9
$USERR2
 40
0.0
  9
$USERR3
 40
0.0
  9
$USERR4
 40
0.0
  9
$USERR5
 40
0.0
  9
$WORLDVIEW
 70
       1
  9
$SHADEDGE
 70
       3
  9
$SHADEDIF
 70
      70
  9
$TILEMODE
 70
       1
  9
$MAXACTVP
 70
      16
  9
$PINSBASE
 10
0.0
 20
0.0
 30
0.0
  9
$PLIMCHECK
 70
       0
  9
$PEXTMIN
 10
1.00000000E+20
 20
1.00000000E+20
 30
1.00000000E+20
  9
$PEXTMAX
 10
-1.00000000E+20
 20
-1.00000000E+20
 30
-1.00000000E+20
  9
$PLIMMIN
 10
0.0
 20
0.0
  9
$PLIMMAX
 10
12.0
 20
9.0
  9
$UNITMODE
 70
       0
  9
$VISRETAIN
 70
       0
  9
$PLINEGEN
 70
       1
  9
$PSLTSCALE
 70
       0
  9
$TREEDEPTH
 70
    3020
  0
ENDSEC
  0
SECTION
  2
TABLES
  0
TABLE
  2
VPORT
 70
       1
  0
VPORT
  2
*ACTIVE
 70
       0
 10
0.0
 20
0.0
 11
1.0
 21
1.0
 12
0.0
 22
0.0
 13
0.0
 23
0.0
 14
1.0
 24
1.0
 15
0.0
 25
0.0
 16
0.0
 26
0.0
 36
1.0
 17
0.0
 27
0.0
 37
0.0
 40
212.1
 41
1.73205081
 42
50.0
 43
0.0
 44
0.0
 50
0.0
 51
0.0
 71
       0
 72
     100
 73
       1
 74
       1
 75
       0
 76
       0
 77
       0
 78
       0
  0
ENDTAB
  0
TABLE
  2
LTYPE
 70
       1
  0
LTYPE
  2
CONTINUOUS
 70
      64
  3
Solid line
 72
      65
 73
       0
 40
0.0
  0
ENDTAB
  0
TABLE
  2
LAYER
 70
       2
  0
LAYER
  2
0
 70
       0
 62
       7
  6
CONTINUOUS
  0
LAYER
  2
DEFPOINTS
 70
       0
 62
       7
  6
CONTINUOUS
  0
ENDTAB
  0
TABLE
  2
STYLE
 70
       1
  0
STYLE
  2
MX_NOTE_STANDARD
 70
       0
 40
0.0
 41
1.0
 50
0.0
 71
       0
 42
3.20000005
  3
txt.shx
  4
extfont.shx
  0
ENDTAB
  0
TABLE
  2
VIEW
 70
       0
  0
ENDTAB
  0
TABLE
  2
UCS
 70
       0
  0
ENDTAB
  0
TABLE
  2
APPID
 70
       1
  0
APPID
  2
ACAD
 70
       0
  0
ENDTAB
  0
TABLE
  2
DIMSTYLE
 70
       1
  0
DIMSTYLE
  2
MXDIMSTYLE
 70
       0
  3

  4

  5

  6
_OPEN30
  7
_OPEN30
 40
1.0
 41
2.5
 42
1.5
 43
3.75
 44
1.5
 45
0.0
 46
0.0
 47
0.0
 48
0.0
 71
       0
 72
       0
 73
       0
 74
       0
 75
       0
 76
       0
 77
       1
 78
       8
140
3.20000005
141
2.5
142
0.0
143
0.03937008
144
1.0
145
0.0
146
1.0
147
1.0
170
       0
171
       4
172
       1
173
       1
174
       0
175
       0
176
       0
177
       0
178
       0
  0
ENDTAB
  0
ENDSEC
  0
SECTION
  2
BLOCKS
  0
BLOCK
  8
0
  6
BYBLOCK
 62
       0
  5
1F
  2
_OPEN30
 70
       2
 10
0.0
 20
0.0
 30
0.0
  3
_OPEN30
  0
LINE
  8
0
  6
BYBLOCK
 62
       0
  5
20
 10
-1.0
 20
0.267949
 30
0.0
 11
0.0
 21
0.0
 31
0.0
  0
LINE
  8
0
  6
BYBLOCK
 62
       0
  5
21
 10
0.0
 20
0.0
 30
0.0
 11
-1.0
 21
-0.267949
 31
0.0
  0
LINE
  8
0
  6
BYBLOCK
 62
       0
  5
22
 10
0.0
 20
0.0
 30
0.0
 11
-1.0
 21
0.0
 31
0.0
  0
ENDBLK
  8
0
  6
BYBLOCK
 62
       0
  5
23
  0
ENDSEC
  0
SECTION
  2
ENTITIES
  0
LINE
  8
0
  6
CONTINUOUS
 62
       2
  5
24
 10
36.30395984
 20
19.15454499
 30
0.0
 11
33.80510996
 21
14.93351479
 31
0.0
  0
LINE
  8
0
  6
CONTINUOUS
 62
       2
  5
25
 10
36.2674736
 20
-7.90708716
 30
0.0
 11
33.80510996
 21
-12.06648521
 31
0.0
  0
LINE
  8
0
  6
CONTINUOUS
 62
       2
  5
26
 10
37.30395984
 20
-7.84545501
 30
0.0
 11
34.80510996
 21
-12.06648521
 31
0.0
  0
LINE
  8
0
  6
CONTINUOUS
 62
       2
  5
27
 10
20.7046751
 20
-7.59545501
 30
0.0
 11
17.90982523
 21
-12.31648521
 31
0.0
  0
LINE
  8
0
  6
CONTINUOUS
 62
       2
  5
28
 10
19.70895984
 20
-7.59545501
 30
0.0
 11
16.91410996
 21
-12.31648521
 31
0.0
  0
LINE
  8
0
  6
CONTINUOUS
 62
       2
  5
29
 10
37.30395984
 20
19.15454499
 30
0.0
 11
34.80510996
 21
14.93351479
 31
0.0
  0
LINE
  8
0
  6
CONTINUOUS
 62
       2
  5
2A
 10
20.7046751
 20
19.40454499
 30
0.0
 11
17.90982523
 21
14.68351479
 31
0.0
  0
LINE
  8
0
  6
CONTINUOUS
 62
       2
  5
2B
 10
19.70895984
 20
19.40454499
 30
0.0
 11
16.91410996
 21
14.68351479
 31
0.0
  0
LINE
  8
0
  6
CONTINUOUS
 62
       2
  5
2C
 10
-64.8554651
 20
-9.95597011
 30
0.0
 11
-58.8554651
 21
-9.95597011
 31
0.0
  0
LINE
  8
0
  6
CONTINUOUS
 62
       7
  5
2D
 10
-0.4554651
 20
19.04402989
 30
0.0
 11
-0.4554651
 21
15.04402989
 31
0.0
  0
LINE
  8
0
  6
CONTINUOUS
 62
       7
  5
2E
 10
30.7945349
 20
18.54402989
 30
0.0
 11
30.7945349
 21
15.54402989
 31
0.0
  0
LINE
  8
0
  6
CONTINUOUS
 62
       7
  5
2F
 10
1.5445349
 20
15.54402989
 30
0.0
 11
17.4235349
 21
15.54402989
 31
0.0
  0
LINE
  8
0
  6
CONTINUOUS
 62
       7
  5
30
 10
1.5445349
 20
18.54402989
 30
0.0
 11
19.1995349
 21
18.54402989
 31
0.0
  0
LINE
  8
0
  6
CONTINUOUS
 62
       7
  5
31
 10
18.41925017
 20
15.54402989
 30
0.0
 11
30.7945349
 21
15.54402989
 31
0.0
  0
LINE
  8
0
  6
CONTINUOUS
 62
       2
  5
32
 10
30.3845349
 20
17.79402989
 30
0.0
 11
50.2945349
 21
17.79402989
 31
0.0
  0
LINE
  8
0
  6
CONTINUOUS
 62
       7
  5
33
 10
30.7945349
 20
17.29402989
 30
0.0
 11
35.2025349
 21
17.29402989
 31
0.0
  0
LINE
  8
0
  6
CONTINUOUS
 62
       7
  5
34
 10
30.7945349
 20
18.29402989
 30
0.0
 11
35.7945349
 21
18.29402989
 31
0.0
  0
LINE
  8
0
  6
CONTINUOUS
 62
       2
  5
35
 10
30.3845349
 20
16.29402989
 30
0.0
 11
50.2945349
 21
16.29402989
 31
0.0
  0
LINE
  8
0
  6
CONTINUOUS
 62
       7
  5
36
 10
30.7945349
 20
15.79402989
 30
0.0
 11
34.3145349
 21
15.79402989
 31
0.0
  0
LINE
  8
0
  6
CONTINUOUS
 62
       7
  5
37
 10
30.7945349
 20
16.79402989
 30
0.0
 11
34.9065349
 21
16.79402989
 31
0.0
  0
LINE
  8
0
  6
CONTINUOUS
 62
       7
  5
38
 10
35.3145349
 20
15.79402989
 30
0.0
 11
39.2945349
 21
15.79402989
 31
0.0
  0
LINE
  8
0
  6
CONTINUOUS
 62
       7
  5
39
 10
35.9065349
 20
16.79402989
 30
0.0
 11
39.2945349
 21
16.79402989
 31
0.0
  0
LINE
  8
0
  6
CONTINUOUS
 62
       7
  5
3A
 10
36.2025349
 20
17.29402989
 30
0.0
 11
39.2945349
 21
17.29402989
 31
0.0
  0
LINE
  8
0
  6
CONTINUOUS
 62
       7
  5
3B
 10
36.7945349
 20
18.29402989
 30
0.0
 11
39.2945349
 21
18.29402989
 31
0.0
  0
LINE
  8
0
  6
CONTINUOUS
 62
       7
  5
3C
 10
39.2945349
 20
18.29402989
 30
0.0
 11
39.2945349
 21
17.29402989
 31
0.0
  0
LINE
  8
0
  6
CONTINUOUS
 62
       7
  5
3D
 10
39.2945349
 20
18.09402989
 30
0.0
 11
49.2945349
 21
18.09402989
 31
0.0
  0
LINE
  8
0
  6
CONTINUOUS
 62
       7
  5
3E
 10
39.2945349
 20
17.49402989
 30
0.0
 11
49.2945349
 21
17.49402989
 31
0.0
  0
LINE
  8
0
  6
CONTINUOUS
 62
       7
  5
3F
 10
39.2945349
 20
16.59402989
 30
0.0
 11
49.2945349
 21
16.59402989
 31
0.0
  0
LINE
  8
0
  6
CONTINUOUS
 62
      15
  5
40
 10
39.2945349
 20
15.99402989
 30
0.0
 11
49.2945349
 21
15.99402989
 31
0.0
  0
LINE
  8
0
  6
CONTINUOUS
 62
      15
  5
41
 10
49.2945349
 20
16.59402989
 30
0.0
 11
49.2945349
 21
15.99402989
 31
0.0
  0
LINE
  8
0
  6
CONTINUOUS
 62
      15
  5
42
 10
49.2945349
 20
18.09402989
 30
0.0
 11
49.2945349
 21
17.49402989
 31
0.0
  0
LINE
  8
0
  6
CONTINUOUS
 62
       7
  5
43
 10
30.7945349
 20
-8.45597011
 30
0.0
 11
30.7945349
 21
-11.45597011
 31
0.0
  0
LINE
  8
0
  6
CONTINUOUS
 62
       7
  5
44
 10
1.5445349
 20
-11.45597011
 30
0.0
 11
17.4235349
 21
-11.45597011
 31
0.0
  0
LINE
  8
0
  6
CONTINUOUS
 62
       7
  5
45
 10
1.5445349
 20
-8.45597011
 30
0.0
 11
19.1995349
 21
-8.45597011
 31
0.0
  0
LINE
  8
0
  6
CONTINUOUS
 62
       7
  5
46
 10
18.41925017
 20
-11.45597011
 30
0.0
 11
30.7945349
 21
-11.45597011
 31
0.0
  0
LINE
  8
0
  6
CONTINUOUS
 62
       7
  5
47
 10
20.1995349
 20
-8.45597011
 30
0.0
 11
30.7945349
 21
-8.45597011
 31
0.0
  0
LINE
  8
0
  6
CONTINUOUS
 62
       2
  5
48
 10
30.3845349
 20
-9.20597011
 30
0.0
 11
50.2945349
 21
-9.20597011
 31
0.0
  0
LINE
  8
0
  6
CONTINUOUS
 62
       7
  5
49
 10
30.7945349
 20
-9.70597011
 30
0.0
 11
35.2025349
 21
-9.70597011
 31
0.0
  0
LINE
  8
0
  6
CONTINUOUS
 62
       7
  5
4A
 10
30.7945349
 20
-8.70597011
 30
0.0
 11
35.7945349
 21
-8.70597011
 31
0.0
  0
LINE
  8
0
  6
CONTINUOUS
 62
       7
  5
4B
 10
30.7945349
 20
-11.20597011
 30
0.0
 11
34.3145349
 21
-11.20597011
 31
0.0
  0
LINE
  8
0
  6
CONTINUOUS
 62
       7
  5
4C
 10
30.7945349
 20
-10.20597011
 30
0.0
 11
34.9065349
 21
-10.20597011
 31
0.0
  0
LINE
  8
0
  6
CONTINUOUS
 62
       7
  5
4D
 10
35.3145349
 20
-11.20597011
 30
0.0
 11
39.2945349
 21
-11.20597011
 31
0.0
  0
LINE
  8
0
  6
CONTINUOUS
 62
       7
  5
4E
 10
35.9065349
 20
-10.20597011
 30
0.0
 11
39.2945349
 21
-10.20597011
 31
0.0
  0
LINE
  8
0
  6
CONTINUOUS
 62
       7
  5
4F
 10
36.2025349
 20
-9.70597011
 30
0.0
 11
39.2945349
 21
-9.70597011
 31
0.0
  0
LINE
  8
0
  6
CONTINUOUS
 62
       7
  5
50
 10
36.7945349
 20
-8.70597011
 30
0.0
 11
39.2945349
 21
-8.70597011
 31
0.0
  0
LINE
  8
0
  6
CONTINUOUS
 62
       7
  5
51
 10
39.2945349
 20
-8.70597011
 30
0.0
 11
39.2945349
 21
-9.70597011
 31
0.0
  0
LINE
  8
0
  6
CONTINUOUS
 62
       7
  5
52
 10
39.2945349
 20
-8.90597011
 30
0.0
 11
49.2945349
 21
-8.90597011
 31
0.0
  0
LINE
  8
0
  6
CONTINUOUS
 62
       7
  5
53
 10
39.2945349
 20
-9.50597011
 30
0.0
 11
49.2945349
 21
-9.50597011
 31
0.0
  0
LINE
  8
0
  6
CONTINUOUS
 62
       7
  5
54
 10
49.2945349
 20
-8.90597011
 30
0.0
 11
49.2945349
 21
-9.50597011
 31
0.0
  0
LINE
  8
0
  6
CONTINUOUS
 62
       7
  5
55
 10
-26.4554651
 20
18.17402989
 30
0.0
 11
-26.4554651
 21
15.90902989
 31
0.0
  0
LINE
  8
0
  6
CONTINUOUS
 62
       7
  5
56
 10
-24.9554651
 20
19.04402989
 30
0.0
 11
1.5445349
 21
19.04402989
 31
0.0
  0
LINE
  8
0
  6
CONTINUOUS
 62
       7
  5
57
 10
-24.9554651
 20
15.04402989
 30
0.0
 11
1.5445349
 21
15.04402989
 31
0.0
  0
LINE
  8
0
  6
CONTINUOUS
 62
       7
  5
58
 10
-24.9554651
 20
15.04402989
 30
0.0
 11
-26.4554651
 21
15.90902989
 31
0.0
  0
LINE
  8
0
  6
CONTINUOUS
 62
       7
  5
59
 10
-24.9554651
 20
19.04402989
 30
0.0
 11
-26.4554651
 21
18.17402989
 31
0.0
  0
LINE
  8
0
  6
CONTINUOUS
 62
       7
  5
5A
 10
-24.9554651
 20
19.04402989
 30
0.0
 11
-24.9554651
 21
15.04402989
 31
0.0
  0
LINE
  8
0
  6
CONTINUOUS
 62
       7
  5
5B
 10
-0.4554651
 20
-7.95597011
 30
0.0
 11
-0.4554651
 21
-11.95597011
 31
0.0
  0
LINE
  8
0
  6
CONTINUOUS
 62
       2
  5
5C
 10
-27.4554651
 20
-9.95597011
 30
0.0
 11
32.3495349
 21
-9.95597011
 31
0.0
  0
LINE
  8
0
  6
CONTINUOUS
 62
       7
  5
5D
 10
-26.4554651
 20
-8.82597011
 30
0.0
 11
-26.4554651
 21
-11.09097011
 31
0.0
  0
LINE
  8
0
  6
CONTINUOUS
 62
       7
  5
5E
 10
-24.9554651
 20
-7.95597011
 30
0.0
 11
1.5445349
 21
-7.95597011
 31
0.0
  0
LINE
  8
0
  6
CONTINUOUS
 62
       7
  5
5F
 10
-24.9554651
 20
-11.95597011
 30
0.0
 11
-26.4554651
 21
-11.09097011
 31
0.0
  0
LINE
  8
0
  6
CONTINUOUS
 62
       7
  5
60
 10
-24.9554651
 20
-7.95597011
 30
0.0
 11
-26.4554651
 21
-8.82597011
 31
0.0
  0
LINE
  8
0
  6
CONTINUOUS
 62
       7
  5
61
 10
-24.9554651
 20
-7.95597011
 30
0.0
 11
-24.9554651
 21
-11.95597011
 31
0.0
  0
LINE
  8
0
  6
CONTINUOUS
 62
       7
  5
62
 10
-24.9554651
 20
-11.95597011
 30
0.0
 11
1.5445349
 21
-11.95597011
 31
0.0
  0
LINE
  8
0
  6
CONTINUOUS
 62
       2
  5
63
 10
-61.8554651
 20
-6.95597011
 30
0.0
 11
-61.8554651
 21
-12.95597011
 31
0.0
  0
LINE
  8
0
  6
CONTINUOUS
 62
       7
  5
64
 10
-59.8554651
 20
-7.95597011
 30
0.0
 11
-59.8554651
 21
-11.95597011
 31
0.0
  0
LINE
  8
0
  6
CONTINUOUS
 62
       7
  5
65
 10
-63.8554651
 20
-7.95597011
 30
0.0
 11
-63.8554651
 21
-11.95597011
 31
0.0
  0
LINE
  8
0
  6
CONTINUOUS
 62
       7
  5
66
 10
-63.8554651
 20
-11.95597011
 30
0.0
 11
-59.8554651
 21
-11.95597011
 31
0.0
  0
LINE
  8
0
  6
CONTINUOUS
 62
       7
  5
67
 10
-63.8554651
 20
-7.95597011
 30
0.0
 11
-59.8554651
 21
-7.95597011
 31
0.0
  0
LINE
  8
0
  6
CONTINUOUS
 62
       7
  5
68
 10
-62.9854651
 20
-8.82597011
 30
0.0
 11
-60.7254651
 21
-8.82597011
 31
0.0
  0
LINE
  8
0
  6
CONTINUOUS
 62
       7
  5
69
 10
-62.9854651
 20
-11.09097011
 30
0.0
 11
-60.7254651
 21
-11.09097011
 31
0.0
  0
LINE
  8
0
  6
CONTINUOUS
 62
       7
  5
6A
 10
-63.8554651
 20
-7.95597011
 30
0.0
 11
-62.9854651
 21
-8.82597011
 31
0.0
  0
LINE
  8
0
  6
CONTINUOUS
 62
       7
  5
6B
 10
-59.8554651
 20
-7.95597011
 30
0.0
 11
-60.7254651
 21
-8.82597011
 31
0.0
  0
LINE
  8
0
  6
CONTINUOUS
 62
       7
  5
6C
 10
-60.7254651
 20
-11.09097011
 30
0.0
 11
-59.8554651
 21
-11.95597011
 31
0.0
  0
LINE
  8
0
  6
CONTINUOUS
 62
       7
  5
6D
 10
-62.9854651
 20
-11.09097011
 30
0.0
 11
-63.8554651
 21
-11.95597011
 31
0.0
  0
LINE
  8
0
  6
CONTINUOUS
 62
       7
  5
6E
 10
-62.9854651
 20
-11.09097011
 30
0.0
 11
-62.9854651
 21
-8.82597011
 31
0.0
  0
LINE
  8
0
  6
CONTINUOUS
 62
       7
  5
6F
 10
-60.7254651
 20
-8.82597011
 30
0.0
 11
-60.7254651
 21
-11.09097011
 31
0.0
  0
LINE
  8
0
  6
CONTINUOUS
 62
       7
  5
70
 10
39.2945349
 20
-10.40597011
 30
0.0
 11
49.2945349
 21
-10.40597011
 31
0.0
  0
LINE
  8
0
  6
CONTINUOUS
 62
       7
  5
71
 10
49.2945349
 20
-10.40597011
 30
0.0
 11
49.2945349
 21
-11.00597011
 31
0.0
  0
LINE
  8
0
  6
CONTINUOUS
 62
       7
  5
72
 10
39.2945349
 20
-11.00597011
 30
0.0
 11
49.2945349
 21
-11.00597011
 31
0.0
  0
LINE
  8
0
  6
CONTINUOUS
 62
       2
  5
73
 10
30.3845349
 20
-10.70597011
 30
0.0
 11
50.2945349
 21
-10.70597011
 31
0.0
  0
LINE
  8
0
  6
CONTINUOUS
 62
       7
  5
74
 10
39.2945349
 20
-10.20597011
 30
0.0
 11
39.2945349
 21
-11.20597011
 31
0.0
  0
LINE
  8
0
  6
CONTINUOUS
 62
       7
  5
75
 10
39.2945349
 20
16.79402989
 30
0.0
 11
39.2945349
 21
15.79402989
 31
0.0
  0
LINE
  8
0
  6
CONTINUOUS
 62
       2
  5
76
 10
-27.4554651
 20
17.04402989
 30
0.0
 11
32.3495349
 21
17.04402989
 31
0.0
  0
LINE
  8
0
  6
CONTINUOUS
 62
       7
  5
77
 10
-24.4554651
 20
18.84402989
 30
0.0
 11
-1.9554651
 21
18.84402989
 31
0.0
  0
LINE
  8
0
  6
CONTINUOUS
 62
       7
  5
78
 10
-24.4554651
 20
15.24402989
 30
0.0
 11
-1.9554651
 21
15.24402989
 31
0.0
  0
LINE
  8
0
  6
CONTINUOUS
 62
       7
  5
79
 10
1.5445349
 20
19.04402989
 30
0.0
 11
1.5445349
 21
15.04402989
 31
0.0
  0
LINE
  8
0
  6
CONTINUOUS
 62
       7
  5
7A
 10
1.5445349
 20
-7.95597011
 30
0.0
 11
1.5445349
 21
-11.95597011
 31
0.0
  0
LINE
  8
0
  6
CONTINUOUS
 62
       7
  5
7B
 10
-24.4554651
 20
18.84402989
 30
0.0
 11
-24.4554651
 21
15.24402989
 31
0.0
  0
LINE
  8
0
  6
CONTINUOUS
 62
       7
  5
7C
 10
-1.9554651
 20
18.84402989
 30
0.0
 11
-1.9554651
 21
15.24402989
 31
0.0
  0
LINE
  8
0
  6
CONTINUOUS
 62
       7
  5
7D
 10
20.19525017
 20
18.54402989
 30
0.0
 11
30.79453491
 21
18.54402989
 31
0.0
  0
LINE
  8
0
  6
CONTINUOUS
 62
       7
  5
7E
 10
-1.4554651
 20
19.04402989
 30
0.0
 11
-1.4554651
 21
15.04402989
 31
0.0
  0
LINE
  8
0
  6
CONTINUOUS
 62
       7
  5
7F
 10
-1.4554651
 20
-7.95597011
 30
0.0
 11
-1.4554651
 21
-11.95597011
 31
0.0
  0
LINE
  8
0
  6
CONTINUOUS
 62
       7
  5
80
 10
-138.3999939
 20
94.5
 30
0.0
 11
138.3500061
 21
94.5
 31
0.0
  0
LINE
  8
0
  6
CONTINUOUS
 62
       7
  5
81
 10
138.3500061
 20
94.5
 30
0.0
 11
138.3500061
 21
-94.80000305
 31
0.0
  0
LINE
  8
0
  6
CONTINUOUS
 62
       7
  5
82
 10
-138.3999939
 20
-94.80000305
 30
0.0
 11
138.3500061
 21
-94.80000305
 31
0.0
  0
LINE
  8
0
  6
CONTINUOUS
 62
       7
  5
83
 10
-138.3999939
 20
94.5
 30
0.0
 11
-138.3999939
 21
-94.80000305
 31
0.0
  0
TEXT
  8
0
  6
CONTINUOUS
 62
       7
  5
84
 10
-129.39309736
 20
82.89999998
 30
0.0
 40
3.20000005
  1
MODEL:CS11T
 41
1.13793103
  7
MX_NOTE_STANDARD
 11
-129.39309736
 21
84.5
 31
0.0
 73
       2
  0
ENDSEC
  0
EOF
