  0
SECTION
  2
HEADER
  0
ENDSEC
  0
SECTION
  2
TABLES
  0
TABLE
  2
LTYPE
 70
     4
  0
LTYPE
  2
CONTINUOUS
 70
    64
  3
Solid line
 72
    65
 73
     0
 40
0.000000
  0
LTYPE
  2
DASHED
 70
    64
  3
__ __ __ __ __ __ __ __ __ __ __ __ __ __ __
 72
    65
 73
     2
 40
3.500000
 49
2.000000
 49
-1.500000
  0
LTYPE
  2
CENTER
 70
    64
  3
____ _ ____ _ ____ _ ____ _ ____ _ ____ _ ____
 72
    65
 73
     4
 40
17.500000
 49
13.000000
 49
-1.500000
 49
1.500000
 49
-1.500000
  0
LTYPE
  2
PHANTOM
 70
    64
  3
_____ _ _ _____ _ _ _____ _ _ _____ _ _ ____  
 72
    65
 73
     6
 40
15.500000
 49
8.000000
 49
-1.500000
 49
1.500000
 49
-1.500000
 49
1.500000
 49
-1.500000
  0
LTYPE
  2
DASHED1
 70
    64
  3
__ __ __ __ __ __ __ __ __ __ __ __ __ __ __
 72
    65
 73
     2
 40
1.500000
 49
1.000000
 49
-0.500000
  0
LTYPE
  2
DASHED2
 70
    64
  3
__ __ __ __ __ __ __ __ __ __ __ __ __ __ __
 72
    65
 73
     2
 40
3.500000
 49
2.500000
 49
-1.000000
  0
LTYPE
  2
DASHED3
 70
    64
  3
__ __ __ __ __ __ __ __ __ __ __ __ __ __ __
 72
    65
 73
     2
 40
6.000000
 49
4.000000
 49
-2.000000
  0
LTYPE
  2
DASHED4
 70
    64
  3
__ __ __ __ __ __ __ __ __ __ __ __ __ __ __
 72
    65
 73
     2
 40
12.000000
 49
10.000000
 49
-2.000000
  0
LTYPE
  2
DASHED5
 70
    64
  3
__ __ __ __ __ __ __ __ __ __ __ __ __ __ __
 72
    65
 73
     2
 40
17.000000
 49
15.000000
 49
-2.000000
  0
LTYPE
  2
DASHED6
 70
    64
  3
__ __ __ __ __ __ __ __ __ __ __ __ __ __ __
 72
    65
 73
     2
 40
29.000000
 49
27.000000
 49
-2.000000
  0
LTYPE
  2
PHANTOM1
 70
    64
  3
_____ _ _ _____ _ _ _____ _ _ _____ _ _ ____  
 72
    65
 73
     6
 40
31.000000
 49
25.000000
 49
-1.500000
 49
1.000000
 49
-1.000000
 49
1.000000
 49
-1.500000
  0
LTYPE
  2
PHANTOM2
 70
    64
  3
_____ _ _ _____ _ _ _____ _ _ _____ _ _ ____  
 72
    65
 73
     6
 40
36.000000
 49
27.000000
 49
-1.500000
 49
2.500000
 49
-1.000000
 49
2.500000
 49
-1.500000
  0
LTYPE
  2
PHANTOM3
 70
    64
  3
_____ _ _ _____ _ _ _____ _ _ _____ _ _ ____  
 72
    65
 73
     6
 40
78.000000
 49
64.000000
 49
-2.000000
 49
4.000000
 49
-2.000000
 49
4.000000
 49
-2.000000
  0
LTYPE
  2
CENTER1
 70
    64
  3
____ _ ____ _ ____ _ ____ _ ____ _ ____ _ ____
 72
    65
 73
     4
 40
19.000000
 49
14.000000
 49
-1.000000
 49
3.000000
 49
-1.000000
  0
LTYPE
  2
CENTER2
 70
    64
  3
____ _ ____ _ ____ _ ____ _ ____ _ ____ _ ____
 72
    65
 73
     4
 40
28.500000
 49
25.000000
 49
-1.000000
 49
1.500000
 49
-1.000000
  0
LTYPE
  2
CENTER3
 70
    64
  3
____ _ ____ _ ____ _ ____ _ ____ _ ____ _ ____
 72
    65
 73
     4
 40
31.500000
 49
27.000000
 49
-1.000000
 49
2.500000
 49
-1.000000
  0
LTYPE
  2
CENTER4
 70
    64
  3
____ _ ____ _ ____ _ ____ _ ____ _ ____ _ ____
 72
    65
 73
     4
 40
50.000000
 49
45.000000
 49
-1.000000
 49
3.000000
 49
-1.000000
  0
LTYPE
  2
CENTER5
 70
    64
  3
____ _ ____ _ ____ _ ____ _ ____ _ ____ _ ____
 72
    65
 73
     4
 40
100.000000
 49
92.000000
 49
-2.000000
 49
4.000000
 49
-2.000000
  0
LTYPE
  2
SBK1
 70
    64
  3
______ _ _ _ ______ _ _ _ ______ _ _ _ _____  
 72
    65
 73
     8
 40
60.500000
 49
45.000000
 49
-2.000000
 49
2.500000
 49
-2.000000
 49
2.500000
 49
-2.000000
 49
2.500000
 49
-2.000000
  0
LTYPE
  2
SBK2
 70
    64
  3
______ _ _ _ ______ _ _ _ ______ _ _ _ _____  
 72
    65
 73
     8
 40
84.000000
 49
64.000000
 49
-2.000000
 49
4.000000
 49
-2.000000
 49
4.000000
 49
-2.000000
 49
4.000000
 49
-2.000000
  0
LTYPE
  2
STCH
 70
    64
  3
__ __ __ __ __ __ __ __ __ __ __ __ __ __ __
 72
    65
 73
     2
 40
3.000000
 49
1.000000
 49
-2.000000
  0
LTYPE
  2
MTCH
 70
    64
  3
_____ _ _ _____ _ _ _____ _ _ _____ _ _ ____  
 72
    65
 73
     6
 40
80.000000
 49
66.000000
 49
-2.000000
 49
4.000000
 49
-2.000000
 49
4.000000
 49
-2.000000
  0
ENDTAB
  0
TABLE
  2
LAYER
 70
     1
  0
LAYER
  2
0
 70
     0
 62
     7
  6
CONTINUOUS
  0
ENDTAB
  0
TABLE
  2
STYLE
 70
     1
  0
STYLE
  2
STANDARD
 70
     0
 40
0.000000
 41
1.000000
 50
0.000000
 71
     0
 42
0.200000
  3
txt
  4
BIGFONT
  0
ENDTAB
  0
TABLE
  2
VIEW
 70
     0
  0
ENDTAB
  0
ENDSEC
  0
SECTION
  2
BLOCKS
  0
ENDSEC
  0
SECTION
  2
ENTITIES
  0
LINE
  8
0
  6
CENTER
 62
     2
 10
106.484962
 20
-9.812303
 11
113.114960
 21
-9.812303
  0
LINE
  8
0
 10
114.334961
 20
9.687697
 11
114.334961
 21
21.687698
  0
LINE
  8
0
 10
87.334961
 20
32.537697
 11
87.334961
 21
35.837696
  0
LINE
  8
0
 10
114.334961
 20
32.037697
 11
114.334961
 21
36.337696
  0
LINE
  8
0
 10
87.334961
 20
9.687697
 11
87.334961
 21
21.687698
  0
LINE
  8
0
 10
114.334961
 20
-4.962302
 11
114.334961
 21
-0.662303
  0
LINE
  8
0
 10
87.334961
 20
-10.786304
 11
87.334961
 21
-6.730302
  0
LINE
  8
0
  6
CENTER
 62
     2
 10
90.804962
 20
-1.312303
 11
93.904961
 21
-1.312303
  0
LINE
  8
0
  6
CENTER
 62
     2
 10
92.334961
 20
0.187697
 11
92.334961
 21
-2.902303
  0
LINE
  8
0
 10
86.834961
 20
22.187698
 11
86.834961
 21
32.037697
  0
LINE
  8
0
 10
87.334961
 20
32.537697
 11
88.334961
 21
32.537697
  0
LINE
  8
0
 10
88.334961
 20
31.287697
 11
88.334961
 21
32.537697
  0
LINE
  8
0
 10
88.334961
 20
31.287697
 11
91.334961
 21
31.287697
  0
LINE
  8
0
 10
91.334961
 20
31.287697
 11
91.334961
 21
37.087696
  0
LINE
  8
0
 10
88.334961
 20
37.087696
 11
91.334961
 21
37.087696
  0
LINE
  8
0
 10
88.334961
 20
35.837696
 11
88.334961
 21
37.087696
  0
LINE
  8
0
 10
87.334961
 20
35.837696
 11
88.334961
 21
35.837696
  0
LINE
  8
0
 10
86.834961
 20
36.337696
 11
86.834961
 21
43.687698
  0
LINE
  8
0
  6
CENTER
 62
     2
 10
88.544960
 20
-9.812303
 11
95.174957
 21
-9.812303
  0
LINE
  8
0
  6
CENTER
 62
     2
 10
109.834961
 20
-6.952302
 11
109.834961
 21
-12.782302
  0
LINE
  8
0
  6
CENTER
 62
     2
 10
85.964981
 20
34.187698
 11
92.294960
 21
34.187698
  0
LINE
  8
0
 10
108.834961
 20
35.687698
 11
105.734962
 21
35.687698
  0
LINE
  8
0
 10
108.834961
 20
32.687698
 11
103.834961
 21
32.687698
  0
LINE
  8
0
  6
CENTER
 62
     2
 10
110.394958
 20
34.187698
 11
107.864960
 21
34.187698
  0
LINE
  8
0
 10
108.834961
 20
-1.312303
 11
103.834961
 21
-1.312303
  0
LINE
  8
0
 10
108.834961
 20
-4.312303
 11
105.834961
 21
-4.312303
  0
LINE
  8
0
  6
CENTER
 62
     2
 10
110.524963
 20
-2.812303
 11
107.974960
 21
-2.812303
  0
LINE
  8
0
 10
86.834961
 20
-6.312303
 11
86.834961
 21
9.187697
  0
LINE
  8
0
 10
89.334961
 20
-8.402303
 11
86.834961
 21
-6.312301
  0
LINE
  8
0
  6
DASHED
 62
     2
 10
90.234962
 20
-13.312303
 11
90.234962
 21
-11.482303
  0
LINE
  8
0
  6
DASHED
 62
     2
 10
94.434959
 20
-13.312303
 11
94.434959
 21
-11.482303
  0
LINE
  8
0
  6
DASHED
 62
     2
 10
94.834961
 20
-13.312303
 11
94.834961
 21
-11.482303
  0
LINE
  8
0
  6
DASHED
 62
     2
 10
89.834961
 20
-13.312303
 11
89.834961
 21
-11.482303
  0
LINE
  8
0
  6
CENTER
 62
     2
 10
92.334961
 20
-14.182303
 11
92.334961
 21
-11.122302
  0
LINE
  8
0
 10
86.834961
 20
-12.312303
 11
86.834961
 21
-11.382302
  0
LINE
  8
0
 10
87.834961
 20
-13.312304
 11
86.874962
 21
-12.352304
  0
LINE
  8
0
 10
87.834961
 20
-13.312303
 11
113.834961
 21
-13.312303
  0
LINE
  8
0
 10
86.834953
 20
-11.382300
 11
89.334961
 21
-8.402301
  0
LINE
  8
0
  6
CENTER
 62
     2
 10
91.834961
 20
-6.952302
 11
91.834961
 21
-12.782302
  0
LINE
  8
0
  6
CENTER
 62
     2
 10
95.174957
 20
41.187698
 11
88.544960
 21
41.187698
  0
LINE
  8
0
  6
CENTER
 62
     2
 10
91.834961
 20
38.384190
 11
91.834961
 21
43.900459
  0
LINE
  8
0
  6
CENTER
 62
     2
 10
106.484962
 20
41.187698
 11
113.114960
 21
41.187698
  0
LINE
  8
0
  6
CENTER
 62
     2
 10
109.834961
 20
38.384190
 11
109.834961
 21
43.900459
  0
LINE
  8
0
 10
87.334961
 20
9.687697
 11
88.834961
 21
9.687697
  0
LINE
  8
0
 10
87.334961
 20
21.687698
 11
88.834961
 21
21.687698
  0
LINE
  8
0
 10
88.834961
 20
10.687697
 11
88.834961
 21
9.687697
  0
LINE
  8
0
 10
89.334961
 20
10.987700
 11
89.834961
 21
10.487700
  0
LINE
  8
0
 10
89.834961
 20
14.687700
 11
89.334961
 21
14.187700
  0
LINE
  8
0
 10
89.134964
 20
14.187697
 11
89.334961
 21
14.187697
  0
LINE
  8
0
 10
89.134964
 20
10.987698
 11
89.334961
 21
10.987698
  0
LINE
  8
0
 10
89.834961
 20
10.487698
 11
91.434959
 21
10.487698
  0
LINE
  8
0
 10
89.834961
 20
14.687697
 11
91.434959
 21
14.687697
  0
LINE
  8
0
 10
88.834961
 20
20.687698
 11
88.834961
 21
21.687698
  0
LINE
  8
0
 10
89.334961
 20
20.387693
 11
89.834961
 21
20.887695
  0
LINE
  8
0
 10
89.834961
 20
16.687696
 11
89.334961
 21
17.187698
  0
LINE
  8
0
 10
89.134964
 20
17.187698
 11
89.334961
 21
17.187698
  0
LINE
  8
0
 10
89.134964
 20
20.387697
 11
89.334961
 21
20.387697
  0
LINE
  8
0
 10
88.834961
 20
14.487698
 11
88.834961
 21
16.887697
  0
LINE
  8
0
 10
89.834961
 20
20.887697
 11
91.434959
 21
20.887697
  0
LINE
  8
0
 10
89.834961
 20
16.687698
 11
91.434959
 21
16.687698
  0
LINE
  8
0
  6
CENTER
 62
     2
 10
85.444092
 20
15.687697
 11
115.759941
 21
15.687697
  0
LINE
  8
0
 10
112.334961
 20
0.837697
 11
112.334961
 21
-0.662303
  0
LINE
  8
0
 10
108.834961
 20
0.837697
 11
108.834961
 21
-6.462302
  0
LINE
  8
0
 10
112.334961
 20
0.837697
 11
108.834961
 21
0.837697
  0
LINE
  8
0
 10
112.334961
 20
-6.462302
 11
108.834961
 21
-6.462302
  0
LINE
  8
0
 10
114.334961
 20
-4.962302
 11
112.334961
 21
-4.962302
  0
LINE
  8
0
 10
114.334961
 20
-0.662303
 11
112.334961
 21
-0.662303
  0
LINE
  8
0
 10
112.334961
 20
-4.962302
 11
112.334961
 21
-6.462302
  0
LINE
  8
0
 10
112.334961
 20
36.337696
 11
112.334961
 21
37.837696
  0
LINE
  8
0
 10
112.334961
 20
30.537697
 11
112.334961
 21
32.037697
  0
LINE
  8
0
 10
108.834961
 20
30.537697
 11
108.834961
 21
37.837696
  0
LINE
  8
0
 10
114.834961
 20
22.187698
 11
114.834961
 21
31.537697
  0
LINE
  8
0
 10
114.334961
 20
9.687697
 11
112.834961
 21
9.687697
  0
LINE
  8
0
 10
114.334961
 20
21.687698
 11
112.834961
 21
21.687698
  0
LINE
  8
0
 10
112.834961
 20
10.687697
 11
112.834961
 21
9.687697
  0
LINE
  8
0
 10
112.334961
 20
10.987696
 11
111.834961
 21
10.487695
  0
LINE
  8
0
 10
111.834961
 20
14.687695
 11
112.334961
 21
14.187695
  0
LINE
  8
0
 10
112.534958
 20
14.187697
 11
112.334961
 21
14.187697
  0
LINE
  8
0
 10
112.534958
 20
10.987698
 11
112.334961
 21
10.987698
  0
LINE
  8
0
 10
111.834961
 20
10.487698
 11
110.234962
 21
10.487698
  0
LINE
  8
0
 10
111.834961
 20
14.687697
 11
110.234962
 21
14.687697
  0
LINE
  8
0
 10
112.834961
 20
20.687698
 11
112.834961
 21
21.687698
  0
LINE
  8
0
 10
112.334961
 20
20.387697
 11
111.834961
 21
20.887697
  0
LINE
  8
0
 10
111.834961
 20
16.687695
 11
112.334961
 21
17.187696
  0
LINE
  8
0
 10
112.534958
 20
17.187698
 11
112.334961
 21
17.187698
  0
LINE
  8
0
 10
112.534958
 20
20.387697
 11
112.334961
 21
20.387697
  0
LINE
  8
0
 10
112.834961
 20
14.487698
 11
112.834961
 21
16.887697
  0
LINE
  8
0
 10
111.834961
 20
20.887697
 11
110.234962
 21
20.887697
  0
LINE
  8
0
 10
111.834961
 20
16.687698
 11
110.234962
 21
16.687698
  0
LINE
  8
0
 10
114.834961
 20
36.837696
 11
114.834961
 21
43.687698
  0
LINE
  8
0
 10
114.834961
 20
-0.162303
 11
114.834961
 21
9.187697
  0
LINE
  8
0
 10
112.334961
 20
30.537697
 11
108.834961
 21
30.537697
  0
LINE
  8
0
 10
112.334961
 20
37.837696
 11
108.834961
 21
37.837696
  0
LINE
  8
0
 10
114.334961
 20
36.337696
 11
112.334961
 21
36.337696
  0
LINE
  8
0
 10
114.334961
 20
32.037697
 11
112.334961
 21
32.037697
  0
LINE
  8
0
 10
87.834961
 20
44.687698
 11
86.834961
 21
43.687698
  0
LINE
  8
0
 10
114.834961
 20
43.687695
 11
113.834953
 21
44.687698
  0
LINE
  8
0
 10
113.834961
 20
-13.312303
 11
114.834961
 21
-12.312302
  0
LINE
  8
0
 10
114.834961
 20
-12.312303
 11
114.834961
 21
-5.462302
  0
LINE
  8
0
 10
87.834961
 20
44.687698
 11
113.834961
 21
44.687698
  0
LINE
  8
0
  6
CENTER
 62
     2
 10
94.674957
 20
-5.312303
 11
106.854958
 21
-5.312303
  0
LINE
  8
0
  6
CENTER
 62
     2
 10
94.484962
 20
36.687698
 11
106.984962
 21
36.687698
  0
LINE
  8
0
  6
CENTER
 62
     2
 10
100.834961
 20
-16.312302
 11
100.834961
 21
46.127697
  0
LINE
  8
0
 10
-110.665039
 20
43.687698
 11
-111.165039
 21
44.187698
  0
LINE
  8
0
 10
-111.165039
 20
-12.812307
 11
-110.665039
 21
-12.312306
  0
LINE
  8
0
 10
-137.665039
 20
-12.312298
 11
-137.165039
 21
-12.812299
  0
LINE
  8
0
 10
-137.665039
 20
43.687698
 11
-137.165039
 21
44.187695
  0
LINE
  8
0
 10
-137.665039
 20
43.687698
 11
-137.665039
 21
-12.312303
  0
LINE
  8
0
 10
-110.665039
 20
43.687698
 11
-110.665039
 21
-12.312303
  0
LINE
  8
0
 10
-137.165039
 20
-12.812303
 11
-111.165039
 21
-12.812303
  0
LINE
  8
0
 10
-137.165039
 20
44.187698
 11
-111.165039
 21
44.187698
  0
LINE
  8
0
  6
CENTER
 62
     2
 10
-131.165039
 20
42.577698
 11
-131.165039
 21
36.777699
  0
LINE
  8
0
  6
CENTER
 62
     2
 10
-117.165039
 20
42.657696
 11
-117.165039
 21
36.777699
  0
LINE
  8
0
  6
CENTER
 62
     2
 10
-120.115036
 20
39.687698
 11
-114.165039
 21
39.687698
  0
LINE
  8
0
  6
CENTER
 62
     2
 10
-129.175034
 20
36.687698
 11
-119.165039
 21
36.687698
  0
LINE
  8
0
  6
CENTER
 62
     2
 10
-120.265038
 20
-8.312303
 11
-114.005035
 21
-8.312303
  0
LINE
  8
0
  6
CENTER
 62
     2
 10
-129.405045
 20
-5.312303
 11
-118.575043
 21
-5.312303
  0
LINE
  8
0
 10
-124.165039
 20
17.127693
 11
-125.415031
 21
16.407698
  0
LINE
  8
0
 10
-124.165031
 20
17.127695
 11
-122.915039
 21
16.407700
  0
LINE
  8
0
 10
-122.915039
 20
16.407698
 11
-122.915039
 21
14.957697
  0
LINE
  8
0
 10
-122.915047
 20
14.957698
 11
-124.165039
 21
14.237700
  0
LINE
  8
0
 10
-124.165039
 20
14.237697
 11
-125.415047
 21
14.957698
  0
LINE
  8
0
 10
-125.415039
 20
16.407698
 11
-125.415039
 21
14.957697
  0
LINE
  8
0
 10
-124.165039
 20
38.127705
 11
-125.415039
 21
37.407703
  0
LINE
  8
0
 10
-124.165039
 20
38.127697
 11
-122.915039
 21
37.407692
  0
LINE
  8
0
 10
-122.915039
 20
37.407696
 11
-122.915039
 21
35.957699
  0
LINE
  8
0
 10
-122.915039
 20
35.957699
 11
-124.165039
 21
35.237698
  0
LINE
  8
0
 10
-124.165039
 20
35.237694
 11
-125.415039
 21
35.957699
  0
LINE
  8
0
 10
-125.415039
 20
37.407696
 11
-125.415039
 21
35.957699
  0
LINE
  8
0
 10
-124.165039
 20
-3.872298
 11
-122.915031
 21
-4.582298
  0
LINE
  8
0
 10
-122.915039
 20
-4.582303
 11
-122.915039
 21
-6.032302
  0
LINE
  8
0
 10
-122.915047
 20
-6.032301
 11
-124.165039
 21
-6.752299
  0
LINE
  8
0
 10
-124.165039
 20
-6.752306
 11
-125.415047
 21
-6.032304
  0
LINE
  8
0
 10
-125.415039
 20
-4.582303
 11
-125.415039
 21
-6.032302
  0
LINE
  8
0
 10
-124.165039
 20
-3.872303
 11
-125.415039
 21
-4.582304
  0
LINE
  8
0
  6
CENTER
 62
     2
 10
-134.515045
 20
-8.312303
 11
-128.165039
 21
-8.312303
  0
LINE
  8
0
  6
CENTER
 62
     2
 10
-117.165039
 20
-5.112302
 11
-117.165039
 21
-11.192302
  0
LINE
  8
0
  6
CENTER
 62
     2
 10
-131.165039
 20
-5.322303
 11
-131.165039
 21
-11.192302
  0
LINE
  8
0
  6
CENTER
 62
     2
 10
-134.375046
 20
39.687698
 11
-127.745041
 21
39.687698
  0
LINE
  8
0
 10
-134.165039
 20
43.687698
 11
-114.165039
 21
43.687698
  0
LINE
  8
0
 10
-134.165039
 20
-12.312303
 11
-114.165039
 21
-12.312303
  0
LINE
  8
0
 10
-113.165039
 20
42.687698
 11
-113.165039
 21
-11.312303
  0
LINE
  8
0
 10
-135.165039
 20
42.687698
 11
-135.165039
 21
-11.312303
  0
LINE
  8
0
 10
-135.165039
 20
-11.312308
 11
-134.165039
 21
-12.312304
  0
LINE
  8
0
 10
-113.165047
 20
-11.312300
 11
-114.165047
 21
-12.312301
  0
LINE
  8
0
 10
-114.165039
 20
43.687698
 11
-113.165039
 21
42.687698
  0
LINE
  8
0
 10
-134.165039
 20
43.687698
 11
-135.165039
 21
42.687698
  0
LINE
  8
0
  6
CENTER
 62
     2
 10
-124.165039
 20
46.304306
 11
-124.165039
 21
-15.384364
  0
LINE
  8
0
  6
CENTER
 62
     2
 10
-140.114655
 20
15.687697
 11
-108.236740
 21
15.687697
  0
LINE
  8
0
 10
-111.165039
 20
-13.312304
 11
-110.205040
 21
-12.352305
  0
LINE
  8
0
 10
-110.165039
 20
-12.312303
 11
-110.165039
 21
-11.082303
  0
LINE
  8
0
 10
-110.165031
 20
-11.082299
 11
-110.665031
 21
-10.486553
  0
LINE
  8
0
 10
-110.665039
 20
-6.731452
 11
-110.165039
 21
-6.312300
  0
LINE
  8
0
 10
-110.165039
 20
-6.312303
 11
-110.165039
 21
9.187697
  0
LINE
  8
0
 10
-110.165039
 20
22.187698
 11
-110.165039
 21
32.037697
  0
LINE
  8
0
 10
-138.165039
 20
22.187698
 11
-138.165039
 21
31.537697
  0
LINE
  8
0
 10
-138.165039
 20
36.837696
 11
-138.165039
 21
43.687698
  0
LINE
  8
0
 10
-138.165039
 20
-0.162303
 11
-138.165039
 21
9.187697
  0
LINE
  8
0
 10
-110.165039
 20
36.337696
 11
-110.165039
 21
43.687698
  0
LINE
  8
0
 10
-111.165039
 20
44.687698
 11
-110.165039
 21
43.687698
  0
LINE
  8
0
 10
-138.165039
 20
43.687706
 11
-137.165039
 21
44.687698
  0
LINE
  8
0
 10
-137.165039
 20
-13.312303
 11
-138.165039
 21
-12.312302
  0
LINE
  8
0
 10
-138.165039
 20
-12.312303
 11
-138.165039
 21
-5.462302
  0
LINE
  8
0
 10
-111.165039
 20
-13.312303
 11
-137.165039
 21
-13.312303
  0
LINE
  8
0
 10
-111.165039
 20
44.687698
 11
-137.165039
 21
44.687698
  0
LINE
  8
0
  6
CENTER
 62
     2
 10
-22.165035
 20
2.267697
 11
-22.165035
 21
-5.067163
  0
LINE
  8
0
  6
DASHED
 62
     2
 10
-19.665035
 20
-11.482303
 11
-19.665035
 21
-12.812303
  0
LINE
  8
0
  6
DASHED
 62
     2
 10
-20.165035
 20
-11.482303
 11
-20.165035
 21
-12.812303
  0
LINE
  8
0
  6
DASHED
 62
     2
 10
-24.665035
 20
-11.482303
 11
-24.665035
 21
-12.812303
  0
LINE
  8
0
  6
DASHED
 62
     2
 10
-24.165035
 20
-11.482303
 11
-24.165035
 21
-12.812303
  0
LINE
  8
0
  6
CENTER
 62
     2
 10
-25.465034
 20
-1.312303
 11
-18.965034
 21
-1.312303
  0
LINE
  8
0
 10
-27.665037
 20
-12.812304
 11
-28.165037
 21
-12.312303
  0
LINE
  8
0
 10
-28.165035
 20
43.687698
 11
-27.665035
 21
44.187698
  0
LINE
  8
0
 10
-27.665035
 20
-12.812303
 11
-18.165035
 21
-12.812303
  0
LINE
  8
0
 10
-27.665035
 20
44.187698
 11
-18.165035
 21
44.187698
  0
LINE
  8
0
 10
-28.165035
 20
43.687698
 11
-28.165035
 21
-12.312303
  0
LINE
  8
0
  6
DASHED
 62
     2
 10
16.834965
 20
-2.312303
 11
21.334965
 21
-2.312303
  0
LINE
  8
0
 10
-31.165035
 20
-8.312303
 11
-28.165035
 21
-8.312303
  0
LINE
  8
0
 10
-31.165035
 20
-2.312303
 11
-28.165035
 21
-2.312303
  0
LINE
  8
0
 10
-31.165035
 20
33.687698
 11
-28.165035
 21
33.687698
  0
LINE
  8
0
 10
-31.165035
 20
39.687698
 11
-28.165035
 21
39.687698
  0
LINE
  8
0
  6
CENTER
 62
     2
 10
-9.165035
 20
-10.442302
 11
-9.165035
 21
-14.012303
  0
LINE
  8
0
 10
-18.165035
 20
35.837696
 11
16.834965
 21
35.837696
  0
LINE
  8
0
 10
-18.165035
 20
32.537697
 11
16.834965
 21
32.537697
  0
LINE
  8
0
  6
CENTER
 62
     2
 10
1.834965
 20
31.597698
 11
1.834965
 21
21.937698
  0
LINE
  8
0
  6
CENTER
 62
     2
 10
-3.375034
 20
26.687698
 11
6.734966
 21
26.687698
  0
LINE
  8
0
  6
CENTER
 62
     2
 10
-13.165035
 20
31.687698
 11
-13.165035
 21
21.847698
  0
LINE
  8
0
 10
16.834965
 20
44.187698
 11
16.834965
 21
-12.812303
  0
LINE
  8
0
  6
CENTER
 62
     2
 10
2.834965
 20
-10.442302
 11
2.834965
 21
-14.012303
  0
LINE
  8
0
 10
16.834965
 20
-12.812302
 11
16.334965
 21
-13.312302
  0
LINE
  8
0
 10
-18.165035
 20
-12.812303
 11
-17.665035
 21
-13.312303
  0
LINE
  8
0
  6
CENTER
 62
     2
 10
1.834965
 20
9.457697
 11
1.834965
 21
-0.522302
  0
LINE
  8
0
  6
CENTER
 62
     2
 10
7.134964
 20
4.687697
 11
-3.485035
 21
4.687697
  0
LINE
  8
0
  6
CENTER
 62
     2
 10
-13.165035
 20
9.467697
 11
-13.165035
 21
-0.382302
  0
LINE
  8
0
  6
CENTER
 62
     2
 10
-18.035036
 20
4.687697
 11
-8.425035
 21
4.687697
  0
LINE
  8
0
 10
-17.665035
 20
-13.312303
 11
16.334965
 21
-13.312303
  0
LINE
  8
0
 10
-18.165035
 20
9.937697
 11
16.834965
 21
9.937697
  0
LINE
  8
0
 10
-18.165035
 20
-12.312303
 11
16.834965
 21
-12.312303
  0
LINE
  8
0
 10
-18.165035
 20
-11.242303
 11
16.834965
 21
-11.242303
  0
LINE
  8
0
 10
-18.165035
 20
-8.502303
 11
16.834965
 21
-8.502303
  0
LINE
  8
0
 10
-18.165035
 20
-6.572303
 11
16.834965
 21
-6.572303
  0
LINE
  8
0
  6
CENTER
 62
     2
 10
7.474964
 20
-1.312303
 11
14.397900
 21
-1.312303
  0
LINE
  8
0
  6
CENTER
 62
     2
 10
-11.465034
 20
-1.312303
 11
-4.965034
 21
-1.312303
  0
LINE
  8
0
  6
CENTER
 62
     2
 10
10.834965
 20
2.137697
 11
10.834965
 21
-5.067163
  0
LINE
  8
0
  6
DASHED
 62
     2
 10
0.334965
 20
-11.482303
 11
0.334965
 21
-13.312303
  0
LINE
  8
0
  6
DASHED
 62
     2
 10
5.334965
 20
-11.482303
 11
5.334965
 21
-13.312303
  0
LINE
  8
0
  6
DASHED
 62
     2
 10
4.834965
 20
-11.482303
 11
4.834965
 21
-13.312303
  0
LINE
  8
0
  6
DASHED
 62
     2
 10
0.834965
 20
-11.482303
 11
0.834965
 21
-13.312303
  0
LINE
  8
0
  6
DASHED
 62
     2
 10
-11.665035
 20
-11.482303
 11
-11.665035
 21
-13.312303
  0
LINE
  8
0
  6
DASHED
 62
     2
 10
-6.665035
 20
-11.482303
 11
-6.665035
 21
-13.312303
  0
LINE
  8
0
  6
DASHED
 62
     2
 10
-7.165035
 20
-11.482303
 11
-7.165035
 21
-13.312303
  0
LINE
  8
0
  6
DASHED
 62
     2
 10
-11.165035
 20
-11.482303
 11
-11.165035
 21
-13.312303
  0
LINE
  8
0
  6
CENTER
 62
     2
 10
-8.165035
 20
2.267697
 11
-8.165035
 21
-5.067163
  0
LINE
  8
0
 10
-18.165035
 20
10.837698
 11
16.834965
 21
10.837698
  0
LINE
  8
0
 10
-18.165035
 20
14.037698
 11
16.834965
 21
14.037698
  0
LINE
  8
0
 10
-39.165035
 20
43.187698
 11
-38.665035
 21
43.687698
  0
LINE
  8
0
 10
-38.665035
 20
43.687698
 11
-31.665035
 21
43.687698
  0
LINE
  8
0
 10
-31.165033
 20
43.187698
 11
-31.665035
 21
43.687698
  0
LINE
  8
0
  6
DASHED
 62
     2
 10
21.334965
 20
39.687698
 11
21.334965
 21
33.687698
  0
LINE
  8
0
  6
DASHED
 62
     2
 10
21.834965
 20
34.187698
 11
21.334965
 21
33.687698
  0
LINE
  8
0
  6
DASHED
 62
     2
 10
21.334965
 20
39.687698
 11
21.834965
 21
39.187698
  0
LINE
  8
0
  6
DASHED
 62
     2
 10
16.834965
 20
39.687698
 11
21.334965
 21
39.687698
  0
LINE
  8
0
  6
DASHED
 62
     2
 10
16.834965
 20
33.687698
 11
21.334965
 21
33.687698
  0
LINE
  8
0
  6
DASHED
 62
     2
 10
21.834965
 20
39.187698
 11
21.834965
 21
34.187698
  0
LINE
  8
0
  6
DASHED
 62
     2
 10
21.334965
 20
-2.312303
 11
21.334965
 21
-8.312303
  0
LINE
  8
0
  6
DASHED
 62
     2
 10
21.834967
 20
-7.812303
 11
21.334965
 21
-8.312304
  0
LINE
  8
0
  6
DASHED
 62
     2
 10
21.334965
 20
-2.312301
 11
21.834967
 21
-2.812302
  0
LINE
  8
0
  6
DASHED
 62
     2
 10
16.834965
 20
-8.312303
 11
21.334965
 21
-8.312303
  0
LINE
  8
0
  6
DASHED
 62
     2
 10
21.834965
 20
-2.812303
 11
21.834965
 21
-7.812303
  0
LINE
  8
0
  6
CENTER
 62
     2
 10
-18.875034
 20
26.687698
 11
-7.805035
 21
26.687698
  0
LINE
  8
0
 10
-18.165035
 20
43.687698
 11
16.834965
 21
43.687698
  0
LINE
  8
0
 10
-31.165035
 20
17.337698
 11
-29.665035
 21
17.337698
  0
LINE
  8
0
 10
-18.165035
 20
21.437698
 11
16.834965
 21
21.437698
  0
LINE
  8
0
 10
-18.165035
 20
20.537697
 11
16.834965
 21
20.537697
  0
LINE
  8
0
 10
-18.165035
 20
17.337698
 11
16.834965
 21
17.337698
  0
LINE
  8
0
  6
CENTER
 62
     2
 10
-41.425034
 20
-5.312303
 11
-26.326666
 21
-5.312303
  0
LINE
  8
0
 10
-31.165035
 20
-11.812303
 11
-31.665035
 21
-12.312304
  0
LINE
  8
0
 10
-39.165035
 20
-11.812303
 11
-38.665035
 21
-12.312304
  0
LINE
  8
0
 62
     2
 10
-31.165035
 20
16.507700
 11
-29.665035
 21
14.027698
  0
LINE
  8
0
 62
     2
 10
-31.165035
 20
14.857697
 11
-29.665035
 21
17.337698
  0
LINE
  8
0
 10
-31.165035
 20
14.027698
 11
-29.665035
 21
14.027698
  0
LINE
  8
0
 10
-29.665035
 20
17.337698
 11
-29.665035
 21
14.027698
  0
LINE
  8
0
 10
16.334965
 20
44.687698
 11
16.834965
 21
44.187698
  0
LINE
  8
0
 10
-17.665035
 20
44.687698
 11
-18.165037
 21
44.187698
  0
LINE
  8
0
 10
-39.165035
 20
-11.812303
 11
-39.165035
 21
43.187698
  0
LINE
  8
0
 10
-31.165035
 20
-11.812303
 11
-31.165035
 21
43.187698
  0
LINE
  8
0
 10
-38.665035
 20
-12.312303
 11
-31.665035
 21
-12.312303
  0
LINE
  8
0
 10
-31.165035
 20
12.687697
 11
-28.165035
 21
12.687697
  0
LINE
  8
0
 10
-31.165035
 20
18.687698
 11
-28.165035
 21
18.687698
  0
LINE
  8
0
  6
CENTER
 62
     2
 10
-41.425034
 20
36.687698
 11
-26.177536
 21
36.687698
  0
LINE
  8
0
 10
-17.665035
 20
44.687698
 11
16.334965
 21
44.687698
  0
LINE
  8
0
 10
-18.165035
 20
44.187698
 11
-18.165035
 21
-12.812303
  0
LINE
  8
0
  6
CENTER
 62
     2
 10
-41.775036
 20
15.687697
 11
19.804966
 21
15.687697
  0
LINE
  8
0
  6
PHANTOM
 62
     3
 10
7.514000
 20
-3.847812
 11
7.514000
 21
56.216866
  0
LINE
  8
0
  6
PHANTOM
 62
     3
 10
-1.331631
 20
-3.847812
 11
7.514000
 21
-3.847812
  0
LINE
  8
0
  6
CENTER
 62
     2
 10
-22.165035
 20
-10.442302
 11
-22.165035
 21
-14.012303
  0
LINE
  8
0
  6
PHANTOM
 62
     3
 10
-1.331631
 20
-17.885765
 11
-1.331631
 21
-3.847812
  0
LINE
  8
0
  6
PHANTOM
 62
     3
 10
-3.976624
 20
-17.885765
 11
-3.976624
 21
61.557747
  0
LINE
  8
0
 10
-111.250000
 20
-123.500000
 11
-111.250000
 21
-92.500000
  0
LINE
  8
0
 10
-74.250000
 20
132.600006
 11
-74.250000
 21
117.599998
  0
LINE
  8
0
 10
-75.250000
 20
-123.500000
 11
-75.250000
 21
-92.500000
  0
LINE
  8
0
 10
-184.250000
 20
-92.500000
 11
-75.250000
 21
-92.500000
  0
LINE
  8
0
 10
-184.250000
 20
-97.500000
 11
-161.929993
 21
-97.500000
  0
LINE
  8
0
 10
-159.250000
 20
-107.499992
 11
-161.930008
 21
-97.500000
  0
LINE
  8
0
 10
-87.250000
 20
-123.500000
 11
-87.250000
 21
-92.500000
  0
LINE
  8
0
 10
-99.250000
 20
-123.500000
 11
-99.250000
 21
-92.500000
  0
LINE
  8
0
 10
-123.250000
 20
-123.500000
 11
-123.250000
 21
-92.500000
  0
LINE
  8
0
 10
-147.250000
 20
-123.500000
 11
-147.250000
 21
-92.500000
  0
LINE
  8
0
 10
-135.250000
 20
-123.500000
 11
-135.250000
 21
-92.500000
  0
LINE
  8
0
 10
-159.250000
 20
-123.500000
 11
-159.250000
 21
-92.500000
  0
LINE
  8
0
 10
-184.250000
 20
-107.500000
 11
-75.250000
 21
-107.500000
  0
LINE
  8
0
 10
-184.250000
 20
-115.500000
 11
-75.250000
 21
-115.500000
  0
LINE
  8
0
 10
-184.250000
 20
-123.500000
 11
-184.250000
 21
-92.500000
  0
LINE
  8
0
 10
-184.250000
 20
-123.500000
 11
-75.250000
 21
-123.500000
  0
LINE
  8
0
 10
-194.250000
 20
117.599998
 11
-74.250000
 21
117.599998
  0
LINE
  8
0
 10
109.800003
 20
117.599998
 11
194.800003
 21
117.599998
  0
LINE
  8
0
 10
109.800003
 20
132.600006
 11
109.800003
 21
117.599998
  0
LINE
  8
0
 10
109.800003
 20
-118.500000
 11
194.800003
 21
-118.500000
  0
LINE
  8
0
 10
109.800003
 20
-118.500000
 11
109.800003
 21
-133.500000
  0
LINE
  8
0
 10
-194.250000
 20
-133.500000
 11
194.800003
 21
-133.500000
  0
LINE
  8
0
 10
-194.250000
 20
132.600006
 11
-194.250000
 21
-133.500000
  0
LINE
  8
0
 10
194.800003
 20
132.600006
 11
194.800003
 21
-133.500000
  0
LINE
  8
0
 10
-194.250000
 20
132.600006
 11
194.800003
 21
132.600006
  0
CIRCLE
  8
0
 10
109.834961
 20
-9.812303
 40
1.621000
  0
CIRCLE
  8
0
 10
91.834961
 20
-9.812303
 40
1.621000
  0
CIRCLE
  8
0
 10
91.834961
 20
41.187698
 40
1.621000
  0
CIRCLE
  8
0
 10
109.834961
 20
41.187698
 40
1.621000
  0
CIRCLE
  8
0
 62
     2
 10
109.834961
 20
-9.812303
 40
2.000000
  0
CIRCLE
  8
0
 62
     2
 10
91.834961
 20
-9.812303
 40
2.000000
  0
CIRCLE
  8
0
 62
     2
 10
91.834961
 20
41.187698
 40
2.000000
  0
CIRCLE
  8
0
 62
     2
 10
109.834961
 20
41.187698
 40
2.000000
  0
CIRCLE
  8
0
 10
100.834961
 20
-5.312303
 40
3.000000
  0
CIRCLE
  8
0
 10
100.834961
 20
36.687698
 40
3.000000
  0
ARC
  8
0
 10
87.334984
 20
32.037678
 40
0.500019
 50
90.002625
 51
179.997818
  0
ARC
  8
0
 10
87.334976
 20
36.337711
 40
0.500015
 50
180.001312
 51
269.998260
  0
CIRCLE
  8
0
 10
92.334976
 20
-1.312301
 40
1.000000
  0
ARC
  8
0
 10
100.834961
 20
15.687697
 40
9.105084
 50
173.694550
 51
186.305450
  0
ARC
  8
0
 10
100.834961
 20
15.687697
 40
9.099277
 50
210.002625
 51
329.997375
  0
ARC
  8
0
 10
100.834946
 20
15.702698
 40
9.096819
 50
353.593750
 51
6.406254
  0
ARC
  8
0
 10
100.834961
 20
15.687697
 40
9.099277
 50
30.002626
 51
149.997391
  0
CIRCLE
  8
0
 10
100.834961
 20
15.687697
 40
7.450000
  0
CIRCLE
  8
0
 10
100.834961
 20
15.687697
 40
6.500000
  0
CIRCLE
  8
0
 10
100.834961
 20
15.687697
 40
6.000000
  0
ARC
  8
0
 10
91.434959
 20
12.587698
 40
2.100000
 50
270.000000
 51
90.000000
  0
ARC
  8
0
 10
89.134972
 20
14.487708
 40
0.300011
 50
180.001999
 51
269.998535
  0
ARC
  8
0
 10
89.134972
 20
16.887688
 40
0.300011
 50
90.001457
 51
179.997818
  0
ARC
  8
0
 10
89.134979
 20
20.687714
 40
0.300018
 50
180.003281
 51
269.997101
  0
ARC
  8
0
 10
91.434959
 20
18.787697
 40
2.100000
 50
270.000000
 51
90.000000
  0
ARC
  8
0
 10
87.334976
 20
9.187683
 40
0.500015
 50
90.001747
 51
179.998367
  0
ARC
  8
0
 10
87.334976
 20
22.187714
 40
0.500015
 50
180.001755
 51
269.998260
  0
ARC
  8
0
 10
89.134979
 20
10.687681
 40
0.300016
 50
90.002914
 51
179.996902
  0
ARC
  8
0
 10
110.234962
 20
12.587698
 40
2.100000
 50
90.000000
 51
270.000000
  0
ARC
  8
0
 10
112.534981
 20
14.487678
 40
0.299980
 50
269.995636
 51
0.003825
  0
ARC
  8
0
 10
112.534981
 20
16.887718
 40
0.299980
 50
359.996368
 51
90.004372
  0
ARC
  8
0
 10
112.534973
 20
20.687683
 40
0.299986
 50
269.997101
 51
0.002550
  0
ARC
  8
0
 10
110.234962
 20
18.787697
 40
2.100000
 50
90.000000
 51
270.000000
  0
ARC
  8
0
 10
112.534973
 20
10.687711
 40
0.299988
 50
359.997437
 51
90.002914
  0
ARC
  8
0
 10
114.334976
 20
9.187712
 40
0.499985
 50
359.998352
 51
90.001747
  0
ARC
  8
0
 10
114.334976
 20
22.187683
 40
0.499985
 50
269.998260
 51
0.001749
  0
ARC
  8
0
 10
114.334976
 20
-5.462285
 40
0.499985
 50
359.998047
 51
90.001747
  0
ARC
  8
0
 10
114.334976
 20
-0.162322
 40
0.499981
 50
269.997375
 51
0.002208
  0
ARC
  8
0
 10
114.334976
 20
31.537716
 40
0.499985
 50
359.997803
 51
90.001747
  0
ARC
  8
0
 10
114.334976
 20
36.837681
 40
0.499981
 50
269.998260
 51
0.002186
  0
CIRCLE
  8
0
 10
100.834991
 20
36.687698
 40
5.000000
  0
CIRCLE
  8
0
 10
100.834991
 20
-5.312303
 40
5.000000
  0
CIRCLE
  8
0
 10
-131.165039
 20
-8.312303
 40
1.621000
  0
CIRCLE
  8
0
 10
-117.165039
 20
-8.312303
 40
1.621000
  0
CIRCLE
  8
0
 10
-131.165039
 20
39.687698
 40
1.621000
  0
CIRCLE
  8
0
 10
-117.165039
 20
39.687698
 40
1.621000
  0
ARC
  8
0
 10
-133.665039
 20
-8.812303
 40
3.250000
 50
117.486427
 51
254.508270
  0
ARC
  8
0
 10
-114.665039
 20
40.187698
 40
3.250000
 50
297.486420
 51
74.508141
  0
ARC
  8
0
 10
-110.665054
 20
36.337711
 40
0.500011
 50
270.001740
 51
359.998688
  0
ARC
  8
0
 10
-110.665062
 20
32.037678
 40
0.500023
 50
0.002186
 51
89.997375
  0
CIRCLE
  8
0
 62
     2
 10
-131.165039
 20
39.687698
 40
2.000000
  0
CIRCLE
  8
0
 10
-124.165039
 20
15.687697
 40
2.349999
  0
CIRCLE
  8
0
 10
-124.165039
 20
15.687697
 40
3.799999
  0
CIRCLE
  8
0
 10
-124.165039
 20
36.687698
 40
2.349999
  0
CIRCLE
  8
0
 10
-124.165039
 20
36.687698
 40
3.799999
  0
CIRCLE
  8
0
 10
-124.165039
 20
-5.312303
 40
2.349999
  0
CIRCLE
  8
0
 10
-124.165039
 20
-5.312303
 40
3.799999
  0
CIRCLE
  8
0
 62
     2
 10
-131.165039
 20
-8.312303
 40
2.000000
  0
CIRCLE
  8
0
 62
     2
 10
-117.165039
 20
-8.312303
 40
2.000000
  0
CIRCLE
  8
0
 62
     2
 10
-117.165039
 20
39.687698
 40
2.000000
  0
CIRCLE
  8
0
 10
-124.165039
 20
-5.312303
 40
4.000000
  0
CIRCLE
  8
0
 10
-124.165039
 20
15.687697
 40
4.000000
  0
CIRCLE
  8
0
 10
-124.165039
 20
36.687698
 40
4.000000
  0
ARC
  8
0
 10
-110.665054
 20
9.187682
 40
0.500015
 50
0.001748
 51
89.998253
  0
ARC
  8
0
 10
-110.665054
 20
22.187714
 40
0.500015
 50
270.001740
 51
359.998260
  0
ARC
  8
0
 10
-137.665054
 20
9.187713
 40
0.499985
 50
89.998253
 51
180.001755
  0
ARC
  8
0
 10
-137.665054
 20
22.187683
 40
0.499985
 50
179.998245
 51
270.001740
  0
ARC
  8
0
 10
-137.665054
 20
-5.462285
 40
0.499982
 50
89.998253
 51
180.002075
  0
ARC
  8
0
 10
-137.665054
 20
-0.162321
 40
0.499985
 50
179.997894
 51
270.001740
  0
ARC
  8
0
 10
-137.665054
 20
31.537716
 40
0.499981
 50
89.998253
 51
180.002182
  0
ARC
  8
0
 10
-137.665054
 20
36.837681
 40
0.499985
 50
179.997818
 51
270.001740
  0
CIRCLE
  8
0
 10
-22.165035
 20
-1.312303
 40
2.067000
  0
CIRCLE
  8
0
 10
10.834965
 20
-1.312303
 40
2.067000
  0
CIRCLE
  8
0
 10
-8.165035
 20
-1.312303
 40
2.067000
  0
CIRCLE
  8
0
 62
     2
 10
-22.165035
 20
-1.312303
 40
2.500000
  0
CIRCLE
  8
0
  6
DASHED
 62
     2
 10
1.834965
 20
4.687697
 40
2.500000
  0
CIRCLE
  8
0
  6
DASHED
 62
     2
 10
-13.165035
 20
4.687697
 40
2.500000
  0
CIRCLE
  8
0
 10
-13.165035
 20
4.687697
 40
2.099999
  0
CIRCLE
  8
0
 10
1.834965
 20
4.687697
 40
2.099999
  0
CIRCLE
  8
0
 10
1.834965
 20
4.687697
 40
4.000000
  0
CIRCLE
  8
0
 10
-13.165035
 20
4.687697
 40
4.000000
  0
CIRCLE
  8
0
 62
     2
 10
10.834965
 20
-1.312303
 40
2.500000
  0
CIRCLE
  8
0
 62
     2
 10
-8.165035
 20
-1.312303
 40
2.500000
  0
CIRCLE
  8
0
 10
1.834965
 20
26.687698
 40
4.000000
  0
CIRCLE
  8
0
 10
-13.165035
 20
26.687698
 40
4.000000
  0
ARC
  8
0
 10
-32.165039
 20
15.682697
 40
2.998173
 50
326.495483
 51
33.504528
  0
CIRCLE
  8
0
 10
1.834965
 20
26.687698
 40
2.099999
  0
CIRCLE
  8
0
  6
DASHED
 62
     2
 10
1.834965
 20
26.687698
 40
2.500000
  0
CIRCLE
  8
0
 10
-13.165035
 20
26.687698
 40
2.099999
  0
CIRCLE
  8
0
  6
DASHED
 62
     2
 10
-13.165035
 20
26.687698
 40
2.500000
  0
ARC
  8
0
 10
-7.582669
 20
-7.541993
 40
0.417634
 50
344.498413
 51
15.501581
  0
ARC
  8
0
 10
-7.737243
 20
-7.604330
 40
0.583547
 50
17.343527
 51
54.574116
  0
ARC
  8
0
 10
-8.165035
 20
-8.291872
 40
1.392667
 50
56.629154
 51
123.370850
  0
ARC
  8
0
 10
-8.592827
 20
-7.604330
 40
0.583547
 50
125.425919
 51
162.656494
  0
ARC
  8
0
 10
-8.747401
 20
-7.541993
 40
0.417634
 50
164.498413
 51
195.501587
  0
ARC
  8
0
 10
-8.592827
 20
-7.479657
 40
0.583548
 50
197.343506
 51
234.574081
  0
ARC
  8
0
 10
-8.165035
 20
-6.792114
 40
1.392667
 50
236.629166
 51
303.370850
  0
ARC
  8
0
 10
-7.737243
 20
-7.479657
 40
0.583547
 50
305.425873
 51
342.656464
  0
ARC
  8
0
 10
11.417331
 20
-7.541993
 40
0.417634
 50
344.498413
 51
15.501581
  0
ARC
  8
0
 10
11.262756
 20
-7.604330
 40
0.583548
 50
17.343512
 51
54.574078
  0
ARC
  8
0
 10
10.834965
 20
-8.291872
 40
1.392667
 50
56.629154
 51
123.370850
  0
ARC
  8
0
 10
10.407173
 20
-7.604330
 40
0.583547
 50
125.425919
 51
162.656494
  0
ARC
  8
0
 10
10.252599
 20
-7.541993
 40
0.417634
 50
164.498413
 51
195.501587
  0
ARC
  8
0
 10
10.407173
 20
-7.479657
 40
0.583548
 50
197.343506
 51
234.574081
  0
ARC
  8
0
 10
10.834965
 20
-6.792114
 40
1.392667
 50
236.629166
 51
303.370850
  0
ARC
  8
0
 10
11.262756
 20
-7.479657
 40
0.583547
 50
305.425934
 51
342.656494
  0
TEXT
  8
0
 10
-119.057144
 20
-121.379997
 40
3.200000
  1
0
 50
0.000000
 41
1.052632
 51
0.000000
  7
STANDARD
  0
TEXT
  8
0
 10
-120.657143
 20
-113.379997
 40
3.200000
  1
30
 50
0.000000
 41
1.052632
 51
0.000000
  7
STANDARD
  0
TEXT
  8
0
 10
-120.657158
 20
-101.879997
 40
3.200000
  1
40
 50
0.000000
 41
1.052632
 51
0.000000
  7
STANDARD
  0
TEXT
  8
0
 62
     3
 10
-25.265656
 20
63.169857
 40
3.200000
  1
STRETCH LINE A
 50
0.000000
 41
1.052632
 51
0.000000
  7
STANDARD
  0
TEXT
  8
0
 10
-186.892654
 20
104.550003
 40
4.500000
  1
MODEL:CS-SGDAQ12*ST(10)
 50
0.000000
 41
1.052632
 51
0.000000
  7
STANDARD
  0
TEXT
  8
0
 10
-173.557007
 20
-121.379997
 40
3.200000
  1
B
 50
0.000000
 41
1.052632
 51
0.000000
  7
STANDARD
  0
TEXT
  8
0
 10
-84.657143
 20
-113.379997
 40
3.200000
  1
50
 50
0.000000
 41
1.052632
 51
0.000000
  7
STANDARD
  0
TEXT
  8
0
 10
-96.657143
 20
-113.379997
 40
3.200000
  1
25
 50
0.000000
 41
1.052632
 51
0.000000
  7
STANDARD
  0
TEXT
  8
0
 10
-84.657143
 20
-121.379997
 40
3.200000
  1
40
 50
0.000000
 41
1.052632
 51
0.000000
  7
STANDARD
  0
TEXT
  8
0
 10
-96.657143
 20
-121.379997
 40
3.200000
  1
40
 50
0.000000
 41
1.052632
 51
0.000000
  7
STANDARD
  0
TEXT
  8
0
 10
-108.657143
 20
-113.379997
 40
3.200000
  1
40
 50
0.000000
 41
1.052632
 51
0.000000
  7
STANDARD
  0
TEXT
  8
0
 10
-107.057144
 20
-121.379997
 40
3.200000
  1
0
 50
0.000000
 41
1.052632
 51
0.000000
  7
STANDARD
  0
TEXT
  8
0
 10
-132.657135
 20
-113.379997
 40
3.200000
  1
20
 50
0.000000
 41
1.052632
 51
0.000000
  7
STANDARD
  0
TEXT
  8
0
 10
-131.057144
 20
-121.379997
 40
3.200000
  1
0
 50
0.000000
 41
1.052632
 51
0.000000
  7
STANDARD
  0
TEXT
  8
0
 10
-143.057144
 20
-121.379997
 40
3.200000
  1
0
 50
0.000000
 41
1.052632
 51
0.000000
  7
STANDARD
  0
TEXT
  8
0
 10
-144.657135
 20
-113.379997
 40
3.200000
  1
10
 50
0.000000
 41
1.052632
 51
0.000000
  7
STANDARD
  0
TEXT
  8
0
 10
-149.157135
 20
-91.379997
 40
3.200000
  1
STRETCH LIST
 50
0.000000
 41
1.052632
 51
0.000000
  7
STANDARD
  0
TEXT
  8
0
 10
-87.857140
 20
-91.379997
 40
3.200000
  1
üiüvÝúÝ)
 50
0.000000
 41
0.833333
 51
0.000000
  7
STANDARD
  0
TEXT
  8
0
 10
-86.257156
 20
-101.879997
 40
3.200000
  1
100
 50
0.000000
 41
1.052632
 51
0.000000
  7
STANDARD
  0
TEXT
  8
0
 10
-96.657158
 20
-101.879997
 40
3.200000
  1
75
 50
0.000000
 41
1.052632
 51
0.000000
  7
STANDARD
  0
TEXT
  8
0
 10
-108.657158
 20
-101.879997
 40
3.200000
  1
50
 50
0.000000
 41
1.052632
 51
0.000000
  7
STANDARD
  0
TEXT
  8
0
 10
-132.657150
 20
-101.879997
 40
3.200000
  1
30
 50
0.000000
 41
1.052632
 51
0.000000
  7
STANDARD
  0
TEXT
  8
0
 10
-144.657150
 20
-101.879997
 40
3.200000
  1
20
 50
0.000000
 41
1.052632
 51
0.000000
  7
STANDARD
  0
TEXT
  8
0
 10
-155.057144
 20
-113.379997
 40
3.200000
  1
0
 50
0.000000
 41
1.052632
 51
0.000000
  7
STANDARD
  0
TEXT
  8
0
 10
-156.657150
 20
-101.879997
 40
3.200000
  1
10
 50
0.000000
 41
1.052632
 51
0.000000
  7
STANDARD
  0
TEXT
  8
0
 10
-155.057144
 20
-121.379997
 40
3.200000
  1
0
 50
0.000000
 41
1.052632
 51
0.000000
  7
STANDARD
  0
TEXT
  8
0
 10
-184.496872
 20
-101.019997
 40
3.200000
  1
STRETCH
 50
0.000000
 41
1.052632
 51
0.000000
  7
STANDARD
  0
TEXT
  8
0
 10
-184.496872
 20
-105.820000
 40
3.200000
  1
  PLACE
 50
0.000000
 41
1.052632
 51
0.000000
  7
STANDARD
  0
TEXT
  8
0
 10
-173.557144
 20
-113.379997
 40
3.200000
  1
A
 50
0.000000
 41
1.052632
 51
0.000000
  7
STANDARD
  0
TEXT
  8
0
 10
-181.557144
 20
-96.879997
 40
3.200000
  1
STROKE
 50
0.000000
 41
1.052632
 51
0.000000
  7
STANDARD
  0
TEXT
  8
0
 62
     3
 10
-0.410164
 20
57.212723
 40
3.200000
  1
STRETCH LINE B
 50
0.000000
 41
1.052632
 51
0.000000
  7
STANDARD
  0
TEXT
  8
0
 10
-193.142654
 20
122.049995
 40
4.500000
  1
CS JIG CYLINDER WITH GUIDE
 50
0.000000
 41
1.052632
 51
0.000000
  7
STANDARD
  0
TEXT
  8
0
 10
113.700287
 20
-130.669998
 40
6.300000
  1
KOGANEI CORP.
 50
0.000000
 41
1.052632
 51
0.000000
  7
STANDARD
  0
TEXT
  8
0
 10
133.907150
 20
122.050003
 40
4.500000
  1
éuéàéÆüDü@éPüDéO
 50
0.000000
 41
0.833333
 51
0.000000
  7
STANDARD
  0
TEXT
  8
0
 62
     2
 10
24.065706
 20
-22.309990
 40
3.200000
  1
ST=75,100
 50
0.000000
 41
1.052632
 51
0.000000
  7
STANDARD
  0
LINE
  8
0
 62
     2
 10
21.834963
 20
-23.309990
 11
52.615707
 21
-23.309990
  0
LINE
  8
0
 62
     2
 10
21.834963
 20
-23.309990
 11
16.834963
 21
-23.309990
  0
LINE
  8
0
 62
     2
 10
21.834963
 20
-23.309990
 11
24.732740
 21
-22.533533
  0
LINE
  8
0
 62
     2
 10
21.834963
 20
-23.309990
 11
24.732740
 21
-24.086447
  0
LINE
  8
0
 62
     2
 10
21.834963
 20
-23.309990
 11
27.834963
 21
-23.309990
  0
LINE
  8
0
 62
     2
 10
16.834963
 20
-23.309990
 11
13.937185
 21
-24.086447
  0
LINE
  8
0
 62
     2
 10
16.834963
 20
-23.309990
 11
13.937185
 21
-22.533533
  0
LINE
  8
0
 62
     2
 10
16.834963
 20
-23.309990
 11
10.834963
 21
-23.309990
  0
LINE
  8
0
 62
     2
 10
21.834963
 20
-7.812303
 11
21.834963
 21
-24.809990
  0
LINE
  8
0
 62
     2
 10
16.834963
 20
-12.812303
 11
16.834963
 21
-24.809990
  0
ENDSEC
  0
EOF
